0
SECTION
2
HEADER
9
$MEASUREMENT
70
1
0
ENDSEC
0
SECTION
2
TABLES
0
TABLE
2
LTYPE
0
LTYPE
72
65
70
64
2
CONTINUOUS
3
______
73
0
40
0
0
ENDTAB
0
TABLE
2
LAYER
0
LAYER
2
DEFAULT_255_2_778
70
0
62
255
6
CONTINUOUS
0
LAYER
2
DEFAULT_255_1_388
70
0
62
255
6
CONTINUOUS
0
ENDTAB
0
ENDSEC
0
SECTION
2
ENTITIES
0
ARC
8
DEFAULT_255_2_778
10
3.5700693
20
147.242652
40
0.7914215
50
129.1312896
51
180.1450914
0
ARC
8
DEFAULT_255_2_778
10
3.5703345
20
147.2431391
40
0.7912112
50
89.854026
51
129.1684493
0
ARC
8
DEFAULT_255_2_778
10
25.7993937
20
147.2428257
40
0.7915249
50
39.4792447
51
90.147911
0
ARC
8
DEFAULT_255_2_778
10
25.7999935
20
147.2426723
40
0.7911595
50
359.8533901
51
39.5154338
0
ARC
8
DEFAULT_255_2_778
10
25.7996693
20
-1.9864002
40
0.7914836
50
309.4761667
51
0.1482649
0
ARC
8
DEFAULT_255_2_778
10
25.799398
20
-1.9868313
40
0.7913235
50
269.8517415
51
309.511178
0
ARC
8
DEFAULT_255_2_778
10
3.570342
20
-1.9867731
40
0.7913815
50
219.1282118
51
270.1454017
0
ARC
8
DEFAULT_255_2_778
10
3.5700247
20
-1.9863907
40
0.7913769
50
179.8524075
51
219.1641908
0
LINE
8
DEFAULT_255_2_778
10
3.5723503
20
148.0343479
11
25.7973503
21
148.0343479
0
LINE
8
DEFAULT_255_2_778
10
26.5911503
20
147.2406479
11
26.5911503
21
-1.9843521
0
LINE
8
DEFAULT_255_2_778
10
25.7973503
20
-2.7781521
11
3.5723503
21
-2.7781521
0
LINE
8
DEFAULT_255_2_778
10
2.7786503
20
-1.9843521
11
2.7786503
21
147.2406479
0
LINE
8
DEFAULT_255_1_388
10
10.2358985
20
0.6821148
11
10.2358985
21
-0.6398
0
LINE
8
DEFAULT_255_1_388
10
10.2358985
20
-0.6398
11
10.0678355
21
-0.6398
0
LINE
8
DEFAULT_255_1_388
10
10.0678355
20
-0.6398
11
10.0678355
21
0.474295
0
LINE
8
DEFAULT_255_1_388
10
10.0678355
20
0.474295
11
9.730806
21
0.3505066
0
LINE
8
DEFAULT_255_1_388
10
9.730806
20
0.3505066
11
9.730806
21
0.5023055
0
LINE
8
DEFAULT_255_1_388
10
9.730806
20
0.5023055
11
10.2096951
21
0.6821148
0
LINE
8
DEFAULT_255_1_388
10
10.2096951
20
0.6821148
11
10.2358985
21
0.6821148
0
LINE
8
DEFAULT_255_1_388
10
11.574981
20
0.6757898
11
11.574981
21
0.5818191
0
LINE
8
DEFAULT_255_1_388
10
11.574981
20
0.5818191
11
11.0301316
21
-0.6398
0
LINE
8
DEFAULT_255_1_388
10
11.0301316
20
-0.6398
11
10.8548401
21
-0.6398
0
LINE
8
DEFAULT_255_1_388
10
10.8548401
20
-0.6398
11
11.3978824
21
0.538448
0
LINE
8
DEFAULT_255_1_388
10
11.3978824
20
0.538448
11
10.6858736
21
0.538448
0
LINE
8
DEFAULT_255_1_388
10
10.6858736
20
0.538448
11
10.6858736
21
0.6757898
0
LINE
8
DEFAULT_255_1_388
10
10.6858736
20
0.6757898
11
11.574981
21
0.6757898
0
LINE
8
DEFAULT_255_1_388
10
12.3908997
20
0.6766934
11
12.4207173
21
0.6766934
0
LINE
8
DEFAULT_255_1_388
10
12.4207173
20
0.6766934
11
12.4207173
21
0.5348338
0
LINE
8
DEFAULT_255_1_388
10
12.4207173
20
0.5348338
11
12.3899961
21
0.5348338
0
LINE
8
DEFAULT_255_1_388
10
11.7746687
20
-0.1392253
11
11.7746687
21
-0.0750722
0
LINE
8
DEFAULT_255_1_388
10
11.9427317
20
-0.0967578
11
11.9427317
21
-0.1582001
0
ARC
8
DEFAULT_255_1_388
10
12.3958853
20
-0.0274174
40
0.562282
50
90.6001079
51
104.5146616
0
ARC
8
DEFAULT_255_1_388
10
12.3521812
20
0.13511
40
0.3939917
50
104.2855758
51
133.8630124
0
ARC
8
DEFAULT_255_1_388
10
12.3706065
20
0.1229243
40
0.4155734
50
134.5304124
51
161.6210222
0
ARC
8
DEFAULT_255_1_388
10
12.5565997
20
0.0573421
40
0.6127682
50
161.2850533
51
174.2074364
0
ARC
8
DEFAULT_255_1_388
10
12.7155564
20
0.0354437
40
0.7731446
50
173.7817938
51
174.9251711
0
ARC
8
DEFAULT_255_1_388
10
12.2029758
20
-0.120073
40
0.3412588
50
95.8332067
51
138.995412
0
ARC
8
DEFAULT_255_1_388
10
12.2281038
20
-0.2639305
40
0.4870358
50
89.8755506
51
97.0540979
0
ARC
8
DEFAULT_255_1_388
10
12.2334427
20
-0.1699159
40
0.3930432
50
71.6407016
51
90.6240821
0
ARC
8
DEFAULT_255_1_388
10
12.2503821
20
-0.1075567
40
0.3285421
50
39.6368051
51
71.0190743
0
ARC
8
DEFAULT_255_1_388
10
12.1787728
20
-0.1694414
40
0.4231706
50
10.6588054
51
39.9044509
0
ARC
8
DEFAULT_255_1_388
10
12.0046274
20
-0.2072777
40
0.60133
50
359.6827842
51
11.1326896
0
ARC
8
DEFAULT_255_1_388
10
12.000161
20
-0.2152285
40
0.6058047
50
347.2485908
51
0.4371098
0
ARC
8
DEFAULT_255_1_388
10
12.1877395
20
-0.2603621
40
0.4128987
50
318.1408565
51
347.6118497
0
ARC
8
DEFAULT_255_1_388
10
12.2242992
20
-0.2904097
40
0.3656244
50
275.6342406
51
317.824739
0
ARC
8
DEFAULT_255_1_388
10
12.1994513
20
-0.1442173
40
0.513655
50
269.8872513
51
276.7916069
0
ARC
8
DEFAULT_255_1_388
10
12.1932705
20
-0.2595819
40
0.398323
50
246.9139443
51
270.7436787
0
ARC
8
DEFAULT_255_1_388
10
12.1939901
20
-0.2755956
40
0.3839368
50
218.1665534
51
245.8780431
0
ARC
8
DEFAULT_255_1_388
10
12.2929273
20
-0.1928097
40
0.5128958
50
191.4115343
51
218.6077624
0
ARC
8
DEFAULT_255_1_388
10
12.510959
20
-0.1439223
40
0.7363054
50
179.6344971
51
191.7836758
0
ARC
8
DEFAULT_255_1_388
10
13.1389464
20
-0.0675505
40
1.3642984
50
171.4523743
51
180.3158856
0
ARC
8
DEFAULT_255_1_388
10
12.6445191
20
0.0093895
40
0.8639311
50
157.9802296
51
171.6246761
0
ARC
8
DEFAULT_255_1_388
10
12.3954542
20
0.1087038
40
0.5958004
50
141.4299236
51
157.8541251
0
ARC
8
DEFAULT_255_1_388
10
12.3232625
20
0.1597746
40
0.5075416
50
102.871586
51
140.8564533
0
ARC
8
DEFAULT_255_1_388
10
12.3961178
20
-0.1147057
40
0.7914163
50
90.377773
51
103.5868422
0
ARC
8
DEFAULT_255_1_388
10
12.2005699
20
-0.1827457
40
0.2667015
50
89.8751238
51
126.2072139
0
ARC
8
DEFAULT_255_1_388
10
12.205717
20
-0.2001153
40
0.2838229
50
124.9742447
51
144.8960197
0
ARC
8
DEFAULT_255_1_388
10
12.1859415
20
-0.1840019
40
0.2583845
50
145.2974778
51
160.2660922
0
ARC
8
DEFAULT_255_1_388
10
12.5315903
20
-0.1617849
40
0.5888695
50
179.6512124
51
190.285571
0
ARC
8
DEFAULT_255_1_388
10
12.3410383
20
-0.1977032
40
0.3949683
50
190.0944895
51
207.5099647
0
ARC
8
DEFAULT_255_1_388
10
12.2773965
20
-0.2279823
40
0.3245464
50
207.9585471
51
216.325377
0
ARC
8
DEFAULT_255_1_388
10
12.2391602
20
-0.2594288
40
0.2751259
50
215.7661336
51
232.5457193
0
ARC
8
DEFAULT_255_1_388
10
12.1960718
20
-0.3141727
40
0.2054668
50
232.8005815
51
270.6605497
0
ARC
8
DEFAULT_255_1_388
10
12.2012142
20
-0.2732147
40
0.2464268
50
269.3550767
51
288.474612
0
ARC
8
DEFAULT_255_1_388
10
12.2116649
20
-0.3125279
40
0.2058436
50
289.1831976
51
322.9685307
0
ARC
8
DEFAULT_255_1_388
10
12.1428751
20
-0.2582721
40
0.2934408
50
322.6007085
51
346.5183319
0
ARC
8
DEFAULT_255_1_388
10
12.0126507
20
-0.2250566
40
0.4278249
50
346.2584622
51
358.7739592
0
ARC
8
DEFAULT_255_1_388
10
11.8975082
20
-0.2188171
40
0.5430876
50
358.3757628
51
0.0082477
0
ARC
8
DEFAULT_255_1_388
10
11.98319
20
-0.2157144
40
0.4574157
50
359.6211417
51
11.28403
0
ARC
8
DEFAULT_255_1_388
10
12.1268507
20
-0.1857465
40
0.3106708
50
11.0483152
51
31.8145585
0
ARC
8
DEFAULT_255_1_388
10
12.1616212
20
-0.1668955
40
0.2711963
50
32.3028554
51
38.0820598
0
ARC
8
DEFAULT_255_1_388
10
12.2089445
20
-0.1240283
40
0.2075566
50
36.8249851
51
85.741667
0
ARC
8
DEFAULT_255_1_388
10
12.2013857
20
-0.1803935
40
0.2643487
50
85.0150021
51
90.050843
0
LINE
8
DEFAULT_255_1_388
10
13.6125188
20
0.1499153
11
13.6125188
21
0.1011229
0
LINE
8
DEFAULT_255_1_388
10
13.0026128
20
-0.6407036
11
12.9700845
21
-0.6407036
0
LINE
8
DEFAULT_255_1_388
10
12.9700845
20
-0.6407036
11
12.9700845
21
-0.4997475
0
LINE
8
DEFAULT_255_1_388
10
12.9700845
20
-0.4997475
11
13.0053235
21
-0.4997475
0
LINE
8
DEFAULT_255_1_388
10
13.4453594
20
0.117387
11
13.4453594
21
0.1842508
0
ARC
8
DEFAULT_255_1_388
10
13.1310686
20
0.2012877
40
0.4089973
50
297.4036461
51
320.0168133
0
ARC
8
DEFAULT_255_1_388
10
13.1636866
20
0.1386072
40
0.3383378
50
270.2631886
51
297.3852322
0
ARC
8
DEFAULT_255_1_388
10
13.1598542
20
0.1923343
40
0.3920983
50
269.9969069
51
270.7871389
0
ARC
8
DEFAULT_255_1_388
10
13.1569866
20
0.1905737
40
0.3903482
50
254.5997295
51
270.4178147
0
ARC
8
DEFAULT_255_1_388
10
13.1409397
20
0.1270693
40
0.3248657
50
236.4717231
51
254.3539376
0
ARC
8
DEFAULT_255_1_388
10
13.1585129
20
0.1506999
40
0.3542746
50
208.4727261
51
236.2134628
0
ARC
8
DEFAULT_255_1_388
10
13.2303892
20
0.1946676
40
0.4384402
50
204.3450776
51
209.0455365
0
ARC
8
DEFAULT_255_1_388
10
13.3068268
20
0.22708
40
0.5214459
50
183.9375459
51
204.1275509
0
ARC
8
DEFAULT_255_1_388
10
13.4090574
20
0.2380863
40
0.6242037
50
179.9652726
51
184.3010611
0
ARC
8
DEFAULT_255_1_388
10
13.382012
20
0.2418004
40
0.5971675
50
166.7585952
51
180.3200491
0
ARC
8
DEFAULT_255_1_388
10
13.2867928
20
0.2624979
40
0.4997418
50
154.6954866
51
166.5679151
0
ARC
8
DEFAULT_255_1_388
10
13.1908168
20
0.3108411
40
0.3923208
50
136.3325251
51
155.0871367
0
ARC
8
DEFAULT_255_1_388
10
13.1592087
20
0.3379271
40
0.3507618
50
121.2365985
51
135.9680081
0
ARC
8
DEFAULT_255_1_388
10
13.1750152
20
0.3086541
40
0.3839917
50
96.8454764
51
120.9881329
0
ARC
8
DEFAULT_255_1_388
10
13.1913958
20
0.2033942
40
0.4904679
50
89.887204
51
97.2797758
0
ARC
8
DEFAULT_255_1_388
10
13.1972931
20
0.2751652
40
0.418725
50
70.6505767
51
90.6748382
0
ARC
8
DEFAULT_255_1_388
10
13.2120628
20
0.3329091
40
0.3593866
50
36.7493297
51
69.8220487
0
ARC
8
DEFAULT_255_1_388
10
13.0996975
20
0.2453446
40
0.5018201
50
15.3958155
51
37.0841102
0
ARC
8
DEFAULT_255_1_388
10
12.860126
20
0.1755111
40
0.7513436
50
3.9487796
51
15.6798517
0
ARC
8
DEFAULT_255_1_388
10
12.5899902
20
0.151181
40
1.0225293
50
359.9290791
51
4.266464
0
ARC
8
DEFAULT_255_1_388
10
12.0718819
20
0.0936372
40
1.5406551
50
352.8365702
51
0.2783851
0
ARC
8
DEFAULT_255_1_388
10
12.666705
20
0.0163664
40
0.9408425
50
341.8359339
51
352.9884057
0
ARC
8
DEFAULT_255_1_388
10
13.0288037
20
-0.1056856
40
0.5587481
50
322.8579243
51
342.1527461
0
ARC
8
DEFAULT_255_1_388
10
13.1259729
20
-0.171965
40
0.4413099
50
319.3348471
51
322.100194
0
ARC
8
DEFAULT_255_1_388
10
13.091166
20
-0.1370186
40
0.4904992
50
285.954114
51
318.8878716
0
ARC
8
DEFAULT_255_1_388
10
13.0094098
20
0.1228865
40
0.7628991
50
272.9280841
51
286.4924389
0
ARC
8
DEFAULT_255_1_388
10
12.9880402
20
0.376324
40
1.017132
50
270.8209173
51
273.4010121
0
ARC
8
DEFAULT_255_1_388
10
12.9980425
20
0.1715073
40
0.6712943
50
270.6214576
51
281.4062333
0
ARC
8
DEFAULT_255_1_388
10
13.0464149
20
-0.059775
40
0.4350167
50
281.1852583
51
299.0622058
0
ARC
8
DEFAULT_255_1_388
10
13.0884394
20
-0.1408862
40
0.3437146
50
299.5068171
51
313.1200142
0
ARC
8
DEFAULT_255_1_388
10
13.0909132
20
-0.1498041
40
0.3355418
50
313.8525725
51
338.5989631
0
ARC
8
DEFAULT_255_1_388
10
12.908226
20
-0.0747424
40
0.5330317
50
338.2523315
51
351.2431701
0
ARC
8
DEFAULT_255_1_388
10
12.6370011
20
-0.0286506
40
0.8081235
50
350.940933
51
357.6690137
0
ARC
8
DEFAULT_255_1_388
10
13.1871891
20
0.1966048
40
0.2581236
50
269.9447107
51
306.8249644
0
ARC
8
DEFAULT_255_1_388
10
13.1605193
20
0.244206
40
0.3122948
50
305.5071046
51
327.0773808
0
ARC
8
DEFAULT_255_1_388
10
13.1738244
20
0.2335445
40
0.2953369
50
327.4106457
51
336.8396801
0
ARC
8
DEFAULT_255_1_388
10
12.8257958
20
0.1878932
40
0.6195743
50
359.663158
51
10.1176387
0
ARC
8
DEFAULT_255_1_388
10
13.0230721
20
0.2243922
40
0.4189561
50
9.9431549
51
26.7699242
0
ARC
8
DEFAULT_255_1_388
10
13.0902707
20
0.2553796
40
0.3450125
50
27.2018067
51
34.6833639
0
ARC
8
DEFAULT_255_1_388
10
13.145332
20
0.296756
40
0.2762035
50
34.124913
51
50.30709
0
ARC
8
DEFAULT_255_1_388
10
13.1955803
20
0.3568741
40
0.1978518
50
50.3850304
51
90.6705051
0
ARC
8
DEFAULT_255_1_388
10
13.1903196
20
0.3226074
40
0.2321235
50
89.2729817
51
111.9140267
0
ARC
8
DEFAULT_255_1_388
10
13.1881284
20
0.3384308
40
0.2166604
50
112.9381864
51
142.5320936
0
ARC
8
DEFAULT_255_1_388
10
13.2495773
20
0.2885392
40
0.2957902
50
142.1024021
51
166.3835244
0
ARC
8
DEFAULT_255_1_388
10
13.3824743
20
0.2542213
40
0.4330361
50
166.1100968
51
178.6653563
0
ARC
8
DEFAULT_255_1_388
10
13.5006668
20
0.2476061
40
0.5513642
50
178.2641888
51
180.010994
0
ARC
8
DEFAULT_255_1_388
10
13.410117
20
0.2444136
40
0.4608248
50
179.6162225
51
191.8786013
0
ARC
8
DEFAULT_255_1_388
10
13.272848
20
0.214059
40
0.3202502
50
191.6192934
51
215.2970746
0
ARC
8
DEFAULT_255_1_388
10
13.2489135
20
0.1997963
40
0.2924827
50
215.7258926
51
216.5355437
0
ARC
8
DEFAULT_255_1_388
10
13.1900755
20
0.1524919
40
0.2170661
50
215.7486606
51
239.9728403
0
ARC
8
DEFAULT_255_1_388
10
13.1821921
20
0.1467838
40
0.208217
50
241.065081
51
269.280972
0
ARC
8
DEFAULT_255_1_388
10
13.1869079
20
0.2023327
40
0.2638514
50
268.4083352
51
270.0069622
0
LINE
8
DEFAULT_255_1_388
10
14.2079678
20
-0.0127263
11
14.2079678
21
-0.1491645
0
LINE
8
DEFAULT_255_1_388
10
14.2079678
20
-0.1491645
11
13.7670284
21
-0.1491645
0
LINE
8
DEFAULT_255_1_388
10
13.7670284
20
-0.1491645
11
13.7670284
21
-0.0127263
0
LINE
8
DEFAULT_255_1_388
10
13.7670284
20
-0.0127263
11
14.2079678
21
-0.0127263
0
LINE
8
DEFAULT_255_1_388
10
15.408805
20
0.0586553
11
15.408805
21
-0.0244726
0
LINE
8
DEFAULT_255_1_388
10
14.350731
20
-0.0362189
11
14.350731
21
0.0586553
0
LINE
8
DEFAULT_255_1_388
10
15.2362242
20
-0.0371225
11
15.2362242
21
0.0604625
0
LINE
8
DEFAULT_255_1_388
10
14.5233118
20
0.0722088
11
14.5233118
21
-0.0244726
0
ARC
8
DEFAULT_255_1_388
10
14.4365788
20
-0.0289274
40
0.9722364
50
350.4878118
51
0.2625322
0
ARC
8
DEFAULT_255_1_388
10
14.6945748
20
-0.0733006
40
0.7104556
50
336.0277991
51
350.5787241
0
ARC
8
DEFAULT_255_1_388
10
14.8458855
20
-0.1416757
40
0.544417
50
319.887443
51
336.1331163
0
ARC
8
DEFAULT_255_1_388
10
14.9136667
20
-0.1959267
40
0.4576311
50
302.4806296
51
319.6144102
0
ARC
8
DEFAULT_255_1_388
10
14.9007288
20
-0.1709933
40
0.4856183
50
275.8196423
51
302.1885521
0
ARC
8
DEFAULT_255_1_388
10
14.882015
20
-0.0424534
40
0.6154183
50
269.9169897
51
276.339506
0
ARC
8
DEFAULT_255_1_388
10
14.876975
20
-0.119632
40
0.5382553
50
252.5221437
51
270.441579
0
ARC
8
DEFAULT_255_1_388
10
14.8608001
20
-0.1802954
40
0.4755426
50
237.5349961
51
252.1858334
0
ARC
8
DEFAULT_255_1_388
10
14.8708377
20
-0.167488
40
0.4917393
50
209.0632754
51
237.3492577
0
ARC
8
DEFAULT_255_1_388
10
14.9687703
20
-0.1059896
40
0.6072464
50
205.118533
51
209.6465345
0
ARC
8
DEFAULT_255_1_388
10
15.0583705
20
-0.0679826
40
0.7045164
50
188.7216633
51
204.8239753
0
ARC
8
DEFAULT_255_1_388
10
15.283048
20
-0.0301613
40
0.9323368
50
180.3722704
51
188.9253909
0
ARC
8
DEFAULT_255_1_388
10
15.2800042
20
0.0631416
40
0.929284
50
169.5253055
51
180.2766048
0
ARC
8
DEFAULT_255_1_388
10
15.0659841
20
0.1025024
40
0.7116745
50
155.8314601
51
169.5088611
0
ARC
8
DEFAULT_255_1_388
10
14.9219304
20
0.1693312
40
0.5528904
50
139.6259579
51
156.0379072
0
ARC
8
DEFAULT_255_1_388
10
14.8555838
20
0.2227143
40
0.4677708
50
122.6414784
51
139.3431662
0
ARC
8
DEFAULT_255_1_388
10
14.8669092
20
0.2020787
40
0.4912586
50
93.0224537
51
122.4556091
0
ARC
8
DEFAULT_255_1_388
10
14.8790613
20
0.0934776
40
0.6003837
50
89.9756766
51
93.6340839
0
ARC
8
DEFAULT_255_1_388
10
14.8834211
20
0.1383879
40
0.5554884
50
73.7463329
51
90.4234008
0
ARC
8
DEFAULT_255_1_388
10
14.9031684
20
0.2148772
40
0.4765353
50
57.663051
51
73.4516911
0
ARC
8
DEFAULT_255_1_388
10
14.9022722
20
0.2173108
40
0.4749629
50
29.1441355
51
57.4146687
0
ARC
8
DEFAULT_255_1_388
10
14.7970533
20
0.1516046
40
0.5988917
50
24.0985653
51
29.732054
0
ARC
8
DEFAULT_255_1_388
10
14.6808165
20
0.1034154
40
0.7246823
50
8.6654943
51
23.8241215
0
ARC
8
DEFAULT_255_1_388
10
14.4294583
20
0.0624037
40
0.9793537
50
359.7807044
51
8.8218476
0
ARC
8
DEFAULT_255_1_388
10
14.3004288
20
0.0652731
40
0.9358078
50
359.7054632
51
8.0359751
0
ARC
8
DEFAULT_255_1_388
10
14.6379339
20
0.1144252
40
0.5947474
50
7.8926278
51
20.2962188
0
ARC
8
DEFAULT_255_1_388
10
14.8210189
20
0.1819367
40
0.3996117
50
20.3231056
51
36.4990255
0
ARC
8
DEFAULT_255_1_388
10
14.8981487
20
0.2413399
40
0.3022818
50
36.1436715
51
85.6627846
0
ARC
8
DEFAULT_255_1_388
10
14.8798742
20
0.1243881
40
0.4203853
50
84.3845912
51
90.076054
0
ARC
8
DEFAULT_255_1_388
10
14.8751097
20
0.1986416
40
0.346157
50
89.3037228
51
109.9046209
0
ARC
8
DEFAULT_255_1_388
10
14.864693
20
0.2416379
40
0.3022217
50
110.8229774
51
143.917961
0
ARC
8
DEFAULT_255_1_388
10
14.9697289
20
0.1614455
40
0.434348
50
143.5289166
51
163.2980252
0
ARC
8
DEFAULT_255_1_388
10
15.1843576
20
0.0939685
40
0.659321
50
163.0418884
51
174.3139873
0
ARC
8
DEFAULT_255_1_388
10
15.4548541
20
0.0627378
40
0.9315905
50
174.050934
51
179.4174954
0
ARC
8
DEFAULT_255_1_388
10
15.3980485
20
-0.0291618
40
0.8747493
50
179.6928582
51
188.7908948
0
ARC
8
DEFAULT_255_1_388
10
15.0984285
20
-0.0770914
40
0.5713262
50
188.6328449
51
202.5630732
0
ARC
8
DEFAULT_255_1_388
10
14.9573122
20
-0.1337858
40
0.4192612
50
202.8078931
51
216.1195888
0
ARC
8
DEFAULT_255_1_388
10
14.8662639
20
-0.2070521
40
0.3025752
50
215.0755613
51
264.6379773
0
ARC
8
DEFAULT_255_1_388
10
14.8805476
20
-0.1135624
40
0.3970284
50
263.8464302
51
270.0830805
0
ARC
8
DEFAULT_255_1_388
10
14.8852021
20
-0.1426192
40
0.3679937
50
269.3649295
51
287.5149684
0
ARC
8
DEFAULT_255_1_388
10
14.9052462
20
-0.2154286
40
0.2925408
50
288.0629019
51
323.8115617
0
ARC
8
DEFAULT_255_1_388
10
14.8072438
20
-0.1423246
40
0.4148018
50
323.6546541
51
342.6591359
0
ARC
8
DEFAULT_255_1_388
10
14.5787096
20
-0.067972
40
0.6551163
50
342.4092446
51
353.6451501
0
ARC
8
DEFAULT_255_1_388
10
14.2601889
20
-0.0283435
40
0.9760748
50
353.4027553
51
359.4846611
0
LINE
8
DEFAULT_255_1_388
10
16.1253316
20
-0.6398
11
15.6690315
21
-0.6398
0
LINE
8
DEFAULT_255_1_388
10
15.6690315
20
-0.6398
11
15.6690315
21
0.6757898
0
LINE
8
DEFAULT_255_1_388
10
15.6690315
20
0.6757898
11
16.0991282
21
0.6757898
0
LINE
8
DEFAULT_255_1_388
10
16.1316565
20
-0.0244726
11
15.8425159
21
-0.0244726
0
LINE
8
DEFAULT_255_1_388
10
15.8425159
20
-0.0244726
11
15.8425159
21
-0.4979404
0
LINE
8
DEFAULT_255_1_388
10
15.8425159
20
-0.4979404
11
16.1289458
21
-0.4979404
0
LINE
8
DEFAULT_255_1_388
10
15.8425159
20
0.5330267
11
15.8425159
21
0.1146763
0
LINE
8
DEFAULT_255_1_388
10
15.8425159
20
0.1146763
11
16.1045496
21
0.1146763
0
LINE
8
DEFAULT_255_1_388
10
16.0991282
20
0.5330267
11
15.8425159
21
0.5330267
0
ARC
8
DEFAULT_255_1_388
10
16.1033703
20
-0.1530176
40
0.8288183
50
82.1256322
51
90.2932506
0
ARC
8
DEFAULT_255_1_388
10
16.1471277
20
0.152759
40
0.5199321
50
69.9044202
51
82.2857574
0
ARC
8
DEFAULT_255_1_388
10
16.211327
20
0.3262993
40
0.3348993
50
51.1840204
51
70.018125
0
ARC
8
DEFAULT_255_1_388
10
16.2400102
20
0.3679945
40
0.2844579
50
12.1018086
51
50.421322
0
ARC
8
DEFAULT_255_1_388
10
16.0842974
20
0.3288937
40
0.4449429
50
359.5252354
51
12.8212369
0
ARC
8
DEFAULT_255_1_388
10
16.2620404
20
0.3210943
40
0.2672162
50
323.4907456
51
0.8818258
0
ARC
8
DEFAULT_255_1_388
10
16.2149816
20
0.3574523
40
0.3266736
50
298.6824053
51
323.2758285
0
ARC
8
DEFAULT_255_1_388
10
16.1743108
20
0.4250509
40
0.4055105
50
293.1994739
51
299.139634
0
ARC
8
DEFAULT_255_1_388
10
16.2500057
20
-0.2595349
40
0.3229926
50
54.0009997
51
74.9168635
0
ARC
8
DEFAULT_255_1_388
10
16.2630984
20
-0.2373489
40
0.2973581
50
36.3578854
51
53.5293172
0
ARC
8
DEFAULT_255_1_388
10
16.2488352
20
-0.247515
40
0.3148715
50
4.8189348
51
36.3090187
0
ARC
8
DEFAULT_255_1_388
10
16.1611377
20
-0.2598617
40
0.4033265
50
359.9373213
51
5.5201284
0
ARC
8
DEFAULT_255_1_388
10
16.1246707
20
-0.2644267
40
0.4398126
50
344.7479357
51
0.5372278
0
ARC
8
DEFAULT_255_1_388
10
16.2361605
20
-0.2944795
40
0.3243441
50
311.1785587
51
344.6887681
0
ARC
8
DEFAULT_255_1_388
10
16.2033149
20
-0.2535916
40
0.3767511
50
286.0417804
51
310.8440924
0
ARC
8
DEFAULT_255_1_388
10
16.1462558
20
-0.0683115
40
0.5705957
50
274.1044074
51
286.4070149
0
ARC
8
DEFAULT_255_1_388
10
16.1263773
20
0.1434901
40
0.7832907
50
269.9235077
51
274.4458593
0
ARC
8
DEFAULT_255_1_388
10
16.1315491
20
-0.1196538
40
0.3782955
50
269.6057074
51
281.3740795
0
ARC
8
DEFAULT_255_1_388
10
16.157499
20
-0.2426431
40
0.2526069
50
281.105298
51
302.5134029
0
ARC
8
DEFAULT_255_1_388
10
16.1740377
20
-0.2723056
40
0.2187131
50
303.0365425
51
311.8818034
0
ARC
8
DEFAULT_255_1_388
10
16.1820555
20
-0.2818398
40
0.2062624
50
311.9916937
51
351.7143773
0
ARC
8
DEFAULT_255_1_388
10
16.0901579
20
-0.2632729
40
0.2999202
50
350.7343295
51
0.2221526
0
ARC
8
DEFAULT_255_1_388
10
16.0780667
20
-0.256913
40
0.3120525
50
359.045729
51
17.2295312
0
ARC
8
DEFAULT_255_1_388
10
16.1949698
20
-0.2221845
40
0.1901144
50
17.6685208
51
78.9940245
0
ARC
8
DEFAULT_255_1_388
10
16.1368059
20
-0.4309989
40
0.4065575
50
76.565218
51
90.7103392
0
LINE
8
DEFAULT_255_1_388
10
16.1317656
20
-0.0244726
11
16.1316565
21
-0.0244726
0
ARC
8
DEFAULT_255_1_388
10
16.1070885
20
0.4842949
40
0.3696273
50
269.6064514
51
281.4533785
0
ARC
8
DEFAULT_255_1_388
10
16.1321525
20
0.3660283
40
0.2487412
50
281.2044438
51
302.5143998
0
ARC
8
DEFAULT_255_1_388
10
16.1475779
20
0.3382576
40
0.2170405
50
303.0211308
51
309.8378766
0
ARC
8
DEFAULT_255_1_388
10
16.1681897
20
0.3151486
40
0.1860946
50
309.5229446
51
356.9509628
0
ARC
8
DEFAULT_255_1_388
10
16.0936023
20
0.3258831
40
0.2612347
50
355.4699226
51
0.0498632
0
ARC
8
DEFAULT_255_1_388
10
16.0621696
20
0.3283789
40
0.2926762
50
359.5558955
51
11.2092924
0
ARC
8
DEFAULT_255_1_388
10
16.1698663
20
0.3506667
40
0.1827036
50
10.9185717
51
31.322519
0
ARC
8
DEFAULT_255_1_388
10
16.2020212
20
0.3685571
40
0.1459418
50
31.8850633
51
52.1415586
0
ARC
8
DEFAULT_255_1_388
10
16.1711641
20
0.3249674
40
0.1993088
50
52.8283418
51
71.9850132
0
ARC
8
DEFAULT_255_1_388
10
16.1288801
20
0.2005158
40
0.3307407
50
71.686634
51
82.8453416
0
ARC
8
DEFAULT_255_1_388
10
16.1019449
20
-0.0030108
40
0.536039
50
82.6981895
51
90.1730083
0
ARC
8
DEFAULT_255_1_388
10
16.099428
20
0.0848836
40
0.4481429
50
89.8851568
51
90.0383283
0
LINE
8
DEFAULT_255_1_388
10
17.3270723
20
0.6821148
11
17.3270723
21
-0.6398
0
LINE
8
DEFAULT_255_1_388
10
17.3270723
20
-0.6398
11
17.1590093
21
-0.6398
0
LINE
8
DEFAULT_255_1_388
10
17.1590093
20
-0.6398
11
17.1590093
21
0.474295
0
LINE
8
DEFAULT_255_1_388
10
17.1590093
20
0.474295
11
16.8219798
21
0.3505066
0
LINE
8
DEFAULT_255_1_388
10
16.8219798
20
0.3505066
11
16.8219798
21
0.5023055
0
LINE
8
DEFAULT_255_1_388
10
16.8219798
20
0.5023055
11
17.3008689
21
0.6821148
0
LINE
8
DEFAULT_255_1_388
10
17.3008689
20
0.6821148
11
17.3270723
21
0.6821148
0
LINE
8
DEFAULT_255_1_388
10
18.4429744
20
0.6766934
11
18.472792
21
0.6766934
0
LINE
8
DEFAULT_255_1_388
10
18.472792
20
0.6766934
11
18.472792
21
0.5348338
0
LINE
8
DEFAULT_255_1_388
10
18.472792
20
0.5348338
11
18.4420708
21
0.5348338
0
LINE
8
DEFAULT_255_1_388
10
17.8267435
20
-0.1392253
11
17.8267435
21
-0.0750722
0
LINE
8
DEFAULT_255_1_388
10
17.9948064
20
-0.0967578
11
17.9948064
21
-0.1582001
0
ARC
8
DEFAULT_255_1_388
10
18.44796
20
-0.0274174
40
0.562282
50
90.6001079
51
104.5146616
0
ARC
8
DEFAULT_255_1_388
10
18.4042559
20
0.13511
40
0.3939917
50
104.2855758
51
133.8630124
0
ARC
8
DEFAULT_255_1_388
10
18.4226812
20
0.1229243
40
0.4155734
50
134.5304124
51
161.6210222
0
ARC
8
DEFAULT_255_1_388
10
18.6086744
20
0.0573421
40
0.6127682
50
161.2850533
51
174.2074364
0
ARC
8
DEFAULT_255_1_388
10
18.7676311
20
0.0354437
40
0.7731446
50
173.7817938
51
174.9251711
0
ARC
8
DEFAULT_255_1_388
10
18.2550505
20
-0.120073
40
0.3412588
50
95.8332067
51
138.995412
0
ARC
8
DEFAULT_255_1_388
10
18.2801785
20
-0.2639305
40
0.4870358
50
89.8755506
51
97.0540979
0
ARC
8
DEFAULT_255_1_388
10
18.2855174
20
-0.1699159
40
0.3930432
50
71.6407016
51
90.6240821
0
ARC
8
DEFAULT_255_1_388
10
18.3024568
20
-0.1075567
40
0.3285421
50
39.6368051
51
71.0190743
0
ARC
8
DEFAULT_255_1_388
10
18.2308475
20
-0.1694414
40
0.4231706
50
10.6588054
51
39.9044509
0
ARC
8
DEFAULT_255_1_388
10
18.0567021
20
-0.2072777
40
0.60133
50
359.6827842
51
11.1326896
0
ARC
8
DEFAULT_255_1_388
10
18.0522357
20
-0.2152285
40
0.6058047
50
347.2485908
51
0.4371098
0
ARC
8
DEFAULT_255_1_388
10
18.2398142
20
-0.2603621
40
0.4128987
50
318.1408565
51
347.6118497
0
ARC
8
DEFAULT_255_1_388
10
18.2763739
20
-0.2904097
40
0.3656244
50
275.6342406
51
317.824739
0
ARC
8
DEFAULT_255_1_388
10
18.251526
20
-0.1442173
40
0.513655
50
269.8872513
51
276.7916069
0
ARC
8
DEFAULT_255_1_388
10
18.2453452
20
-0.2595819
40
0.398323
50
246.9139443
51
270.7436787
0
ARC
8
DEFAULT_255_1_388
10
18.2460648
20
-0.2755956
40
0.3839368
50
218.1665534
51
245.8780431
0
ARC
8
DEFAULT_255_1_388
10
18.345002
20
-0.1928097
40
0.5128958
50
191.4115343
51
218.6077624
0
ARC
8
DEFAULT_255_1_388
10
18.5630337
20
-0.1439223
40
0.7363054
50
179.6344971
51
191.7836758
0
ARC
8
DEFAULT_255_1_388
10
19.1910211
20
-0.0675505
40
1.3642984
50
171.4523743
51
180.3158856
0
ARC
8
DEFAULT_255_1_388
10
18.6965938
20
0.0093895
40
0.8639311
50
157.9802296
51
171.6246761
0
ARC
8
DEFAULT_255_1_388
10
18.4475289
20
0.1087038
40
0.5958004
50
141.4299236
51
157.8541251
0
ARC
8
DEFAULT_255_1_388
10
18.3753372
20
0.1597746
40
0.5075416
50
102.871586
51
140.8564533
0
ARC
8
DEFAULT_255_1_388
10
18.4481925
20
-0.1147057
40
0.7914163
50
90.377773
51
103.5868422
0
ARC
8
DEFAULT_255_1_388
10
18.2526446
20
-0.1827457
40
0.2667015
50
89.8751238
51
126.2072139
0
ARC
8
DEFAULT_255_1_388
10
18.2577917
20
-0.2001153
40
0.2838229
50
124.9742447
51
144.8960197
0
ARC
8
DEFAULT_255_1_388
10
18.2380162
20
-0.1840019
40
0.2583845
50
145.2974778
51
160.2660922
0
ARC
8
DEFAULT_255_1_388
10
18.583665
20
-0.1617849
40
0.5888695
50
179.6512124
51
190.285571
0
ARC
8
DEFAULT_255_1_388
10
18.393113
20
-0.1977032
40
0.3949683
50
190.0944895
51
207.5099647
0
ARC
8
DEFAULT_255_1_388
10
18.3294712
20
-0.2279823
40
0.3245464
50
207.9585471
51
216.325377
0
ARC
8
DEFAULT_255_1_388
10
18.2912349
20
-0.2594288
40
0.2751259
50
215.7661336
51
232.5457193
0
ARC
8
DEFAULT_255_1_388
10
18.2481465
20
-0.3141727
40
0.2054668
50
232.8005815
51
270.6605497
0
ARC
8
DEFAULT_255_1_388
10
18.2532889
20
-0.2732147
40
0.2464268
50
269.3550767
51
288.474612
0
ARC
8
DEFAULT_255_1_388
10
18.2637396
20
-0.3125279
40
0.2058436
50
289.1831976
51
322.9685307
0
ARC
8
DEFAULT_255_1_388
10
18.1949498
20
-0.2582721
40
0.2934408
50
322.6007085
51
346.5183319
0
ARC
8
DEFAULT_255_1_388
10
18.0647254
20
-0.2250566
40
0.4278249
50
346.2584622
51
358.7739592
0
ARC
8
DEFAULT_255_1_388
10
17.9495829
20
-0.2188171
40
0.5430876
50
358.3757628
51
0.0082477
0
ARC
8
DEFAULT_255_1_388
10
18.0352648
20
-0.2157144
40
0.4574157
50
359.6211417
51
11.28403
0
ARC
8
DEFAULT_255_1_388
10
18.1789254
20
-0.1857465
40
0.3106708
50
11.0483152
51
31.8145585
0
ARC
8
DEFAULT_255_1_388
10
18.2136959
20
-0.1668955
40
0.2711963
50
32.3028554
51
38.0820598
0
ARC
8
DEFAULT_255_1_388
10
18.2610192
20
-0.1240283
40
0.2075566
50
36.8249851
51
85.741667
0
ARC
8
DEFAULT_255_1_388
10
18.2534605
20
-0.1803935
40
0.2643487
50
85.0150021
51
90.050843
0
LINE
8
DEFAULT_255_2_778
10
11.0359959
20
144.5606531
11
10.9838959
21
144.8979531
0
LINE
8
DEFAULT_255_2_778
10
10.9838959
20
144.8979531
11
10.4068959
21
144.8979531
0
LINE
8
DEFAULT_255_2_778
10
10.4068959
20
144.8979531
11
10.2364959
21
144.5606531
0
LINE
8
DEFAULT_255_2_778
10
10.2364959
20
144.5606531
11
9.8694959
21
144.5606531
0
LINE
8
DEFAULT_255_2_778
10
9.8694959
20
144.5606531
11
10.7531959
21
146.1981531
0
LINE
8
DEFAULT_255_2_778
10
10.7531959
20
146.1981531
11
11.0608959
21
146.1981531
0
LINE
8
DEFAULT_255_2_778
10
11.0608959
20
146.1981531
11
11.3754959
21
144.5606531
0
LINE
8
DEFAULT_255_2_778
10
11.3754959
20
144.5606531
11
11.0357959
21
144.5606531
0
LINE
8
DEFAULT_255_2_778
10
11.0357959
20
144.5606531
11
11.0359959
21
144.5606531
0
LINE
8
DEFAULT_255_2_778
10
10.8486959
20
145.7809531
11
10.5430959
21
145.1713531
0
LINE
8
DEFAULT_255_2_778
10
10.5430959
20
145.1713531
11
10.9418959
21
145.1713531
0
LINE
8
DEFAULT_255_2_778
10
10.9418959
20
145.1713531
11
10.8486959
21
145.7809531
0
LINE
8
DEFAULT_255_2_778
10
10.8486959
20
145.7809531
11
10.8486959
21
145.7809531
0
LINE
8
DEFAULT_255_2_778
10
12.1615594
20
146.2881646
11
11.8593594
21
144.5604646
0
LINE
8
DEFAULT_255_2_778
10
11.8593594
20
144.5604646
11
11.5368594
21
144.5604646
0
LINE
8
DEFAULT_255_2_778
10
11.5368594
20
144.5604646
11
11.8400594
21
146.2881646
0
LINE
8
DEFAULT_255_2_778
10
11.8400594
20
146.2881646
11
12.1615594
21
146.2881646
0
LINE
8
DEFAULT_255_2_778
10
12.1615594
20
146.2881646
11
12.1615594
21
146.2881646
0
LINE
8
DEFAULT_255_2_778
10
12.7717594
20
146.2881646
11
12.4695594
21
144.5604646
0
LINE
8
DEFAULT_255_2_778
10
12.4695594
20
144.5604646
11
12.1470594
21
144.5604646
0
LINE
8
DEFAULT_255_2_778
10
12.1470594
20
144.5604646
11
12.4502594
21
146.2881646
0
LINE
8
DEFAULT_255_2_778
10
12.4502594
20
146.2881646
11
12.7717594
21
146.2881646
0
LINE
8
DEFAULT_255_2_778
10
12.7717594
20
146.2881646
11
12.7717594
21
146.2881646
0
ARC
8
DEFAULT_255_2_778
10
13.3180767
20
145.0762764
40
0.5383522
50
238.763891
51
270.7055166
0
ARC
8
DEFAULT_255_2_778
10
13.2867625
20
145.020952
40
0.4748131
50
204.061185
51
238.5328679
0
ARC
8
DEFAULT_255_2_778
10
13.3693681
20
145.0605331
40
0.5663841
50
179.4896096
51
204.3103027
0
ARC
8
DEFAULT_255_2_778
10
13.4933843
20
145.0650727
40
0.6903781
50
175.123126
51
179.9580366
0
ARC
8
DEFAULT_255_2_778
10
13.5850479
20
145.1000152
40
0.7790728
50
149.5392097
51
174.9446897
0
ARC
8
DEFAULT_255_2_778
10
13.459184
20
145.1835212
40
0.628301
50
120.7003982
51
150.2846053
0
ARC
8
DEFAULT_255_2_778
10
13.4196851
20
145.2432024
40
0.556829
50
89.4236852
51
120.3409826
0
ARC
8
DEFAULT_255_2_778
10
13.4252352
20
145.1444671
40
0.6555361
50
88.4553682
51
89.9955718
0
ARC
8
DEFAULT_255_2_778
10
13.4481363
20
145.3286369
40
0.4711572
50
58.4514404
51
90.636095
0
ARC
8
DEFAULT_255_2_778
10
13.4744403
20
145.3920423
40
0.403504
50
35.6058989
51
56.9235594
0
ARC
8
DEFAULT_255_2_778
10
13.3641882
20
145.3182058
40
0.5361477
50
0.6851965
51
35.1616077
0
ARC
8
DEFAULT_255_2_778
10
13.1616313
20
145.2978229
40
0.7391521
50
359.9888194
51
2.0774415
0
ARC
8
DEFAULT_255_2_778
10
13.0480025
20
145.2995249
40
0.852783
50
353.383538
51
359.8759623
0
ARC
8
DEFAULT_255_2_778
10
13.534221
20
145.0471119
40
0.4107176
50
177.8018731
51
179.9839782
0
ARC
8
DEFAULT_255_2_778
10
13.3756217
20
145.035624
40
0.2523852
50
177.3650374
51
219.8309448
0
ARC
8
DEFAULT_255_2_778
10
13.3462068
20
145.0223401
40
0.2214564
50
222.0668323
51
271.55222
0
ARC
8
DEFAULT_255_2_778
10
13.3632002
20
145.2271289
40
0.4263057
50
268.5221572
51
269.9980687
0
ARC
8
DEFAULT_255_2_778
10
13.3616001
20
145.1975217
40
0.3967017
50
270.2290309
51
318.5203973
0
ARC
8
DEFAULT_255_2_778
10
13.4310056
20
145.0142979
40
0.4555006
50
292.4982989
51
325.2807674
0
ARC
8
DEFAULT_255_2_778
10
13.3411907
20
145.1928545
40
0.6549996
50
269.6158853
51
293.7802026
0
ARC
8
DEFAULT_255_2_778
10
13.3368026
20
145.279733
40
0.7418635
50
269.0811303
51
269.9997673
0
ARC
8
DEFAULT_255_2_778
10
13.4205249
20
145.2726977
40
0.2651417
50
88.6426435
51
89.9971979
0
ARC
8
DEFAULT_255_2_778
10
13.4187009
20
145.3079788
40
0.2298681
50
89.5421073
51
130.5025885
0
ARC
8
DEFAULT_255_2_778
10
13.5174398
20
145.2078327
40
0.370282
50
132.0556576
51
154.4346079
0
ARC
8
DEFAULT_255_2_778
10
13.9187288
20
144.9902869
40
0.8264843
50
152.8348001
51
159.2008974
0
ARC
8
DEFAULT_255_2_778
10
13.283715
20
145.3612268
40
0.3137404
50
351.1327381
51
359.8552777
0
ARC
8
DEFAULT_255_2_778
10
13.3301744
20
145.3608274
40
0.2672803
50
359.9157472
51
8.073482
0
ARC
8
DEFAULT_255_2_778
10
13.4328726
20
145.3761276
40
0.1634528
50
7.8192239
51
49.4174523
0
ARC
8
DEFAULT_255_2_778
10
13.4309336
20
145.3629377
40
0.174876
50
51.746929
51
91.3525911
0
LINE
8
DEFAULT_255_2_778
10
12.8055056
20
145.123765
11
12.8090056
21
145.168665
0
LINE
8
DEFAULT_255_2_778
10
13.8951056
20
145.201265
11
13.8768056
21
145.062865
0
LINE
8
DEFAULT_255_2_778
10
13.8768056
20
145.062865
11
13.1238056
21
145.062865
0
LINE
8
DEFAULT_255_2_778
10
13.6588056
20
144.934765
11
13.8054056
21
144.754865
0
LINE
8
DEFAULT_255_2_778
10
13.3249056
20
144.537965
11
13.3247056
21
144.537965
0
LINE
8
DEFAULT_255_2_778
10
13.1461056
20
145.283765
11
13.5868056
21
145.283765
0
LINE
8
DEFAULT_255_2_778
10
13.5868056
20
145.283765
11
13.5937056
21
145.312865
0
LINE
8
DEFAULT_255_2_778
10
13.4268056
20
145.537765
11
13.4268056
21
145.537765
0
ARC
8
DEFAULT_255_2_778
10
14.7973588
20
145.3563783
40
0.4439397
50
89.8554796
51
141.1589213
0
ARC
8
DEFAULT_255_2_778
10
14.7984572
20
145.295443
40
0.5048737
50
88.7717605
51
89.9975792
0
ARC
8
DEFAULT_255_2_778
10
14.8178417
20
145.4843406
40
0.315976
50
50.4893295
51
91.5528058
0
ARC
8
DEFAULT_255_2_778
10
14.8339359
20
145.5187178
40
0.2793745
50
33.8414583
51
48.5499238
0
ARC
8
DEFAULT_255_2_778
10
14.731985
20
145.4598286
40
0.3969262
50
4.3932888
51
32.7062485
0
ARC
8
DEFAULT_255_2_778
10
14.4819065
20
145.4244301
40
0.6491822
50
359.8769204
51
5.8177478
0
ARC
8
DEFAULT_255_2_778
10
14.2701804
20
145.4253881
40
0.8609097
50
353.9399056
51
359.8434284
0
ARC
8
DEFAULT_255_2_778
10
14.4164047
20
145.3910967
40
0.3954956
50
352.2407688
51
359.7520116
0
ARC
8
DEFAULT_255_2_778
10
14.5201997
20
145.3899041
40
0.2916973
50
359.8980094
51
5.448398
0
ARC
8
DEFAULT_255_2_778
10
14.6814536
20
145.4070865
40
0.129553
50
4.6550554
51
97.2610773
0
ARC
8
DEFAULT_255_2_778
10
14.655996
20
145.2813531
40
0.2544097
50
87.9539208
51
89.9945997
0
ARC
8
DEFAULT_255_2_778
10
14.6629447
20
145.2657668
40
0.2700847
50
91.4691634
51
141.078713
0
ARC
8
DEFAULT_255_2_778
10
14.7966376
20
145.1239301
40
0.4639576
50
137.8219849
51
140.394746
0
ARC
8
DEFAULT_255_2_778
10
16.9661161
20
145.170711
40
1.026426
50
77.5141066
51
90.4821212
0
ARC
8
DEFAULT_255_2_778
10
17.0845798
20
145.6799611
40
0.5036389
50
52.814306
51
78.1469212
0
ARC
8
DEFAULT_255_2_778
10
17.1732245
20
145.8082438
40
0.3479303
50
357.5432245
51
51.6759047
0
ARC
8
DEFAULT_255_2_778
10
16.9814613
20
145.7936938
40
0.5393738
50
356.248244
51
359.9613012
0
ARC
8
DEFAULT_255_2_778
10
17.128092
20
145.7810882
40
0.3922439
50
295.0867564
51
356.6841236
0
ARC
8
DEFAULT_255_2_778
10
16.9599154
20
146.0438279
40
0.7026958
50
292.6018649
51
298.4245718
0
ARC
8
DEFAULT_255_2_778
10
17.1412835
20
145.131175
40
0.2784307
50
29.5992916
51
71.4243751
0
ARC
8
DEFAULT_255_2_778
10
17.0686219
20
145.0889727
40
0.3624559
50
358.8250622
51
29.7265593
0
ARC
8
DEFAULT_255_2_778
10
16.932071
20
145.0818262
40
0.4989307
50
356.3312443
51
359.9671937
0
ARC
8
DEFAULT_255_2_778
10
16.9581925
20
145.0630387
40
0.4719696
50
307.6792206
51
358.4048608
0
ARC
8
DEFAULT_255_2_778
10
16.8807048
20
145.1838643
40
0.6150877
50
279.1080464
51
306.5123219
0
ARC
8
DEFAULT_255_2_778
10
16.7961448
20
145.6059116
40
1.0453321
50
269.63465
51
280.0226117
0
ARC
8
DEFAULT_255_2_778
10
16.8094212
20
145.1710308
40
0.3407431
50
267.9747348
51
304.6141501
0
ARC
8
DEFAULT_255_2_778
10
16.8661516
20
145.0848067
40
0.2375665
50
305.166569
51
352.3059676
0
ARC
8
DEFAULT_255_2_778
10
16.775822
20
145.1058166
40
0.3300111
50
350.7906063
51
359.6837465
0
ARC
8
DEFAULT_255_2_778
10
16.9356152
20
145.1114465
40
0.170376
50
357.4933304
51
35.754963
0
ARC
8
DEFAULT_255_2_778
10
16.9423472
20
145.0971963
40
0.1739313
50
40.8670445
51
88.9145542
0
ARC
8
DEFAULT_255_2_778
10
16.9113357
20
144.9119792
40
0.360752
50
84.5431107
51
87.5464559
0
ARC
8
DEFAULT_255_2_778
10
16.8864523
20
145.8840688
40
0.3741259
50
268.9933192
51
299.9063201
0
ARC
8
DEFAULT_255_2_778
10
16.9296435
20
145.7912438
40
0.2722705
50
301.7671328
51
305.0688299
0
ARC
8
DEFAULT_255_2_778
10
16.9572403
20
145.7551463
40
0.2268776
50
304.6024496
51
352.3134516
0
ARC
8
DEFAULT_255_2_778
10
16.9035208
20
145.7658322
40
0.2815642
50
351.6205962
51
359.745937
0
ARC
8
DEFAULT_255_2_778
10
17.0391775
20
145.7719083
40
0.1460884
50
357.1260689
51
87.9509322
0
ARC
8
DEFAULT_255_2_778
10
16.9733166
20
145.4925677
40
0.4312349
50
80.5121161
51
90.1776895
0
ARC
8
DEFAULT_255_2_778
10
18.304359
20
144.8207308
40
0.6634375
50
79.3314563
51
88.7113465
0
ARC
8
DEFAULT_255_2_778
10
18.3079683
20
145.0541839
40
0.4299655
50
88.4925657
51
89.9946723
0
ARC
8
DEFAULT_255_2_778
10
18.2982438
20
145.1742608
40
0.3100425
50
88.1952228
51
143.885382
0
ARC
8
DEFAULT_255_2_778
10
18.4077805
20
145.4192129
40
0.3980768
50
117.0828142
51
147.9763761
0
ARC
8
DEFAULT_255_2_778
10
18.3544747
20
145.5025295
40
0.2997784
50
89.5977622
51
115.2613452
0
ARC
8
DEFAULT_255_2_778
10
18.3464621
20
145.3303482
40
0.4720608
50
75.0830674
51
88.7719532
0
ARC
8
DEFAULT_255_2_778
10
19.3883565
20
144.6475588
40
0.303463
50
178.9513385
51
196.6911244
0
ARC
8
DEFAULT_255_2_778
10
19.5567182
20
144.6529238
40
0.4717738
50
177.8405456
51
179.9770623
0
ARC
8
DEFAULT_255_2_778
10
18.7787325
20
144.9575947
40
0.4198561
50
270.5473861
51
316.8967404
0
ARC
8
DEFAULT_255_2_778
10
18.7827705
20
144.9679581
40
0.4302003
50
268.5226571
51
269.9964175
0
ARC
8
DEFAULT_255_2_778
10
18.7647216
20
144.9160252
40
0.3781887
50
226.455184
51
271.0541416
0
ARC
8
DEFAULT_255_2_778
10
18.7161161
20
144.8706869
40
0.311866
50
179.0506747
51
227.1894377
0
ARC
8
DEFAULT_255_2_778
10
18.7977006
20
144.8757683
40
0.3934079
50
177.4603384
51
179.9875271
0
ARC
8
DEFAULT_255_2_778
10
18.7677222
20
144.8917892
40
0.3630457
50
122.3464314
51
179.7772632
0
ARC
8
DEFAULT_255_2_778
10
18.9127921
20
144.6646577
40
0.6325515
50
98.6956815
51
122.4402135
0
ARC
8
DEFAULT_255_2_778
10
18.9977072
20
144.2096789
40
1.0952432
50
89.6404969
51
99.4883828
0
ARC
8
DEFAULT_255_2_778
10
18.91142
20
145.424956
40
0.2635833
50
349.2520325
51
359.7979352
0
ARC
8
DEFAULT_255_2_778
10
18.9485896
20
145.4241836
40
0.2264121
50
359.9602232
51
5.7075699
0
ARC
8
DEFAULT_255_2_778
10
19.0517084
20
145.4383244
40
0.1224577
50
3.9221136
51
47.9806675
0
ARC
8
DEFAULT_255_2_778
10
19.0461009
20
145.4209028
40
0.1393558
50
51.0640414
51
91.6537281
0
ARC
8
DEFAULT_255_2_778
10
19.0343864
20
145.2867856
40
0.2735232
50
88.3883484
51
89.9950272
0
ARC
8
DEFAULT_255_2_778
10
19.0289472
20
145.3646996
40
0.1956856
50
88.4002709
51
125.6558116
0
ARC
8
DEFAULT_255_2_778
10
19.0229477
20
145.3829867
40
0.1774238
50
127.5242925
51
170.6536699
0
ARC
8
DEFAULT_255_2_778
10
18.8789596
20
145.3967573
40
0.3527561
50
122.7014157
51
177.7346919
0
ARC
8
DEFAULT_255_2_778
10
19.030198
20
145.1917043
40
0.6072396
50
91.7146868
51
124.2570002
0
ARC
8
DEFAULT_255_2_778
10
19.05893
20
144.9348064
40
0.865138
50
89.9735854
51
93.1077226
0
ARC
8
DEFAULT_255_2_778
10
19.0592938
20
144.878256
40
0.9216883
50
89.4414218
51
89.9978259
0
ARC
8
DEFAULT_255_2_778
10
19.0704714
20
145.2797068
40
0.5201984
50
63.6868659
51
90.2414521
0
ARC
8
DEFAULT_255_2_778
10
19.1244671
20
145.4076249
40
0.3816898
50
44.805062
51
62.4405121
0
ARC
8
DEFAULT_255_2_778
10
19.1511934
20
145.4318957
40
0.3456276
50
358.4368244
51
45.0725574
0
ARC
8
DEFAULT_255_2_778
10
18.9988451
20
145.4232092
40
0.4978477
50
354.0151208
51
359.9146153
0
ARC
8
DEFAULT_255_2_778
10
19.916384
20
144.7009006
40
0.5223437
50
178.2666392
51
179.9853875
0
ARC
8
DEFAULT_255_2_778
10
19.7189724
20
144.6930635
40
0.3250299
50
178.5948625
51
200.018038
0
ARC
8
DEFAULT_255_2_778
10
18.8607749
20
145.0819835
40
0.2979407
50
268.1351457
51
269.9967975
0
ARC
8
DEFAULT_255_2_778
10
18.8555143
20
145.0794809
40
0.2954847
50
271.0168715
51
323.4470831
0
ARC
8
DEFAULT_255_2_778
10
19.0185177
20
144.7199003
40
0.3950093
50
89.6139406
51
115.9632081
0
ARC
8
DEFAULT_255_2_778
10
18.9568146
20
144.8610476
40
0.2411766
50
117.4642621
51
142.4598629
0
ARC
8
DEFAULT_255_2_778
10
18.9147894
20
144.8979762
40
0.1853888
50
143.595728
51
174.110017
0
ARC
8
DEFAULT_255_2_778
10
18.8922711
20
144.8924244
40
0.1637466
50
171.368069
51
179.7835889
0
ARC
8
DEFAULT_255_2_778
10
18.8267207
20
144.8893088
40
0.098266
50
177.8221965
51
224.0379617
0
ARC
8
DEFAULT_255_2_778
10
18.8464576
20
144.9143517
40
0.1299333
50
225.9269812
51
272.0384171
0
ARC
8
DEFAULT_255_2_778
10
20.216987
20
145.4494976
40
0.3515032
50
37.8132465
51
89.9360651
0
ARC
8
DEFAULT_255_2_778
10
20.0346749
20
144.9592418
40
0.4267183
50
285.291584
51
321.0175046
0
ARC
8
DEFAULT_255_2_778
10
20.0570669
20
144.9130225
40
0.3763475
50
269.8450062
51
283.8588709
0
ARC
8
DEFAULT_255_2_778
10
20.0560587
20
144.9457286
40
0.4090522
50
268.5880369
51
269.9986183
0
ARC
8
DEFAULT_255_2_778
10
20.0420305
20
144.8925487
40
0.3557701
50
236.3475668
51
270.6359501
0
ARC
8
DEFAULT_255_2_778
10
20.0598141
20
144.9040321
40
0.3752788
50
201.8435891
51
235.058908
0
ARC
8
DEFAULT_255_2_778
10
20.3322211
20
145.0230871
40
0.6724873
50
181.1917384
51
202.6233367
0
ARC
8
DEFAULT_255_2_778
10
20.6351677
20
145.0561339
40
0.9764219
50
180.0156472
51
182.7609519
0
ARC
8
DEFAULT_255_2_778
10
20.5470549
20
145.0567658
40
0.8883095
50
174.2087211
51
180.0579587
0
ARC
8
DEFAULT_255_2_778
10
20.6346038
20
145.0696468
40
0.9727968
50
152.6606942
51
172.4775279
0
ARC
8
DEFAULT_255_2_778
10
20.4685375
20
145.1441269
40
0.7911386
50
151.1967159
51
151.9287309
0
ARC
8
DEFAULT_255_2_778
10
20.2724416
20
145.2681657
40
0.559722
50
125.8155177
51
152.6517649
0
ARC
8
DEFAULT_255_2_778
10
20.1926864
20
145.3626789
40
0.4365104
50
121.2895022
51
124.5859333
0
ARC
8
DEFAULT_255_2_778
10
20.2005174
20
145.3483255
40
0.4528439
50
89.3885498
51
121.1930117
0
ARC
8
DEFAULT_255_2_778
10
20.205315
20
145.2665492
40
0.5345942
50
88.6747242
51
89.9962477
0
ARC
8
DEFAULT_255_2_778
10
21.0229427
20
145.0291181
40
1.044966
50
173.5557888
51
179.5636493
0
ARC
8
DEFAULT_255_2_778
10
20.5582157
20
145.036089
40
0.5802095
50
179.9025124
51
183.3187157
0
ARC
8
DEFAULT_255_2_778
10
20.270534
20
145.007149
40
0.2915917
50
180.9134286
51
207.6247443
0
ARC
8
DEFAULT_255_2_778
10
20.135005
20
144.9427881
40
0.1417894
50
209.9763709
51
272.172214
0
ARC
8
DEFAULT_255_2_778
10
20.1512082
20
145.0665383
40
0.2656585
50
267.6638236
51
269.9934853
0
ARC
8
DEFAULT_255_2_778
10
20.1452669
20
145.0703962
40
0.2695812
50
271.2564257
51
323.4819236
0
ARC
8
DEFAULT_255_2_778
10
20.0042443
20
145.2092425
40
0.4663623
50
320.0808185
51
322.7722781
0
ARC
8
DEFAULT_255_2_778
10
20.2905955
20
145.3555938
40
0.1811681
50
17.7085133
51
91.4917236
0
ARC
8
DEFAULT_255_2_778
10
20.2776466
20
145.2548302
40
0.2819906
50
88.3270304
51
89.9962875
0
ARC
8
DEFAULT_255_2_778
10
20.2751839
20
145.3029886
40
0.2338453
50
89.3920923
51
141.8934507
0
ARC
8
DEFAULT_255_2_778
10
20.4150372
20
145.1933724
40
0.411538
50
141.9009784
51
164.0634131
0
ARC
8
DEFAULT_255_2_778
10
20.9401614
20
145.0256385
40
0.9626867
50
163.0454941
51
172.7936709
0
LINE
8
DEFAULT_255_2_778
10
14.1790793
20
145.7777006
11
14.4788793
21
145.7788006
0
LINE
8
DEFAULT_255_2_778
10
14.4788793
20
145.7788006
11
14.4515793
21
145.6348006
0
LINE
8
DEFAULT_255_2_778
10
15.1262793
20
145.3345006
11
14.9968793
21
144.5606006
0
LINE
8
DEFAULT_255_2_778
10
14.9968793
20
144.5606006
11
14.6764793
21
144.5606006
0
LINE
8
DEFAULT_255_2_778
10
14.6764793
20
144.5606006
11
14.8082793
21
145.3377006
0
LINE
8
DEFAULT_255_2_778
10
14.4391793
20
145.4197006
11
14.2856793
21
144.5604006
0
LINE
8
DEFAULT_255_2_778
10
14.2856793
20
144.5604006
11
13.9652793
21
144.5604006
0
LINE
8
DEFAULT_255_2_778
10
13.9652793
20
144.5604006
11
14.1787793
21
145.7775006
0
LINE
8
DEFAULT_255_2_778
10
14.1787793
20
145.7775006
11
14.1790793
21
145.7777006
0
LINE
8
DEFAULT_255_2_778
10
16.0157793
20
145.3928006
11
15.9692793
21
145.1308006
0
LINE
8
DEFAULT_255_2_778
10
15.9692793
20
145.1308006
11
15.3466793
21
145.1308006
0
LINE
8
DEFAULT_255_2_778
10
15.3466793
20
145.1308006
11
15.3921793
21
145.3928006
0
LINE
8
DEFAULT_255_2_778
10
15.3921793
20
145.3928006
11
16.0157793
21
145.3928006
0
LINE
8
DEFAULT_255_2_778
10
16.0157793
20
145.3928006
11
16.0157793
21
145.3928006
0
LINE
8
DEFAULT_255_2_778
10
16.7894793
20
144.5606006
11
16.1544793
21
144.5606006
0
LINE
8
DEFAULT_255_2_778
10
16.1544793
20
144.5606006
11
16.4417793
21
146.1981006
0
LINE
8
DEFAULT_255_2_778
10
16.4417793
20
146.1981006
11
16.9574793
21
146.1971006
0
LINE
8
DEFAULT_255_2_778
10
16.7894793
20
144.5606006
11
16.7894793
21
144.5606006
0
LINE
8
DEFAULT_255_2_778
10
16.9267793
20
145.2726006
11
16.6131793
21
145.2737006
0
LINE
8
DEFAULT_255_2_778
10
16.6131793
20
145.2737006
11
16.5348793
21
144.8316006
0
LINE
8
DEFAULT_255_2_778
10
16.5348793
20
144.8316006
11
16.7973793
21
144.8305006
0
LINE
8
DEFAULT_255_2_778
10
16.9267793
20
145.2724006
11
16.9267793
21
145.2726006
0
LINE
8
DEFAULT_255_2_778
10
16.7267793
20
145.9251006
11
16.6539793
21
145.5123006
0
LINE
8
DEFAULT_255_2_778
10
16.6539793
20
145.5123006
11
16.8798793
21
145.5100006
0
LINE
8
DEFAULT_255_2_778
10
16.9719793
20
145.9238006
11
16.7267793
21
145.9248006
0
LINE
8
DEFAULT_255_2_778
10
16.7267793
20
145.9248006
11
16.7267793
21
145.9251006
0
LINE
8
DEFAULT_255_2_778
10
18.4681793
20
145.7865006
11
18.4271793
21
145.4727006
0
LINE
8
DEFAULT_255_2_778
10
18.0477793
20
145.3570006
11
17.9056793
21
144.5606006
0
LINE
8
DEFAULT_255_2_778
10
17.9056793
20
144.5606006
11
17.5852793
21
144.5606006
0
LINE
8
DEFAULT_255_2_778
10
17.5852793
20
144.5606006
11
17.7987793
21
145.7777006
0
LINE
8
DEFAULT_255_2_778
10
17.7987793
20
145.7777006
11
18.0998793
21
145.7788006
0
LINE
8
DEFAULT_255_2_778
10
18.0998793
20
145.7788006
11
18.0702793
21
145.6303006
0
LINE
8
DEFAULT_255_2_778
10
18.4679793
20
145.7865006
11
18.4681793
21
145.7865006
0
LINE
8
DEFAULT_255_2_778
10
19.4122793
20
144.5604006
11
19.0976793
21
144.5604006
0
LINE
8
DEFAULT_255_2_778
10
19.0045793
20
145.3049006
11
19.1545793
21
145.3028006
0
LINE
8
DEFAULT_255_2_778
10
19.1545793
20
145.3028006
11
19.1703793
21
145.3758006
0
LINE
8
DEFAULT_255_2_778
10
18.8478793
20
145.4118006
11
18.5264793
21
145.4107006
0
LINE
8
DEFAULT_255_2_778
10
19.4939793
20
145.3713006
11
19.3997793
21
144.7887006
0
LINE
8
DEFAULT_255_2_778
10
19.3997793
20
144.7887006
11
19.3942793
21
144.7167006
0
LINE
8
DEFAULT_255_2_778
10
19.4135793
20
144.5818006
11
19.4124793
21
144.5604006
0
LINE
8
DEFAULT_255_2_778
10
19.4124793
20
144.5604006
11
19.4122793
21
144.5604006
0
LINE
8
DEFAULT_255_2_778
10
19.0928793
20
144.9035006
11
19.1325793
21
145.1139006
0
LINE
8
DEFAULT_255_2_778
10
19.1325793
20
145.1139006
11
19.0211793
21
145.1149006
0
LINE
8
DEFAULT_255_2_778
10
18.8510793
20
144.7845006
11
18.8510793
21
144.7842006
0
LINE
8
DEFAULT_255_2_778
10
20.4946793
20
145.6650006
11
20.6150793
21
146.2881006
0
LINE
8
DEFAULT_255_2_778
10
20.6150793
20
146.2881006
11
20.9364793
21
146.2881006
0
LINE
8
DEFAULT_255_2_778
10
20.9364793
20
146.2881006
11
20.6343793
21
144.5604006
0
LINE
8
DEFAULT_255_2_778
10
20.6343793
20
144.5604006
11
20.3480793
21
144.5604006
0
LINE
8
DEFAULT_255_2_778
10
20.3480793
20
144.5604006
11
20.3663793
21
144.6908006
0
LINE
8
DEFAULT_255_2_778
10
19.6632793
20
145.1464006
11
19.6701793
21
145.1970006
0
LINE
8
DEFAULT_255_2_778
10
20.2176793
20
145.8010006
11
20.2173793
21
145.8010006
0
LINE
8
DEFAULT_255_2_778
10
20.3755793
20
144.9271006
11
20.4631793
21
145.4107006
0
LINE
8
DEFAULT_255_2_778
10
19.9850793
20
145.1464006
11
19.9845793
21
145.1464006
0
LINE
8
DEFAULT_255_2_778
10
21.5304594
20
146.2881646
11
21.2282594
21
144.5604646
0
LINE
8
DEFAULT_255_2_778
10
21.2282594
20
144.5604646
11
20.9057594
21
144.5604646
0
LINE
8
DEFAULT_255_2_778
10
20.9057594
20
144.5604646
11
21.2089594
21
146.2881646
0
LINE
8
DEFAULT_255_2_778
10
21.2089594
20
146.2881646
11
21.5304594
21
146.2881646
0
LINE
8
DEFAULT_255_2_778
10
21.5304594
20
146.2881646
11
21.5304594
21
146.2881646
0
ARC
8
DEFAULT_255_2_778
10
22.0768767
20
145.0762764
40
0.5383522
50
238.763891
51
270.7055166
0
ARC
8
DEFAULT_255_2_778
10
22.0455625
20
145.020952
40
0.4748131
50
204.061185
51
238.5328679
0
ARC
8
DEFAULT_255_2_778
10
22.1281681
20
145.0605331
40
0.5663841
50
179.4896096
51
204.3103027
0
ARC
8
DEFAULT_255_2_778
10
22.2521843
20
145.0650727
40
0.6903781
50
175.123126
51
179.9580366
0
ARC
8
DEFAULT_255_2_778
10
22.3438479
20
145.1000152
40
0.7790728
50
149.5392097
51
174.9446897
0
ARC
8
DEFAULT_255_2_778
10
22.217984
20
145.1835212
40
0.628301
50
120.7003982
51
150.2846053
0
ARC
8
DEFAULT_255_2_778
10
22.1784851
20
145.2432024
40
0.556829
50
89.4236852
51
120.3409826
0
ARC
8
DEFAULT_255_2_778
10
22.1840352
20
145.1444671
40
0.6555361
50
88.4553682
51
89.9955718
0
ARC
8
DEFAULT_255_2_778
10
22.2069363
20
145.3286369
40
0.4711572
50
58.4514404
51
90.636095
0
ARC
8
DEFAULT_255_2_778
10
22.2332403
20
145.3920423
40
0.403504
50
35.6058989
51
56.9235594
0
ARC
8
DEFAULT_255_2_778
10
22.1229882
20
145.3182058
40
0.5361477
50
0.6851965
51
35.1616077
0
ARC
8
DEFAULT_255_2_778
10
21.9204313
20
145.2978229
40
0.7391521
50
359.9888194
51
2.0774415
0
ARC
8
DEFAULT_255_2_778
10
21.8068025
20
145.2995249
40
0.852783
50
353.383538
51
359.8759623
0
ARC
8
DEFAULT_255_2_778
10
22.293021
20
145.0471119
40
0.4107176
50
177.8018731
51
179.9839782
0
ARC
8
DEFAULT_255_2_778
10
22.1344217
20
145.035624
40
0.2523852
50
177.3650374
51
219.8309448
0
ARC
8
DEFAULT_255_2_778
10
22.1050068
20
145.0223401
40
0.2214564
50
222.0668323
51
271.55222
0
ARC
8
DEFAULT_255_2_778
10
22.1220002
20
145.2271289
40
0.4263057
50
268.5221572
51
269.9980687
0
ARC
8
DEFAULT_255_2_778
10
22.1204001
20
145.1975217
40
0.3967017
50
270.2290309
51
318.5203973
0
ARC
8
DEFAULT_255_2_778
10
22.1898056
20
145.0142979
40
0.4555006
50
292.4982989
51
325.2807674
0
ARC
8
DEFAULT_255_2_778
10
22.0999907
20
145.1928545
40
0.6549996
50
269.6158853
51
293.7802026
0
ARC
8
DEFAULT_255_2_778
10
22.0956026
20
145.279733
40
0.7418635
50
269.0811303
51
269.9997673
0
ARC
8
DEFAULT_255_2_778
10
22.1793249
20
145.2726977
40
0.2651417
50
88.6426435
51
89.9971979
0
ARC
8
DEFAULT_255_2_778
10
22.1775009
20
145.3079788
40
0.2298681
50
89.5421073
51
130.5025885
0
ARC
8
DEFAULT_255_2_778
10
22.2762398
20
145.2078327
40
0.370282
50
132.0556576
51
154.4346079
0
ARC
8
DEFAULT_255_2_778
10
22.6775288
20
144.9902869
40
0.8264843
50
152.8348001
51
159.2008974
0
ARC
8
DEFAULT_255_2_778
10
22.042515
20
145.3612268
40
0.3137404
50
351.1327381
51
359.8552777
0
ARC
8
DEFAULT_255_2_778
10
22.0889744
20
145.3608274
40
0.2672803
50
359.9157472
51
8.073482
0
ARC
8
DEFAULT_255_2_778
10
22.1916726
20
145.3761276
40
0.1634528
50
7.8192239
51
49.4174523
0
ARC
8
DEFAULT_255_2_778
10
22.1897336
20
145.3629377
40
0.174876
50
51.746929
51
91.3525911
0
LINE
8
DEFAULT_255_2_778
10
21.5643056
20
145.123765
11
21.5678056
21
145.168665
0
LINE
8
DEFAULT_255_2_778
10
22.6539056
20
145.201265
11
22.6356056
21
145.062865
0
LINE
8
DEFAULT_255_2_778
10
22.6356056
20
145.062865
11
21.8826056
21
145.062865
0
LINE
8
DEFAULT_255_2_778
10
22.4176056
20
144.934765
11
22.5642056
21
144.754865
0
LINE
8
DEFAULT_255_2_778
10
22.0837056
20
144.537965
11
22.0835056
21
144.537965
0
LINE
8
DEFAULT_255_2_778
10
21.9049056
20
145.283765
11
22.3456056
21
145.283765
0
LINE
8
DEFAULT_255_2_778
10
22.3456056
20
145.283765
11
22.3525056
21
145.312865
0
LINE
8
DEFAULT_255_2_778
10
22.1856056
20
145.537765
11
22.1856056
21
145.537765
0
ARC
8
DEFAULT_255_2_778
10
22.5732251
20
144.6768848
40
0.7187609
50
318.1171527
51
335.3457065
0
ARC
8
DEFAULT_255_2_778
10
22.7861338
20
144.4947586
40
0.4387075
50
306.2044829
51
317.2623563
0
ARC
8
DEFAULT_255_2_778
10
22.8118587
20
144.4640063
40
0.3987066
50
269.0092455
51
305.8318035
0
ARC
8
DEFAULT_255_2_778
10
22.8209703
20
144.6286254
40
0.5634934
50
257.9736769
51
268.3723286
0
ARC
8
DEFAULT_255_2_778
10
22.976467
20
145.4828273
40
1.431581
50
256.8370098
51
259.0102636
0
ARC
8
DEFAULT_255_2_778
10
22.7299218
20
144.730881
40
0.396887
50
268.3457775
51
269.9906226
0
ARC
8
DEFAULT_255_2_778
10
22.744688
20
144.5714479
40
0.2379166
50
266.425992
51
328.6474802
0
LINE
8
DEFAULT_255_2_778
10
23.1491646
20
145.7774594
11
23.2378646
21
145.0239594
0
LINE
8
DEFAULT_255_2_778
10
23.2378646
20
145.0239594
11
23.5889646
21
145.7774594
0
LINE
8
DEFAULT_255_2_778
10
23.5889646
20
145.7774594
11
23.9453646
21
145.7774594
0
LINE
8
DEFAULT_255_2_778
10
23.9453646
20
145.7774594
11
23.2264646
21
144.3770594
0
LINE
8
DEFAULT_255_2_778
10
22.6504646
20
144.0888594
11
22.6742646
21
144.3362594
0
LINE
8
DEFAULT_255_2_778
10
22.6742646
20
144.3362594
11
22.7184646
21
144.3341594
0
LINE
8
DEFAULT_255_2_778
10
22.9478646
20
144.4476594
11
23.0182646
21
144.5770594
0
LINE
8
DEFAULT_255_2_778
10
23.0182646
20
144.5770594
11
22.8171646
21
145.7771594
0
LINE
8
DEFAULT_255_2_778
10
22.8171646
20
145.7771594
11
23.1489646
21
145.7771594
0
LINE
8
DEFAULT_255_2_778
10
23.1489646
20
145.7771594
11
23.1491646
21
145.7774594
0
LINE
8
DEFAULT_255_2_778
10
5.4244542
20
146.1769666
11
5.4244542
21
144.9916666
0
LINE
8
DEFAULT_255_2_778
10
5.4244542
20
144.9916666
11
8.3507542
21
144.9546666
0
LINE
8
DEFAULT_255_2_778
10
8.3507542
20
144.9546666
11
8.3507542
21
146.1769666
0
LINE
8
DEFAULT_255_2_778
10
8.3507542
20
146.1769666
11
7.4246542
21
147.0289666
0
LINE
8
DEFAULT_255_2_778
10
7.4246542
20
147.0289666
11
6.2764542
21
147.0289666
0
LINE
8
DEFAULT_255_2_778
10
6.2764542
20
147.0289666
11
5.4244542
21
146.1769666
0
LINE
8
DEFAULT_255_2_778
10
5.5726542
20
144.7694666
11
8.2025542
21
144.7694666
0
LINE
8
DEFAULT_255_2_778
10
8.2025542
20
144.7694666
11
7.4617542
21
144.0656666
0
LINE
8
DEFAULT_255_2_778
10
7.4617542
20
144.0656666
11
6.3504542
21
144.0656666
0
LINE
8
DEFAULT_255_2_778
10
6.3504542
20
144.0656666
11
5.5726542
21
144.7694666
0
ARC
8
DEFAULT_255_2_778
10
7.8458226
20
145.3185768
40
0.1423419
50
264.5115721
51
318.4176283
0
ARC
8
DEFAULT_255_2_778
10
7.8189879
20
145.3156225
40
0.1616977
50
325.5297452
51
3.3557414
0
ARC
8
DEFAULT_255_2_778
10
7.8389795
20
145.6721157
40
0.142084
50
354.4959081
51
48.5537602
0
ARC
8
DEFAULT_255_2_778
10
7.8416444
20
145.6449068
40
0.1619557
50
55.6500697
51
93.3401169
0
ARC
8
DEFAULT_255_2_778
10
7.8414709
20
145.871425
40
0.0654958
50
261.8698976
51
8.1301024
0
ARC
8
DEFAULT_255_2_778
10
7.7988672
20
146.2541455
40
0.1074847
50
358.3696885
51
95.9524071
0
ARC
8
DEFAULT_255_2_778
10
7.7588839
20
146.0257916
40
0.3364968
50
85.0838783
51
90.1320543
0
LINE
8
DEFAULT_255_2_778
10
5.6838084
20
145.1768875
11
6.1283084
21
146.3992875
0
LINE
8
DEFAULT_255_2_778
10
6.1283084
20
146.3992875
11
6.3876084
21
146.3992875
0
LINE
8
DEFAULT_255_2_778
10
6.3876084
20
146.3992875
11
6.8691084
21
145.2139875
0
LINE
8
DEFAULT_255_2_778
10
6.8691084
20
145.2139875
11
6.5358084
21
145.2139875
0
LINE
8
DEFAULT_255_2_778
10
6.5358084
20
145.2139875
11
6.4246084
21
145.4732875
0
LINE
8
DEFAULT_255_2_778
10
6.4246084
20
145.4732875
11
6.0913084
21
145.4732875
0
LINE
8
DEFAULT_255_2_778
10
6.0913084
20
145.4732875
11
6.0913084
21
145.6213875
0
LINE
8
DEFAULT_255_2_778
10
6.0913084
20
145.6213875
11
6.3876084
21
145.6213875
0
LINE
8
DEFAULT_255_2_778
10
6.3876084
20
145.6213875
11
6.2024084
21
146.0658875
0
LINE
8
DEFAULT_255_2_778
10
6.2024084
20
146.0658875
11
5.8690084
21
145.1768875
0
LINE
8
DEFAULT_255_2_778
10
5.8690084
20
145.1768875
11
5.6838084
21
145.1768875
0
LINE
8
DEFAULT_255_2_778
10
5.6838084
20
145.1768875
11
5.6838084
21
145.1768875
0
LINE
8
DEFAULT_255_2_778
10
6.7580084
20
145.8436875
11
6.9062084
21
145.8436875
0
LINE
8
DEFAULT_255_2_778
10
6.9062084
20
145.8436875
11
6.9062084
21
145.6954875
0
LINE
8
DEFAULT_255_2_778
10
6.9062084
20
145.6954875
11
6.7580084
21
145.6954875
0
LINE
8
DEFAULT_255_2_778
10
6.7580084
20
145.6954875
11
6.7580084
21
145.8436875
0
LINE
8
DEFAULT_255_2_778
10
7.2766084
20
146.1770875
11
7.6100084
21
146.1770875
0
LINE
8
DEFAULT_255_2_778
10
7.6100084
20
146.1770875
11
7.6100084
21
145.8065875
0
LINE
8
DEFAULT_255_2_778
10
7.6100084
20
145.8065875
11
7.3507084
21
145.8065875
0
LINE
8
DEFAULT_255_2_778
10
7.3507084
20
145.8065875
11
7.3507084
21
145.6584875
0
LINE
8
DEFAULT_255_2_778
10
7.3507084
20
145.6584875
11
7.6840084
21
145.6584875
0
LINE
8
DEFAULT_255_2_778
10
7.6840084
20
145.6584875
11
7.6840084
21
145.3250875
0
LINE
8
DEFAULT_255_2_778
10
7.6840084
20
145.3250875
11
7.2766084
21
145.3250875
0
LINE
8
DEFAULT_255_2_778
10
7.2766084
20
145.3250875
11
7.2766084
21
146.1770875
0
LINE
8
DEFAULT_255_2_778
10
7.2766084
20
146.1770875
11
7.2766084
21
146.1770875
0
LINE
8
DEFAULT_255_2_778
10
6.9803084
20
146.3622875
11
6.9803084
21
145.1768875
0
LINE
8
DEFAULT_255_2_778
10
6.9803084
20
145.1768875
11
7.8322084
21
145.1768875
0
LINE
8
DEFAULT_255_2_778
10
7.9804084
20
145.3250875
11
7.9804084
21
145.6584875
0
LINE
8
DEFAULT_255_2_778
10
7.9063084
20
145.8806875
11
7.9063084
21
146.2510875
0
LINE
8
DEFAULT_255_2_778
10
7.7581084
20
146.3622875
11
6.9803084
21
146.3622875
0
LINE
8
DEFAULT_255_2_778
10
6.9803084
20
146.3622875
11
6.9803084
21
146.3622875
0
LINE
8
DEFAULT_255_2_778
10
6.3394427
20
144.3865198
11
6.3367427
21
144.3865198
0
ARC
8
DEFAULT_255_2_778
10
6.3340483
20
144.5115854
40
0.1250946
50
247.1356448
51
271.2341787
0
ARC
8
DEFAULT_255_2_778
10
6.3160916
20
144.4692164
40
0.0790776
50
215.0349981
51
247.1960091
0
ARC
8
DEFAULT_255_2_778
10
6.3109464
20
144.4638964
40
0.0718243
50
178.625123
51
213.9163394
0
ARC
8
DEFAULT_255_2_778
10
6.3131693
20
144.5809391
40
0.0740421
50
147.0420611
51
181.175799
0
ARC
8
DEFAULT_255_2_778
10
6.3147919
20
144.5770628
40
0.0775487
50
112.4780918
51
145.2909011
0
ARC
8
DEFAULT_255_2_778
10
6.333917
20
144.5326534
40
0.1258981
50
88.7138988
51
112.7934617
0
ARC
8
DEFAULT_255_2_778
10
6.339481
20
144.5331878
40
0.1253619
50
67.159311
51
91.2516049
0
ARC
8
DEFAULT_255_2_778
10
6.3569794
20
144.5751852
40
0.0798654
50
35.1978461
51
67.0331611
0
ARC
8
DEFAULT_255_2_778
10
6.3626391
20
144.5811431
40
0.0718243
50
358.625123
51
33.9163394
0
ARC
8
DEFAULT_255_2_778
10
6.3604162
20
144.4641004
40
0.0740421
50
327.0420611
51
1.175799
0
ARC
8
DEFAULT_255_2_778
10
6.361381
20
144.4653218
40
0.0739133
50
291.6436853
51
325.8406333
0
ARC
8
DEFAULT_255_2_778
10
6.3401809
20
144.474374
40
0.0482768
50
265.9160158
51
308.3617549
0
ARC
8
DEFAULT_255_2_778
10
6.3451719
20
144.4633207
40
0.036631
50
312.9754563
51
3.2850623
0
ARC
8
DEFAULT_255_2_778
10
6.3448152
20
144.581002
40
0.0369754
50
357.082104
51
47.4006092
0
ARC
8
DEFAULT_255_2_778
10
6.339634
20
144.5708686
40
0.0480383
50
51.0349629
51
93.4505724
0
ARC
8
DEFAULT_255_2_778
10
6.3340455
20
144.570549
40
0.0483461
50
86.8017862
51
128.8135095
0
ARC
8
DEFAULT_255_2_778
10
6.3287702
20
144.581002
40
0.0369754
50
132.5993908
51
182.917896
0
ARC
8
DEFAULT_255_2_778
10
6.3284135
20
144.4633207
40
0.036631
50
176.7149377
51
227.0245437
0
ARC
8
DEFAULT_255_2_778
10
6.3334908
20
144.474686
40
0.0485752
50
231.7867693
51
273.8385805
0
ARC
8
DEFAULT_255_2_778
10
6.5570034
20
144.4630567
40
0.0766655
50
226.2029837
51
273.3195937
0
ARC
8
DEFAULT_255_2_778
10
6.5622798
20
144.4610746
40
0.0790566
50
176.8492311
51
222.4458356
0
ARC
8
DEFAULT_255_2_778
10
6.5699928
20
144.4629647
40
0.043631
50
176.5112098
51
217.639275
0
ARC
8
DEFAULT_255_2_778
10
6.5593879
20
144.4578664
40
0.0322122
50
221.9818643
51
273.6574471
0
ARC
8
DEFAULT_255_2_778
10
6.5632217
20
144.4583151
40
0.0326438
50
266.8760675
51
317.6392064
0
ARC
8
DEFAULT_255_2_778
10
6.5527926
20
144.4629647
40
0.043631
50
322.360725
51
3.4887902
0
ARC
8
DEFAULT_255_2_778
10
6.5605056
20
144.4610746
40
0.0790566
50
317.5541644
51
3.1507689
0
ARC
8
DEFAULT_255_2_778
10
6.5656687
20
144.4633223
40
0.0769357
50
266.6274163
51
313.7210327
0
LINE
8
DEFAULT_255_2_778
10
6.4394427
20
144.3249198
11
6.3828427
21
144.3249198
0
LINE
8
DEFAULT_255_2_778
10
6.3828427
20
144.3249198
11
6.3394427
21
144.3865198
0
LINE
8
DEFAULT_255_2_778
10
6.2391427
20
144.4656198
11
6.2391427
21
144.5794198
0
LINE
8
DEFAULT_255_2_778
10
6.4344427
20
144.5794198
11
6.4344427
21
144.4656198
0
LINE
8
DEFAULT_255_2_778
10
6.3886427
20
144.3966198
11
6.4394427
21
144.3251198
0
LINE
8
DEFAULT_255_2_778
10
6.4394427
20
144.3251198
11
6.4394427
21
144.3249198
0
LINE
8
DEFAULT_255_2_778
10
6.3817427
20
144.4654198
11
6.3817427
21
144.5791198
0
LINE
8
DEFAULT_255_2_778
10
6.2918427
20
144.5791198
11
6.2918427
21
144.4654198
0
LINE
8
DEFAULT_255_2_778
10
6.3367427
20
144.4262198
11
6.3367427
21
144.4262198
0
LINE
8
DEFAULT_255_2_778
10
6.4833427
20
144.4654198
11
6.4833427
21
144.6545198
0
LINE
8
DEFAULT_255_2_778
10
6.4833427
20
144.6545198
11
6.5264427
21
144.6545198
0
LINE
8
DEFAULT_255_2_778
10
6.5264427
20
144.6545198
11
6.5264427
21
144.4656198
0
LINE
8
DEFAULT_255_2_778
10
6.5963427
20
144.4656198
11
6.5963427
21
144.6545198
0
LINE
8
DEFAULT_255_2_778
10
6.5963427
20
144.6545198
11
6.6394427
21
144.6545198
0
LINE
8
DEFAULT_255_2_778
10
6.6394427
20
144.6545198
11
6.6394427
21
144.4654198
0
LINE
8
DEFAULT_255_2_778
10
6.5611427
20
144.3865198
11
6.5614427
21
144.3865198
0
ARC
8
DEFAULT_255_2_778
10
12.1641553
20
145.6896635
40
5.5033955
50
191.4837585
51
191.8239227
0
ARC
8
DEFAULT_255_2_778
10
8.3589245
20
144.8858972
40
1.6145995
50
189.6626565
51
190.4158531
0
ARC
8
DEFAULT_255_2_778
10
6.1197449
20
144.7187409
40
0.6557616
50
349.0334606
51
350.8880298
0
ARC
8
DEFAULT_255_2_778
10
6.0674183
20
144.7223866
40
0.7078549
50
346.9283592
51
349.5494987
0
ARC
8
DEFAULT_255_2_778
10
7.2958769
20
144.4915243
40
0.1856762
50
15.5793022
51
22.5708948
0
ARC
8
DEFAULT_255_2_778
10
7.3328007
20
144.4963058
40
0.1489195
50
11.1061152
51
17.6230497
0
ARC
8
DEFAULT_255_2_778
10
8.063214
20
144.3805593
40
0.6018696
50
164.5010167
51
166.1150622
0
ARC
8
DEFAULT_255_2_778
10
7.6620856
20
144.4915243
40
0.1856762
50
157.4291052
51
164.4206978
0
LINE
8
DEFAULT_255_2_778
10
6.7201313
20
144.3899917
11
6.6762313
21
144.3899917
0
LINE
8
DEFAULT_255_2_778
10
6.6762313
20
144.3899917
11
6.7392313
21
144.6545917
0
LINE
8
DEFAULT_255_2_778
10
6.7392313
20
144.6545917
11
6.7942313
21
144.6545917
0
LINE
8
DEFAULT_255_2_778
10
6.7942313
20
144.6545917
11
6.8577313
21
144.3899917
0
LINE
8
DEFAULT_255_2_778
10
6.8577313
20
144.3899917
11
6.8138313
21
144.3899917
0
LINE
8
DEFAULT_255_2_778
10
6.8138313
20
144.3899917
11
6.8000313
21
144.4539917
0
LINE
8
DEFAULT_255_2_778
10
6.8000313
20
144.4539917
11
6.7336313
21
144.4539917
0
LINE
8
DEFAULT_255_2_778
10
6.7336313
20
144.4539917
11
6.7199313
21
144.3899917
0
LINE
8
DEFAULT_255_2_778
10
6.7199313
20
144.3899917
11
6.7201313
21
144.3899917
0
LINE
8
DEFAULT_255_2_778
10
6.7569313
20
144.5624917
11
6.7418313
21
144.4910917
0
LINE
8
DEFAULT_255_2_778
10
6.7418313
20
144.4910917
11
6.7926313
21
144.4910917
0
LINE
8
DEFAULT_255_2_778
10
6.7926313
20
144.4910917
11
6.7775313
21
144.5619917
0
LINE
8
DEFAULT_255_2_778
10
6.7569313
20
144.5622917
11
6.7569313
21
144.5624917
0
LINE
8
DEFAULT_255_2_778
10
7.0231313
20
144.3899917
11
6.8741313
21
144.3899917
0
LINE
8
DEFAULT_255_2_778
10
6.8741313
20
144.3899917
11
6.8741313
21
144.6545917
0
LINE
8
DEFAULT_255_2_778
10
6.8741313
20
144.6545917
11
6.9170313
21
144.6545917
0
LINE
8
DEFAULT_255_2_778
10
6.9170313
20
144.6545917
11
6.9170313
21
144.4309917
0
LINE
8
DEFAULT_255_2_778
10
6.9170313
20
144.4309917
11
7.0231313
21
144.4309917
0
LINE
8
DEFAULT_255_2_778
10
7.0231313
20
144.4309917
11
7.0231313
21
144.3899917
0
LINE
8
DEFAULT_255_2_778
10
7.0231313
20
144.3899917
11
7.0231313
21
144.3899917
0
LINE
8
DEFAULT_255_2_778
10
7.1760313
20
144.3899917
11
7.0321313
21
144.3899917
0
LINE
8
DEFAULT_255_2_778
10
7.0321313
20
144.3899917
11
7.0321313
21
144.4309917
0
LINE
8
DEFAULT_255_2_778
10
7.0321313
20
144.4309917
11
7.0823313
21
144.4309917
0
LINE
8
DEFAULT_255_2_778
10
7.0823313
20
144.4309917
11
7.0823313
21
144.6135917
0
LINE
8
DEFAULT_255_2_778
10
7.0823313
20
144.6135917
11
7.0321313
21
144.6135917
0
LINE
8
DEFAULT_255_2_778
10
7.0321313
20
144.6135917
11
7.0321313
21
144.6545917
0
LINE
8
DEFAULT_255_2_778
10
7.0321313
20
144.6545917
11
7.1760313
21
144.6545917
0
LINE
8
DEFAULT_255_2_778
10
7.1760313
20
144.6545917
11
7.1760313
21
144.6135917
0
LINE
8
DEFAULT_255_2_778
10
7.1760313
20
144.6135917
11
7.1257313
21
144.6135917
0
LINE
8
DEFAULT_255_2_778
10
7.1257313
20
144.6135917
11
7.1257313
21
144.4309917
0
LINE
8
DEFAULT_255_2_778
10
7.1257313
20
144.4309917
11
7.1760313
21
144.4309917
0
LINE
8
DEFAULT_255_2_778
10
7.1760313
20
144.4309917
11
7.1760313
21
144.3899917
0
LINE
8
DEFAULT_255_2_778
10
7.1760313
20
144.3899917
11
7.1760313
21
144.3899917
0
LINE
8
DEFAULT_255_2_778
10
7.2940313
20
144.3899917
11
7.2509313
21
144.3899917
0
LINE
8
DEFAULT_255_2_778
10
7.2509313
20
144.3899917
11
7.2509313
21
144.6135917
0
LINE
8
DEFAULT_255_2_778
10
7.2509313
20
144.6135917
11
7.1855313
21
144.6135917
0
LINE
8
DEFAULT_255_2_778
10
7.1855313
20
144.6135917
11
7.1855313
21
144.6545917
0
LINE
8
DEFAULT_255_2_778
10
7.1855313
20
144.6545917
11
7.3596313
21
144.6545917
0
LINE
8
DEFAULT_255_2_778
10
7.3596313
20
144.6545917
11
7.3596313
21
144.6135917
0
LINE
8
DEFAULT_255_2_778
10
7.3596313
20
144.6135917
11
7.2943313
21
144.6135917
0
LINE
8
DEFAULT_255_2_778
10
7.2943313
20
144.6135917
11
7.2943313
21
144.3899917
0
LINE
8
DEFAULT_255_2_778
10
7.2943313
20
144.3899917
11
7.2940313
21
144.3899917
0
LINE
8
DEFAULT_255_2_778
10
7.4996313
20
144.3899917
11
7.4565313
21
144.3899917
0
LINE
8
DEFAULT_255_2_778
10
7.4565313
20
144.3899917
11
7.4565313
21
144.4860917
0
LINE
8
DEFAULT_255_2_778
10
7.4565313
20
144.4860917
11
7.3832313
21
144.6545917
0
LINE
8
DEFAULT_255_2_778
10
7.3832313
20
144.6545917
11
7.4281313
21
144.6545917
0
LINE
8
DEFAULT_255_2_778
10
7.4281313
20
144.6545917
11
7.4673313
21
144.5627917
0
LINE
8
DEFAULT_255_2_778
10
7.4906313
20
144.5627917
11
7.5287313
21
144.6545917
0
LINE
8
DEFAULT_255_2_778
10
7.5287313
20
144.6545917
11
7.5731313
21
144.6545917
0
LINE
8
DEFAULT_255_2_778
10
7.5731313
20
144.6545917
11
7.4998313
21
144.4860917
0
LINE
8
DEFAULT_255_2_778
10
7.4998313
20
144.4860917
11
7.4998313
21
144.3899917
0
LINE
8
DEFAULT_255_2_778
10
7.4998313
20
144.3899917
11
7.4996313
21
144.3899917
0
LINE
8
DEFAULT_255_1_388
10
8.7647985
20
142.8957148
11
8.7647985
21
141.5738
0
LINE
8
DEFAULT_255_1_388
10
8.7647985
20
141.5738
11
8.5967355
21
141.5738
0
LINE
8
DEFAULT_255_1_388
10
8.5967355
20
141.5738
11
8.5967355
21
142.687895
0
LINE
8
DEFAULT_255_1_388
10
8.5967355
20
142.687895
11
8.259706
21
142.5641066
0
LINE
8
DEFAULT_255_1_388
10
8.259706
20
142.5641066
11
8.259706
21
142.7159055
0
LINE
8
DEFAULT_255_1_388
10
8.259706
20
142.7159055
11
8.7385951
21
142.8957148
0
LINE
8
DEFAULT_255_1_388
10
8.7385951
20
142.8957148
11
8.7647985
21
142.8957148
0
LINE
8
DEFAULT_255_1_388
10
10.103881
20
142.8893898
11
10.103881
21
142.7954191
0
LINE
8
DEFAULT_255_1_388
10
10.103881
20
142.7954191
11
9.5590316
21
141.5738
0
LINE
8
DEFAULT_255_1_388
10
9.5590316
20
141.5738
11
9.3837401
21
141.5738
0
LINE
8
DEFAULT_255_1_388
10
9.3837401
20
141.5738
11
9.9267824
21
142.752048
0
LINE
8
DEFAULT_255_1_388
10
9.9267824
20
142.752048
11
9.2147736
21
142.752048
0
LINE
8
DEFAULT_255_1_388
10
9.2147736
20
142.752048
11
9.2147736
21
142.8893898
0
LINE
8
DEFAULT_255_1_388
10
9.2147736
20
142.8893898
11
10.103881
21
142.8893898
0
LINE
8
DEFAULT_255_1_388
10
10.9197997
20
142.8902934
11
10.9496173
21
142.8902934
0
LINE
8
DEFAULT_255_1_388
10
10.9496173
20
142.8902934
11
10.9496173
21
142.7484338
0
LINE
8
DEFAULT_255_1_388
10
10.9496173
20
142.7484338
11
10.9188961
21
142.7484338
0
LINE
8
DEFAULT_255_1_388
10
10.3035687
20
142.0743747
11
10.3035687
21
142.1385278
0
LINE
8
DEFAULT_255_1_388
10
10.4716317
20
142.1168422
11
10.4716317
21
142.0553999
0
ARC
8
DEFAULT_255_1_388
10
10.9247853
20
142.1861826
40
0.562282
50
90.6001079
51
104.5146616
0
ARC
8
DEFAULT_255_1_388
10
10.8810812
20
142.34871
40
0.3939917
50
104.2855758
51
133.8630124
0
ARC
8
DEFAULT_255_1_388
10
10.8995065
20
142.3365243
40
0.4155734
50
134.5304124
51
161.6210222
0
ARC
8
DEFAULT_255_1_388
10
11.0854997
20
142.2709421
40
0.6127682
50
161.2850533
51
174.2074364
0
ARC
8
DEFAULT_255_1_388
10
11.2444564
20
142.2490437
40
0.7731446
50
173.7817938
51
174.9251711
0
ARC
8
DEFAULT_255_1_388
10
10.7318758
20
142.093527
40
0.3412588
50
95.8332067
51
138.995412
0
ARC
8
DEFAULT_255_1_388
10
10.7570038
20
141.9496695
40
0.4870358
50
89.8755506
51
97.0540979
0
ARC
8
DEFAULT_255_1_388
10
10.7623427
20
142.0436841
40
0.3930432
50
71.6407016
51
90.6240821
0
ARC
8
DEFAULT_255_1_388
10
10.7792821
20
142.1060433
40
0.3285421
50
39.6368051
51
71.0190743
0
ARC
8
DEFAULT_255_1_388
10
10.7076728
20
142.0441586
40
0.4231706
50
10.6588054
51
39.9044509
0
ARC
8
DEFAULT_255_1_388
10
10.5335274
20
142.0063223
40
0.60133
50
359.6827842
51
11.1326896
0
ARC
8
DEFAULT_255_1_388
10
10.529061
20
141.9983715
40
0.6058047
50
347.2485908
51
0.4371098
0
ARC
8
DEFAULT_255_1_388
10
10.7166395
20
141.9532379
40
0.4128987
50
318.1408565
51
347.6118497
0
ARC
8
DEFAULT_255_1_388
10
10.7531992
20
141.9231903
40
0.3656244
50
275.6342406
51
317.824739
0
ARC
8
DEFAULT_255_1_388
10
10.7283513
20
142.0693827
40
0.513655
50
269.8872513
51
276.7916069
0
ARC
8
DEFAULT_255_1_388
10
10.7221705
20
141.9540181
40
0.398323
50
246.9139443
51
270.7436787
0
ARC
8
DEFAULT_255_1_388
10
10.7228901
20
141.9380044
40
0.3839368
50
218.1665534
51
245.8780431
0
ARC
8
DEFAULT_255_1_388
10
10.8218273
20
142.0207903
40
0.5128958
50
191.4115343
51
218.6077624
0
ARC
8
DEFAULT_255_1_388
10
11.039859
20
142.0696777
40
0.7363054
50
179.6344971
51
191.7836758
0
ARC
8
DEFAULT_255_1_388
10
11.6678464
20
142.1460495
40
1.3642984
50
171.4523743
51
180.3158856
0
ARC
8
DEFAULT_255_1_388
10
11.1734191
20
142.2229895
40
0.8639311
50
157.9802296
51
171.6246761
0
ARC
8
DEFAULT_255_1_388
10
10.9243542
20
142.3223038
40
0.5958004
50
141.4299236
51
157.8541251
0
ARC
8
DEFAULT_255_1_388
10
10.8521625
20
142.3733746
40
0.5075416
50
102.871586
51
140.8564533
0
ARC
8
DEFAULT_255_1_388
10
10.9250178
20
142.0988943
40
0.7914163
50
90.377773
51
103.5868422
0
ARC
8
DEFAULT_255_1_388
10
10.7294699
20
142.0308543
40
0.2667015
50
89.8751238
51
126.2072139
0
ARC
8
DEFAULT_255_1_388
10
10.734617
20
142.0134847
40
0.2838229
50
124.9742447
51
144.8960197
0
ARC
8
DEFAULT_255_1_388
10
10.7148415
20
142.0295981
40
0.2583845
50
145.2974778
51
160.2660922
0
ARC
8
DEFAULT_255_1_388
10
11.0604903
20
142.0518151
40
0.5888695
50
179.6512124
51
190.285571
0
ARC
8
DEFAULT_255_1_388
10
10.8699383
20
142.0158968
40
0.3949683
50
190.0944895
51
207.5099647
0
ARC
8
DEFAULT_255_1_388
10
10.8062965
20
141.9856177
40
0.3245464
50
207.9585471
51
216.325377
0
ARC
8
DEFAULT_255_1_388
10
10.7680602
20
141.9541712
40
0.2751259
50
215.7661336
51
232.5457193
0
ARC
8
DEFAULT_255_1_388
10
10.7249718
20
141.8994273
40
0.2054668
50
232.8005815
51
270.6605497
0
ARC
8
DEFAULT_255_1_388
10
10.7301142
20
141.9403853
40
0.2464268
50
269.3550767
51
288.474612
0
ARC
8
DEFAULT_255_1_388
10
10.7405649
20
141.9010721
40
0.2058436
50
289.1831976
51
322.9685307
0
ARC
8
DEFAULT_255_1_388
10
10.6717751
20
141.9553279
40
0.2934408
50
322.6007085
51
346.5183319
0
ARC
8
DEFAULT_255_1_388
10
10.5415507
20
141.9885434
40
0.4278249
50
346.2584622
51
358.7739592
0
ARC
8
DEFAULT_255_1_388
10
10.4264082
20
141.9947829
40
0.5430876
50
358.3757628
51
0.0082477
0
ARC
8
DEFAULT_255_1_388
10
10.51209
20
141.9978856
40
0.4574157
50
359.6211417
51
11.28403
0
ARC
8
DEFAULT_255_1_388
10
10.6557507
20
142.0278535
40
0.3106708
50
11.0483152
51
31.8145585
0
ARC
8
DEFAULT_255_1_388
10
10.6905212
20
142.0467045
40
0.2711963
50
32.3028554
51
38.0820598
0
ARC
8
DEFAULT_255_1_388
10
10.7378445
20
142.0895717
40
0.2075566
50
36.8249851
51
85.741667
0
ARC
8
DEFAULT_255_1_388
10
10.7302857
20
142.0332065
40
0.2643487
50
85.0150021
51
90.050843
0
LINE
8
DEFAULT_255_1_388
10
12.1414188
20
142.3635153
11
12.1414188
21
142.3147229
0
LINE
8
DEFAULT_255_1_388
10
11.5315128
20
141.5728964
11
11.4989845
21
141.5728964
0
LINE
8
DEFAULT_255_1_388
10
11.4989845
20
141.5728964
11
11.4989845
21
141.7138525
0
LINE
8
DEFAULT_255_1_388
10
11.4989845
20
141.7138525
11
11.5342235
21
141.7138525
0
LINE
8
DEFAULT_255_1_388
10
11.9742594
20
142.330987
11
11.9742594
21
142.3978508
0
ARC
8
DEFAULT_255_1_388
10
11.6599686
20
142.4148877
40
0.4089973
50
297.4036461
51
320.0168133
0
ARC
8
DEFAULT_255_1_388
10
11.6925866
20
142.3522072
40
0.3383378
50
270.2631886
51
297.3852322
0
ARC
8
DEFAULT_255_1_388
10
11.6887542
20
142.4059343
40
0.3920983
50
269.9969069
51
270.7871389
0
ARC
8
DEFAULT_255_1_388
10
11.6858866
20
142.4041737
40
0.3903482
50
254.5997295
51
270.4178147
0
ARC
8
DEFAULT_255_1_388
10
11.6698397
20
142.3406693
40
0.3248657
50
236.4717231
51
254.3539376
0
ARC
8
DEFAULT_255_1_388
10
11.6874129
20
142.3642999
40
0.3542746
50
208.4727261
51
236.2134628
0
ARC
8
DEFAULT_255_1_388
10
11.7592892
20
142.4082676
40
0.4384402
50
204.3450776
51
209.0455365
0
ARC
8
DEFAULT_255_1_388
10
11.8357268
20
142.44068
40
0.5214459
50
183.9375459
51
204.1275509
0
ARC
8
DEFAULT_255_1_388
10
11.9379574
20
142.4516863
40
0.6242037
50
179.9652726
51
184.3010611
0
ARC
8
DEFAULT_255_1_388
10
11.910912
20
142.4554004
40
0.5971675
50
166.7585952
51
180.3200491
0
ARC
8
DEFAULT_255_1_388
10
11.8156928
20
142.4760979
40
0.4997418
50
154.6954866
51
166.5679151
0
ARC
8
DEFAULT_255_1_388
10
11.7197168
20
142.5244411
40
0.3923208
50
136.3325251
51
155.0871367
0
ARC
8
DEFAULT_255_1_388
10
11.6881087
20
142.5515271
40
0.3507618
50
121.2365985
51
135.9680081
0
ARC
8
DEFAULT_255_1_388
10
11.7039152
20
142.5222541
40
0.3839917
50
96.8454764
51
120.9881329
0
ARC
8
DEFAULT_255_1_388
10
11.7202958
20
142.4169942
40
0.4904679
50
89.887204
51
97.2797758
0
ARC
8
DEFAULT_255_1_388
10
11.7261931
20
142.4887652
40
0.418725
50
70.6505767
51
90.6748382
0
ARC
8
DEFAULT_255_1_388
10
11.7409628
20
142.5465091
40
0.3593866
50
36.7493297
51
69.8220487
0
ARC
8
DEFAULT_255_1_388
10
11.6285975
20
142.4589446
40
0.5018201
50
15.3958155
51
37.0841102
0
ARC
8
DEFAULT_255_1_388
10
11.389026
20
142.3891111
40
0.7513436
50
3.9487796
51
15.6798517
0
ARC
8
DEFAULT_255_1_388
10
11.1188902
20
142.364781
40
1.0225293
50
359.9290791
51
4.266464
0
ARC
8
DEFAULT_255_1_388
10
10.6007819
20
142.3072372
40
1.5406551
50
352.8365702
51
0.2783851
0
ARC
8
DEFAULT_255_1_388
10
11.195605
20
142.2299664
40
0.9408425
50
341.8359339
51
352.9884057
0
ARC
8
DEFAULT_255_1_388
10
11.5577037
20
142.1079144
40
0.5587481
50
322.8579243
51
342.1527461
0
ARC
8
DEFAULT_255_1_388
10
11.6548729
20
142.041635
40
0.4413099
50
319.3348471
51
322.100194
0
ARC
8
DEFAULT_255_1_388
10
11.620066
20
142.0765814
40
0.4904992
50
285.954114
51
318.8878716
0
ARC
8
DEFAULT_255_1_388
10
11.5383098
20
142.3364865
40
0.7628991
50
272.9280841
51
286.4924389
0
ARC
8
DEFAULT_255_1_388
10
11.5169402
20
142.589924
40
1.017132
50
270.8209173
51
273.4010121
0
ARC
8
DEFAULT_255_1_388
10
11.5269425
20
142.3851073
40
0.6712943
50
270.6214576
51
281.4062333
0
ARC
8
DEFAULT_255_1_388
10
11.5753149
20
142.153825
40
0.4350167
50
281.1852583
51
299.0622058
0
ARC
8
DEFAULT_255_1_388
10
11.6173394
20
142.0727138
40
0.3437146
50
299.5068171
51
313.1200142
0
ARC
8
DEFAULT_255_1_388
10
11.6198132
20
142.0637959
40
0.3355418
50
313.8525725
51
338.5989631
0
ARC
8
DEFAULT_255_1_388
10
11.437126
20
142.1388576
40
0.5330317
50
338.2523315
51
351.2431701
0
ARC
8
DEFAULT_255_1_388
10
11.1659011
20
142.1849494
40
0.8081235
50
350.940933
51
357.6690137
0
ARC
8
DEFAULT_255_1_388
10
11.7160891
20
142.4102048
40
0.2581236
50
269.9447107
51
306.8249644
0
ARC
8
DEFAULT_255_1_388
10
11.6894193
20
142.457806
40
0.3122948
50
305.5071046
51
327.0773808
0
ARC
8
DEFAULT_255_1_388
10
11.7027244
20
142.4471445
40
0.2953369
50
327.4106457
51
336.8396801
0
ARC
8
DEFAULT_255_1_388
10
11.3546958
20
142.4014932
40
0.6195743
50
359.663158
51
10.1176387
0
ARC
8
DEFAULT_255_1_388
10
11.5519721
20
142.4379922
40
0.4189561
50
9.9431549
51
26.7699242
0
ARC
8
DEFAULT_255_1_388
10
11.6191707
20
142.4689796
40
0.3450125
50
27.2018067
51
34.6833639
0
ARC
8
DEFAULT_255_1_388
10
11.674232
20
142.510356
40
0.2762035
50
34.124913
51
50.30709
0
ARC
8
DEFAULT_255_1_388
10
11.7244803
20
142.5704741
40
0.1978518
50
50.3850304
51
90.6705051
0
ARC
8
DEFAULT_255_1_388
10
11.7192196
20
142.5362074
40
0.2321235
50
89.2729817
51
111.9140267
0
ARC
8
DEFAULT_255_1_388
10
11.7170284
20
142.5520308
40
0.2166604
50
112.9381864
51
142.5320936
0
ARC
8
DEFAULT_255_1_388
10
11.7784773
20
142.5021392
40
0.2957902
50
142.1024021
51
166.3835244
0
ARC
8
DEFAULT_255_1_388
10
11.9113743
20
142.4678213
40
0.4330361
50
166.1100968
51
178.6653563
0
ARC
8
DEFAULT_255_1_388
10
12.0295668
20
142.4612061
40
0.5513642
50
178.2641888
51
180.010994
0
ARC
8
DEFAULT_255_1_388
10
11.939017
20
142.4580136
40
0.4608248
50
179.6162225
51
191.8786013
0
ARC
8
DEFAULT_255_1_388
10
11.801748
20
142.427659
40
0.3202502
50
191.6192934
51
215.2970746
0
ARC
8
DEFAULT_255_1_388
10
11.7778135
20
142.4133963
40
0.2924827
50
215.7258926
51
216.5355437
0
ARC
8
DEFAULT_255_1_388
10
11.7189755
20
142.3660919
40
0.2170661
50
215.7486606
51
239.9728403
0
ARC
8
DEFAULT_255_1_388
10
11.7110921
20
142.3603838
40
0.208217
50
241.065081
51
269.280972
0
ARC
8
DEFAULT_255_1_388
10
11.7158079
20
142.4159327
40
0.2638514
50
268.4083352
51
270.0069622
0
LINE
8
DEFAULT_255_1_388
10
13.6666356
20
141.9912468
11
13.8410236
21
141.9912468
0
LINE
8
DEFAULT_255_1_388
10
12.8281278
20
142.1701525
11
12.8281278
21
142.2966516
0
LINE
8
DEFAULT_255_1_388
10
13.8410236
20
142.4665217
11
13.6666356
21
142.4665217
0
LINE
8
DEFAULT_255_1_388
10
13.0025158
20
142.2921337
11
13.0025158
21
142.1647312
0
ARC
8
DEFAULT_255_1_388
10
13.224447
20
142.0584329
40
0.6202263
50
340.1774904
51
353.7812217
0
ARC
8
DEFAULT_255_1_388
10
13.4012323
20
141.9925893
40
0.4315926
50
311.4560052
51
340.4420756
0
ARC
8
DEFAULT_255_1_388
10
13.3974862
20
142.0050665
40
0.4434573
50
282.4332229
51
310.7514507
0
ARC
8
DEFAULT_255_1_388
10
13.348068
20
142.2092703
40
0.6535262
50
269.9358869
51
282.8096729
0
ARC
8
DEFAULT_255_1_388
10
13.342262
20
142.3605329
40
0.8048043
50
269.9995752
51
270.3612856
0
ARC
8
DEFAULT_255_1_388
10
13.336311
20
142.0806781
40
0.5249831
50
250.7885263
51
270.6488451
0
ARC
8
DEFAULT_255_1_388
10
13.3173934
20
142.0089853
40
0.4510942
50
219.3628377
51
250.0611024
0
ARC
8
DEFAULT_255_1_388
10
13.4106809
20
142.0882653
40
0.5735046
50
193.5480293
51
219.5755675
0
ARC
8
DEFAULT_255_1_388
10
13.6775018
20
142.157552
40
0.849146
50
181.1220183
51
193.8754971
0
ARC
8
DEFAULT_255_1_388
10
13.9098251
20
142.1699914
40
1.0816971
50
179.9914644
51
181.5398227
0
ARC
8
DEFAULT_255_1_388
10
13.7021561
20
142.3008586
40
0.8740384
50
169.5837606
51
180.275782
0
ARC
8
DEFAULT_255_1_388
10
13.4954909
20
142.3390439
40
0.6638751
50
155.0367033
51
169.6002779
0
ARC
8
DEFAULT_255_1_388
10
13.3677368
20
142.4006336
40
0.5220662
50
136.7831557
51
155.2472983
0
ARC
8
DEFAULT_255_1_388
10
13.3239158
20
142.4378577
40
0.4646502
50
121.7633063
51
136.4281161
0
ARC
8
DEFAULT_255_1_388
10
13.3390998
20
142.4098049
40
0.4964979
50
95.6460018
51
121.5489589
0
ARC
8
DEFAULT_255_1_388
10
13.3567973
20
142.2850704
40
0.6223912
50
89.9245727
51
96.1375919
0
ARC
8
DEFAULT_255_1_388
10
13.3624678
20
142.2984721
40
0.6090084
50
76.6779212
51
90.456405
0
ARC
8
DEFAULT_255_1_388
10
13.4067491
20
142.477406
40
0.42469
50
47.4858803
51
76.9287069
0
ARC
8
DEFAULT_255_1_388
10
13.3902104
20
142.4661623
40
0.4441778
50
16.5424081
51
46.8934505
0
ARC
8
DEFAULT_255_1_388
10
13.2093154
20
142.4067265
40
0.6345318
50
5.4072971
51
17.0363711
0
ARC
8
DEFAULT_255_1_388
10
13.0474879
20
142.3807304
40
0.6250632
50
7.8888693
51
15.9242022
0
ARC
8
DEFAULT_255_1_388
10
13.2709865
20
142.4456309
40
0.3923364
50
15.7650676
51
27.9410069
0
ARC
8
DEFAULT_255_1_388
10
13.3952034
20
142.5121317
40
0.2514401
50
27.8167196
51
46.4007942
0
ARC
8
DEFAULT_255_1_388
10
13.4007875
20
142.5114882
40
0.2480958
50
47.4372362
51
75.0695672
0
ARC
8
DEFAULT_255_1_388
10
13.3660711
20
142.3906277
40
0.3738281
50
74.7009379
51
87.8124314
0
ARC
8
DEFAULT_255_1_388
10
13.3578328
20
142.2722659
40
0.4924321
50
87.3802571
51
90.0251599
0
ARC
8
DEFAULT_255_1_388
10
13.3534976
20
142.4042997
40
0.3604218
50
89.3451886
51
108.5744412
0
ARC
8
DEFAULT_255_1_388
10
13.3380968
20
142.4620836
40
0.3007661
50
109.2998307
51
143.3037387
0
ARC
8
DEFAULT_255_1_388
10
13.4238258
20
142.3961584
40
0.4089031
50
143.075267
51
163.1918576
0
ARC
8
DEFAULT_255_1_388
10
13.6434092
20
142.3268652
40
0.6391492
50
162.9375929
51
174.6208776
0
ARC
8
DEFAULT_255_1_388
10
13.9388474
20
142.2944711
40
0.9363344
50
174.342123
51
180.1430283
0
ARC
8
DEFAULT_255_1_388
10
13.8341015
20
142.1601117
40
0.8315986
50
179.6817261
51
189.150555
0
ARC
8
DEFAULT_255_1_388
10
13.5527764
20
142.1132559
40
0.5464044
50
188.9911061
51
203.5772363
0
ARC
8
DEFAULT_255_1_388
10
13.4313056
20
142.0628539
40
0.4149206
50
203.9075402
51
215.1312435
0
ARC
8
DEFAULT_255_1_388
10
13.3274853
20
141.9823907
40
0.2837747
50
213.9071511
51
263.8848919
0
ARC
8
DEFAULT_255_1_388
10
13.3415847
20
142.0706519
40
0.3730641
50
263.1757928
51
270.1031044
0
ARC
8
DEFAULT_255_1_388
10
13.3451926
20
142.2109511
40
0.5133712
50
269.6722503
51
279.0606936
0
ARC
8
DEFAULT_255_1_388
10
13.3752082
20
142.029515
40
0.3294739
50
278.8749101
51
293.6349581
0
ARC
8
DEFAULT_255_1_388
10
13.4112285
20
141.9449251
40
0.2375405
50
293.8553806
51
310.0518171
0
ARC
8
DEFAULT_255_1_388
10
13.4117794
20
141.9379021
40
0.2318463
50
311.0644687
51
332.0111037
0
ARC
8
DEFAULT_255_1_388
10
13.2776468
20
142.0118702
40
0.3850112
50
331.6586806
51
343.2877423
0
ARC
8
DEFAULT_255_1_388
10
13.0455933
20
142.0831806
40
0.6277712
50
343.1446576
51
351.0103568
0
ARC
8
DEFAULT_255_1_388
10
12.8823256
20
142.1131873
40
0.7937327
50
350.71248
51
351.1626997
0
LINE
8
DEFAULT_255_1_388
10
14.0072794
20
142.0599177
11
14.0072794
21
142.071664
0
LINE
8
DEFAULT_255_1_388
10
14.8972904
20
142.0635319
11
14.8972904
21
142.0517856
0
ARC
8
DEFAULT_255_1_388
10
14.6357239
20
142.075304
40
0.628455
50
166.3005265
51
180.3318609
0
ARC
8
DEFAULT_255_1_388
10
14.5386589
20
142.0970267
40
0.52901
50
153.8608648
51
166.0965672
0
ARC
8
DEFAULT_255_1_388
10
14.4637755
20
142.1371652
40
0.4441126
50
135.1317053
51
154.2534962
0
ARC
8
DEFAULT_255_1_388
10
14.4324405
20
142.1648431
40
0.4023863
50
121.7042632
51
134.7771455
0
ARC
8
DEFAULT_255_1_388
10
14.4399837
20
142.1503469
40
0.4186852
50
93.4001111
51
121.5399523
0
ARC
8
DEFAULT_255_1_388
10
14.4506671
20
142.0573759
40
0.5121521
50
89.9706387
51
93.9763381
0
ARC
8
DEFAULT_255_1_388
10
14.4559656
20
142.1013563
40
0.4681988
50
71.3321659
51
90.6162917
0
ARC
8
DEFAULT_255_1_388
10
14.474269
20
142.1691003
40
0.3981841
50
41.1813875
51
70.7072086
0
ARC
8
DEFAULT_255_1_388
10
14.4205406
20
142.120313
40
0.4707474
50
12.1971434
51
41.3446641
0
ARC
8
DEFAULT_255_1_388
10
14.203867
20
142.0687328
40
0.6934429
50
359.5702713
51
12.5803533
0
ARC
8
DEFAULT_255_1_388
10
14.2570986
20
142.0482207
40
0.6402018
50
347.0196754
51
0.3190452
0
ARC
8
DEFAULT_255_1_388
10
14.3649039
20
142.0250189
40
0.5299421
50
334.350439
51
346.8460534
0
ARC
8
DEFAULT_255_1_388
10
14.4600285
20
141.9756244
40
0.4228234
50
310.4228125
51
334.8045131
0
ARC
8
DEFAULT_255_1_388
10
14.4692264
20
141.9684301
40
0.4113892
50
301.8488154
51
310.0972985
0
ARC
8
DEFAULT_255_1_388
10
14.4656004
20
141.9769573
40
0.4205483
50
274.3078723
51
301.6554173
0
ARC
8
DEFAULT_255_1_388
10
14.453146
20
142.0756943
40
0.5199658
50
269.954904
51
274.859116
0
ARC
8
DEFAULT_255_1_388
10
14.4476284
20
142.0193239
40
0.4636233
50
250.8887647
51
270.6313164
0
ARC
8
DEFAULT_255_1_388
10
14.4307444
20
141.9564405
40
0.398705
50
221.1701369
51
250.2227012
0
ARC
8
DEFAULT_255_1_388
10
14.485211
20
142.0060716
40
0.4723796
50
191.6263861
51
221.3526879
0
ARC
8
DEFAULT_255_1_388
10
14.6975955
20
142.0552203
40
0.6903321
50
179.6101251
51
192.0694841
0
ARC
8
DEFAULT_255_1_388
10
14.7452303
20
142.0481681
40
0.5698993
50
179.636304
51
190.6161344
0
ARC
8
DEFAULT_255_1_388
10
14.5604634
20
142.0121635
40
0.3816643
50
190.4136062
51
208.7168709
0
ARC
8
DEFAULT_255_1_388
10
14.5030669
20
141.9836905
40
0.3176572
50
209.187109
51
217.4221816
0
ARC
8
DEFAULT_255_1_388
10
14.4435139
20
141.9312729
40
0.2385702
50
216.1156863
51
265.2575395
0
ARC
8
DEFAULT_255_1_388
10
14.4524175
20
141.9957608
40
0.3035941
50
264.5891546
51
270.0602378
0
ARC
8
DEFAULT_255_1_388
10
14.4561372
20
141.9530539
40
0.2609091
50
269.2532353
51
291.8793864
0
ARC
8
DEFAULT_255_1_388
10
14.4594251
20
141.9330359
40
0.241148
50
292.9269367
51
323.1777736
0
ARC
8
DEFAULT_255_1_388
10
14.4123536
20
141.9743762
40
0.3036446
50
322.25666
51
323.087958
0
ARC
8
DEFAULT_255_1_388
10
14.3820794
20
141.9926332
40
0.3388345
50
323.6941379
51
343.8493587
0
ARC
8
DEFAULT_255_1_388
10
14.204523
20
142.0466698
40
0.5244204
50
343.5746655
51
355.008149
0
ARC
8
DEFAULT_255_1_388
10
13.9786922
20
142.0700797
40
0.7514406
50
354.728272
51
0.1208026
0
ARC
8
DEFAULT_255_1_388
10
14.1775947
20
142.0752947
40
0.5525482
50
359.6235211
51
11.2016685
0
ARC
8
DEFAULT_255_1_388
10
14.3501775
20
142.1108284
40
0.3763527
50
10.9991302
51
30.8317616
0
ARC
8
DEFAULT_255_1_388
10
14.3947078
20
142.1342988
40
0.3260975
50
31.3007463
51
37.395541
0
ARC
8
DEFAULT_255_1_388
10
14.4505798
20
142.1814773
40
0.253082
50
36.5918894
51
62.2439906
0
ARC
8
DEFAULT_255_1_388
10
14.4558089
20
142.1811378
40
0.2509927
50
63.3364883
51
89.7193846
0
ARC
8
DEFAULT_255_1_388
10
14.4509543
20
142.1163375
40
0.3158485
50
88.8962924
51
90.004475
0
ARC
8
DEFAULT_255_1_388
10
14.447397
20
142.1816071
40
0.250604
50
89.1923115
51
114.7099029
0
ARC
8
DEFAULT_255_1_388
10
14.4506312
20
142.1858675
40
0.2481307
50
115.7996284
51
142.2901353
0
ARC
8
DEFAULT_255_1_388
10
14.4974583
20
142.1439752
40
0.310833
50
141.4607507
51
142.383894
0
ARC
8
DEFAULT_255_1_388
10
14.5122434
20
142.1371449
40
0.3267335
50
143.0176473
51
163.2340089
0
ARC
8
DEFAULT_255_1_388
10
14.6897723
20
142.0809553
40
0.5129308
50
162.9446504
51
174.3733893
0
ARC
8
DEFAULT_255_1_388
10
14.9311695
20
142.0538483
40
0.75583
50
174.1225809
51
180.1563667
0
LINE
8
DEFAULT_255_1_388
10
15.1060138
20
142.5514567
11
15.2641376
21
142.5514567
0
LINE
8
DEFAULT_255_1_388
10
15.2641376
20
142.5514567
11
15.2686554
21
142.443029
0
LINE
8
DEFAULT_255_1_388
10
16.4767211
20
142.2288842
11
16.4767211
21
141.5738
0
LINE
8
DEFAULT_255_1_388
10
16.4767211
20
141.5738
11
16.3095617
21
141.5738
0
LINE
8
DEFAULT_255_1_388
10
16.3095617
20
141.5738
11
16.3095617
21
142.218945
0
LINE
8
DEFAULT_255_1_388
10
15.8749472
20
142.2225593
11
15.8749472
21
141.5738
0
LINE
8
DEFAULT_255_1_388
10
15.8749472
20
141.5738
11
15.7068842
21
141.5738
0
LINE
8
DEFAULT_255_1_388
10
15.7068842
20
141.5738
11
15.7068842
21
142.2144272
0
LINE
8
DEFAULT_255_1_388
10
15.2731732
20
142.2876159
11
15.2731732
21
141.5738
0
LINE
8
DEFAULT_255_1_388
10
15.2731732
20
141.5738
11
15.1060138
21
141.5738
0
LINE
8
DEFAULT_255_1_388
10
15.1060138
20
141.5738
11
15.1060138
21
142.5514567
0
ARC
8
DEFAULT_255_1_388
10
15.5382751
20
142.2160947
40
0.3524116
50
93.0261693
51
139.913241
0
ARC
8
DEFAULT_255_1_388
10
15.5582826
20
142.0762673
40
0.493261
50
89.9515559
51
94.4896559
0
ARC
8
DEFAULT_255_1_388
10
15.5630303
20
142.1565293
40
0.4130214
50
75.8912256
51
90.6007843
0
ARC
8
DEFAULT_255_1_388
10
15.60416
20
142.3082686
40
0.2558497
50
23.9940553
51
76.5407673
0
ARC
8
DEFAULT_255_1_388
10
16.1420035
20
142.2009138
40
0.3703589
50
118.5760068
51
145.1952627
0
ARC
8
DEFAULT_255_1_388
10
16.1276088
20
142.2284672
40
0.3392772
50
99.1481537
51
118.6669021
0
ARC
8
DEFAULT_255_1_388
10
16.1478801
20
142.1152244
40
0.454307
50
89.7792127
51
99.4015557
0
ARC
8
DEFAULT_255_1_388
10
16.1565914
20
142.1338109
40
0.4357727
50
73.2646335
51
90.9152299
0
ARC
8
DEFAULT_255_1_388
10
16.205999
20
142.3016955
40
0.2607739
50
10.756495
51
73.0388383
0
ARC
8
DEFAULT_255_1_388
10
15.9370558
20
142.2259448
40
0.5396733
50
0.3120729
51
13.3293082
0
ARC
8
DEFAULT_255_1_388
10
15.9433036
20
142.2210363
40
0.366264
50
359.6728567
51
8.7129231
0
ARC
8
DEFAULT_255_1_388
10
16.0779951
20
142.2424524
40
0.2298841
50
8.5221448
51
22.6803231
0
ARC
8
DEFAULT_255_1_388
10
16.146365
20
142.2708786
40
0.1558403
50
22.7298708
51
42.2763259
0
ARC
8
DEFAULT_255_1_388
10
16.1602352
20
142.2796235
40
0.1397242
50
43.4492352
51
69.272112
0
ARC
8
DEFAULT_255_1_388
10
16.1256582
20
142.1932568
40
0.2327451
50
68.836098
51
81.9786568
0
ARC
8
DEFAULT_255_1_388
10
16.1031018
20
142.0422247
40
0.385449
50
81.7913044
51
90.3003404
0
LINE
8
DEFAULT_255_1_388
10
16.1010813
20
142.4276683
11
16.1008383
21
142.4276684
0
ARC
8
DEFAULT_255_1_388
10
16.0985192
20
142.1716083
40
0.2560706
50
89.4810922
51
106.5055613
0
ARC
8
DEFAULT_255_1_388
10
16.0857101
20
142.2187872
40
0.2071998
50
106.8160071
51
132.2750747
0
ARC
8
DEFAULT_255_1_388
10
16.0905623
20
142.2136017
40
0.2143007
50
132.3023562
51
166.9931148
0
ARC
8
DEFAULT_255_1_388
10
16.1633862
20
142.1927518
40
0.2899752
50
166.2176327
51
174.0999541
0
ARC
8
DEFAULT_255_1_388
10
15.3918991
20
142.218709
40
0.3150142
50
359.2211859
51
14.4876062
0
ARC
8
DEFAULT_255_1_388
10
15.5397213
20
142.2612235
40
0.1613108
50
13.0021013
51
76.7082612
0
ARC
8
DEFAULT_255_1_388
10
15.5020414
20
142.1281286
40
0.299565
50
75.5470628
51
90.7422407
0
ARC
8
DEFAULT_255_1_388
10
15.494404
20
142.1315964
40
0.2960958
50
89.2730201
51
106.8379289
0
ARC
8
DEFAULT_255_1_388
10
15.4721445
20
142.2123973
40
0.2123216
50
107.4046439
51
156.621812
0
ARC
8
DEFAULT_255_1_388
10
15.5486259
20
142.1685952
40
0.3000669
50
154.7390611
51
156.6312403
0
LINE
8
DEFAULT_255_1_388
10
17.5546735
20
142.0671462
11
17.5546735
21
142.0517856
0
LINE
8
DEFAULT_255_1_388
10
16.895975
20
141.6686743
11
16.895975
21
141.1979172
0
LINE
8
DEFAULT_255_1_388
10
16.895975
20
141.1979172
11
16.7288156
21
141.1979172
0
LINE
8
DEFAULT_255_1_388
10
16.7288156
20
141.1979172
11
16.7288156
21
142.5514567
0
LINE
8
DEFAULT_255_1_388
10
16.7288156
20
142.5514567
11
16.881518
21
142.5514567
0
LINE
8
DEFAULT_255_1_388
10
16.881518
20
142.5514567
11
16.88965
21
142.443029
0
LINE
8
DEFAULT_255_1_388
10
16.895975
20
142.2930373
11
16.895975
21
141.8258945
0
ARC
8
DEFAULT_255_1_388
10
16.7593971
20
142.0468831
40
0.7952914
50
349.5457689
51
0.3531959
0
ARC
8
DEFAULT_255_1_388
10
17.0152749
20
141.9977711
40
0.5347531
50
331.7801944
51
349.7458841
0
ARC
8
DEFAULT_255_1_388
10
17.0969068
20
141.9580052
40
0.4440347
50
323.2239993
51
331.320727
0
ARC
8
DEFAULT_255_1_388
10
17.1895555
20
141.8794189
40
0.3228626
50
275.1519108
51
324.5512858
0
ARC
8
DEFAULT_255_1_388
10
17.1765928
20
141.9695763
40
0.4138479
50
269.929002
51
275.8184771
0
ARC
8
DEFAULT_255_1_388
10
17.171929
20
142.0071586
40
0.451449
50
255.0666642
51
270.5268285
0
ARC
8
DEFAULT_255_1_388
10
17.1401782
20
141.8883476
40
0.3284686
50
221.9730059
51
255.0773797
0
ARC
8
DEFAULT_255_1_388
10
17.1495941
20
142.2352287
40
0.3327941
50
94.4346057
51
141.3610235
0
ARC
8
DEFAULT_255_1_388
10
17.1726472
20
142.0926867
40
0.4768419
50
89.913234
51
95.8721355
0
ARC
8
DEFAULT_255_1_388
10
17.1778009
20
142.1935946
40
0.3759596
50
70.3260364
51
90.6753935
0
ARC
8
DEFAULT_255_1_388
10
17.1891452
20
142.2402349
40
0.328261
50
36.7636238
51
69.44976
0
ARC
8
DEFAULT_255_1_388
10
17.0930062
20
142.1652455
40
0.4501685
50
16.0027939
51
37.086172
0
ARC
8
DEFAULT_255_1_388
10
16.8635828
20
142.0960013
40
0.6897988
50
4.5018317
51
16.2779312
0
ARC
8
DEFAULT_255_1_388
10
16.5853976
20
142.068776
40
0.9692771
50
359.9036593
51
4.8154966
0
ARC
8
DEFAULT_255_1_388
10
16.7589267
20
142.0742646
40
0.6285971
50
359.6805954
51
9.1297647
0
ARC
8
DEFAULT_255_1_388
10
16.9736363
20
142.1100143
40
0.4109369
50
8.9584658
51
23.6939885
0
ARC
8
DEFAULT_255_1_388
10
17.067612
20
142.1493721
40
0.3090717
50
24.0136272
51
36.1951724
0
ARC
8
DEFAULT_255_1_388
10
17.1341717
20
142.2036253
40
0.2233637
50
35.0467028
51
84.5489768
0
ARC
8
DEFAULT_255_1_388
10
17.1240911
20
142.1369397
40
0.2907289
50
83.8197232
51
90.0823413
0
ARC
8
DEFAULT_255_1_388
10
17.1197042
20
142.1591874
40
0.2685104
50
89.1530367
51
112.3459134
0
ARC
8
DEFAULT_255_1_388
10
17.1146129
20
142.1850252
40
0.2427311
50
113.5532703
51
146.2373945
0
ARC
8
DEFAULT_255_1_388
10
17.1868756
20
142.1295111
40
0.3337124
50
145.2086902
51
150.6580233
0
ARC
8
DEFAULT_255_1_388
10
17.1366233
20
141.9563753
40
0.273746
50
208.46678
51
230.7447697
0
ARC
8
DEFAULT_255_1_388
10
17.1126774
20
141.9348351
40
0.2419641
50
231.9080157
51
266.0622442
0
ARC
8
DEFAULT_255_1_388
10
17.1251285
20
142.0240434
40
0.3318765
50
264.9752933
51
270.060741
0
ARC
8
DEFAULT_255_1_388
10
17.1286886
20
141.9355683
40
0.2434225
50
269.2448363
51
292.3382162
0
ARC
8
DEFAULT_255_1_388
10
17.13062
20
141.9197065
40
0.2280566
50
293.4040635
51
323.0231773
0
ARC
8
DEFAULT_255_1_388
10
17.0848449
20
141.9599037
40
0.2888399
50
322.1147526
51
323.3512864
0
ARC
8
DEFAULT_255_1_388
10
17.0667861
20
141.9687269
40
0.3086176
50
324.0383098
51
342.5340044
0
ARC
8
DEFAULT_255_1_388
10
16.8795857
20
142.0300984
40
0.5056129
50
342.2670619
51
353.2817647
0
ARC
8
DEFAULT_255_1_388
10
16.5836514
20
142.067297
40
0.8038702
50
353.1162085
51
0.2468587
0
LINE
8
DEFAULT_255_1_388
10
18.5458837
20
141.5738
11
18.3705922
21
141.5738
0
LINE
8
DEFAULT_255_1_388
10
18.1817472
20
142.1665383
11
18.3443888
21
142.1665383
0
LINE
8
DEFAULT_255_1_388
10
18.3443888
20
142.1665383
11
18.3443888
21
142.2433413
0
LINE
8
DEFAULT_255_1_388
10
17.926942
20
142.2803874
11
17.7588791
21
142.2803874
0
LINE
8
DEFAULT_255_1_388
10
18.5115482
20
142.2523769
11
18.5115482
21
141.8024018
0
LINE
8
DEFAULT_255_1_388
10
18.5458837
20
141.588257
11
18.5458837
21
141.5738
0
LINE
8
DEFAULT_255_1_388
10
18.3443888
20
141.84758
11
18.3443888
21
142.0481713
0
LINE
8
DEFAULT_255_1_388
10
18.3443888
20
142.0481713
11
18.213372
21
142.0481713
0
ARC
8
DEFAULT_255_1_388
10
18.4875071
20
141.63051
40
0.1299428
50
197.0784902
51
205.8758668
0
ARC
8
DEFAULT_255_1_388
10
18.6269658
20
141.6746959
40
0.2762313
50
192.2927663
51
197.3441989
0
ARC
8
DEFAULT_255_1_388
10
18.8465163
20
141.723476
40
0.5011345
50
189.1573793
51
192.3977084
0
ARC
8
DEFAULT_255_1_388
10
19.1630009
20
141.7750878
40
0.8217995
50
186.8686098
51
189.1982636
0
ARC
8
DEFAULT_255_1_388
10
18.05751
20
141.949126
40
0.3975173
50
294.0079259
51
316.7603918
0
ARC
8
DEFAULT_255_1_388
10
18.0720283
20
141.9286902
40
0.3729755
50
269.5043226
51
293.2478373
0
ARC
8
DEFAULT_255_1_388
10
18.0653335
20
141.9737915
40
0.4180772
50
255.4034155
51
270.4753052
0
ARC
8
DEFAULT_255_1_388
10
18.0394548
20
141.8733652
40
0.3143705
50
228.6141063
51
255.3550831
0
ARC
8
DEFAULT_255_1_388
10
18.002053
20
141.837554
40
0.2628114
50
181.8954381
51
229.5703134
0
ARC
8
DEFAULT_255_1_388
10
18.0685466
20
141.8447824
40
0.329546
50
179.9848815
51
182.7691528
0
ARC
8
DEFAULT_255_1_388
10
18.0592533
20
141.8486827
40
0.3202753
50
161.0342928
51
180.6822077
0
ARC
8
DEFAULT_255_1_388
10
18.0098147
20
141.8615422
40
0.2693695
50
125.0525065
51
160.2034058
0
ARC
8
DEFAULT_255_1_388
10
18.0842869
20
141.7599275
40
0.3953338
50
106.2670809
51
125.4300189
0
ARC
8
DEFAULT_255_1_388
10
18.148691
20
141.5494795
40
0.6154041
50
95.4857579
51
106.5348562
0
ARC
8
DEFAULT_255_1_388
10
18.1794198
20
141.2682993
40
0.8982419
50
89.8515405
51
95.7222579
0
ARC
8
DEFAULT_255_1_388
10
18.1074779
20
142.2453925
40
0.2369198
50
359.5039339
51
14.3181205
0
ARC
8
DEFAULT_255_1_388
10
18.1720784
20
142.2621862
40
0.170173
50
14.2184556
51
45.2028524
0
ARC
8
DEFAULT_255_1_388
10
18.1761479
20
142.2637862
40
0.1661795
50
45.8098216
51
73.0032926
0
ARC
8
DEFAULT_255_1_388
10
18.1481306
20
142.178126
40
0.2562942
50
72.6112517
51
85.7231489
0
ARC
8
DEFAULT_255_1_388
10
18.138009
20
142.0754339
40
0.3594635
50
85.335019
51
90.0855069
0
ARC
8
DEFAULT_255_1_388
10
18.1353524
20
142.1418472
40
0.2930574
50
89.5854741
51
103.459124
0
ARC
8
DEFAULT_255_1_388
10
18.1182062
20
142.2133134
40
0.2195632
50
103.448332
51
126.5403399
0
ARC
8
DEFAULT_255_1_388
10
18.0913039
20
142.2477224
40
0.1759039
50
126.1730306
51
141.5008224
0
ARC
8
DEFAULT_255_1_388
10
18.0487354
20
142.2811266
40
0.1217955
50
141.3332087
51
180.3477313
0
ARC
8
DEFAULT_255_1_388
10
17.9728777
20
142.2791904
40
0.214002
50
151.6373605
51
179.6795088
0
ARC
8
DEFAULT_255_1_388
10
18.0406013
20
142.2454768
40
0.2896224
50
142.4981529
51
152.1330509
0
ARC
8
DEFAULT_255_1_388
10
18.0764017
20
142.2173781
40
0.3351307
50
120.8284906
51
142.4132156
0
ARC
8
DEFAULT_255_1_388
10
18.1231993
20
142.1441185
40
0.4220297
50
113.9634885
51
121.1871733
0
ARC
8
DEFAULT_255_1_388
10
18.1385302
20
142.1067705
40
0.4623867
50
93.3784336
51
113.8197902
0
ARC
8
DEFAULT_255_1_388
10
18.1471684
20
142.0206549
40
0.5488732
50
89.9745993
51
93.7488475
0
ARC
8
DEFAULT_255_1_388
10
18.1510931
20
142.0247587
40
0.5447818
50
79.1327128
51
90.3871707
0
ARC
8
DEFAULT_255_1_388
10
18.1876694
20
142.2075597
40
0.3583662
50
60.1434453
51
79.365517
0
ARC
8
DEFAULT_255_1_388
10
18.2165461
20
142.2630195
40
0.2959028
50
48.6191018
51
59.6466565
0
ARC
8
DEFAULT_255_1_388
10
18.2219172
20
142.2701356
40
0.2870136
50
9.0349502
51
48.4845487
0
ARC
8
DEFAULT_255_1_388
10
18.1008471
20
142.2437084
40
0.4107927
50
1.2091359
51
10.0234369
0
ARC
8
DEFAULT_255_1_388
10
19.3705919
20
141.7996422
40
0.8590481
50
179.8159449
51
185.3205667
0
ARC
8
DEFAULT_255_1_388
10
19.0673765
20
141.7706945
40
0.5544553
50
185.2475628
51
192.7952551
0
ARC
8
DEFAULT_255_1_388
10
18.8691588
20
141.7252024
40
0.3510853
50
192.7195981
51
202.9584216
0
ARC
8
DEFAULT_255_1_388
10
18.0931624
20
141.9949895
40
0.2937869
50
270.006916
51
300.503478
0
ARC
8
DEFAULT_255_1_388
10
18.1069559
20
141.9805888
40
0.2744162
50
299.5482616
51
315.609538
0
ARC
8
DEFAULT_255_1_388
10
18.1395855
20
141.9472072
40
0.2277499
50
315.8682065
51
334.0592465
0
ARC
8
DEFAULT_255_1_388
10
18.2084829
20
141.26359
40
0.7845965
50
89.64297
51
97.2867877
0
ARC
8
DEFAULT_255_1_388
10
18.1588426
20
141.6352936
40
0.4096042
50
96.9938706
51
109.7783917
0
ARC
8
DEFAULT_255_1_388
10
18.0839889
20
141.8356851
40
0.1957225
50
109.0087985
51
135.3265591
0
ARC
8
DEFAULT_255_1_388
10
18.0532308
20
141.8737764
40
0.1471704
50
137.4537784
51
182.1083946
0
ARC
8
DEFAULT_255_1_388
10
18.0953008
20
141.8665101
40
0.1891498
50
179.4390335
51
195.7201623
0
ARC
8
DEFAULT_255_1_388
10
18.0490043
20
141.8538585
40
0.1411576
50
195.8683556
51
230.157074
0
ARC
8
DEFAULT_255_1_388
10
18.0762766
20
141.8865228
40
0.1837102
50
230.1532486
51
259.7486257
0
ARC
8
DEFAULT_255_1_388
10
18.0918808
20
141.9600472
40
0.258848
50
259.2461118
51
270.2915316
0
LINE
8
DEFAULT_255_1_388
10
19.3961378
20
141.8819155
11
19.5542616
21
141.8819155
0
LINE
8
DEFAULT_255_1_388
10
18.7302108
20
142.0535927
11
18.7302108
21
142.0816032
0
LINE
8
DEFAULT_255_1_388
10
19.5542616
20
142.2153308
11
19.3961378
21
142.2153308
0
LINE
8
DEFAULT_255_1_388
10
18.8973703
20
142.0752783
11
18.8973703
21
142.0436535
0
ARC
8
DEFAULT_255_1_388
10
19.1697935
20
141.9329109
40
0.2407783
50
269.0327343
51
309.2224588
0
ARC
8
DEFAULT_255_1_388
10
19.1933939
20
141.908719
40
0.207135
50
308.3965377
51
329.6987678
0
ARC
8
DEFAULT_255_1_388
10
19.2088997
20
141.8969899
40
0.1878439
50
330.4013397
51
355.3970937
0
ARC
8
DEFAULT_255_1_388
10
19.2602982
20
141.8989312
40
0.2944555
50
329.2357424
51
356.6872018
0
ARC
8
DEFAULT_255_1_388
10
19.1984876
20
141.9316153
40
0.3643032
50
324.8702872
51
329.7911998
0
ARC
8
DEFAULT_255_1_388
10
19.1896159
20
141.9392113
40
0.3759315
50
298.8769973
51
324.7015261
0
ARC
8
DEFAULT_255_1_388
10
19.1522702
20
141.998729
40
0.4461015
50
296.902888
51
299.3854973
0
ARC
8
DEFAULT_255_1_388
10
19.16687
20
141.9663595
40
0.4106323
50
269.8407861
51
297.1298875
0
ARC
8
DEFAULT_255_1_388
10
19.1608695
20
142.0381354
40
0.4824312
50
253.3156606
51
270.5771301
0
ARC
8
DEFAULT_255_1_388
10
19.1330873
20
141.9375943
40
0.3781531
50
221.1002518
51
252.9743523
0
ARC
8
DEFAULT_255_1_388
10
19.1848344
20
141.9820131
40
0.4463481
50
194.5394284
51
221.0302764
0
ARC
8
DEFAULT_255_1_388
10
19.3928164
20
142.0399897
40
0.6622359
50
182.0498004
51
194.8774376
0
ARC
8
DEFAULT_255_1_388
10
19.5921254
20
142.0532778
40
0.8619146
50
179.9790673
51
182.4586753
0
ARC
8
DEFAULT_255_1_388
10
19.3964568
20
142.0849412
40
0.6662543
50
168.615001
51
180.2870547
0
ARC
8
DEFAULT_255_1_388
10
19.2612476
20
142.1114636
40
0.5284705
50
154.9162417
51
168.5402053
0
ARC
8
DEFAULT_255_1_388
10
19.1575752
20
142.1626942
40
0.4128641
50
133.5745308
51
155.2559538
0
ARC
8
DEFAULT_255_1_388
10
19.1392595
20
142.1783116
40
0.3889328
50
122.0165845
51
133.2056002
0
ARC
8
DEFAULT_255_1_388
10
19.1432919
20
142.1683977
40
0.3994808
50
97.8732516
51
121.753124
0
ARC
8
DEFAULT_255_1_388
10
19.1634378
20
142.049459
40
0.5200708
50
89.8471322
51
98.2768545
0
ARC
8
DEFAULT_255_1_388
10
19.1689226
20
142.1180809
40
0.4514657
50
73.3760755
51
90.5199878
0
ARC
8
DEFAULT_255_1_388
10
19.1910142
20
142.199355
40
0.3672743
50
47.7085939
51
73.0510707
0
ARC
8
DEFAULT_255_1_388
10
19.2056244
20
142.2120231
40
0.3480795
50
3.7442743
51
48.0844373
0
ARC
8
DEFAULT_255_1_388
10
19.0944238
20
142.1942946
40
0.4603187
50
2.6192831
51
5.0424684
0
ARC
8
DEFAULT_255_1_388
10
19.145971
20
142.1987986
40
0.2507126
50
3.78087
51
23.9354314
0
ARC
8
DEFAULT_255_1_388
10
19.1716969
20
142.2078644
40
0.2235311
50
24.4867863
51
46.9439952
0
ARC
8
DEFAULT_255_1_388
10
19.1717915
20
142.2104874
40
0.2215567
50
46.4987715
51
89.3298168
0
ARC
8
DEFAULT_255_1_388
10
19.1648573
20
142.1438742
40
0.2883121
50
88.1066411
51
90.0063536
0
ARC
8
DEFAULT_255_1_388
10
19.1617549
20
142.1496548
40
0.2825481
50
89.3773571
51
107.2070287
0
ARC
8
DEFAULT_255_1_388
10
19.1456818
20
142.2078667
40
0.2221946
50
107.688418
51
143.3582986
0
ARC
8
DEFAULT_255_1_388
10
19.2095112
20
142.1599064
40
0.3020337
50
143.2845866
51
162.9352432
0
ARC
8
DEFAULT_255_1_388
10
19.3789128
20
142.1055401
40
0.4799362
50
162.6652705
51
174.0802646
0
ARC
8
DEFAULT_255_1_388
10
19.6199609
20
142.0775287
40
0.7225942
50
173.8422673
51
180.1784414
0
ARC
8
DEFAULT_255_1_388
10
19.5583279
20
142.0402276
40
0.6609665
50
179.7030218
51
188.2277356
0
ARC
8
DEFAULT_255_1_388
10
19.3218887
20
142.0048143
40
0.4218948
50
188.0630838
51
201.115837
0
ARC
8
DEFAULT_255_1_388
10
19.1983771
20
141.957673
40
0.2896941
50
201.2186162
51
216.9761863
0
ARC
8
DEFAULT_255_1_388
10
19.1475929
20
141.9196225
40
0.2262366
50
217.0136373
51
265.2055518
0
ARC
8
DEFAULT_255_1_388
10
19.1651266
20
142.0233503
40
0.3311837
50
263.6824874
51
270.1042034
0
LINE
8
DEFAULT_255_1_388
10
19.8018383
20
142.7881906
11
19.9689977
21
142.7881906
0
LINE
8
DEFAULT_255_1_388
10
19.9689977
20
142.7881906
11
19.9689977
21
142.5514567
0
LINE
8
DEFAULT_255_1_388
10
19.9689977
20
142.5514567
11
20.1515177
21
142.5514567
0
LINE
8
DEFAULT_255_1_388
10
20.1515177
20
142.5514567
11
20.1515177
21
142.422247
0
LINE
8
DEFAULT_255_1_388
10
20.1515177
20
142.422247
11
19.9689977
21
142.422247
0
LINE
8
DEFAULT_255_1_388
10
19.9689977
20
142.422247
11
19.9689977
21
141.8159553
0
LINE
8
DEFAULT_255_1_388
10
20.1560355
20
141.7093347
11
20.1560355
21
141.5738
0
LINE
8
DEFAULT_255_1_388
10
19.8018383
20
141.8159553
11
19.8018383
21
142.422247
0
LINE
8
DEFAULT_255_1_388
10
19.8018383
20
142.422247
11
19.6238361
21
142.422247
0
LINE
8
DEFAULT_255_1_388
10
19.6238361
20
142.422247
11
19.6238361
21
142.5514567
0
LINE
8
DEFAULT_255_1_388
10
19.6238361
20
142.5514567
11
19.8018383
21
142.5514567
0
LINE
8
DEFAULT_255_1_388
10
19.8018383
20
142.5514567
11
19.8018383
21
142.7881906
0
ARC
8
DEFAULT_255_1_388
10
20.1948485
20
141.8147842
40
0.2258538
50
179.7029045
51
187.9180047
0
ARC
8
DEFAULT_255_1_388
10
20.1109058
20
141.8027019
40
0.1410477
50
187.7540838
51
200.2454047
0
ARC
8
DEFAULT_255_1_388
10
20.0635964
20
141.7850591
40
0.0905561
50
200.1304287
51
219.1733455
0
ARC
8
DEFAULT_255_1_388
10
20.0483131
20
141.7746695
40
0.0721626
50
220.4434631
51
249.6169985
0
ARC
8
DEFAULT_255_1_388
10
20.0657357
20
141.8184919
40
0.1193141
50
249.1038184
51
262.7745376
0
ARC
8
DEFAULT_255_1_388
10
20.0756539
20
141.8892481
40
0.1907583
50
262.4921618
51
270.2607019
0
ARC
8
DEFAULT_255_1_388
10
20.0753621
20
141.9134817
40
0.2149929
50
270.309081
51
275.6615459
0
ARC
8
DEFAULT_255_1_388
10
20.0593029
20
142.0823342
40
0.3846066
50
275.5607354
51
279.087751
0
ARC
8
DEFAULT_255_1_388
10
20.0220961
20
142.3184428
40
0.6236283
50
279.0369545
51
281.5000133
0
ARC
8
DEFAULT_255_1_388
10
19.9830229
20
142.5161499
40
0.825157
50
281.4217093
51
282.1031556
0
ARC
8
DEFAULT_255_1_388
10
20.0206204
20
142.0618229
40
0.5064619
50
275.2597791
51
285.5081125
0
ARC
8
DEFAULT_255_1_388
10
20.0275218
20
141.9992452
40
0.4435166
50
270.0268175
51
275.1130565
0
ARC
8
DEFAULT_255_1_388
10
20.0252669
20
141.8499367
40
0.2942182
50
257.3572424
51
270.4795428
0
ARC
8
DEFAULT_255_1_388
10
20.001294
20
141.7488952
40
0.1903838
50
230.8036715
51
257.7414447
0
ARC
8
DEFAULT_255_1_388
10
19.9936436
20
141.7365723
40
0.1760087
50
219.9745381
51
230.1985446
0
ARC
8
DEFAULT_255_1_388
10
20.0309723
20
141.7651116
40
0.2229598
50
196.5081334
51
219.4319996
0
ARC
8
DEFAULT_255_1_388
10
20.1452334
20
141.8009617
40
0.3427033
50
184.6408645
51
196.8266009
0
ARC
8
DEFAULT_255_1_388
10
20.285324
20
141.815101
40
0.4834863
50
179.8987586
51
184.9677262
0
LINE
8
DEFAULT_255_2_778
10
19.9765417
20
132.1593982
11
18.6536417
21
132.1593982
0
LINE
8
DEFAULT_255_2_778
10
18.6536417
20
132.1593982
11
18.6536417
21
71.3051982
0
LINE
8
DEFAULT_255_2_778
10
18.6536417
20
66.0135982
11
18.6536417
21
5.1593982
0
LINE
8
DEFAULT_255_2_778
10
18.6536417
20
5.1593982
11
19.9765417
21
5.1593982
0
LINE
8
DEFAULT_255_2_778
10
17.3307834
20
71.3052333
11
19.9765834
21
71.3052333
0
LINE
8
DEFAULT_255_2_778
10
19.9765834
20
71.3052333
11
19.9765834
21
66.0135333
0
LINE
8
DEFAULT_255_2_778
10
19.9765834
20
66.0135333
11
17.3307834
21
66.0135333
0
LINE
8
DEFAULT_255_2_778
10
17.3307834
20
66.0135333
11
17.3307834
21
71.3052333
0
LINE
8
DEFAULT_255_2_778
10
18.1245
20
66.5427666
11
18.1245
21
70.7760666
0
LINE
8
DEFAULT_255_2_778
10
17.8599167
20
69.982375
11
18.1245167
21
70.776075
0
LINE
8
DEFAULT_255_2_778
10
18.1245167
20
70.776075
11
18.3891167
21
69.982375
0
LINE
8
DEFAULT_255_2_778
10
18.3891167
20
69.982375
11
17.8599167
21
69.982375
0
LINE
8
DEFAULT_255_2_778
10
19.1828
20
70.7760666
11
19.1828
21
66.5427666
0
LINE
8
DEFAULT_255_2_778
10
18.9182167
20
67.336475
11
19.1828167
21
66.542775
0
LINE
8
DEFAULT_255_2_778
10
19.1828167
20
66.542775
11
19.4474167
21
67.336475
0
LINE
8
DEFAULT_255_2_778
10
19.4474167
20
67.336475
11
18.9182167
21
67.336475
0
LINE
8
DEFAULT_255_1_388
10
4.5020882
20
140.6790987
11
4.5020882
21
140.2950838
0
LINE
8
DEFAULT_255_1_388
10
4.5020882
20
140.2950838
11
4.8689354
21
140.2950838
0
LINE
8
DEFAULT_255_1_388
10
4.8689354
20
140.2950838
11
4.8689354
21
140.1369601
0
LINE
8
DEFAULT_255_1_388
10
4.8689354
20
140.1369601
11
4.5020882
21
140.1369601
0
LINE
8
DEFAULT_255_1_388
10
4.5020882
20
140.1369601
11
4.5020882
21
139.7213204
0
LINE
8
DEFAULT_255_1_388
10
4.5020882
20
139.7213204
11
4.3340252
21
139.7213204
0
LINE
8
DEFAULT_255_1_388
10
4.3340252
20
139.7213204
11
4.3340252
21
140.1369601
0
LINE
8
DEFAULT_255_1_388
10
4.3340252
20
140.1369601
11
3.967178
21
140.1369601
0
LINE
8
DEFAULT_255_1_388
10
3.967178
20
140.1369601
11
3.967178
21
140.2950838
0
LINE
8
DEFAULT_255_1_388
10
3.967178
20
140.2950838
11
4.3340252
21
140.2950838
0
LINE
8
DEFAULT_255_1_388
10
4.3340252
20
140.2950838
11
4.3340252
21
140.6790987
0
LINE
8
DEFAULT_255_1_388
10
4.3340252
20
140.6790987
11
4.5020882
21
140.6790987
0
LINE
8
DEFAULT_255_1_388
10
5.4625772
20
139.5894
11
5.0984407
21
139.5894
0
LINE
8
DEFAULT_255_1_388
10
5.0984407
20
139.5894
11
5.0984407
21
140.9049898
0
LINE
8
DEFAULT_255_1_388
10
5.0984407
20
140.9049898
11
5.4698057
21
140.9049898
0
LINE
8
DEFAULT_255_1_388
10
6.0498941
20
140.2914696
11
6.0498941
21
140.2074381
0
LINE
8
DEFAULT_255_1_388
10
5.4743235
20
140.7622267
11
5.2719251
21
140.7622267
0
LINE
8
DEFAULT_255_1_388
10
5.2719251
20
140.7622267
11
5.2719251
21
139.7312596
0
LINE
8
DEFAULT_255_1_388
10
5.2719251
20
139.7312596
11
5.4544451
21
139.7312596
0
LINE
8
DEFAULT_255_1_388
10
5.8782168
20
140.2110523
11
5.8782168
21
140.2878553
0
ARC
8
DEFAULT_255_1_388
10
5.4741852
20
140.2451436
40
0.6598608
50
75.4100343
51
90.3802731
0
ARC
8
DEFAULT_255_1_388
10
5.5000097
20
140.3527691
40
0.5492049
50
60.1455157
51
75.1889627
0
ARC
8
DEFAULT_255_1_388
10
5.5178689
20
140.3838914
40
0.5133226
50
26.525419
51
60.1451222
0
ARC
8
DEFAULT_255_1_388
10
5.3918475
20
140.3170642
40
0.6559324
50
7.4029944
51
26.832209
0
ARC
8
DEFAULT_255_1_388
10
5.2124872
20
140.2891229
40
0.8374103
50
0.1605597
51
7.7176135
0
ARC
8
DEFAULT_255_1_388
10
5.2309273
20
140.2031321
40
0.8189782
50
348.7289744
51
0.30125
0
ARC
8
DEFAULT_255_1_388
10
5.4172736
20
140.1661156
40
0.628991
50
333.0706936
51
348.7181455
0
ARC
8
DEFAULT_255_1_388
10
5.5260365
20
140.1070449
40
0.5052808
50
299.2531435
51
333.4571133
0
ARC
8
DEFAULT_255_1_388
10
5.4854395
20
140.1841629
40
0.5924066
50
278.1072193
51
299.0340218
0
ARC
8
DEFAULT_255_1_388
10
5.4566444
20
140.3537979
40
0.7644209
50
270.4446841
51
278.4508355
0
ARC
8
DEFAULT_255_1_388
10
5.4589928
20
140.24923
40
0.5179903
50
269.4969684
51
284.0204874
0
ARC
8
DEFAULT_255_1_388
10
5.4989646
20
140.0956415
40
0.3592968
50
283.7699076
51
318.1557121
0
ARC
8
DEFAULT_255_1_388
10
5.4610192
20
140.1240399
40
0.4065308
50
318.7417595
51
343.687252
0
ARC
8
DEFAULT_255_1_388
10
5.258077
20
140.1874275
40
0.6191194
50
343.3324891
51
355.8548594
0
ARC
8
DEFAULT_255_1_388
10
5.0219808
20
140.2098719
40
0.856237
50
355.4988754
51
0.0789913
0
ARC
8
DEFAULT_255_1_388
10
5.1100607
20
140.292608
40
0.7681709
50
359.6455047
51
9.8607559
0
ARC
8
DEFAULT_255_1_388
10
5.375633
20
140.3405664
40
0.498312
50
9.6573037
51
26.1931522
0
ARC
8
DEFAULT_255_1_388
10
5.4800405
20
140.3890587
40
0.3832303
50
26.5777895
51
40.1533752
0
ARC
8
DEFAULT_255_1_388
10
5.508807
20
140.411502
40
0.3467742
50
40.3839958
51
80.1430923
0
ARC
8
DEFAULT_255_1_388
10
5.4720326
20
140.2484486
40
0.5137832
50
79.2153636
51
89.7445174
0
LINE
8
DEFAULT_255_1_388
10
7.1052574
20
140.0068468
11
7.2796453
21
140.0068468
0
LINE
8
DEFAULT_255_1_388
10
6.2667496
20
140.1857525
11
6.2667496
21
140.3122516
0
LINE
8
DEFAULT_255_1_388
10
7.2796453
20
140.4821217
11
7.1052574
21
140.4821217
0
LINE
8
DEFAULT_255_1_388
10
6.4411375
20
140.3077337
11
6.4411375
21
140.1803312
0
ARC
8
DEFAULT_255_1_388
10
6.6630687
20
140.0740329
40
0.6202263
50
340.1774904
51
353.7812217
0
ARC
8
DEFAULT_255_1_388
10
6.839854
20
140.0081893
40
0.4315926
50
311.4560052
51
340.4420756
0
ARC
8
DEFAULT_255_1_388
10
6.836108
20
140.0206665
40
0.4434573
50
282.4332229
51
310.7514507
0
ARC
8
DEFAULT_255_1_388
10
6.7866897
20
140.2248703
40
0.6535262
50
269.9358869
51
282.8096729
0
ARC
8
DEFAULT_255_1_388
10
6.7808837
20
140.3761329
40
0.8048043
50
269.9995752
51
270.3612856
0
ARC
8
DEFAULT_255_1_388
10
6.7749327
20
140.0962781
40
0.5249831
50
250.7885263
51
270.6488451
0
ARC
8
DEFAULT_255_1_388
10
6.7560152
20
140.0245853
40
0.4510942
50
219.3628377
51
250.0611024
0
ARC
8
DEFAULT_255_1_388
10
6.8493026
20
140.1038653
40
0.5735046
50
193.5480293
51
219.5755675
0
ARC
8
DEFAULT_255_1_388
10
7.1161235
20
140.173152
40
0.849146
50
181.1220183
51
193.8754971
0
ARC
8
DEFAULT_255_1_388
10
7.3484468
20
140.1855914
40
1.0816971
50
179.9914644
51
181.5398227
0
ARC
8
DEFAULT_255_1_388
10
7.1407778
20
140.3164586
40
0.8740384
50
169.5837606
51
180.275782
0
ARC
8
DEFAULT_255_1_388
10
6.9341127
20
140.3546439
40
0.6638751
50
155.0367033
51
169.6002779
0
ARC
8
DEFAULT_255_1_388
10
6.8063585
20
140.4162336
40
0.5220662
50
136.7831557
51
155.2472983
0
ARC
8
DEFAULT_255_1_388
10
6.7625376
20
140.4534577
40
0.4646502
50
121.7633063
51
136.4281161
0
ARC
8
DEFAULT_255_1_388
10
6.7777215
20
140.4254049
40
0.4964979
50
95.6460018
51
121.5489589
0
ARC
8
DEFAULT_255_1_388
10
6.795419
20
140.3006704
40
0.6223912
50
89.9245727
51
96.1375919
0
ARC
8
DEFAULT_255_1_388
10
6.8010895
20
140.3140721
40
0.6090084
50
76.6779212
51
90.456405
0
ARC
8
DEFAULT_255_1_388
10
6.8453708
20
140.493006
40
0.42469
50
47.4858803
51
76.9287069
0
ARC
8
DEFAULT_255_1_388
10
6.8288322
20
140.4817623
40
0.4441778
50
16.5424081
51
46.8934505
0
ARC
8
DEFAULT_255_1_388
10
6.6479371
20
140.4223265
40
0.6345318
50
5.4072971
51
17.0363711
0
ARC
8
DEFAULT_255_1_388
10
6.4861097
20
140.3963304
40
0.6250632
50
7.8888693
51
15.9242022
0
ARC
8
DEFAULT_255_1_388
10
6.7096082
20
140.4612309
40
0.3923364
50
15.7650676
51
27.9410069
0
ARC
8
DEFAULT_255_1_388
10
6.8338251
20
140.5277317
40
0.2514401
50
27.8167196
51
46.4007942
0
ARC
8
DEFAULT_255_1_388
10
6.8394093
20
140.5270882
40
0.2480958
50
47.4372362
51
75.0695672
0
ARC
8
DEFAULT_255_1_388
10
6.8046929
20
140.4062277
40
0.3738281
50
74.7009379
51
87.8124314
0
ARC
8
DEFAULT_255_1_388
10
6.7964546
20
140.2878659
40
0.4924321
50
87.3802571
51
90.0251599
0
ARC
8
DEFAULT_255_1_388
10
6.7921193
20
140.4198997
40
0.3604218
50
89.3451886
51
108.5744412
0
ARC
8
DEFAULT_255_1_388
10
6.7767185
20
140.4776836
40
0.3007661
50
109.2998307
51
143.3037387
0
ARC
8
DEFAULT_255_1_388
10
6.8624475
20
140.4117584
40
0.4089031
50
143.075267
51
163.1918576
0
ARC
8
DEFAULT_255_1_388
10
7.0820309
20
140.3424652
40
0.6391492
50
162.9375929
51
174.6208776
0
ARC
8
DEFAULT_255_1_388
10
7.3774691
20
140.3100711
40
0.9363344
50
174.342123
51
180.1430283
0
ARC
8
DEFAULT_255_1_388
10
7.2727232
20
140.1757117
40
0.8315986
50
179.6817261
51
189.150555
0
ARC
8
DEFAULT_255_1_388
10
6.9913981
20
140.1288559
40
0.5464044
50
188.9911061
51
203.5772363
0
ARC
8
DEFAULT_255_1_388
10
6.8699273
20
140.0784539
40
0.4149206
50
203.9075402
51
215.1312435
0
ARC
8
DEFAULT_255_1_388
10
6.7661071
20
139.9979907
40
0.2837747
50
213.9071511
51
263.8848919
0
ARC
8
DEFAULT_255_1_388
10
6.7802064
20
140.0862519
40
0.3730641
50
263.1757928
51
270.1031044
0
ARC
8
DEFAULT_255_1_388
10
6.7838144
20
140.2265511
40
0.5133712
50
269.6722503
51
279.0606936
0
ARC
8
DEFAULT_255_1_388
10
6.8138299
20
140.045115
40
0.3294739
50
278.8749101
51
293.6349581
0
ARC
8
DEFAULT_255_1_388
10
6.8498503
20
139.9605251
40
0.2375405
50
293.8553806
51
310.0518171
0
ARC
8
DEFAULT_255_1_388
10
6.8504011
20
139.9535021
40
0.2318463
50
311.0644687
51
332.0111037
0
ARC
8
DEFAULT_255_1_388
10
6.7162685
20
140.0274702
40
0.3850112
50
331.6586806
51
343.2877423
0
ARC
8
DEFAULT_255_1_388
10
6.484215
20
140.0987806
40
0.6277712
50
343.1446576
51
351.0103568
0
ARC
8
DEFAULT_255_1_388
10
6.3209473
20
140.1287873
40
0.7937327
50
350.71248
51
351.1626997
0
LINE
8
DEFAULT_255_1_388
10
21.8292713
20
140.2164737
11
21.8292713
21
140.0800355
0
LINE
8
DEFAULT_255_1_388
10
21.8292713
20
140.0800355
11
21.3883319
21
140.0800355
0
LINE
8
DEFAULT_255_1_388
10
21.3883319
20
140.0800355
11
21.3883319
21
140.2164737
0
LINE
8
DEFAULT_255_1_388
10
21.3883319
20
140.2164737
11
21.8292713
21
140.2164737
0
LINE
8
DEFAULT_255_1_388
10
22.3822528
20
139.5894
11
22.0181163
21
139.5894
0
LINE
8
DEFAULT_255_1_388
10
22.0181163
20
139.5894
11
22.0181163
21
140.9049898
0
LINE
8
DEFAULT_255_1_388
10
22.0181163
20
140.9049898
11
22.3894813
21
140.9049898
0
LINE
8
DEFAULT_255_1_388
10
22.9695697
20
140.2914696
11
22.9695697
21
140.2074381
0
LINE
8
DEFAULT_255_1_388
10
22.3939991
20
140.7622267
11
22.1916007
21
140.7622267
0
LINE
8
DEFAULT_255_1_388
10
22.1916007
20
140.7622267
11
22.1916007
21
139.7312596
0
LINE
8
DEFAULT_255_1_388
10
22.1916007
20
139.7312596
11
22.3741207
21
139.7312596
0
LINE
8
DEFAULT_255_1_388
10
22.7978924
20
140.2110523
11
22.7978924
21
140.2878553
0
ARC
8
DEFAULT_255_1_388
10
22.3938608
20
140.2451436
40
0.6598608
50
75.4100343
51
90.3802731
0
ARC
8
DEFAULT_255_1_388
10
22.4196853
20
140.3527691
40
0.5492049
50
60.1455157
51
75.1889627
0
ARC
8
DEFAULT_255_1_388
10
22.4375445
20
140.3838914
40
0.5133226
50
26.525419
51
60.1451222
0
ARC
8
DEFAULT_255_1_388
10
22.3115231
20
140.3170642
40
0.6559324
50
7.4029944
51
26.832209
0
ARC
8
DEFAULT_255_1_388
10
22.1321628
20
140.2891229
40
0.8374103
50
0.1605597
51
7.7176135
0
ARC
8
DEFAULT_255_1_388
10
22.1506028
20
140.2031321
40
0.8189782
50
348.7289744
51
0.30125
0
ARC
8
DEFAULT_255_1_388
10
22.3369492
20
140.1661156
40
0.628991
50
333.0706936
51
348.7181455
0
ARC
8
DEFAULT_255_1_388
10
22.4457121
20
140.1070449
40
0.5052808
50
299.2531435
51
333.4571133
0
ARC
8
DEFAULT_255_1_388
10
22.4051151
20
140.1841629
40
0.5924066
50
278.1072193
51
299.0340218
0
ARC
8
DEFAULT_255_1_388
10
22.37632
20
140.3537979
40
0.7644209
50
270.4446841
51
278.4508355
0
ARC
8
DEFAULT_255_1_388
10
22.3786684
20
140.24923
40
0.5179903
50
269.4969684
51
284.0204874
0
ARC
8
DEFAULT_255_1_388
10
22.4186402
20
140.0956415
40
0.3592968
50
283.7699076
51
318.1557121
0
ARC
8
DEFAULT_255_1_388
10
22.3806947
20
140.1240399
40
0.4065308
50
318.7417595
51
343.687252
0
ARC
8
DEFAULT_255_1_388
10
22.1777526
20
140.1874275
40
0.6191194
50
343.3324891
51
355.8548594
0
ARC
8
DEFAULT_255_1_388
10
21.9416564
20
140.2098719
40
0.856237
50
355.4988754
51
0.0789913
0
ARC
8
DEFAULT_255_1_388
10
22.0297363
20
140.292608
40
0.7681709
50
359.6455047
51
9.8607559
0
ARC
8
DEFAULT_255_1_388
10
22.2953086
20
140.3405664
40
0.498312
50
9.6573037
51
26.1931522
0
ARC
8
DEFAULT_255_1_388
10
22.3997161
20
140.3890587
40
0.3832303
50
26.5777895
51
40.1533752
0
ARC
8
DEFAULT_255_1_388
10
22.4284826
20
140.411502
40
0.3467742
50
40.3839958
51
80.1430923
0
ARC
8
DEFAULT_255_1_388
10
22.3917082
20
140.2484486
40
0.5137832
50
79.2153636
51
89.7445174
0
LINE
8
DEFAULT_255_1_388
10
24.024933
20
140.0068468
11
24.1993209
21
140.0068468
0
LINE
8
DEFAULT_255_1_388
10
23.1864251
20
140.1857525
11
23.1864251
21
140.3122516
0
LINE
8
DEFAULT_255_1_388
10
24.1993209
20
140.4821217
11
24.024933
21
140.4821217
0
LINE
8
DEFAULT_255_1_388
10
23.3608131
20
140.3077337
11
23.3608131
21
140.1803312
0
ARC
8
DEFAULT_255_1_388
10
23.5827443
20
140.0740329
40
0.6202263
50
340.1774904
51
353.7812217
0
ARC
8
DEFAULT_255_1_388
10
23.7595296
20
140.0081893
40
0.4315926
50
311.4560052
51
340.4420756
0
ARC
8
DEFAULT_255_1_388
10
23.7557836
20
140.0206665
40
0.4434573
50
282.4332229
51
310.7514507
0
ARC
8
DEFAULT_255_1_388
10
23.7063653
20
140.2248703
40
0.6535262
50
269.9358869
51
282.8096729
0
ARC
8
DEFAULT_255_1_388
10
23.7005593
20
140.3761329
40
0.8048043
50
269.9995752
51
270.3612856
0
ARC
8
DEFAULT_255_1_388
10
23.6946083
20
140.0962781
40
0.5249831
50
250.7885263
51
270.6488451
0
ARC
8
DEFAULT_255_1_388
10
23.6756907
20
140.0245853
40
0.4510942
50
219.3628377
51
250.0611024
0
ARC
8
DEFAULT_255_1_388
10
23.7689782
20
140.1038653
40
0.5735046
50
193.5480293
51
219.5755675
0
ARC
8
DEFAULT_255_1_388
10
24.0357991
20
140.173152
40
0.849146
50
181.1220183
51
193.8754971
0
ARC
8
DEFAULT_255_1_388
10
24.2681224
20
140.1855914
40
1.0816971
50
179.9914644
51
181.5398227
0
ARC
8
DEFAULT_255_1_388
10
24.0604534
20
140.3164586
40
0.8740384
50
169.5837606
51
180.275782
0
ARC
8
DEFAULT_255_1_388
10
23.8537883
20
140.3546439
40
0.6638751
50
155.0367033
51
169.6002779
0
ARC
8
DEFAULT_255_1_388
10
23.7260341
20
140.4162336
40
0.5220662
50
136.7831557
51
155.2472983
0
ARC
8
DEFAULT_255_1_388
10
23.6822131
20
140.4534577
40
0.4646502
50
121.7633063
51
136.4281161
0
ARC
8
DEFAULT_255_1_388
10
23.6973971
20
140.4254049
40
0.4964979
50
95.6460018
51
121.5489589
0
ARC
8
DEFAULT_255_1_388
10
23.7150946
20
140.3006704
40
0.6223912
50
89.9245727
51
96.1375919
0
ARC
8
DEFAULT_255_1_388
10
23.7207651
20
140.3140721
40
0.6090084
50
76.6779212
51
90.456405
0
ARC
8
DEFAULT_255_1_388
10
23.7650464
20
140.493006
40
0.42469
50
47.4858803
51
76.9287069
0
ARC
8
DEFAULT_255_1_388
10
23.7485078
20
140.4817623
40
0.4441778
50
16.5424081
51
46.8934505
0
ARC
8
DEFAULT_255_1_388
10
23.5676127
20
140.4223265
40
0.6345318
50
5.4072971
51
17.0363711
0
ARC
8
DEFAULT_255_1_388
10
23.4057852
20
140.3963304
40
0.6250632
50
7.8888693
51
15.9242022
0
ARC
8
DEFAULT_255_1_388
10
23.6292838
20
140.4612309
40
0.3923364
50
15.7650676
51
27.9410069
0
ARC
8
DEFAULT_255_1_388
10
23.7535007
20
140.5277317
40
0.2514401
50
27.8167196
51
46.4007942
0
ARC
8
DEFAULT_255_1_388
10
23.7590849
20
140.5270882
40
0.2480958
50
47.4372362
51
75.0695672
0
ARC
8
DEFAULT_255_1_388
10
23.7243685
20
140.4062277
40
0.3738281
50
74.7009379
51
87.8124314
0
ARC
8
DEFAULT_255_1_388
10
23.7161302
20
140.2878659
40
0.4924321
50
87.3802571
51
90.0251599
0
ARC
8
DEFAULT_255_1_388
10
23.7117949
20
140.4198997
40
0.3604218
50
89.3451886
51
108.5744412
0
ARC
8
DEFAULT_255_1_388
10
23.6963941
20
140.4776836
40
0.3007661
50
109.2998307
51
143.3037387
0
ARC
8
DEFAULT_255_1_388
10
23.7821231
20
140.4117584
40
0.4089031
50
143.075267
51
163.1918576
0
ARC
8
DEFAULT_255_1_388
10
24.0017065
20
140.3424652
40
0.6391492
50
162.9375929
51
174.6208776
0
ARC
8
DEFAULT_255_1_388
10
24.2971447
20
140.3100711
40
0.9363344
50
174.342123
51
180.1430283
0
ARC
8
DEFAULT_255_1_388
10
24.1923988
20
140.1757117
40
0.8315986
50
179.6817261
51
189.150555
0
ARC
8
DEFAULT_255_1_388
10
23.9110737
20
140.1288559
40
0.5464044
50
188.9911061
51
203.5772363
0
ARC
8
DEFAULT_255_1_388
10
23.7896029
20
140.0784539
40
0.4149206
50
203.9075402
51
215.1312435
0
ARC
8
DEFAULT_255_1_388
10
23.6857827
20
139.9979907
40
0.2837747
50
213.9071511
51
263.8848919
0
ARC
8
DEFAULT_255_1_388
10
23.699882
20
140.0862519
40
0.3730641
50
263.1757928
51
270.1031044
0
ARC
8
DEFAULT_255_1_388
10
23.7034899
20
140.2265511
40
0.5133712
50
269.6722503
51
279.0606936
0
ARC
8
DEFAULT_255_1_388
10
23.7335055
20
140.045115
40
0.3294739
50
278.8749101
51
293.6349581
0
ARC
8
DEFAULT_255_1_388
10
23.7695258
20
139.9605251
40
0.2375405
50
293.8553806
51
310.0518171
0
ARC
8
DEFAULT_255_1_388
10
23.7700767
20
139.9535021
40
0.2318463
50
311.0644687
51
332.0111037
0
ARC
8
DEFAULT_255_1_388
10
23.6359441
20
140.0274702
40
0.3850112
50
331.6586806
51
343.2877423
0
ARC
8
DEFAULT_255_1_388
10
23.4038906
20
140.0987806
40
0.6277712
50
343.1446576
51
351.0103568
0
ARC
8
DEFAULT_255_1_388
10
23.2406229
20
140.1287873
40
0.7937327
50
350.71248
51
351.1626997
0
LINE
8
DEFAULT_255_1_388
10
21.326732
20
5.0693468
11
21.5011199
21
5.0693468
0
LINE
8
DEFAULT_255_1_388
10
20.4882242
20
5.2482525
11
20.4882242
21
5.3747516
0
LINE
8
DEFAULT_255_1_388
10
21.5011199
20
5.5446217
11
21.326732
21
5.5446217
0
LINE
8
DEFAULT_255_1_388
10
20.6626121
20
5.3702337
11
20.6626121
21
5.2428312
0
ARC
8
DEFAULT_255_1_388
10
20.8845433
20
5.1365329
40
0.6202263
50
340.1774904
51
353.7812217
0
ARC
8
DEFAULT_255_1_388
10
21.0613286
20
5.0706893
40
0.4315926
50
311.4560052
51
340.4420756
0
ARC
8
DEFAULT_255_1_388
10
21.0575826
20
5.0831665
40
0.4434573
50
282.4332229
51
310.7514507
0
ARC
8
DEFAULT_255_1_388
10
21.0081644
20
5.2873703
40
0.6535262
50
269.9358869
51
282.8096729
0
ARC
8
DEFAULT_255_1_388
10
21.0023583
20
5.4386329
40
0.8048043
50
269.9995752
51
270.3612856
0
ARC
8
DEFAULT_255_1_388
10
20.9964073
20
5.1587781
40
0.5249831
50
250.7885263
51
270.6488451
0
ARC
8
DEFAULT_255_1_388
10
20.9774898
20
5.0870853
40
0.4510942
50
219.3628377
51
250.0611024
0
ARC
8
DEFAULT_255_1_388
10
21.0707772
20
5.1663653
40
0.5735046
50
193.5480293
51
219.5755675
0
ARC
8
DEFAULT_255_1_388
10
21.3375981
20
5.235652
40
0.849146
50
181.1220183
51
193.8754971
0
ARC
8
DEFAULT_255_1_388
10
21.5699214
20
5.2480914
40
1.0816971
50
179.9914644
51
181.5398227
0
ARC
8
DEFAULT_255_1_388
10
21.3622525
20
5.3789586
40
0.8740384
50
169.5837606
51
180.275782
0
ARC
8
DEFAULT_255_1_388
10
21.1555873
20
5.4171439
40
0.6638751
50
155.0367033
51
169.6002779
0
ARC
8
DEFAULT_255_1_388
10
21.0278331
20
5.4787336
40
0.5220662
50
136.7831557
51
155.2472983
0
ARC
8
DEFAULT_255_1_388
10
20.9840122
20
5.5159577
40
0.4646502
50
121.7633063
51
136.4281161
0
ARC
8
DEFAULT_255_1_388
10
20.9991962
20
5.4879049
40
0.4964979
50
95.6460018
51
121.5489589
0
ARC
8
DEFAULT_255_1_388
10
21.0168936
20
5.3631704
40
0.6223912
50
89.9245727
51
96.1375919
0
ARC
8
DEFAULT_255_1_388
10
21.0225641
20
5.3765721
40
0.6090084
50
76.6779212
51
90.456405
0
ARC
8
DEFAULT_255_1_388
10
21.0668454
20
5.555506
40
0.42469
50
47.4858803
51
76.9287069
0
ARC
8
DEFAULT_255_1_388
10
21.0503068
20
5.5442623
40
0.4441778
50
16.5424081
51
46.8934505
0
ARC
8
DEFAULT_255_1_388
10
20.8694118
20
5.4848265
40
0.6345318
50
5.4072971
51
17.0363711
0
ARC
8
DEFAULT_255_1_388
10
20.7075843
20
5.4588304
40
0.6250632
50
7.8888693
51
15.9242022
0
ARC
8
DEFAULT_255_1_388
10
20.9310828
20
5.5237309
40
0.3923364
50
15.7650676
51
27.9410069
0
ARC
8
DEFAULT_255_1_388
10
21.0552997
20
5.5902317
40
0.2514401
50
27.8167196
51
46.4007942
0
ARC
8
DEFAULT_255_1_388
10
21.0608839
20
5.5895882
40
0.2480958
50
47.4372362
51
75.0695672
0
ARC
8
DEFAULT_255_1_388
10
21.0261675
20
5.4687277
40
0.3738281
50
74.7009379
51
87.8124314
0
ARC
8
DEFAULT_255_1_388
10
21.0179292
20
5.3503659
40
0.4924321
50
87.3802571
51
90.0251599
0
ARC
8
DEFAULT_255_1_388
10
21.0135939
20
5.4823997
40
0.3604218
50
89.3451886
51
108.5744412
0
ARC
8
DEFAULT_255_1_388
10
20.9981931
20
5.5401836
40
0.3007661
50
109.2998307
51
143.3037387
0
ARC
8
DEFAULT_255_1_388
10
21.0839221
20
5.4742584
40
0.4089031
50
143.075267
51
163.1918576
0
ARC
8
DEFAULT_255_1_388
10
21.3035055
20
5.4049652
40
0.6391492
50
162.9375929
51
174.6208776
0
ARC
8
DEFAULT_255_1_388
10
21.5989437
20
5.3725711
40
0.9363344
50
174.342123
51
180.1430283
0
ARC
8
DEFAULT_255_1_388
10
21.4941978
20
5.2382117
40
0.8315986
50
179.6817261
51
189.150555
0
ARC
8
DEFAULT_255_1_388
10
21.2128727
20
5.1913559
40
0.5464044
50
188.9911061
51
203.5772363
0
ARC
8
DEFAULT_255_1_388
10
21.0914019
20
5.1409539
40
0.4149206
50
203.9075402
51
215.1312435
0
ARC
8
DEFAULT_255_1_388
10
20.9875817
20
5.0604907
40
0.2837747
50
213.9071511
51
263.8848919
0
ARC
8
DEFAULT_255_1_388
10
21.001681
20
5.1487519
40
0.3730641
50
263.1757928
51
270.1031044
0
ARC
8
DEFAULT_255_1_388
10
21.005289
20
5.2890511
40
0.5133712
50
269.6722503
51
279.0606936
0
ARC
8
DEFAULT_255_1_388
10
21.0353045
20
5.107615
40
0.3294739
50
278.8749101
51
293.6349581
0
ARC
8
DEFAULT_255_1_388
10
21.0713249
20
5.0230251
40
0.2375405
50
293.8553806
51
310.0518171
0
ARC
8
DEFAULT_255_1_388
10
21.0718758
20
5.0160021
40
0.2318463
50
311.0644687
51
332.0111037
0
ARC
8
DEFAULT_255_1_388
10
20.9377431
20
5.0899702
40
0.3850112
50
331.6586806
51
343.2877423
0
ARC
8
DEFAULT_255_1_388
10
20.7056896
20
5.1612806
40
0.6277712
50
343.1446576
51
351.0103568
0
ARC
8
DEFAULT_255_1_388
10
20.542422
20
5.1912873
40
0.7937327
50
350.71248
51
351.1626997
0
LINE
8
DEFAULT_255_1_388
10
22.749846
20
5.3503553
11
22.749846
21
5.2672274
0
LINE
8
DEFAULT_255_1_388
10
21.691772
20
5.2554811
11
21.691772
21
5.3503553
0
LINE
8
DEFAULT_255_1_388
10
22.5772652
20
5.2545775
11
22.5772652
21
5.3521625
0
LINE
8
DEFAULT_255_1_388
10
21.8643528
20
5.3639088
11
21.8643528
21
5.2672274
0
ARC
8
DEFAULT_255_1_388
10
21.7776198
20
5.2627726
40
0.9722364
50
350.4878118
51
0.2625322
0
ARC
8
DEFAULT_255_1_388
10
22.0356158
20
5.2183994
40
0.7104556
50
336.0277991
51
350.5787241
0
ARC
8
DEFAULT_255_1_388
10
22.1869265
20
5.1500243
40
0.544417
50
319.887443
51
336.1331163
0
ARC
8
DEFAULT_255_1_388
10
22.2547077
20
5.0957733
40
0.4576311
50
302.4806296
51
319.6144102
0
ARC
8
DEFAULT_255_1_388
10
22.2417699
20
5.1207067
40
0.4856183
50
275.8196423
51
302.1885521
0
ARC
8
DEFAULT_255_1_388
10
22.223056
20
5.2492466
40
0.6154183
50
269.9169897
51
276.339506
0
ARC
8
DEFAULT_255_1_388
10
22.2180161
20
5.172068
40
0.5382553
50
252.5221437
51
270.441579
0
ARC
8
DEFAULT_255_1_388
10
22.2018411
20
5.1114046
40
0.4755426
50
237.5349961
51
252.1858334
0
ARC
8
DEFAULT_255_1_388
10
22.2118787
20
5.124212
40
0.4917393
50
209.0632754
51
237.3492577
0
ARC
8
DEFAULT_255_1_388
10
22.3098113
20
5.1857104
40
0.6072464
50
205.118533
51
209.6465345
0
ARC
8
DEFAULT_255_1_388
10
22.3994115
20
5.2237174
40
0.7045164
50
188.7216633
51
204.8239753
0
ARC
8
DEFAULT_255_1_388
10
22.6240891
20
5.2615387
40
0.9323368
50
180.3722704
51
188.9253909
0
ARC
8
DEFAULT_255_1_388
10
22.6210452
20
5.3548416
40
0.929284
50
169.5253055
51
180.2766048
0
ARC
8
DEFAULT_255_1_388
10
22.4070251
20
5.3942024
40
0.7116745
50
155.8314601
51
169.5088611
0
ARC
8
DEFAULT_255_1_388
10
22.2629714
20
5.4610312
40
0.5528904
50
139.6259579
51
156.0379072
0
ARC
8
DEFAULT_255_1_388
10
22.1966248
20
5.5144143
40
0.4677708
50
122.6414784
51
139.3431662
0
ARC
8
DEFAULT_255_1_388
10
22.2079503
20
5.4937787
40
0.4912586
50
93.0224537
51
122.4556091
0
ARC
8
DEFAULT_255_1_388
10
22.2201023
20
5.3851776
40
0.6003837
50
89.9756766
51
93.6340839
0
ARC
8
DEFAULT_255_1_388
10
22.2244621
20
5.4300879
40
0.5554884
50
73.7463329
51
90.4234008
0
ARC
8
DEFAULT_255_1_388
10
22.2442094
20
5.5065772
40
0.4765353
50
57.663051
51
73.4516911
0
ARC
8
DEFAULT_255_1_388
10
22.2433132
20
5.5090108
40
0.4749629
50
29.1441355
51
57.4146687
0
ARC
8
DEFAULT_255_1_388
10
22.1380943
20
5.4433046
40
0.5988917
50
24.0985653
51
29.732054
0
ARC
8
DEFAULT_255_1_388
10
22.0218575
20
5.3951154
40
0.7246823
50
8.6654943
51
23.8241215
0
ARC
8
DEFAULT_255_1_388
10
21.7704994
20
5.3541037
40
0.9793537
50
359.7807044
51
8.8218476
0
ARC
8
DEFAULT_255_1_388
10
21.6414698
20
5.3569731
40
0.9358078
50
359.7054632
51
8.0359751
0
ARC
8
DEFAULT_255_1_388
10
21.9789749
20
5.4061252
40
0.5947474
50
7.8926278
51
20.2962188
0
ARC
8
DEFAULT_255_1_388
10
22.16206
20
5.4736367
40
0.3996117
50
20.3231056
51
36.4990255
0
ARC
8
DEFAULT_255_1_388
10
22.2391897
20
5.5330399
40
0.3022818
50
36.1436715
51
85.6627846
0
ARC
8
DEFAULT_255_1_388
10
22.2209152
20
5.4160881
40
0.4203853
50
84.3845912
51
90.076054
0
ARC
8
DEFAULT_255_1_388
10
22.2161507
20
5.4903416
40
0.346157
50
89.3037228
51
109.9046209
0
ARC
8
DEFAULT_255_1_388
10
22.205734
20
5.5333379
40
0.3022217
50
110.8229774
51
143.917961
0
ARC
8
DEFAULT_255_1_388
10
22.31077
20
5.4531455
40
0.434348
50
143.5289166
51
163.2980252
0
ARC
8
DEFAULT_255_1_388
10
22.5253987
20
5.3856685
40
0.659321
50
163.0418884
51
174.3139873
0
ARC
8
DEFAULT_255_1_388
10
22.7958951
20
5.3544378
40
0.9315905
50
174.050934
51
179.4174954
0
ARC
8
DEFAULT_255_1_388
10
22.7390895
20
5.2625382
40
0.8747493
50
179.6928582
51
188.7908948
0
ARC
8
DEFAULT_255_1_388
10
22.4394695
20
5.2146086
40
0.5713262
50
188.6328449
51
202.5630732
0
ARC
8
DEFAULT_255_1_388
10
22.2983532
20
5.1579142
40
0.4192612
50
202.8078931
51
216.1195888
0
ARC
8
DEFAULT_255_1_388
10
22.2073049
20
5.0846479
40
0.3025752
50
215.0755613
51
264.6379773
0
ARC
8
DEFAULT_255_1_388
10
22.2215887
20
5.1781376
40
0.3970284
50
263.8464302
51
270.0830805
0
ARC
8
DEFAULT_255_1_388
10
22.2262431
20
5.1490808
40
0.3679937
50
269.3649295
51
287.5149684
0
ARC
8
DEFAULT_255_1_388
10
22.2462872
20
5.0762714
40
0.2925408
50
288.0629019
51
323.8115617
0
ARC
8
DEFAULT_255_1_388
10
22.1482848
20
5.1493754
40
0.4148018
50
323.6546541
51
342.6591359
0
ARC
8
DEFAULT_255_1_388
10
21.9197506
20
5.223728
40
0.6551163
50
342.4092446
51
353.6451501
0
ARC
8
DEFAULT_255_1_388
10
21.60123
20
5.2633565
40
0.9760748
50
353.4027553
51
359.4846611
0
LINE
8
DEFAULT_255_1_388
10
23.0100726
20
5.9674898
11
23.2341565
21
5.9674898
0
LINE
8
DEFAULT_255_1_388
10
23.2341565
20
5.9674898
11
23.6642532
21
4.8940553
0
LINE
8
DEFAULT_255_1_388
10
23.6642532
20
4.8940553
11
24.0943499
21
5.9674898
0
LINE
8
DEFAULT_255_1_388
10
24.0943499
20
5.9674898
11
24.3193375
21
5.9674898
0
LINE
8
DEFAULT_255_1_388
10
24.3193375
20
5.9674898
11
24.3193375
21
4.6519
0
LINE
8
DEFAULT_255_1_388
10
24.3193375
20
4.6519
11
24.1458531
21
4.6519
0
LINE
8
DEFAULT_255_1_388
10
24.1458531
20
4.6519
11
24.1458531
21
5.164221
0
LINE
8
DEFAULT_255_1_388
10
24.1458531
20
5.164221
11
24.1621172
21
5.7172025
0
LINE
8
DEFAULT_255_1_388
10
24.1621172
20
5.7172025
11
23.7302134
21
4.6519
0
LINE
8
DEFAULT_255_1_388
10
23.7302134
20
4.6519
11
23.5973895
21
4.6519
0
LINE
8
DEFAULT_255_1_388
10
23.5973895
20
4.6519
11
23.1663892
21
5.7144918
0
LINE
8
DEFAULT_255_1_388
10
23.1663892
20
5.7144918
11
23.1835569
21
5.164221
0
LINE
8
DEFAULT_255_1_388
10
23.1835569
20
5.164221
11
23.1835569
21
4.6519
0
LINE
8
DEFAULT_255_1_388
10
23.1835569
20
4.6519
11
23.0100726
21
4.6519
0
LINE
8
DEFAULT_255_1_388
10
23.0100726
20
4.6519
11
23.0100726
21
5.9674898
0
LINE
8
DEFAULT_255_1_388
10
19.9763946
20
13.2878553
11
19.9763946
21
13.2047274
0
LINE
8
DEFAULT_255_1_388
10
18.9183206
20
13.1929811
11
18.9183206
21
13.2878553
0
LINE
8
DEFAULT_255_1_388
10
19.8038138
20
13.1920775
11
19.8038138
21
13.2896625
0
LINE
8
DEFAULT_255_1_388
10
19.0909014
20
13.3014088
11
19.0909014
21
13.2047274
0
ARC
8
DEFAULT_255_1_388
10
19.0041684
20
13.2002726
40
0.9722364
50
350.4878118
51
0.2625322
0
ARC
8
DEFAULT_255_1_388
10
19.2621644
20
13.1558994
40
0.7104556
50
336.0277991
51
350.5787241
0
ARC
8
DEFAULT_255_1_388
10
19.4134751
20
13.0875243
40
0.544417
50
319.887443
51
336.1331163
0
ARC
8
DEFAULT_255_1_388
10
19.4812563
20
13.0332733
40
0.4576311
50
302.4806296
51
319.6144102
0
ARC
8
DEFAULT_255_1_388
10
19.4683184
20
13.0582067
40
0.4856183
50
275.8196423
51
302.1885521
0
ARC
8
DEFAULT_255_1_388
10
19.4496046
20
13.1867466
40
0.6154183
50
269.9169897
51
276.339506
0
ARC
8
DEFAULT_255_1_388
10
19.4445646
20
13.109568
40
0.5382553
50
252.5221437
51
270.441579
0
ARC
8
DEFAULT_255_1_388
10
19.4283897
20
13.0489046
40
0.4755426
50
237.5349961
51
252.1858334
0
ARC
8
DEFAULT_255_1_388
10
19.4384273
20
13.061712
40
0.4917393
50
209.0632754
51
237.3492577
0
ARC
8
DEFAULT_255_1_388
10
19.5363599
20
13.1232104
40
0.6072464
50
205.118533
51
209.6465345
0
ARC
8
DEFAULT_255_1_388
10
19.6259601
20
13.1612174
40
0.7045164
50
188.7216633
51
204.8239753
0
ARC
8
DEFAULT_255_1_388
10
19.8506376
20
13.1990387
40
0.9323368
50
180.3722704
51
188.9253909
0
ARC
8
DEFAULT_255_1_388
10
19.8475938
20
13.2923416
40
0.929284
50
169.5253055
51
180.2766048
0
ARC
8
DEFAULT_255_1_388
10
19.6335737
20
13.3317024
40
0.7116745
50
155.8314601
51
169.5088611
0
ARC
8
DEFAULT_255_1_388
10
19.48952
20
13.3985312
40
0.5528904
50
139.6259579
51
156.0379072
0
ARC
8
DEFAULT_255_1_388
10
19.4231733
20
13.4519143
40
0.4677708
50
122.6414784
51
139.3431662
0
ARC
8
DEFAULT_255_1_388
10
19.4344988
20
13.4312787
40
0.4912586
50
93.0224537
51
122.4556091
0
ARC
8
DEFAULT_255_1_388
10
19.4466509
20
13.3226776
40
0.6003837
50
89.9756766
51
93.6340839
0
ARC
8
DEFAULT_255_1_388
10
19.4510107
20
13.3675879
40
0.5554884
50
73.7463329
51
90.4234008
0
ARC
8
DEFAULT_255_1_388
10
19.470758
20
13.4440772
40
0.4765353
50
57.663051
51
73.4516911
0
ARC
8
DEFAULT_255_1_388
10
19.4698618
20
13.4465108
40
0.4749629
50
29.1441355
51
57.4146687
0
ARC
8
DEFAULT_255_1_388
10
19.3646429
20
13.3808046
40
0.5988917
50
24.0985653
51
29.732054
0
ARC
8
DEFAULT_255_1_388
10
19.2484061
20
13.3326154
40
0.7246823
50
8.6654943
51
23.8241215
0
ARC
8
DEFAULT_255_1_388
10
18.9970479
20
13.2916037
40
0.9793537
50
359.7807044
51
8.8218476
0
ARC
8
DEFAULT_255_1_388
10
18.8680184
20
13.2944731
40
0.9358078
50
359.7054632
51
8.0359751
0
ARC
8
DEFAULT_255_1_388
10
19.2055235
20
13.3436252
40
0.5947474
50
7.8926278
51
20.2962188
0
ARC
8
DEFAULT_255_1_388
10
19.3886085
20
13.4111367
40
0.3996117
50
20.3231056
51
36.4990255
0
ARC
8
DEFAULT_255_1_388
10
19.4657383
20
13.4705399
40
0.3022818
50
36.1436715
51
85.6627846
0
ARC
8
DEFAULT_255_1_388
10
19.4474638
20
13.3535881
40
0.4203853
50
84.3845912
51
90.076054
0
ARC
8
DEFAULT_255_1_388
10
19.4426993
20
13.4278416
40
0.346157
50
89.3037228
51
109.9046209
0
ARC
8
DEFAULT_255_1_388
10
19.4322826
20
13.4708379
40
0.3022217
50
110.8229774
51
143.917961
0
ARC
8
DEFAULT_255_1_388
10
19.5373185
20
13.3906455
40
0.434348
50
143.5289166
51
163.2980252
0
ARC
8
DEFAULT_255_1_388
10
19.7519472
20
13.3231685
40
0.659321
50
163.0418884
51
174.3139873
0
ARC
8
DEFAULT_255_1_388
10
20.0224437
20
13.2919378
40
0.9315905
50
174.050934
51
179.4174954
0
ARC
8
DEFAULT_255_1_388
10
19.9656381
20
13.2000382
40
0.8747493
50
179.6928582
51
188.7908948
0
ARC
8
DEFAULT_255_1_388
10
19.6660181
20
13.1521086
40
0.5713262
50
188.6328449
51
202.5630732
0
ARC
8
DEFAULT_255_1_388
10
19.5249018
20
13.0954142
40
0.4192612
50
202.8078931
51
216.1195888
0
ARC
8
DEFAULT_255_1_388
10
19.4338535
20
13.0221479
40
0.3025752
50
215.0755613
51
264.6379773
0
ARC
8
DEFAULT_255_1_388
10
19.4481372
20
13.1156376
40
0.3970284
50
263.8464302
51
270.0830805
0
ARC
8
DEFAULT_255_1_388
10
19.4527917
20
13.0865808
40
0.3679937
50
269.3649295
51
287.5149684
0
ARC
8
DEFAULT_255_1_388
10
19.4728358
20
13.0137714
40
0.2925408
50
288.0629019
51
323.8115617
0
ARC
8
DEFAULT_255_1_388
10
19.3748334
20
13.0868754
40
0.4148018
50
323.6546541
51
342.6591359
0
ARC
8
DEFAULT_255_1_388
10
19.1462992
20
13.161228
40
0.6551163
50
342.4092446
51
353.6451501
0
ARC
8
DEFAULT_255_1_388
10
18.8277785
20
13.2008565
40
0.9760748
50
353.4027553
51
359.4846611
0
LINE
8
DEFAULT_255_1_388
10
20.9883868
20
13.9049898
11
21.1627747
21
13.9049898
0
LINE
8
DEFAULT_255_1_388
10
21.1627747
20
13.9049898
11
21.1627747
21
13.010461
0
LINE
8
DEFAULT_255_1_388
10
20.7308709
20
12.5731358
11
20.6847891
21
12.5713287
0
LINE
8
DEFAULT_255_1_388
10
20.2104178
20
13.0086539
11
20.2104178
21
13.9049898
0
LINE
8
DEFAULT_255_1_388
10
20.2104178
20
13.9049898
11
20.382095
21
13.9049898
0
LINE
8
DEFAULT_255_1_388
10
20.382095
20
13.9049898
11
20.382095
21
13.0140753
0
LINE
8
DEFAULT_255_1_388
10
20.9883868
20
13.0131717
11
20.9883868
21
13.9049898
0
ARC
8
DEFAULT_255_1_388
10
20.6730546
20
13.008227
40
0.4897252
50
343.0897723
51
0.2613727
0
ARC
8
DEFAULT_255_1_388
10
20.7662517
20
12.982227
40
0.3930016
50
315.3344451
51
342.7642569
0
ARC
8
DEFAULT_255_1_388
10
20.7411012
20
13.0083085
40
0.4292244
50
284.6605441
51
315.2183439
0
ARC
8
DEFAULT_255_1_388
10
20.6898792
20
13.1822508
40
0.6104926
50
273.8500371
51
285.1796441
0
ARC
8
DEFAULT_255_1_388
10
20.6799857
20
13.2206762
40
0.6493653
50
257.6315393
51
270.4238259
0
ARC
8
DEFAULT_255_1_388
10
20.632194
20
13.0157915
40
0.4390079
50
230.6086859
51
257.9965362
0
ARC
8
DEFAULT_255_1_388
10
20.6175998
20
12.9928643
40
0.4120404
50
227.745033
51
230.1538266
0
ARC
8
DEFAULT_255_1_388
10
20.6022528
20
12.9744253
40
0.3880742
50
189.2524335
51
227.5915299
0
ARC
8
DEFAULT_255_1_388
10
20.7734399
20
13.0112735
40
0.5630282
50
180.2665782
51
190.1525221
0
ARC
8
DEFAULT_255_1_388
10
20.7984127
20
13.0109254
40
0.4163296
50
179.566507
51
191.9954402
0
ARC
8
DEFAULT_255_1_388
10
20.6602816
20
12.9801151
40
0.274815
50
191.6974619
51
215.1403758
0
ARC
8
DEFAULT_255_1_388
10
20.6335208
20
12.9641689
40
0.2437647
50
215.6958251
51
224.8509274
0
ARC
8
DEFAULT_255_1_388
10
20.6397684
20
12.9731016
40
0.2545012
50
225.2846515
51
255.0110023
0
ARC
8
DEFAULT_255_1_388
10
20.676213
20
13.0984017
40
0.384974
50
254.5945979
51
267.9129427
0
ARC
8
DEFAULT_255_1_388
10
20.6845823
20
13.2201444
40
0.506956
50
267.4687563
51
270.0233681
0
ARC
8
DEFAULT_255_1_388
10
20.6879819
20
13.1541288
40
0.440952
50
269.5851384
51
281.1845308
0
ARC
8
DEFAULT_255_1_388
10
20.7193423
20
13.0019469
40
0.2855802
50
280.9345159
51
300.9740496
0
ARC
8
DEFAULT_255_1_388
10
20.7432603
20
12.9579128
40
0.2355257
50
301.4982546
51
315.1468616
0
ARC
8
DEFAULT_255_1_388
10
20.7270099
20
12.9712488
40
0.2564594
50
315.5952932
51
345.6679188
0
ARC
8
DEFAULT_255_1_388
10
20.6010656
20
13.0063235
40
0.3871766
50
345.2525685
51
358.6303941
0
ARC
8
DEFAULT_255_1_388
10
20.4867047
20
13.0130695
40
0.5016822
50
358.1723541
51
0.0116795
0
LINE
8
DEFAULT_255_1_388
10
22.3455406
20
13.9049898
11
22.3455406
21
13.7622267
0
LINE
8
DEFAULT_255_1_388
10
22.3455406
20
13.7622267
11
21.9226724
21
13.7622267
0
LINE
8
DEFAULT_255_1_388
10
21.9226724
20
13.7622267
11
21.9226724
21
12.5894
0
LINE
8
DEFAULT_255_1_388
10
21.9226724
20
12.5894
11
21.7500916
21
12.5894
0
LINE
8
DEFAULT_255_1_388
10
21.7500916
20
12.5894
11
21.7500916
21
13.7622267
0
LINE
8
DEFAULT_255_1_388
10
21.7500916
20
13.7622267
11
21.328127
21
13.7622267
0
LINE
8
DEFAULT_255_1_388
10
21.328127
20
13.7622267
11
21.328127
21
13.9049898
0
LINE
8
DEFAULT_255_1_388
10
21.328127
20
13.9049898
11
22.3455406
21
13.9049898
0
LINE
8
DEFAULT_255_1_388
10
23.0467066
20
13.9113148
11
23.0467066
21
12.5894
0
LINE
8
DEFAULT_255_1_388
10
23.0467066
20
12.5894
11
22.8786436
21
12.5894
0
LINE
8
DEFAULT_255_1_388
10
22.8786436
20
12.5894
11
22.8786436
21
13.703495
0
LINE
8
DEFAULT_255_1_388
10
22.8786436
20
13.703495
11
22.5416141
21
13.5797066
0
LINE
8
DEFAULT_255_1_388
10
22.5416141
20
13.5797066
11
22.5416141
21
13.7315055
0
LINE
8
DEFAULT_255_1_388
10
22.5416141
20
13.7315055
11
23.0205032
21
13.9113148
0
LINE
8
DEFAULT_255_1_388
10
23.0205032
20
13.9113148
11
23.0467066
21
13.9113148
0
LINE
8
DEFAULT_255_1_388
10
23.746969
20
13.2146666
11
23.6132415
21
13.2490021
0
LINE
8
DEFAULT_255_1_388
10
23.6132415
20
13.2490021
11
23.6801053
21
13.9049898
0
LINE
8
DEFAULT_255_1_388
10
23.6801053
20
13.9049898
11
24.3541644
21
13.9049898
0
LINE
8
DEFAULT_255_1_388
10
24.3541644
20
13.9049898
11
24.3541644
21
13.7504803
0
LINE
8
DEFAULT_255_1_388
10
24.3541644
20
13.7504803
11
23.8219649
21
13.7504803
0
LINE
8
DEFAULT_255_1_388
10
23.8219649
20
13.7504803
11
23.7822081
21
13.3917652
0
LINE
8
DEFAULT_255_1_388
10
23.5662562
20
12.9354652
11
23.7243799
21
12.9354652
0
LINE
8
DEFAULT_255_1_388
10
23.7912437
20
13.2508092
11
23.746969
21
13.2146666
0
ARC
8
DEFAULT_255_1_388
10
23.9908694
20
13.0340241
40
0.4141476
50
93.7181681
51
120.253934
0
ARC
8
DEFAULT_255_1_388
10
24.0014746
20
12.9431284
40
0.5055616
50
89.9660471
51
94.2495185
0
ARC
8
DEFAULT_255_1_388
10
24.0060568
20
13.0094154
40
0.4392953
50
73.8045384
51
90.5585736
0
ARC
8
DEFAULT_255_1_388
10
24.0324826
20
13.105952
40
0.3392225
50
41.3071072
51
73.543002
0
ARC
8
DEFAULT_255_1_388
10
23.9856646
20
13.0656461
40
0.4009977
50
13.5075837
51
41.2174839
0
ARC
8
DEFAULT_255_1_388
10
23.8009743
20
13.0172907
40
0.5918864
50
1.1330171
51
13.8830737
0
ARC
8
DEFAULT_255_1_388
10
23.6413389
20
13.0087522
40
0.7516787
50
359.9925091
51
1.5431298
0
ARC
8
DEFAULT_255_1_388
10
23.7858004
20
13.0041027
40
0.6072343
50
347.8572712
51
0.4294349
0
ARC
8
DEFAULT_255_1_388
10
23.9827139
20
12.9594898
40
0.4053482
50
323.6727442
51
348.1674594
0
ARC
8
DEFAULT_255_1_388
10
24.0158103
20
12.9393175
40
0.3667495
50
316.8171818
51
323.1486802
0
ARC
8
DEFAULT_255_1_388
10
24.0227227
20
12.9351612
40
0.358869
50
281.839603
51
316.5458142
0
ARC
8
DEFAULT_255_1_388
10
23.9804515
20
13.1101363
40
0.5388223
50
269.5770964
51
282.4214641
0
ARC
8
DEFAULT_255_1_388
10
23.9724435
20
13.086093
40
0.5147801
50
256.2425863
51
270.4486481
0
ARC
8
DEFAULT_255_1_388
10
23.9387963
20
12.9511124
40
0.3756708
50
228.9024379
51
256.33135
0
ARC
8
DEFAULT_255_1_388
10
23.9304943
20
12.9380054
40
0.360344
50
193.7536029
51
228.5272638
0
ARC
8
DEFAULT_255_1_388
10
24.0697508
20
12.9788463
40
0.5053599
50
184.9244437
51
194.4976052
0
ARC
8
DEFAULT_255_1_388
10
24.0914149
20
12.9828722
40
0.3700839
50
187.3596909
51
198.6733728
0
ARC
8
DEFAULT_255_1_388
10
23.9733393
20
12.9419373
40
0.2451195
50
198.4453795
51
217.7945479
0
ARC
8
DEFAULT_255_1_388
10
23.9400565
20
12.9183563
40
0.2043754
50
218.2887146
51
228.5613203
0
ARC
8
DEFAULT_255_1_388
10
23.9510572
20
12.9331902
40
0.2227819
50
228.9652423
51
258.1237049
0
ARC
8
DEFAULT_255_1_388
10
23.974201
20
13.0322964
40
0.3245374
50
257.7260585
51
270.4013717
0
ARC
8
DEFAULT_255_1_388
10
23.9792508
20
12.9822255
40
0.2744726
50
269.4204315
51
286.420998
0
ARC
8
DEFAULT_255_1_388
10
23.9959563
20
12.9215705
40
0.2115721
50
286.7250065
51
320.6004665
0
ARC
8
DEFAULT_255_1_388
10
23.9528479
20
12.9565527
40
0.2670878
50
320.6712228
51
344.5440474
0
ARC
8
DEFAULT_255_1_388
10
23.8227193
20
12.9947394
40
0.4026927
50
344.241448
51
356.735803
0
ARC
8
DEFAULT_255_1_388
10
23.68235
20
13.0063656
40
0.5435085
50
356.3547471
51
0.0507222
0
ARC
8
DEFAULT_255_1_388
10
23.8325765
20
13.0098812
40
0.3932934
50
359.5579289
51
12.9534322
0
ARC
8
DEFAULT_255_1_388
10
23.9512605
20
13.0386586
40
0.2711827
50
12.6489751
51
41.608121
0
ARC
8
DEFAULT_255_1_388
10
23.9771765
20
13.0606946
40
0.2371737
50
41.7851122
51
85.9892156
0
ARC
8
DEFAULT_255_1_388
10
23.9633075
20
12.9691738
40
0.3295244
50
84.6965848
51
90.0672125
0
ARC
8
DEFAULT_255_1_388
10
23.9606643
20
12.8940118
40
0.4046926
50
89.6804991
51
99.161352
0
ARC
8
DEFAULT_255_1_388
10
23.9375652
20
13.0320848
40
0.2647044
50
98.9836248
51
113.8905702
0
ARC
8
DEFAULT_255_1_388
10
23.9117327
20
13.0930118
40
0.1985386
50
114.195234
51
127.3641866
0
LINE
8
DEFAULT_255_1_388
10
19.8440946
20
21.2253553
11
19.8440946
21
21.1422274
0
LINE
8
DEFAULT_255_1_388
10
18.7860206
20
21.1304811
11
18.7860206
21
21.2253553
0
LINE
8
DEFAULT_255_1_388
10
19.6715138
20
21.1295775
11
19.6715138
21
21.2271625
0
LINE
8
DEFAULT_255_1_388
10
18.9586014
20
21.2389088
11
18.9586014
21
21.1422274
0
ARC
8
DEFAULT_255_1_388
10
18.8718684
20
21.1377726
40
0.9722364
50
350.4878118
51
0.2625322
0
ARC
8
DEFAULT_255_1_388
10
19.1298644
20
21.0933994
40
0.7104556
50
336.0277991
51
350.5787241
0
ARC
8
DEFAULT_255_1_388
10
19.2811751
20
21.0250243
40
0.544417
50
319.887443
51
336.1331163
0
ARC
8
DEFAULT_255_1_388
10
19.3489563
20
20.9707733
40
0.4576311
50
302.4806296
51
319.6144102
0
ARC
8
DEFAULT_255_1_388
10
19.3360184
20
20.9957067
40
0.4856183
50
275.8196423
51
302.1885521
0
ARC
8
DEFAULT_255_1_388
10
19.3173046
20
21.1242466
40
0.6154183
50
269.9169897
51
276.339506
0
ARC
8
DEFAULT_255_1_388
10
19.3122646
20
21.047068
40
0.5382553
50
252.5221437
51
270.441579
0
ARC
8
DEFAULT_255_1_388
10
19.2960897
20
20.9864046
40
0.4755426
50
237.5349961
51
252.1858334
0
ARC
8
DEFAULT_255_1_388
10
19.3061273
20
20.999212
40
0.4917393
50
209.0632754
51
237.3492577
0
ARC
8
DEFAULT_255_1_388
10
19.4040599
20
21.0607104
40
0.6072464
50
205.118533
51
209.6465345
0
ARC
8
DEFAULT_255_1_388
10
19.4936601
20
21.0987174
40
0.7045164
50
188.7216633
51
204.8239753
0
ARC
8
DEFAULT_255_1_388
10
19.7183376
20
21.1365387
40
0.9323368
50
180.3722704
51
188.9253909
0
ARC
8
DEFAULT_255_1_388
10
19.7152938
20
21.2298416
40
0.929284
50
169.5253055
51
180.2766048
0
ARC
8
DEFAULT_255_1_388
10
19.5012737
20
21.2692024
40
0.7116745
50
155.8314601
51
169.5088611
0
ARC
8
DEFAULT_255_1_388
10
19.35722
20
21.3360312
40
0.5528904
50
139.6259579
51
156.0379072
0
ARC
8
DEFAULT_255_1_388
10
19.2908733
20
21.3894143
40
0.4677708
50
122.6414784
51
139.3431662
0
ARC
8
DEFAULT_255_1_388
10
19.3021988
20
21.3687787
40
0.4912586
50
93.0224537
51
122.4556091
0
ARC
8
DEFAULT_255_1_388
10
19.3143509
20
21.2601776
40
0.6003837
50
89.9756766
51
93.6340839
0
ARC
8
DEFAULT_255_1_388
10
19.3187107
20
21.3050879
40
0.5554884
50
73.7463329
51
90.4234008
0
ARC
8
DEFAULT_255_1_388
10
19.338458
20
21.3815772
40
0.4765353
50
57.663051
51
73.4516911
0
ARC
8
DEFAULT_255_1_388
10
19.3375618
20
21.3840108
40
0.4749629
50
29.1441355
51
57.4146687
0
ARC
8
DEFAULT_255_1_388
10
19.2323429
20
21.3183046
40
0.5988917
50
24.0985653
51
29.732054
0
ARC
8
DEFAULT_255_1_388
10
19.1161061
20
21.2701154
40
0.7246823
50
8.6654943
51
23.8241215
0
ARC
8
DEFAULT_255_1_388
10
18.8647479
20
21.2291037
40
0.9793537
50
359.7807044
51
8.8218476
0
ARC
8
DEFAULT_255_1_388
10
18.7357184
20
21.2319731
40
0.9358078
50
359.7054632
51
8.0359751
0
ARC
8
DEFAULT_255_1_388
10
19.0732235
20
21.2811252
40
0.5947474
50
7.8926278
51
20.2962188
0
ARC
8
DEFAULT_255_1_388
10
19.2563085
20
21.3486367
40
0.3996117
50
20.3231056
51
36.4990255
0
ARC
8
DEFAULT_255_1_388
10
19.3334383
20
21.4080399
40
0.3022818
50
36.1436715
51
85.6627846
0
ARC
8
DEFAULT_255_1_388
10
19.3151638
20
21.2910881
40
0.4203853
50
84.3845912
51
90.076054
0
ARC
8
DEFAULT_255_1_388
10
19.3103993
20
21.3653416
40
0.346157
50
89.3037228
51
109.9046209
0
ARC
8
DEFAULT_255_1_388
10
19.2999826
20
21.4083379
40
0.3022217
50
110.8229774
51
143.917961
0
ARC
8
DEFAULT_255_1_388
10
19.4050185
20
21.3281455
40
0.434348
50
143.5289166
51
163.2980252
0
ARC
8
DEFAULT_255_1_388
10
19.6196472
20
21.2606685
40
0.659321
50
163.0418884
51
174.3139873
0
ARC
8
DEFAULT_255_1_388
10
19.8901437
20
21.2294378
40
0.9315905
50
174.050934
51
179.4174954
0
ARC
8
DEFAULT_255_1_388
10
19.8333381
20
21.1375382
40
0.8747493
50
179.6928582
51
188.7908948
0
ARC
8
DEFAULT_255_1_388
10
19.5337181
20
21.0896086
40
0.5713262
50
188.6328449
51
202.5630732
0
ARC
8
DEFAULT_255_1_388
10
19.3926018
20
21.0329142
40
0.4192612
50
202.8078931
51
216.1195888
0
ARC
8
DEFAULT_255_1_388
10
19.3015535
20
20.9596479
40
0.3025752
50
215.0755613
51
264.6379773
0
ARC
8
DEFAULT_255_1_388
10
19.3158372
20
21.0531376
40
0.3970284
50
263.8464302
51
270.0830805
0
ARC
8
DEFAULT_255_1_388
10
19.3204917
20
21.0240808
40
0.3679937
50
269.3649295
51
287.5149684
0
ARC
8
DEFAULT_255_1_388
10
19.3405358
20
20.9512714
40
0.2925408
50
288.0629019
51
323.8115617
0
ARC
8
DEFAULT_255_1_388
10
19.2425334
20
21.0243754
40
0.4148018
50
323.6546541
51
342.6591359
0
ARC
8
DEFAULT_255_1_388
10
19.0139992
20
21.098728
40
0.6551163
50
342.4092446
51
353.6451501
0
ARC
8
DEFAULT_255_1_388
10
18.6954785
20
21.1383565
40
0.9760748
50
353.4027553
51
359.4846611
0
LINE
8
DEFAULT_255_1_388
10
20.8560868
20
21.8424898
11
21.0304747
21
21.8424898
0
LINE
8
DEFAULT_255_1_388
10
21.0304747
20
21.8424898
11
21.0304747
21
20.947961
0
LINE
8
DEFAULT_255_1_388
10
20.5985709
20
20.5106358
11
20.5524891
21
20.5088287
0
LINE
8
DEFAULT_255_1_388
10
20.0781178
20
20.9461539
11
20.0781178
21
21.8424898
0
LINE
8
DEFAULT_255_1_388
10
20.0781178
20
21.8424898
11
20.249795
21
21.8424898
0
LINE
8
DEFAULT_255_1_388
10
20.249795
20
21.8424898
11
20.249795
21
20.9515753
0
LINE
8
DEFAULT_255_1_388
10
20.8560868
20
20.9506717
11
20.8560868
21
21.8424898
0
ARC
8
DEFAULT_255_1_388
10
20.5407546
20
20.945727
40
0.4897252
50
343.0897723
51
0.2613727
0
ARC
8
DEFAULT_255_1_388
10
20.6339517
20
20.919727
40
0.3930016
50
315.3344451
51
342.7642569
0
ARC
8
DEFAULT_255_1_388
10
20.6088012
20
20.9458085
40
0.4292244
50
284.6605441
51
315.2183439
0
ARC
8
DEFAULT_255_1_388
10
20.5575792
20
21.1197508
40
0.6104926
50
273.8500371
51
285.1796441
0
ARC
8
DEFAULT_255_1_388
10
20.5476857
20
21.1581762
40
0.6493653
50
257.6315393
51
270.4238259
0
ARC
8
DEFAULT_255_1_388
10
20.499894
20
20.9532915
40
0.4390079
50
230.6086859
51
257.9965362
0
ARC
8
DEFAULT_255_1_388
10
20.4852998
20
20.9303643
40
0.4120404
50
227.745033
51
230.1538266
0
ARC
8
DEFAULT_255_1_388
10
20.4699528
20
20.9119253
40
0.3880742
50
189.2524335
51
227.5915299
0
ARC
8
DEFAULT_255_1_388
10
20.6411399
20
20.9487735
40
0.5630282
50
180.2665782
51
190.1525221
0
ARC
8
DEFAULT_255_1_388
10
20.6661127
20
20.9484254
40
0.4163296
50
179.566507
51
191.9954402
0
ARC
8
DEFAULT_255_1_388
10
20.5279816
20
20.9176151
40
0.274815
50
191.6974619
51
215.1403758
0
ARC
8
DEFAULT_255_1_388
10
20.5012208
20
20.9016689
40
0.2437647
50
215.6958251
51
224.8509274
0
ARC
8
DEFAULT_255_1_388
10
20.5074684
20
20.9106016
40
0.2545012
50
225.2846515
51
255.0110023
0
ARC
8
DEFAULT_255_1_388
10
20.543913
20
21.0359017
40
0.384974
50
254.5945979
51
267.9129427
0
ARC
8
DEFAULT_255_1_388
10
20.5522823
20
21.1576444
40
0.506956
50
267.4687563
51
270.0233681
0
ARC
8
DEFAULT_255_1_388
10
20.5556819
20
21.0916288
40
0.440952
50
269.5851384
51
281.1845308
0
ARC
8
DEFAULT_255_1_388
10
20.5870423
20
20.9394469
40
0.2855802
50
280.9345159
51
300.9740496
0
ARC
8
DEFAULT_255_1_388
10
20.6109603
20
20.8954128
40
0.2355257
50
301.4982546
51
315.1468616
0
ARC
8
DEFAULT_255_1_388
10
20.5947099
20
20.9087488
40
0.2564594
50
315.5952932
51
345.6679188
0
ARC
8
DEFAULT_255_1_388
10
20.4687656
20
20.9438235
40
0.3871766
50
345.2525685
51
358.6303941
0
ARC
8
DEFAULT_255_1_388
10
20.3544047
20
20.9505695
40
0.5016822
50
358.1723541
51
0.0116795
0
LINE
8
DEFAULT_255_1_388
10
22.2132406
20
21.8424898
11
22.2132406
21
21.6997267
0
LINE
8
DEFAULT_255_1_388
10
22.2132406
20
21.6997267
11
21.7903724
21
21.6997267
0
LINE
8
DEFAULT_255_1_388
10
21.7903724
20
21.6997267
11
21.7903724
21
20.5269
0
LINE
8
DEFAULT_255_1_388
10
21.7903724
20
20.5269
11
21.6177916
21
20.5269
0
LINE
8
DEFAULT_255_1_388
10
21.6177916
20
20.5269
11
21.6177916
21
21.6997267
0
LINE
8
DEFAULT_255_1_388
10
21.6177916
20
21.6997267
11
21.195827
21
21.6997267
0
LINE
8
DEFAULT_255_1_388
10
21.195827
20
21.6997267
11
21.195827
21
21.8424898
0
LINE
8
DEFAULT_255_1_388
10
21.195827
20
21.8424898
11
22.2132406
21
21.8424898
0
LINE
8
DEFAULT_255_1_388
10
22.9144066
20
21.8488148
11
22.9144066
21
20.5269
0
LINE
8
DEFAULT_255_1_388
10
22.9144066
20
20.5269
11
22.7463436
21
20.5269
0
LINE
8
DEFAULT_255_1_388
10
22.7463436
20
20.5269
11
22.7463436
21
21.640995
0
LINE
8
DEFAULT_255_1_388
10
22.7463436
20
21.640995
11
22.4093141
21
21.5172066
0
LINE
8
DEFAULT_255_1_388
10
22.4093141
20
21.5172066
11
22.4093141
21
21.6690055
0
LINE
8
DEFAULT_255_1_388
10
22.4093141
20
21.6690055
11
22.8882032
21
21.8488148
0
LINE
8
DEFAULT_255_1_388
10
22.8882032
20
21.8488148
11
22.9144066
21
21.8488148
0
LINE
8
DEFAULT_255_1_388
10
24.1098224
20
21.8424898
11
24.1098224
21
20.968743
0
LINE
8
DEFAULT_255_1_388
10
24.1098224
20
20.968743
11
24.2923424
21
20.968743
0
LINE
8
DEFAULT_255_1_388
10
24.2923424
20
20.968743
11
24.2923424
21
20.8323048
0
LINE
8
DEFAULT_255_1_388
10
24.2923424
20
20.8323048
11
24.1098224
21
20.8323048
0
LINE
8
DEFAULT_255_1_388
10
24.1098224
20
20.8323048
11
24.1098224
21
20.5269
0
LINE
8
DEFAULT_255_1_388
10
24.1098224
20
20.5269
11
23.9417594
21
20.5269
0
LINE
8
DEFAULT_255_1_388
10
23.9417594
20
20.5269
11
23.9417594
21
20.8323048
0
LINE
8
DEFAULT_255_1_388
10
23.9417594
20
20.8323048
11
23.3426961
21
20.8323048
0
LINE
8
DEFAULT_255_1_388
10
23.3426961
20
20.8323048
11
23.3426961
21
20.9307933
0
LINE
8
DEFAULT_255_1_388
10
23.3426961
20
20.9307933
11
23.9318202
21
21.8424898
0
LINE
8
DEFAULT_255_1_388
10
23.9318202
20
21.8424898
11
24.1098224
21
21.8424898
0
LINE
8
DEFAULT_255_1_388
10
23.921881
20
21.5777455
11
23.5324447
21
20.968743
0
LINE
8
DEFAULT_255_1_388
10
23.5324447
20
20.968743
11
23.9417594
21
20.968743
0
LINE
8
DEFAULT_255_1_388
10
23.9417594
20
20.968743
11
23.9417594
21
21.613888
0
LINE
8
DEFAULT_255_1_388
10
23.9417594
20
21.613888
11
23.921881
21
21.5777455
0
LINE
8
DEFAULT_255_1_388
10
19.9763946
20
29.1628553
11
19.9763946
21
29.0797274
0
LINE
8
DEFAULT_255_1_388
10
18.9183206
20
29.0679811
11
18.9183206
21
29.1628553
0
LINE
8
DEFAULT_255_1_388
10
19.8038138
20
29.0670775
11
19.8038138
21
29.1646625
0
LINE
8
DEFAULT_255_1_388
10
19.0909014
20
29.1764088
11
19.0909014
21
29.0797274
0
ARC
8
DEFAULT_255_1_388
10
19.0041684
20
29.0752726
40
0.9722364
50
350.4878118
51
0.2625322
0
ARC
8
DEFAULT_255_1_388
10
19.2621644
20
29.0308994
40
0.7104556
50
336.0277991
51
350.5787241
0
ARC
8
DEFAULT_255_1_388
10
19.4134751
20
28.9625243
40
0.544417
50
319.887443
51
336.1331163
0
ARC
8
DEFAULT_255_1_388
10
19.4812563
20
28.9082733
40
0.4576311
50
302.4806296
51
319.6144102
0
ARC
8
DEFAULT_255_1_388
10
19.4683184
20
28.9332067
40
0.4856183
50
275.8196423
51
302.1885521
0
ARC
8
DEFAULT_255_1_388
10
19.4496046
20
29.0617466
40
0.6154183
50
269.9169897
51
276.339506
0
ARC
8
DEFAULT_255_1_388
10
19.4445646
20
28.984568
40
0.5382553
50
252.5221437
51
270.441579
0
ARC
8
DEFAULT_255_1_388
10
19.4283897
20
28.9239046
40
0.4755426
50
237.5349961
51
252.1858334
0
ARC
8
DEFAULT_255_1_388
10
19.4384273
20
28.936712
40
0.4917393
50
209.0632754
51
237.3492577
0
ARC
8
DEFAULT_255_1_388
10
19.5363599
20
28.9982104
40
0.6072464
50
205.118533
51
209.6465345
0
ARC
8
DEFAULT_255_1_388
10
19.6259601
20
29.0362174
40
0.7045164
50
188.7216633
51
204.8239753
0
ARC
8
DEFAULT_255_1_388
10
19.8506376
20
29.0740387
40
0.9323368
50
180.3722704
51
188.9253909
0
ARC
8
DEFAULT_255_1_388
10
19.8475938
20
29.1673416
40
0.929284
50
169.5253055
51
180.2766048
0
ARC
8
DEFAULT_255_1_388
10
19.6335737
20
29.2067024
40
0.7116745
50
155.8314601
51
169.5088611
0
ARC
8
DEFAULT_255_1_388
10
19.48952
20
29.2735312
40
0.5528904
50
139.6259579
51
156.0379072
0
ARC
8
DEFAULT_255_1_388
10
19.4231733
20
29.3269143
40
0.4677708
50
122.6414784
51
139.3431662
0
ARC
8
DEFAULT_255_1_388
10
19.4344988
20
29.3062787
40
0.4912586
50
93.0224537
51
122.4556091
0
ARC
8
DEFAULT_255_1_388
10
19.4466509
20
29.1976776
40
0.6003837
50
89.9756766
51
93.6340839
0
ARC
8
DEFAULT_255_1_388
10
19.4510107
20
29.2425879
40
0.5554884
50
73.7463329
51
90.4234008
0
ARC
8
DEFAULT_255_1_388
10
19.470758
20
29.3190772
40
0.4765353
50
57.663051
51
73.4516911
0
ARC
8
DEFAULT_255_1_388
10
19.4698618
20
29.3215108
40
0.4749629
50
29.1441355
51
57.4146687
0
ARC
8
DEFAULT_255_1_388
10
19.3646429
20
29.2558046
40
0.5988917
50
24.0985653
51
29.732054
0
ARC
8
DEFAULT_255_1_388
10
19.2484061
20
29.2076154
40
0.7246823
50
8.6654943
51
23.8241215
0
ARC
8
DEFAULT_255_1_388
10
18.9970479
20
29.1666037
40
0.9793537
50
359.7807044
51
8.8218476
0
ARC
8
DEFAULT_255_1_388
10
18.8680184
20
29.1694731
40
0.9358078
50
359.7054632
51
8.0359751
0
ARC
8
DEFAULT_255_1_388
10
19.2055235
20
29.2186252
40
0.5947474
50
7.8926278
51
20.2962188
0
ARC
8
DEFAULT_255_1_388
10
19.3886085
20
29.2861367
40
0.3996117
50
20.3231056
51
36.4990255
0
ARC
8
DEFAULT_255_1_388
10
19.4657383
20
29.3455399
40
0.3022818
50
36.1436715
51
85.6627846
0
ARC
8
DEFAULT_255_1_388
10
19.4474638
20
29.2285881
40
0.4203853
50
84.3845912
51
90.076054
0
ARC
8
DEFAULT_255_1_388
10
19.4426993
20
29.3028416
40
0.346157
50
89.3037228
51
109.9046209
0
ARC
8
DEFAULT_255_1_388
10
19.4322826
20
29.3458379
40
0.3022217
50
110.8229774
51
143.917961
0
ARC
8
DEFAULT_255_1_388
10
19.5373185
20
29.2656455
40
0.434348
50
143.5289166
51
163.2980252
0
ARC
8
DEFAULT_255_1_388
10
19.7519472
20
29.1981685
40
0.659321
50
163.0418884
51
174.3139873
0
ARC
8
DEFAULT_255_1_388
10
20.0224437
20
29.1669378
40
0.9315905
50
174.050934
51
179.4174954
0
ARC
8
DEFAULT_255_1_388
10
19.9656381
20
29.0750382
40
0.8747493
50
179.6928582
51
188.7908948
0
ARC
8
DEFAULT_255_1_388
10
19.6660181
20
29.0271086
40
0.5713262
50
188.6328449
51
202.5630732
0
ARC
8
DEFAULT_255_1_388
10
19.5249018
20
28.9704142
40
0.4192612
50
202.8078931
51
216.1195888
0
ARC
8
DEFAULT_255_1_388
10
19.4338535
20
28.8971479
40
0.3025752
50
215.0755613
51
264.6379773
0
ARC
8
DEFAULT_255_1_388
10
19.4481372
20
28.9906376
40
0.3970284
50
263.8464302
51
270.0830805
0
ARC
8
DEFAULT_255_1_388
10
19.4527917
20
28.9615808
40
0.3679937
50
269.3649295
51
287.5149684
0
ARC
8
DEFAULT_255_1_388
10
19.4728358
20
28.8887714
40
0.2925408
50
288.0629019
51
323.8115617
0
ARC
8
DEFAULT_255_1_388
10
19.3748334
20
28.9618754
40
0.4148018
50
323.6546541
51
342.6591359
0
ARC
8
DEFAULT_255_1_388
10
19.1462992
20
29.036228
40
0.6551163
50
342.4092446
51
353.6451501
0
ARC
8
DEFAULT_255_1_388
10
18.8277785
20
29.0758565
40
0.9760748
50
353.4027553
51
359.4846611
0
LINE
8
DEFAULT_255_1_388
10
20.9883868
20
29.7799898
11
21.1627747
21
29.7799898
0
LINE
8
DEFAULT_255_1_388
10
21.1627747
20
29.7799898
11
21.1627747
21
28.885461
0
LINE
8
DEFAULT_255_1_388
10
20.7308709
20
28.4481358
11
20.6847891
21
28.4463287
0
LINE
8
DEFAULT_255_1_388
10
20.2104178
20
28.8836539
11
20.2104178
21
29.7799898
0
LINE
8
DEFAULT_255_1_388
10
20.2104178
20
29.7799898
11
20.382095
21
29.7799898
0
LINE
8
DEFAULT_255_1_388
10
20.382095
20
29.7799898
11
20.382095
21
28.8890753
0
LINE
8
DEFAULT_255_1_388
10
20.9883868
20
28.8881717
11
20.9883868
21
29.7799898
0
ARC
8
DEFAULT_255_1_388
10
20.6730546
20
28.883227
40
0.4897252
50
343.0897723
51
0.2613727
0
ARC
8
DEFAULT_255_1_388
10
20.7662517
20
28.857227
40
0.3930016
50
315.3344451
51
342.7642569
0
ARC
8
DEFAULT_255_1_388
10
20.7411012
20
28.8833085
40
0.4292244
50
284.6605441
51
315.2183439
0
ARC
8
DEFAULT_255_1_388
10
20.6898792
20
29.0572508
40
0.6104926
50
273.8500371
51
285.1796441
0
ARC
8
DEFAULT_255_1_388
10
20.6799857
20
29.0956762
40
0.6493653
50
257.6315393
51
270.4238259
0
ARC
8
DEFAULT_255_1_388
10
20.632194
20
28.8907915
40
0.4390079
50
230.6086859
51
257.9965362
0
ARC
8
DEFAULT_255_1_388
10
20.6175998
20
28.8678643
40
0.4120404
50
227.745033
51
230.1538266
0
ARC
8
DEFAULT_255_1_388
10
20.6022528
20
28.8494253
40
0.3880742
50
189.2524335
51
227.5915299
0
ARC
8
DEFAULT_255_1_388
10
20.7734399
20
28.8862735
40
0.5630282
50
180.2665782
51
190.1525221
0
ARC
8
DEFAULT_255_1_388
10
20.7984127
20
28.8859254
40
0.4163296
50
179.566507
51
191.9954402
0
ARC
8
DEFAULT_255_1_388
10
20.6602816
20
28.8551151
40
0.274815
50
191.6974619
51
215.1403758
0
ARC
8
DEFAULT_255_1_388
10
20.6335208
20
28.8391689
40
0.2437647
50
215.6958251
51
224.8509274
0
ARC
8
DEFAULT_255_1_388
10
20.6397684
20
28.8481016
40
0.2545012
50
225.2846515
51
255.0110023
0
ARC
8
DEFAULT_255_1_388
10
20.676213
20
28.9734017
40
0.384974
50
254.5945979
51
267.9129427
0
ARC
8
DEFAULT_255_1_388
10
20.6845823
20
29.0951444
40
0.506956
50
267.4687563
51
270.0233681
0
ARC
8
DEFAULT_255_1_388
10
20.6879819
20
29.0291288
40
0.440952
50
269.5851384
51
281.1845308
0
ARC
8
DEFAULT_255_1_388
10
20.7193423
20
28.8769469
40
0.2855802
50
280.9345159
51
300.9740496
0
ARC
8
DEFAULT_255_1_388
10
20.7432603
20
28.8329128
40
0.2355257
50
301.4982546
51
315.1468616
0
ARC
8
DEFAULT_255_1_388
10
20.7270099
20
28.8462488
40
0.2564594
50
315.5952932
51
345.6679188
0
ARC
8
DEFAULT_255_1_388
10
20.6010656
20
28.8813235
40
0.3871766
50
345.2525685
51
358.6303941
0
ARC
8
DEFAULT_255_1_388
10
20.4867047
20
28.8880695
40
0.5016822
50
358.1723541
51
0.0116795
0
LINE
8
DEFAULT_255_1_388
10
22.3455406
20
29.7799898
11
22.3455406
21
29.6372267
0
LINE
8
DEFAULT_255_1_388
10
22.3455406
20
29.6372267
11
21.9226724
21
29.6372267
0
LINE
8
DEFAULT_255_1_388
10
21.9226724
20
29.6372267
11
21.9226724
21
28.4644
0
LINE
8
DEFAULT_255_1_388
10
21.9226724
20
28.4644
11
21.7500916
21
28.4644
0
LINE
8
DEFAULT_255_1_388
10
21.7500916
20
28.4644
11
21.7500916
21
29.6372267
0
LINE
8
DEFAULT_255_1_388
10
21.7500916
20
29.6372267
11
21.328127
21
29.6372267
0
LINE
8
DEFAULT_255_1_388
10
21.328127
20
29.6372267
11
21.328127
21
29.7799898
0
LINE
8
DEFAULT_255_1_388
10
21.328127
20
29.7799898
11
22.3455406
21
29.7799898
0
LINE
8
DEFAULT_255_1_388
10
23.0467066
20
29.7863148
11
23.0467066
21
28.4644
0
LINE
8
DEFAULT_255_1_388
10
23.0467066
20
28.4644
11
22.8786436
21
28.4644
0
LINE
8
DEFAULT_255_1_388
10
22.8786436
20
28.4644
11
22.8786436
21
29.578495
0
LINE
8
DEFAULT_255_1_388
10
22.8786436
20
29.578495
11
22.5416141
21
29.4547066
0
LINE
8
DEFAULT_255_1_388
10
22.5416141
20
29.4547066
11
22.5416141
21
29.6065055
0
LINE
8
DEFAULT_255_1_388
10
22.5416141
20
29.6065055
11
23.0205032
21
29.7863148
0
LINE
8
DEFAULT_255_1_388
10
23.0205032
20
29.7863148
11
23.0467066
21
29.7863148
0
LINE
8
DEFAULT_255_1_388
10
23.7794974
20
29.0670775
11
23.7794974
21
29.2035157
0
LINE
8
DEFAULT_255_1_388
10
23.7794974
20
29.2035157
11
23.9050928
21
29.2035157
0
LINE
8
DEFAULT_255_1_388
10
23.690948
20
29.4348282
11
23.5237886
21
29.4348282
0
LINE
8
DEFAULT_255_1_388
10
23.5120423
20
28.8113687
11
23.6801053
21
28.8113687
0
LINE
8
DEFAULT_255_1_388
10
23.9050928
20
29.0670775
11
23.7794974
21
29.0670775
0
ARC
8
DEFAULT_255_1_388
10
23.9018155
20
29.5851922
40
0.3816905
50
270.491971
51
281.8953028
0
ARC
8
DEFAULT_255_1_388
10
23.9289582
20
29.4612199
40
0.2547877
50
281.6690378
51
301.2943765
0
ARC
8
DEFAULT_255_1_388
10
23.9481033
20
29.4261926
40
0.2149197
50
301.7834992
51
311.754567
0
ARC
8
DEFAULT_255_1_388
10
23.9584074
20
29.414765
40
0.1995326
50
311.7325027
51
354.2803031
0
ARC
8
DEFAULT_255_1_388
10
23.876649
20
29.428828
40
0.2823461
50
353.0941646
51
0.1174696
0
ARC
8
DEFAULT_255_1_388
10
23.8248048
20
29.4341874
40
0.3342238
50
359.1804452
51
15.0452323
0
ARC
8
DEFAULT_255_1_388
10
23.9762107
20
29.4783546
40
0.1765747
50
13.957816
51
77.6713812
0
ARC
8
DEFAULT_255_1_388
10
23.9327342
20
29.3225464
40
0.3381982
50
76.111571
51
90.7028736
0
ARC
8
DEFAULT_255_1_388
10
23.9260754
20
29.353325
40
0.3074046
50
89.5321574
51
103.5319393
0
ARC
8
DEFAULT_255_1_388
10
23.9035138
20
29.4432443
40
0.2147041
50
103.2930114
51
133.5619756
0
ARC
8
DEFAULT_255_1_388
10
23.898508
20
29.4499351
40
0.2064084
50
133.8349761
51
173.5343225
0
ARC
8
DEFAULT_255_1_388
10
23.9798737
20
29.4355144
40
0.2889266
50
172.5097183
51
180.1360699
0
ARC
8
DEFAULT_255_1_388
10
23.8728501
20
29.439388
40
0.3490913
50
155.3483706
51
180.7484035
0
ARC
8
DEFAULT_255_1_388
10
23.8673477
20
29.4361519
40
0.3454798
50
131.5745177
51
154.4799474
0
ARC
8
DEFAULT_255_1_388
10
23.9025759
20
29.4005422
40
0.3955058
50
96.9874487
51
131.9690874
0
ARC
8
DEFAULT_255_1_388
10
23.9272652
20
29.2604407
40
0.537622
50
89.8592909
51
97.7827481
0
ARC
8
DEFAULT_255_1_388
10
23.9326761
20
29.230936
40
0.5671399
50
78.3654493
51
90.4132586
0
ARC
8
DEFAULT_255_1_388
10
23.9729402
20
29.4175918
40
0.3762034
50
56.6229818
51
78.6387103
0
ARC
8
DEFAULT_255_1_388
10
23.9971231
20
29.4598846
40
0.3275964
50
47.0254604
51
56.085558
0
ARC
8
DEFAULT_255_1_388
10
23.9993482
20
29.4643189
40
0.3228382
50
10.9207523
51
46.777927
0
ARC
8
DEFAULT_255_1_388
10
23.8459076
20
29.4288401
40
0.4802559
50
359.6364235
51
11.6087615
0
ARC
8
DEFAULT_255_1_388
10
24.0523242
20
29.4271404
40
0.273833
50
332.3549969
51
359.7179765
0
ARC
8
DEFAULT_255_1_388
10
23.9791643
20
29.4618285
40
0.3547505
50
325.2332381
51
332.8746682
0
ARC
8
DEFAULT_255_1_388
10
23.9963225
20
29.4498763
40
0.3338396
50
292.9803892
51
325.2391113
0
ARC
8
DEFAULT_255_1_388
10
23.9652421
20
29.5103679
40
0.4016959
50
292.542178
51
293.6931461
0
ARC
8
DEFAULT_255_1_388
10
24.0095993
20
28.7838036
40
0.372079
50
57.643292
51
72.8626085
0
ARC
8
DEFAULT_255_1_388
10
24.0494828
20
28.8484273
40
0.2961455
50
36.7246661
51
57.4701329
0
ARC
8
DEFAULT_255_1_388
10
24.0481984
20
28.849847
40
0.2963321
50
8.054535
51
36.3561529
0
ARC
8
DEFAULT_255_1_388
10
23.9511657
20
28.8324073
40
0.3948682
50
359.8316595
51
8.5873361
0
ARC
8
DEFAULT_255_1_388
10
23.9089131
20
28.826997
40
0.4371398
50
343.9831631
51
0.557075
0
ARC
8
DEFAULT_255_1_388
10
24.0086181
20
28.7996963
40
0.3337749
50
311.6358204
51
343.7652116
0
ARC
8
DEFAULT_255_1_388
10
23.9660434
20
28.8476955
40
0.3979351
50
279.7829743
51
311.625622
0
ARC
8
DEFAULT_255_1_388
10
23.932157
20
29.0093642
40
0.5630417
50
269.7285092
51
280.3857694
0
ARC
8
DEFAULT_255_1_388
10
23.9251883
20
29.0047241
40
0.5584119
50
256.6827433
51
270.4412869
0
ARC
8
DEFAULT_255_1_388
10
23.8870869
20
28.8489698
40
0.3980715
50
229.4223821
51
256.8554507
0
ARC
8
DEFAULT_255_1_388
10
23.8404423
20
28.7964683
40
0.3278564
50
181.8183354
51
229.6455015
0
ARC
8
DEFAULT_255_1_388
10
23.9574032
20
28.8111825
40
0.4453611
50
179.9760419
51
183.2330638
0
ARC
8
DEFAULT_255_1_388
10
23.9380584
20
28.8088781
40
0.2579652
50
179.4467996
51
196.2871626
0
ARC
8
DEFAULT_255_1_388
10
23.8832038
20
28.7938709
40
0.2011057
50
196.5661293
51
227.7059371
0
ARC
8
DEFAULT_255_1_388
10
23.9016645
20
28.8145155
40
0.2287994
50
227.7653015
51
257.8763321
0
ARC
8
DEFAULT_255_1_388
10
23.9269729
20
28.9205961
40
0.3378385
50
257.4583525
51
270.4267406
0
ARC
8
DEFAULT_255_1_388
10
23.9320978
20
28.953223
40
0.3704652
50
269.5965319
51
280.8788143
0
ARC
8
DEFAULT_255_1_388
10
23.9579206
20
28.8242529
40
0.2389415
50
280.6347277
51
299.8594068
0
ARC
8
DEFAULT_255_1_388
10
23.9793976
20
28.7834736
40
0.19289
50
300.3575552
51
314.5515667
0
ARC
8
DEFAULT_255_1_388
10
23.9700651
20
28.7903025
40
0.204312
50
315.0730962
51
345.0429362
0
ARC
8
DEFAULT_255_1_388
10
23.8662159
20
28.8205539
40
0.31246
50
344.598526
51
357.9270698
0
ARC
8
DEFAULT_255_1_388
10
23.7652464
20
28.8274705
40
0.4136265
50
357.4755098
51
0.0224936
0
ARC
8
DEFAULT_255_1_388
10
23.8805341
20
28.8302099
40
0.2983498
50
359.5051035
51
13.4236939
0
ARC
8
DEFAULT_255_1_388
10
23.9780431
20
28.8551637
40
0.1977186
50
12.9497905
51
48.7550905
0
ARC
8
DEFAULT_255_1_388
10
23.9575353
20
28.8271373
40
0.2323321
50
49.509109
51
72.1832965
0
ARC
8
DEFAULT_255_1_388
10
23.9172821
20
28.7076632
40
0.358397
50
71.9008458
51
84.3555134
0
ARC
8
DEFAULT_255_1_388
10
23.8991216
20
28.5544712
40
0.512641
50
84.019632
51
89.3326067
0
LINE
8
DEFAULT_255_1_388
10
19.9763946
20
37.1003553
11
19.9763946
21
37.0172274
0
LINE
8
DEFAULT_255_1_388
10
18.9183206
20
37.0054811
11
18.9183206
21
37.1003553
0
LINE
8
DEFAULT_255_1_388
10
19.8038138
20
37.0045775
11
19.8038138
21
37.1021625
0
LINE
8
DEFAULT_255_1_388
10
19.0909014
20
37.1139088
11
19.0909014
21
37.0172274
0
ARC
8
DEFAULT_255_1_388
10
19.0041684
20
37.0127726
40
0.9722364
50
350.4878118
51
0.2625322
0
ARC
8
DEFAULT_255_1_388
10
19.2621644
20
36.9683994
40
0.7104556
50
336.0277991
51
350.5787241
0
ARC
8
DEFAULT_255_1_388
10
19.4134751
20
36.9000243
40
0.544417
50
319.887443
51
336.1331163
0
ARC
8
DEFAULT_255_1_388
10
19.4812563
20
36.8457733
40
0.4576311
50
302.4806296
51
319.6144102
0
ARC
8
DEFAULT_255_1_388
10
19.4683184
20
36.8707067
40
0.4856183
50
275.8196423
51
302.1885521
0
ARC
8
DEFAULT_255_1_388
10
19.4496046
20
36.9992466
40
0.6154183
50
269.9169897
51
276.339506
0
ARC
8
DEFAULT_255_1_388
10
19.4445646
20
36.922068
40
0.5382553
50
252.5221437
51
270.441579
0
ARC
8
DEFAULT_255_1_388
10
19.4283897
20
36.8614046
40
0.4755426
50
237.5349961
51
252.1858334
0
ARC
8
DEFAULT_255_1_388
10
19.4384273
20
36.874212
40
0.4917393
50
209.0632754
51
237.3492577
0
ARC
8
DEFAULT_255_1_388
10
19.5363599
20
36.9357104
40
0.6072464
50
205.118533
51
209.6465345
0
ARC
8
DEFAULT_255_1_388
10
19.6259601
20
36.9737174
40
0.7045164
50
188.7216633
51
204.8239753
0
ARC
8
DEFAULT_255_1_388
10
19.8506376
20
37.0115387
40
0.9323368
50
180.3722704
51
188.9253909
0
ARC
8
DEFAULT_255_1_388
10
19.8475938
20
37.1048416
40
0.929284
50
169.5253055
51
180.2766048
0
ARC
8
DEFAULT_255_1_388
10
19.6335737
20
37.1442024
40
0.7116745
50
155.8314601
51
169.5088611
0
ARC
8
DEFAULT_255_1_388
10
19.48952
20
37.2110312
40
0.5528904
50
139.6259579
51
156.0379072
0
ARC
8
DEFAULT_255_1_388
10
19.4231733
20
37.2644143
40
0.4677708
50
122.6414784
51
139.3431662
0
ARC
8
DEFAULT_255_1_388
10
19.4344988
20
37.2437787
40
0.4912586
50
93.0224537
51
122.4556091
0
ARC
8
DEFAULT_255_1_388
10
19.4466509
20
37.1351776
40
0.6003837
50
89.9756766
51
93.6340839
0
ARC
8
DEFAULT_255_1_388
10
19.4510107
20
37.1800879
40
0.5554884
50
73.7463329
51
90.4234008
0
ARC
8
DEFAULT_255_1_388
10
19.470758
20
37.2565772
40
0.4765353
50
57.663051
51
73.4516911
0
ARC
8
DEFAULT_255_1_388
10
19.4698618
20
37.2590108
40
0.4749629
50
29.1441355
51
57.4146687
0
ARC
8
DEFAULT_255_1_388
10
19.3646429
20
37.1933046
40
0.5988917
50
24.0985653
51
29.732054
0
ARC
8
DEFAULT_255_1_388
10
19.2484061
20
37.1451154
40
0.7246823
50
8.6654943
51
23.8241215
0
ARC
8
DEFAULT_255_1_388
10
18.9970479
20
37.1041037
40
0.9793537
50
359.7807044
51
8.8218476
0
ARC
8
DEFAULT_255_1_388
10
18.8680184
20
37.1069731
40
0.9358078
50
359.7054632
51
8.0359751
0
ARC
8
DEFAULT_255_1_388
10
19.2055235
20
37.1561252
40
0.5947474
50
7.8926278
51
20.2962188
0
ARC
8
DEFAULT_255_1_388
10
19.3886085
20
37.2236367
40
0.3996117
50
20.3231056
51
36.4990255
0
ARC
8
DEFAULT_255_1_388
10
19.4657383
20
37.2830399
40
0.3022818
50
36.1436715
51
85.6627846
0
ARC
8
DEFAULT_255_1_388
10
19.4474638
20
37.1660881
40
0.4203853
50
84.3845912
51
90.076054
0
ARC
8
DEFAULT_255_1_388
10
19.4426993
20
37.2403416
40
0.346157
50
89.3037228
51
109.9046209
0
ARC
8
DEFAULT_255_1_388
10
19.4322826
20
37.2833379
40
0.3022217
50
110.8229774
51
143.917961
0
ARC
8
DEFAULT_255_1_388
10
19.5373185
20
37.2031455
40
0.434348
50
143.5289166
51
163.2980252
0
ARC
8
DEFAULT_255_1_388
10
19.7519472
20
37.1356685
40
0.659321
50
163.0418884
51
174.3139873
0
ARC
8
DEFAULT_255_1_388
10
20.0224437
20
37.1044378
40
0.9315905
50
174.050934
51
179.4174954
0
ARC
8
DEFAULT_255_1_388
10
19.9656381
20
37.0125382
40
0.8747493
50
179.6928582
51
188.7908948
0
ARC
8
DEFAULT_255_1_388
10
19.6660181
20
36.9646086
40
0.5713262
50
188.6328449
51
202.5630732
0
ARC
8
DEFAULT_255_1_388
10
19.5249018
20
36.9079142
40
0.4192612
50
202.8078931
51
216.1195888
0
ARC
8
DEFAULT_255_1_388
10
19.4338535
20
36.8346479
40
0.3025752
50
215.0755613
51
264.6379773
0
ARC
8
DEFAULT_255_1_388
10
19.4481372
20
36.9281376
40
0.3970284
50
263.8464302
51
270.0830805
0
ARC
8
DEFAULT_255_1_388
10
19.4527917
20
36.8990808
40
0.3679937
50
269.3649295
51
287.5149684
0
ARC
8
DEFAULT_255_1_388
10
19.4728358
20
36.8262714
40
0.2925408
50
288.0629019
51
323.8115617
0
ARC
8
DEFAULT_255_1_388
10
19.3748334
20
36.8993754
40
0.4148018
50
323.6546541
51
342.6591359
0
ARC
8
DEFAULT_255_1_388
10
19.1462992
20
36.973728
40
0.6551163
50
342.4092446
51
353.6451501
0
ARC
8
DEFAULT_255_1_388
10
18.8277785
20
37.0133565
40
0.9760748
50
353.4027553
51
359.4846611
0
LINE
8
DEFAULT_255_1_388
10
20.9883868
20
37.7174898
11
21.1627747
21
37.7174898
0
LINE
8
DEFAULT_255_1_388
10
21.1627747
20
37.7174898
11
21.1627747
21
36.822961
0
LINE
8
DEFAULT_255_1_388
10
20.7308709
20
36.3856358
11
20.6847891
21
36.3838287
0
LINE
8
DEFAULT_255_1_388
10
20.2104178
20
36.8211539
11
20.2104178
21
37.7174898
0
LINE
8
DEFAULT_255_1_388
10
20.2104178
20
37.7174898
11
20.382095
21
37.7174898
0
LINE
8
DEFAULT_255_1_388
10
20.382095
20
37.7174898
11
20.382095
21
36.8265753
0
LINE
8
DEFAULT_255_1_388
10
20.9883868
20
36.8256717
11
20.9883868
21
37.7174898
0
ARC
8
DEFAULT_255_1_388
10
20.6730546
20
36.820727
40
0.4897252
50
343.0897723
51
0.2613727
0
ARC
8
DEFAULT_255_1_388
10
20.7662517
20
36.794727
40
0.3930016
50
315.3344451
51
342.7642569
0
ARC
8
DEFAULT_255_1_388
10
20.7411012
20
36.8208085
40
0.4292244
50
284.6605441
51
315.2183439
0
ARC
8
DEFAULT_255_1_388
10
20.6898792
20
36.9947508
40
0.6104926
50
273.8500371
51
285.1796441
0
ARC
8
DEFAULT_255_1_388
10
20.6799857
20
37.0331762
40
0.6493653
50
257.6315393
51
270.4238259
0
ARC
8
DEFAULT_255_1_388
10
20.632194
20
36.8282915
40
0.4390079
50
230.6086859
51
257.9965362
0
ARC
8
DEFAULT_255_1_388
10
20.6175998
20
36.8053643
40
0.4120404
50
227.745033
51
230.1538266
0
ARC
8
DEFAULT_255_1_388
10
20.6022528
20
36.7869253
40
0.3880742
50
189.2524335
51
227.5915299
0
ARC
8
DEFAULT_255_1_388
10
20.7734399
20
36.8237735
40
0.5630282
50
180.2665782
51
190.1525221
0
ARC
8
DEFAULT_255_1_388
10
20.7984127
20
36.8234254
40
0.4163296
50
179.566507
51
191.9954402
0
ARC
8
DEFAULT_255_1_388
10
20.6602816
20
36.7926151
40
0.274815
50
191.6974619
51
215.1403758
0
ARC
8
DEFAULT_255_1_388
10
20.6335208
20
36.7766689
40
0.2437647
50
215.6958251
51
224.8509274
0
ARC
8
DEFAULT_255_1_388
10
20.6397684
20
36.7856016
40
0.2545012
50
225.2846515
51
255.0110023
0
ARC
8
DEFAULT_255_1_388
10
20.676213
20
36.9109017
40
0.384974
50
254.5945979
51
267.9129427
0
ARC
8
DEFAULT_255_1_388
10
20.6845823
20
37.0326444
40
0.506956
50
267.4687563
51
270.0233681
0
ARC
8
DEFAULT_255_1_388
10
20.6879819
20
36.9666288
40
0.440952
50
269.5851384
51
281.1845308
0
ARC
8
DEFAULT_255_1_388
10
20.7193423
20
36.8144469
40
0.2855802
50
280.9345159
51
300.9740496
0
ARC
8
DEFAULT_255_1_388
10
20.7432603
20
36.7704128
40
0.2355257
50
301.4982546
51
315.1468616
0
ARC
8
DEFAULT_255_1_388
10
20.7270099
20
36.7837488
40
0.2564594
50
315.5952932
51
345.6679188
0
ARC
8
DEFAULT_255_1_388
10
20.6010656
20
36.8188235
40
0.3871766
50
345.2525685
51
358.6303941
0
ARC
8
DEFAULT_255_1_388
10
20.4867047
20
36.8255695
40
0.5016822
50
358.1723541
51
0.0116795
0
LINE
8
DEFAULT_255_1_388
10
22.3455406
20
37.7174898
11
22.3455406
21
37.5747267
0
LINE
8
DEFAULT_255_1_388
10
22.3455406
20
37.5747267
11
21.9226724
21
37.5747267
0
LINE
8
DEFAULT_255_1_388
10
21.9226724
20
37.5747267
11
21.9226724
21
36.4019
0
LINE
8
DEFAULT_255_1_388
10
21.9226724
20
36.4019
11
21.7500916
21
36.4019
0
LINE
8
DEFAULT_255_1_388
10
21.7500916
20
36.4019
11
21.7500916
21
37.5747267
0
LINE
8
DEFAULT_255_1_388
10
21.7500916
20
37.5747267
11
21.328127
21
37.5747267
0
LINE
8
DEFAULT_255_1_388
10
21.328127
20
37.5747267
11
21.328127
21
37.7174898
0
LINE
8
DEFAULT_255_1_388
10
21.328127
20
37.7174898
11
22.3455406
21
37.7174898
0
LINE
8
DEFAULT_255_1_388
10
23.0467066
20
37.7238148
11
23.0467066
21
36.4019
0
LINE
8
DEFAULT_255_1_388
10
23.0467066
20
36.4019
11
22.8786436
21
36.4019
0
LINE
8
DEFAULT_255_1_388
10
22.8786436
20
36.4019
11
22.8786436
21
37.515995
0
LINE
8
DEFAULT_255_1_388
10
22.8786436
20
37.515995
11
22.5416141
21
37.3922066
0
LINE
8
DEFAULT_255_1_388
10
22.5416141
20
37.3922066
11
22.5416141
21
37.5440055
0
LINE
8
DEFAULT_255_1_388
10
22.5416141
20
37.5440055
11
23.0205032
21
37.7238148
0
LINE
8
DEFAULT_255_1_388
10
23.0205032
20
37.7238148
11
23.0467066
21
37.7238148
0
LINE
8
DEFAULT_255_1_388
10
24.398439
20
36.5383382
11
24.398439
21
36.4019
0
LINE
8
DEFAULT_255_1_388
10
24.398439
20
36.4019
11
23.5364385
21
36.4019
0
LINE
8
DEFAULT_255_1_388
10
23.5364385
20
36.4019
11
23.5364385
21
36.5220741
0
LINE
8
DEFAULT_255_1_388
10
23.5364385
20
36.5220741
11
23.991835
21
37.0280702
0
LINE
8
DEFAULT_255_1_388
10
23.6782981
20
37.3298607
11
23.5111387
21
37.3298607
0
LINE
8
DEFAULT_255_1_388
10
24.0903235
20
36.920546
11
23.7379334
21
36.5383382
0
LINE
8
DEFAULT_255_1_388
10
23.7379334
20
36.5383382
11
24.398439
21
36.5383382
0
ARC
8
DEFAULT_255_1_388
10
22.474241
20
38.3700983
40
2.0258655
50
318.5132526
51
320.7829045
0
ARC
8
DEFAULT_255_1_388
10
23.0690367
20
37.8859929
40
1.2589638
50
320.7372878
51
323.9739031
0
ARC
8
DEFAULT_255_1_388
10
23.5099298
20
37.5665554
40
0.7145141
50
323.8962701
51
328.64194
0
ARC
8
DEFAULT_255_1_388
10
23.7401556
20
37.4245545
40
0.4440242
50
328.8294576
51
331.7891185
0
ARC
8
DEFAULT_255_1_388
10
23.8523876
20
37.3666374
40
0.3177517
50
331.4254512
51
352.9365785
0
ARC
8
DEFAULT_255_1_388
10
23.8676876
20
37.363205
40
0.3021496
50
353.2257659
51
0.0166158
0
ARC
8
DEFAULT_255_1_388
10
23.8913637
20
37.3657894
40
0.2784847
50
359.486299
51
15.9343185
0
ARC
8
DEFAULT_255_1_388
10
23.9483903
20
37.3811269
40
0.2194403
50
16.1712913
51
43.5286088
0
ARC
8
DEFAULT_255_1_388
10
23.9570848
20
37.3898191
40
0.2071504
50
43.4417391
51
83.1661095
0
ARC
8
DEFAULT_255_1_388
10
23.9420009
20
37.3069316
40
0.2912888
50
82.160179
51
90.1505708
0
ARC
8
DEFAULT_255_1_388
10
23.9384491
20
37.2465279
40
0.3517025
50
89.5460741
51
102.5418361
0
ARC
8
DEFAULT_255_1_388
10
23.9111211
20
37.3624933
40
0.2325748
50
102.1738499
51
129.206123
0
ARC
8
DEFAULT_255_1_388
10
23.9022664
20
37.3764664
40
0.2161591
50
129.72865
51
135.753947
0
ARC
8
DEFAULT_255_1_388
10
23.9159146
20
37.3655728
40
0.2335433
50
136.1757367
51
166.3673339
0
ARC
8
DEFAULT_255_1_388
10
24.0291835
20
37.3352148
40
0.3507873
50
165.9090694
51
178.8684636
0
ARC
8
DEFAULT_255_1_388
10
24.1267606
20
37.3299263
40
0.4484624
50
178.4391136
51
180.0083808
0
ARC
8
DEFAULT_255_1_388
10
23.9688308
20
37.3343197
40
0.4577138
50
163.2878482
51
180.5581842
0
ARC
8
DEFAULT_255_1_388
10
23.8786349
20
37.3591393
40
0.3641968
50
133.4540601
51
162.947111
0
ARC
8
DEFAULT_255_1_388
10
23.898723
20
37.3377789
40
0.3935189
50
100.7869829
51
133.4382499
0
ARC
8
DEFAULT_255_1_388
10
23.9378475
20
37.1635399
40
0.5720313
50
89.660664
51
101.3702276
0
ARC
8
DEFAULT_255_1_388
10
23.9453084
20
37.1704263
40
0.5651495
50
78.2172678
51
90.412935
0
ARC
8
DEFAULT_255_1_388
10
23.985255
20
37.3531511
40
0.378122
50
55.9269121
51
78.4888449
0
ARC
8
DEFAULT_255_1_388
10
24.0073265
20
37.3912187
40
0.3342379
50
47.929771
51
55.4049217
0
ARC
8
DEFAULT_255_1_388
10
24.0187796
20
37.4028618
40
0.3179217
50
4.334829
51
48.0560205
0
ARC
8
DEFAULT_255_1_388
10
23.8955597
20
37.3837487
40
0.442341
50
359.9251713
51
5.5971671
0
ARC
8
DEFAULT_255_1_388
10
23.9437752
20
37.3900728
40
0.3941854
50
337.8914027
51
358.9967534
0
ARC
8
DEFAULT_255_1_388
10
23.6385322
20
37.5078295
40
0.7213271
50
326.9132501
51
338.3508308
0
ARC
8
DEFAULT_255_1_388
10
23.1901434
20
37.7952105
40
1.2538973
50
319.6471833
51
327.0959558
0
ARC
8
DEFAULT_255_1_388
10
22.7588092
20
38.151005
40
1.8129975
50
317.2588228
51
319.9045804
0
LINE
8
DEFAULT_255_1_388
10
19.9854946
20
45.0378553
11
19.9854946
21
44.9547274
0
LINE
8
DEFAULT_255_1_388
10
18.9274206
20
44.9429811
11
18.9274206
21
45.0378553
0
LINE
8
DEFAULT_255_1_388
10
19.8129138
20
44.9420775
11
19.8129138
21
45.0396625
0
LINE
8
DEFAULT_255_1_388
10
19.1000014
20
45.0514088
11
19.1000014
21
44.9547274
0
ARC
8
DEFAULT_255_1_388
10
19.0132684
20
44.9502726
40
0.9722364
50
350.4878118
51
0.2625322
0
ARC
8
DEFAULT_255_1_388
10
19.2712644
20
44.9058994
40
0.7104556
50
336.0277991
51
350.5787241
0
ARC
8
DEFAULT_255_1_388
10
19.4225751
20
44.8375243
40
0.544417
50
319.887443
51
336.1331163
0
ARC
8
DEFAULT_255_1_388
10
19.4903563
20
44.7832733
40
0.4576311
50
302.4806296
51
319.6144102
0
ARC
8
DEFAULT_255_1_388
10
19.4774184
20
44.8082067
40
0.4856183
50
275.8196423
51
302.1885521
0
ARC
8
DEFAULT_255_1_388
10
19.4587046
20
44.9367466
40
0.6154183
50
269.9169897
51
276.339506
0
ARC
8
DEFAULT_255_1_388
10
19.4536646
20
44.859568
40
0.5382553
50
252.5221437
51
270.441579
0
ARC
8
DEFAULT_255_1_388
10
19.4374897
20
44.7989046
40
0.4755426
50
237.5349961
51
252.1858334
0
ARC
8
DEFAULT_255_1_388
10
19.4475273
20
44.811712
40
0.4917393
50
209.0632754
51
237.3492577
0
ARC
8
DEFAULT_255_1_388
10
19.5454599
20
44.8732104
40
0.6072464
50
205.118533
51
209.6465345
0
ARC
8
DEFAULT_255_1_388
10
19.6350601
20
44.9112174
40
0.7045164
50
188.7216633
51
204.8239753
0
ARC
8
DEFAULT_255_1_388
10
19.8597376
20
44.9490387
40
0.9323368
50
180.3722704
51
188.9253909
0
ARC
8
DEFAULT_255_1_388
10
19.8566938
20
45.0423416
40
0.929284
50
169.5253055
51
180.2766048
0
ARC
8
DEFAULT_255_1_388
10
19.6426737
20
45.0817024
40
0.7116745
50
155.8314601
51
169.5088611
0
ARC
8
DEFAULT_255_1_388
10
19.49862
20
45.1485312
40
0.5528904
50
139.6259579
51
156.0379072
0
ARC
8
DEFAULT_255_1_388
10
19.4322733
20
45.2019143
40
0.4677708
50
122.6414784
51
139.3431662
0
ARC
8
DEFAULT_255_1_388
10
19.4435988
20
45.1812787
40
0.4912586
50
93.0224537
51
122.4556091
0
ARC
8
DEFAULT_255_1_388
10
19.4557509
20
45.0726776
40
0.6003837
50
89.9756766
51
93.6340839
0
ARC
8
DEFAULT_255_1_388
10
19.4601107
20
45.1175879
40
0.5554884
50
73.7463329
51
90.4234008
0
ARC
8
DEFAULT_255_1_388
10
19.479858
20
45.1940772
40
0.4765353
50
57.663051
51
73.4516911
0
ARC
8
DEFAULT_255_1_388
10
19.4789618
20
45.1965108
40
0.4749629
50
29.1441355
51
57.4146687
0
ARC
8
DEFAULT_255_1_388
10
19.3737429
20
45.1308046
40
0.5988917
50
24.0985653
51
29.732054
0
ARC
8
DEFAULT_255_1_388
10
19.2575061
20
45.0826154
40
0.7246823
50
8.6654943
51
23.8241215
0
ARC
8
DEFAULT_255_1_388
10
19.0061479
20
45.0416037
40
0.9793537
50
359.7807044
51
8.8218476
0
ARC
8
DEFAULT_255_1_388
10
18.8771184
20
45.0444731
40
0.9358078
50
359.7054632
51
8.0359751
0
ARC
8
DEFAULT_255_1_388
10
19.2146235
20
45.0936252
40
0.5947474
50
7.8926278
51
20.2962188
0
ARC
8
DEFAULT_255_1_388
10
19.3977085
20
45.1611367
40
0.3996117
50
20.3231056
51
36.4990255
0
ARC
8
DEFAULT_255_1_388
10
19.4748383
20
45.2205399
40
0.3022818
50
36.1436715
51
85.6627846
0
ARC
8
DEFAULT_255_1_388
10
19.4565638
20
45.1035881
40
0.4203853
50
84.3845912
51
90.076054
0
ARC
8
DEFAULT_255_1_388
10
19.4517993
20
45.1778416
40
0.346157
50
89.3037228
51
109.9046209
0
ARC
8
DEFAULT_255_1_388
10
19.4413826
20
45.2208379
40
0.3022217
50
110.8229774
51
143.917961
0
ARC
8
DEFAULT_255_1_388
10
19.5464185
20
45.1406455
40
0.434348
50
143.5289166
51
163.2980252
0
ARC
8
DEFAULT_255_1_388
10
19.7610472
20
45.0731685
40
0.659321
50
163.0418884
51
174.3139873
0
ARC
8
DEFAULT_255_1_388
10
20.0315437
20
45.0419378
40
0.9315905
50
174.050934
51
179.4174954
0
ARC
8
DEFAULT_255_1_388
10
19.9747381
20
44.9500382
40
0.8747493
50
179.6928582
51
188.7908948
0
ARC
8
DEFAULT_255_1_388
10
19.6751181
20
44.9021086
40
0.5713262
50
188.6328449
51
202.5630732
0
ARC
8
DEFAULT_255_1_388
10
19.5340018
20
44.8454142
40
0.4192612
50
202.8078931
51
216.1195888
0
ARC
8
DEFAULT_255_1_388
10
19.4429535
20
44.7721479
40
0.3025752
50
215.0755613
51
264.6379773
0
ARC
8
DEFAULT_255_1_388
10
19.4572372
20
44.8656376
40
0.3970284
50
263.8464302
51
270.0830805
0
ARC
8
DEFAULT_255_1_388
10
19.4618917
20
44.8365808
40
0.3679937
50
269.3649295
51
287.5149684
0
ARC
8
DEFAULT_255_1_388
10
19.4819358
20
44.7637714
40
0.2925408
50
288.0629019
51
323.8115617
0
ARC
8
DEFAULT_255_1_388
10
19.3839334
20
44.8368754
40
0.4148018
50
323.6546541
51
342.6591359
0
ARC
8
DEFAULT_255_1_388
10
19.1553992
20
44.911228
40
0.6551163
50
342.4092446
51
353.6451501
0
ARC
8
DEFAULT_255_1_388
10
18.8368785
20
44.9508565
40
0.9760748
50
353.4027553
51
359.4846611
0
LINE
8
DEFAULT_255_1_388
10
20.9974868
20
45.6549898
11
21.1718747
21
45.6549898
0
LINE
8
DEFAULT_255_1_388
10
21.1718747
20
45.6549898
11
21.1718747
21
44.760461
0
LINE
8
DEFAULT_255_1_388
10
20.7399709
20
44.3231358
11
20.6938891
21
44.3213287
0
LINE
8
DEFAULT_255_1_388
10
20.2195178
20
44.7586539
11
20.2195178
21
45.6549898
0
LINE
8
DEFAULT_255_1_388
10
20.2195178
20
45.6549898
11
20.391195
21
45.6549898
0
LINE
8
DEFAULT_255_1_388
10
20.391195
20
45.6549898
11
20.391195
21
44.7640753
0
LINE
8
DEFAULT_255_1_388
10
20.9974868
20
44.7631717
11
20.9974868
21
45.6549898
0
ARC
8
DEFAULT_255_1_388
10
20.6821546
20
44.758227
40
0.4897252
50
343.0897723
51
0.2613727
0
ARC
8
DEFAULT_255_1_388
10
20.7753517
20
44.732227
40
0.3930016
50
315.3344451
51
342.7642569
0
ARC
8
DEFAULT_255_1_388
10
20.7502012
20
44.7583085
40
0.4292244
50
284.6605441
51
315.2183439
0
ARC
8
DEFAULT_255_1_388
10
20.6989792
20
44.9322508
40
0.6104926
50
273.8500371
51
285.1796441
0
ARC
8
DEFAULT_255_1_388
10
20.6890857
20
44.9706762
40
0.6493653
50
257.6315393
51
270.4238259
0
ARC
8
DEFAULT_255_1_388
10
20.641294
20
44.7657915
40
0.4390079
50
230.6086859
51
257.9965362
0
ARC
8
DEFAULT_255_1_388
10
20.6266998
20
44.7428643
40
0.4120404
50
227.745033
51
230.1538266
0
ARC
8
DEFAULT_255_1_388
10
20.6113528
20
44.7244253
40
0.3880742
50
189.2524335
51
227.5915299
0
ARC
8
DEFAULT_255_1_388
10
20.7825399
20
44.7612735
40
0.5630282
50
180.2665782
51
190.1525221
0
ARC
8
DEFAULT_255_1_388
10
20.8075127
20
44.7609254
40
0.4163296
50
179.566507
51
191.9954402
0
ARC
8
DEFAULT_255_1_388
10
20.6693816
20
44.7301151
40
0.274815
50
191.6974619
51
215.1403758
0
ARC
8
DEFAULT_255_1_388
10
20.6426208
20
44.7141689
40
0.2437647
50
215.6958251
51
224.8509274
0
ARC
8
DEFAULT_255_1_388
10
20.6488684
20
44.7231016
40
0.2545012
50
225.2846515
51
255.0110023
0
ARC
8
DEFAULT_255_1_388
10
20.685313
20
44.8484017
40
0.384974
50
254.5945979
51
267.9129427
0
ARC
8
DEFAULT_255_1_388
10
20.6936823
20
44.9701444
40
0.506956
50
267.4687563
51
270.0233681
0
ARC
8
DEFAULT_255_1_388
10
20.6970819
20
44.9041288
40
0.440952
50
269.5851384
51
281.1845308
0
ARC
8
DEFAULT_255_1_388
10
20.7284423
20
44.7519469
40
0.2855802
50
280.9345159
51
300.9740496
0
ARC
8
DEFAULT_255_1_388
10
20.7523603
20
44.7079128
40
0.2355257
50
301.4982546
51
315.1468616
0
ARC
8
DEFAULT_255_1_388
10
20.7361099
20
44.7212488
40
0.2564594
50
315.5952932
51
345.6679188
0
ARC
8
DEFAULT_255_1_388
10
20.6101656
20
44.7563235
40
0.3871766
50
345.2525685
51
358.6303941
0
ARC
8
DEFAULT_255_1_388
10
20.4958047
20
44.7630695
40
0.5016822
50
358.1723541
51
0.0116795
0
LINE
8
DEFAULT_255_1_388
10
22.3546406
20
45.6549898
11
22.3546406
21
45.5122267
0
LINE
8
DEFAULT_255_1_388
10
22.3546406
20
45.5122267
11
21.9317724
21
45.5122267
0
LINE
8
DEFAULT_255_1_388
10
21.9317724
20
45.5122267
11
21.9317724
21
44.3394
0
LINE
8
DEFAULT_255_1_388
10
21.9317724
20
44.3394
11
21.7591916
21
44.3394
0
LINE
8
DEFAULT_255_1_388
10
21.7591916
20
44.3394
11
21.7591916
21
45.5122267
0
LINE
8
DEFAULT_255_1_388
10
21.7591916
20
45.5122267
11
21.337227
21
45.5122267
0
LINE
8
DEFAULT_255_1_388
10
21.337227
20
45.5122267
11
21.337227
21
45.6549898
0
LINE
8
DEFAULT_255_1_388
10
21.337227
20
45.6549898
11
22.3546406
21
45.6549898
0
LINE
8
DEFAULT_255_1_388
10
23.0558066
20
45.6613148
11
23.0558066
21
44.3394
0
LINE
8
DEFAULT_255_1_388
10
23.0558066
20
44.3394
11
22.8877436
21
44.3394
0
LINE
8
DEFAULT_255_1_388
10
22.8877436
20
44.3394
11
22.8877436
21
45.453495
0
LINE
8
DEFAULT_255_1_388
10
22.8877436
20
45.453495
11
22.5507141
21
45.3297066
0
LINE
8
DEFAULT_255_1_388
10
22.5507141
20
45.3297066
11
22.5507141
21
45.4815055
0
LINE
8
DEFAULT_255_1_388
10
22.5507141
20
45.4815055
11
23.0296032
21
45.6613148
0
LINE
8
DEFAULT_255_1_388
10
23.0296032
20
45.6613148
11
23.0558066
21
45.6613148
0
LINE
8
DEFAULT_255_1_388
10
24.0949057
20
45.6613148
11
24.0949057
21
44.3394
0
LINE
8
DEFAULT_255_1_388
10
24.0949057
20
44.3394
11
23.9268427
21
44.3394
0
LINE
8
DEFAULT_255_1_388
10
23.9268427
20
44.3394
11
23.9268427
21
45.453495
0
LINE
8
DEFAULT_255_1_388
10
23.9268427
20
45.453495
11
23.5898132
21
45.3297066
0
LINE
8
DEFAULT_255_1_388
10
23.5898132
20
45.3297066
11
23.5898132
21
45.4815055
0
LINE
8
DEFAULT_255_1_388
10
23.5898132
20
45.4815055
11
24.0687023
21
45.6613148
0
LINE
8
DEFAULT_255_1_388
10
24.0687023
20
45.6613148
11
24.0949057
21
45.6613148
0
LINE
8
DEFAULT_255_1_388
10
19.9763946
20
52.9753553
11
19.9763946
21
52.8922274
0
LINE
8
DEFAULT_255_1_388
10
18.9183206
20
52.8804811
11
18.9183206
21
52.9753553
0
LINE
8
DEFAULT_255_1_388
10
19.8038138
20
52.8795775
11
19.8038138
21
52.9771625
0
LINE
8
DEFAULT_255_1_388
10
19.0909014
20
52.9889088
11
19.0909014
21
52.8922274
0
ARC
8
DEFAULT_255_1_388
10
19.0041684
20
52.8877726
40
0.9722364
50
350.4878118
51
0.2625322
0
ARC
8
DEFAULT_255_1_388
10
19.2621644
20
52.8433994
40
0.7104556
50
336.0277991
51
350.5787241
0
ARC
8
DEFAULT_255_1_388
10
19.4134751
20
52.7750243
40
0.544417
50
319.887443
51
336.1331163
0
ARC
8
DEFAULT_255_1_388
10
19.4812563
20
52.7207733
40
0.4576311
50
302.4806296
51
319.6144102
0
ARC
8
DEFAULT_255_1_388
10
19.4683184
20
52.7457067
40
0.4856183
50
275.8196423
51
302.1885521
0
ARC
8
DEFAULT_255_1_388
10
19.4496046
20
52.8742466
40
0.6154183
50
269.9169897
51
276.339506
0
ARC
8
DEFAULT_255_1_388
10
19.4445646
20
52.797068
40
0.5382553
50
252.5221437
51
270.441579
0
ARC
8
DEFAULT_255_1_388
10
19.4283897
20
52.7364046
40
0.4755426
50
237.5349961
51
252.1858334
0
ARC
8
DEFAULT_255_1_388
10
19.4384273
20
52.749212
40
0.4917393
50
209.0632754
51
237.3492577
0
ARC
8
DEFAULT_255_1_388
10
19.5363599
20
52.8107104
40
0.6072464
50
205.118533
51
209.6465345
0
ARC
8
DEFAULT_255_1_388
10
19.6259601
20
52.8487174
40
0.7045164
50
188.7216633
51
204.8239753
0
ARC
8
DEFAULT_255_1_388
10
19.8506376
20
52.8865387
40
0.9323368
50
180.3722704
51
188.9253909
0
ARC
8
DEFAULT_255_1_388
10
19.8475938
20
52.9798416
40
0.929284
50
169.5253055
51
180.2766048
0
ARC
8
DEFAULT_255_1_388
10
19.6335737
20
53.0192024
40
0.7116745
50
155.8314601
51
169.5088611
0
ARC
8
DEFAULT_255_1_388
10
19.48952
20
53.0860312
40
0.5528904
50
139.6259579
51
156.0379072
0
ARC
8
DEFAULT_255_1_388
10
19.4231733
20
53.1394143
40
0.4677708
50
122.6414784
51
139.3431662
0
ARC
8
DEFAULT_255_1_388
10
19.4344988
20
53.1187787
40
0.4912586
50
93.0224537
51
122.4556091
0
ARC
8
DEFAULT_255_1_388
10
19.4466509
20
53.0101776
40
0.6003837
50
89.9756766
51
93.6340839
0
ARC
8
DEFAULT_255_1_388
10
19.4510107
20
53.0550879
40
0.5554884
50
73.7463329
51
90.4234008
0
ARC
8
DEFAULT_255_1_388
10
19.470758
20
53.1315772
40
0.4765353
50
57.663051
51
73.4516911
0
ARC
8
DEFAULT_255_1_388
10
19.4698618
20
53.1340108
40
0.4749629
50
29.1441355
51
57.4146687
0
ARC
8
DEFAULT_255_1_388
10
19.3646429
20
53.0683046
40
0.5988917
50
24.0985653
51
29.732054
0
ARC
8
DEFAULT_255_1_388
10
19.2484061
20
53.0201154
40
0.7246823
50
8.6654943
51
23.8241215
0
ARC
8
DEFAULT_255_1_388
10
18.9970479
20
52.9791037
40
0.9793537
50
359.7807044
51
8.8218476
0
ARC
8
DEFAULT_255_1_388
10
18.8680184
20
52.9819731
40
0.9358078
50
359.7054632
51
8.0359751
0
ARC
8
DEFAULT_255_1_388
10
19.2055235
20
53.0311252
40
0.5947474
50
7.8926278
51
20.2962188
0
ARC
8
DEFAULT_255_1_388
10
19.3886085
20
53.0986367
40
0.3996117
50
20.3231056
51
36.4990255
0
ARC
8
DEFAULT_255_1_388
10
19.4657383
20
53.1580399
40
0.3022818
50
36.1436715
51
85.6627846
0
ARC
8
DEFAULT_255_1_388
10
19.4474638
20
53.0410881
40
0.4203853
50
84.3845912
51
90.076054
0
ARC
8
DEFAULT_255_1_388
10
19.4426993
20
53.1153416
40
0.346157
50
89.3037228
51
109.9046209
0
ARC
8
DEFAULT_255_1_388
10
19.4322826
20
53.1583379
40
0.3022217
50
110.8229774
51
143.917961
0
ARC
8
DEFAULT_255_1_388
10
19.5373185
20
53.0781455
40
0.434348
50
143.5289166
51
163.2980252
0
ARC
8
DEFAULT_255_1_388
10
19.7519472
20
53.0106685
40
0.659321
50
163.0418884
51
174.3139873
0
ARC
8
DEFAULT_255_1_388
10
20.0224437
20
52.9794378
40
0.9315905
50
174.050934
51
179.4174954
0
ARC
8
DEFAULT_255_1_388
10
19.9656381
20
52.8875382
40
0.8747493
50
179.6928582
51
188.7908948
0
ARC
8
DEFAULT_255_1_388
10
19.6660181
20
52.8396086
40
0.5713262
50
188.6328449
51
202.5630732
0
ARC
8
DEFAULT_255_1_388
10
19.5249018
20
52.7829142
40
0.4192612
50
202.8078931
51
216.1195888
0
ARC
8
DEFAULT_255_1_388
10
19.4338535
20
52.7096479
40
0.3025752
50
215.0755613
51
264.6379773
0
ARC
8
DEFAULT_255_1_388
10
19.4481372
20
52.8031376
40
0.3970284
50
263.8464302
51
270.0830805
0
ARC
8
DEFAULT_255_1_388
10
19.4527917
20
52.7740808
40
0.3679937
50
269.3649295
51
287.5149684
0
ARC
8
DEFAULT_255_1_388
10
19.4728358
20
52.7012714
40
0.2925408
50
288.0629019
51
323.8115617
0
ARC
8
DEFAULT_255_1_388
10
19.3748334
20
52.7743754
40
0.4148018
50
323.6546541
51
342.6591359
0
ARC
8
DEFAULT_255_1_388
10
19.1462992
20
52.848728
40
0.6551163
50
342.4092446
51
353.6451501
0
ARC
8
DEFAULT_255_1_388
10
18.8277785
20
52.8883565
40
0.9760748
50
353.4027553
51
359.4846611
0
LINE
8
DEFAULT_255_1_388
10
20.9883868
20
53.5924898
11
21.1627747
21
53.5924898
0
LINE
8
DEFAULT_255_1_388
10
21.1627747
20
53.5924898
11
21.1627747
21
52.697961
0
LINE
8
DEFAULT_255_1_388
10
20.7308709
20
52.2606358
11
20.6847891
21
52.2588287
0
LINE
8
DEFAULT_255_1_388
10
20.2104178
20
52.6961539
11
20.2104178
21
53.5924898
0
LINE
8
DEFAULT_255_1_388
10
20.2104178
20
53.5924898
11
20.382095
21
53.5924898
0
LINE
8
DEFAULT_255_1_388
10
20.382095
20
53.5924898
11
20.382095
21
52.7015753
0
LINE
8
DEFAULT_255_1_388
10
20.9883868
20
52.7006717
11
20.9883868
21
53.5924898
0
ARC
8
DEFAULT_255_1_388
10
20.6730546
20
52.695727
40
0.4897252
50
343.0897723
51
0.2613727
0
ARC
8
DEFAULT_255_1_388
10
20.7662517
20
52.669727
40
0.3930016
50
315.3344451
51
342.7642569
0
ARC
8
DEFAULT_255_1_388
10
20.7411012
20
52.6958085
40
0.4292244
50
284.6605441
51
315.2183439
0
ARC
8
DEFAULT_255_1_388
10
20.6898792
20
52.8697508
40
0.6104926
50
273.8500371
51
285.1796441
0
ARC
8
DEFAULT_255_1_388
10
20.6799857
20
52.9081762
40
0.6493653
50
257.6315393
51
270.4238259
0
ARC
8
DEFAULT_255_1_388
10
20.632194
20
52.7032915
40
0.4390079
50
230.6086859
51
257.9965362
0
ARC
8
DEFAULT_255_1_388
10
20.6175998
20
52.6803643
40
0.4120404
50
227.745033
51
230.1538266
0
ARC
8
DEFAULT_255_1_388
10
20.6022528
20
52.6619253
40
0.3880742
50
189.2524335
51
227.5915299
0
ARC
8
DEFAULT_255_1_388
10
20.7734399
20
52.6987735
40
0.5630282
50
180.2665782
51
190.1525221
0
ARC
8
DEFAULT_255_1_388
10
20.7984127
20
52.6984254
40
0.4163296
50
179.566507
51
191.9954402
0
ARC
8
DEFAULT_255_1_388
10
20.6602816
20
52.6676151
40
0.274815
50
191.6974619
51
215.1403758
0
ARC
8
DEFAULT_255_1_388
10
20.6335208
20
52.6516689
40
0.2437647
50
215.6958251
51
224.8509274
0
ARC
8
DEFAULT_255_1_388
10
20.6397684
20
52.6606016
40
0.2545012
50
225.2846515
51
255.0110023
0
ARC
8
DEFAULT_255_1_388
10
20.676213
20
52.7859017
40
0.384974
50
254.5945979
51
267.9129427
0
ARC
8
DEFAULT_255_1_388
10
20.6845823
20
52.9076444
40
0.506956
50
267.4687563
51
270.0233681
0
ARC
8
DEFAULT_255_1_388
10
20.6879819
20
52.8416288
40
0.440952
50
269.5851384
51
281.1845308
0
ARC
8
DEFAULT_255_1_388
10
20.7193423
20
52.6894469
40
0.2855802
50
280.9345159
51
300.9740496
0
ARC
8
DEFAULT_255_1_388
10
20.7432603
20
52.6454128
40
0.2355257
50
301.4982546
51
315.1468616
0
ARC
8
DEFAULT_255_1_388
10
20.7270099
20
52.6587488
40
0.2564594
50
315.5952932
51
345.6679188
0
ARC
8
DEFAULT_255_1_388
10
20.6010656
20
52.6938235
40
0.3871766
50
345.2525685
51
358.6303941
0
ARC
8
DEFAULT_255_1_388
10
20.4867047
20
52.7005695
40
0.5016822
50
358.1723541
51
0.0116795
0
LINE
8
DEFAULT_255_1_388
10
22.3455406
20
53.5924898
11
22.3455406
21
53.4497267
0
LINE
8
DEFAULT_255_1_388
10
22.3455406
20
53.4497267
11
21.9226724
21
53.4497267
0
LINE
8
DEFAULT_255_1_388
10
21.9226724
20
53.4497267
11
21.9226724
21
52.2769
0
LINE
8
DEFAULT_255_1_388
10
21.9226724
20
52.2769
11
21.7500916
21
52.2769
0
LINE
8
DEFAULT_255_1_388
10
21.7500916
20
52.2769
11
21.7500916
21
53.4497267
0
LINE
8
DEFAULT_255_1_388
10
21.7500916
20
53.4497267
11
21.328127
21
53.4497267
0
LINE
8
DEFAULT_255_1_388
10
21.328127
20
53.4497267
11
21.328127
21
53.5924898
0
LINE
8
DEFAULT_255_1_388
10
21.328127
20
53.5924898
11
22.3455406
21
53.5924898
0
LINE
8
DEFAULT_255_1_388
10
23.0467066
20
53.5988148
11
23.0467066
21
52.2769
0
LINE
8
DEFAULT_255_1_388
10
23.0467066
20
52.2769
11
22.8786436
21
52.2769
0
LINE
8
DEFAULT_255_1_388
10
22.8786436
20
52.2769
11
22.8786436
21
53.390995
0
LINE
8
DEFAULT_255_1_388
10
22.8786436
20
53.390995
11
22.5416141
21
53.2672066
0
LINE
8
DEFAULT_255_1_388
10
22.5416141
20
53.2672066
11
22.5416141
21
53.4190055
0
LINE
8
DEFAULT_255_1_388
10
22.5416141
20
53.4190055
11
23.0205032
21
53.5988148
0
LINE
8
DEFAULT_255_1_388
10
23.0205032
20
53.5988148
11
23.0467066
21
53.5988148
0
LINE
8
DEFAULT_255_1_388
10
24.3613929
20
53.054869
11
24.3613929
21
52.8380135
0
LINE
8
DEFAULT_255_1_388
10
23.5310171
20
52.8154244
11
23.5310171
21
53.0386048
0
LINE
8
DEFAULT_255_1_388
10
24.1942334
20
52.7928353
11
24.1942334
21
53.0666153
0
LINE
8
DEFAULT_255_1_388
10
23.6981766
20
53.0792652
11
23.6981766
21
52.8118102
0
ARC
8
DEFAULT_255_1_388
10
22.9836263
20
52.8325118
40
1.3777776
50
353.8440855
51
0.2287917
0
ARC
8
DEFAULT_255_1_388
10
23.505528
20
52.7742414
40
0.852639
50
344.4934746
51
353.9763743
0
ARC
8
DEFAULT_255_1_388
10
23.8422087
20
52.6785191
40
0.5026273
50
329.2803599
51
344.7473406
0
ARC
8
DEFAULT_255_1_388
10
23.9537583
20
52.6173038
40
0.3754848
50
324.9361395
51
328.6153007
0
ARC
8
DEFAULT_255_1_388
10
23.9963233
20
52.5875586
40
0.3235566
50
280.5801797
51
324.9173226
0
ARC
8
DEFAULT_255_1_388
10
23.9511861
20
52.7755236
40
0.5167077
50
269.5979457
51
281.6732777
0
ARC
8
DEFAULT_255_1_388
10
23.9430765
20
52.7620113
40
0.5032026
50
256.6228565
51
270.5105488
0
ARC
8
DEFAULT_255_1_388
10
23.8978508
20
52.5878345
40
0.3233092
50
215.8618351
51
257.2787793
0
ARC
8
DEFAULT_255_1_388
10
24.0127215
20
52.6649106
40
0.4615831
50
197.9695203
51
215.2622745
0
ARC
8
DEFAULT_255_1_388
10
24.292289
20
52.7592641
40
0.7566307
50
187.8816486
51
198.2346584
0
ARC
8
DEFAULT_255_1_388
10
24.7376129
20
52.8235453
40
1.2065653
50
180.8977266
51
188.0054894
0
ARC
8
DEFAULT_255_1_388
10
25.0426342
20
52.83504
40
1.5117443
50
180.7434591
51
181.152202
0
ARC
8
DEFAULT_255_1_388
10
24.8751338
20
53.0440371
40
1.3441277
50
173.7674302
51
180.2315596
0
ARC
8
DEFAULT_255_1_388
10
24.3669207
20
53.1014779
40
0.8326847
50
164.3058537
51
173.9000553
0
ARC
8
DEFAULT_255_1_388
10
24.0393207
20
53.1958652
40
0.4917711
50
148.7922028
51
164.5682288
0
ARC
8
DEFAULT_255_1_388
10
23.9323945
20
53.2555457
40
0.3694204
50
144.5883979
51
148.1161588
0
ARC
8
DEFAULT_255_1_388
10
23.893669
20
53.2825667
40
0.322202
50
101.6440149
51
144.5142619
0
ARC
8
DEFAULT_255_1_388
10
23.9414882
20
53.0925337
40
0.5180451
50
89.528284
51
102.5820197
0
ARC
8
DEFAULT_255_1_388
10
23.9503874
20
53.0881376
40
0.5224441
50
77.0437914
51
90.508231
0
ARC
8
DEFAULT_255_1_388
10
23.9956128
20
53.2729272
40
0.3322297
50
48.2777708
51
77.4996087
0
ARC
8
DEFAULT_255_1_388
10
24.0037868
20
53.2874557
40
0.315966
50
36.3141586
51
47.6307332
0
ARC
8
DEFAULT_255_1_388
10
23.906059
20
53.2216159
40
0.4337313
50
18.2931065
51
35.6770203
0
ARC
8
DEFAULT_255_1_388
10
23.6199431
20
53.1234107
40
0.7362203
50
8.0246996
51
18.5605636
0
ARC
8
DEFAULT_255_1_388
10
23.1515786
20
53.0542432
40
1.2096583
50
1.127539
51
8.1718423
0
ARC
8
DEFAULT_255_1_388
10
22.786692
20
53.0399374
40
1.5747719
50
0.5432713
51
1.38669
0
ARC
8
DEFAULT_255_1_388
10
22.9924298
20
53.0706163
40
1.2018103
50
359.8092569
51
4.9408001
0
ARC
8
DEFAULT_255_1_388
10
23.466088
20
53.11289
40
0.7262727
50
4.8364937
51
12.2906017
0
ARC
8
DEFAULT_255_1_388
10
23.7760344
20
53.1819485
40
0.4087324
50
12.0806994
51
23.8171225
0
ARC
8
DEFAULT_255_1_388
10
23.908074
20
53.2378508
40
0.2653719
50
24.2874621
51
31.3934353
0
ARC
8
DEFAULT_255_1_388
10
23.9671176
20
53.2764822
40
0.1948607
50
30.7407708
51
82.4658033
0
ARC
8
DEFAULT_255_1_388
10
23.9468837
20
53.1771017
40
0.2961198
50
81.1057101
51
90.2187368
0
ARC
8
DEFAULT_255_1_388
10
23.9428649
20
53.2061421
40
0.2670929
50
89.380395
51
105.6763916
0
ARC
8
DEFAULT_255_1_388
10
23.9222371
20
53.281132
40
0.1893189
50
105.7980655
51
149.7387869
0
ARC
8
DEFAULT_255_1_388
10
24.0419511
20
53.2091719
40
0.3289892
50
149.4208441
51
163.628295
0
ARC
8
DEFAULT_255_1_388
10
24.2771741
20
53.1374345
40
0.5749004
50
163.3764549
51
172.141138
0
ARC
8
DEFAULT_255_1_388
10
24.6484462
20
53.0842582
40
0.9499585
50
172.0258462
51
178.0705453
0
ARC
8
DEFAULT_255_1_388
10
24.9906015
20
53.0680682
40
1.2924734
50
177.8639301
51
179.5036263
0
ARC
8
DEFAULT_255_1_388
10
24.8687034
20
52.8077151
40
1.170534
50
179.7995545
51
185.246089
0
ARC
8
DEFAULT_255_1_388
10
24.4138627
20
52.7646404
40
0.7136613
50
185.1411911
51
193.0082205
0
ARC
8
DEFAULT_255_1_388
10
24.1164887
20
52.6943441
40
0.4080987
50
192.7897338
51
205.2507384
0
ARC
8
DEFAULT_255_1_388
10
23.9987097
20
52.6417538
40
0.2791522
50
205.8001921
51
211.2545876
0
ARC
8
DEFAULT_255_1_388
10
23.9398636
20
52.6023132
40
0.2084074
50
210.3789935
51
238.4007996
0
ARC
8
DEFAULT_255_1_388
10
23.9376722
20
52.6075786
40
0.2117943
50
239.6521916
51
265.9793852
0
ARC
8
DEFAULT_255_1_388
10
23.9472571
20
52.6832358
40
0.2879689
50
265.1324455
51
270.0603288
0
ARC
8
DEFAULT_255_1_388
10
23.9504948
20
52.6467418
40
0.2514919
50
269.3314378
51
287.2180039
0
ARC
8
DEFAULT_255_1_388
10
23.9660031
20
52.5901291
40
0.1928357
50
287.7957942
51
329.0808983
0
ARC
8
DEFAULT_255_1_388
10
23.8582788
20
52.6573651
40
0.319808
50
328.6635261
51
343.3325043
0
ARC
8
DEFAULT_255_1_388
10
23.6138246
20
52.7335195
40
0.5758408
50
343.0498092
51
351.9392499
0
ARC
8
DEFAULT_255_1_388
10
23.2237568
20
52.7910205
40
0.9701202
50
351.8071632
51
357.7957897
0
ARC
8
DEFAULT_255_1_388
10
22.8603045
20
52.8098724
40
1.3340376
50
357.5870923
51
359.2682493
0
LINE
8
DEFAULT_255_1_388
10
21.0165946
20
60.9128553
11
21.0165946
21
60.8297274
0
LINE
8
DEFAULT_255_1_388
10
19.9585206
20
60.8179811
11
19.9585206
21
60.9128553
0
LINE
8
DEFAULT_255_1_388
10
20.8440138
20
60.8170775
11
20.8440138
21
60.9146625
0
LINE
8
DEFAULT_255_1_388
10
20.1311014
20
60.9264088
11
20.1311014
21
60.8297274
0
ARC
8
DEFAULT_255_1_388
10
20.0443684
20
60.8252726
40
0.9722364
50
350.4878118
51
0.2625322
0
ARC
8
DEFAULT_255_1_388
10
20.3023644
20
60.7808994
40
0.7104556
50
336.0277991
51
350.5787241
0
ARC
8
DEFAULT_255_1_388
10
20.4536751
20
60.7125243
40
0.544417
50
319.887443
51
336.1331163
0
ARC
8
DEFAULT_255_1_388
10
20.5214563
20
60.6582733
40
0.4576311
50
302.4806296
51
319.6144102
0
ARC
8
DEFAULT_255_1_388
10
20.5085184
20
60.6832067
40
0.4856183
50
275.8196423
51
302.1885521
0
ARC
8
DEFAULT_255_1_388
10
20.4898046
20
60.8117466
40
0.6154183
50
269.9169897
51
276.339506
0
ARC
8
DEFAULT_255_1_388
10
20.4847646
20
60.734568
40
0.5382553
50
252.5221437
51
270.441579
0
ARC
8
DEFAULT_255_1_388
10
20.4685897
20
60.6739046
40
0.4755426
50
237.5349961
51
252.1858334
0
ARC
8
DEFAULT_255_1_388
10
20.4786273
20
60.686712
40
0.4917393
50
209.0632754
51
237.3492577
0
ARC
8
DEFAULT_255_1_388
10
20.5765599
20
60.7482104
40
0.6072464
50
205.118533
51
209.6465345
0
ARC
8
DEFAULT_255_1_388
10
20.6661601
20
60.7862174
40
0.7045164
50
188.7216633
51
204.8239753
0
ARC
8
DEFAULT_255_1_388
10
20.8908376
20
60.8240387
40
0.9323368
50
180.3722704
51
188.9253909
0
ARC
8
DEFAULT_255_1_388
10
20.8877938
20
60.9173416
40
0.929284
50
169.5253055
51
180.2766048
0
ARC
8
DEFAULT_255_1_388
10
20.6737737
20
60.9567024
40
0.7116745
50
155.8314601
51
169.5088611
0
ARC
8
DEFAULT_255_1_388
10
20.52972
20
61.0235312
40
0.5528904
50
139.6259579
51
156.0379072
0
ARC
8
DEFAULT_255_1_388
10
20.4633733
20
61.0769143
40
0.4677708
50
122.6414784
51
139.3431662
0
ARC
8
DEFAULT_255_1_388
10
20.4746988
20
61.0562787
40
0.4912586
50
93.0224537
51
122.4556091
0
ARC
8
DEFAULT_255_1_388
10
20.4868509
20
60.9476776
40
0.6003837
50
89.9756766
51
93.6340839
0
ARC
8
DEFAULT_255_1_388
10
20.4912107
20
60.9925879
40
0.5554884
50
73.7463329
51
90.4234008
0
ARC
8
DEFAULT_255_1_388
10
20.510958
20
61.0690772
40
0.4765353
50
57.663051
51
73.4516911
0
ARC
8
DEFAULT_255_1_388
10
20.5100618
20
61.0715108
40
0.4749629
50
29.1441355
51
57.4146687
0
ARC
8
DEFAULT_255_1_388
10
20.4048429
20
61.0058046
40
0.5988917
50
24.0985653
51
29.732054
0
ARC
8
DEFAULT_255_1_388
10
20.2886061
20
60.9576154
40
0.7246823
50
8.6654943
51
23.8241215
0
ARC
8
DEFAULT_255_1_388
10
20.0372479
20
60.9166037
40
0.9793537
50
359.7807044
51
8.8218476
0
ARC
8
DEFAULT_255_1_388
10
19.9082184
20
60.9194731
40
0.9358078
50
359.7054632
51
8.0359751
0
ARC
8
DEFAULT_255_1_388
10
20.2457235
20
60.9686252
40
0.5947474
50
7.8926278
51
20.2962188
0
ARC
8
DEFAULT_255_1_388
10
20.4288085
20
61.0361367
40
0.3996117
50
20.3231056
51
36.4990255
0
ARC
8
DEFAULT_255_1_388
10
20.5059383
20
61.0955399
40
0.3022818
50
36.1436715
51
85.6627846
0
ARC
8
DEFAULT_255_1_388
10
20.4876638
20
60.9785881
40
0.4203853
50
84.3845912
51
90.076054
0
ARC
8
DEFAULT_255_1_388
10
20.4828993
20
61.0528416
40
0.346157
50
89.3037228
51
109.9046209
0
ARC
8
DEFAULT_255_1_388
10
20.4724826
20
61.0958379
40
0.3022217
50
110.8229774
51
143.917961
0
ARC
8
DEFAULT_255_1_388
10
20.5775185
20
61.0156455
40
0.434348
50
143.5289166
51
163.2980252
0
ARC
8
DEFAULT_255_1_388
10
20.7921472
20
60.9481685
40
0.659321
50
163.0418884
51
174.3139873
0
ARC
8
DEFAULT_255_1_388
10
21.0626437
20
60.9169378
40
0.9315905
50
174.050934
51
179.4174954
0
ARC
8
DEFAULT_255_1_388
10
21.0058381
20
60.8250382
40
0.8747493
50
179.6928582
51
188.7908948
0
ARC
8
DEFAULT_255_1_388
10
20.7062181
20
60.7771086
40
0.5713262
50
188.6328449
51
202.5630732
0
ARC
8
DEFAULT_255_1_388
10
20.5651018
20
60.7204142
40
0.4192612
50
202.8078931
51
216.1195888
0
ARC
8
DEFAULT_255_1_388
10
20.4740535
20
60.6471479
40
0.3025752
50
215.0755613
51
264.6379773
0
ARC
8
DEFAULT_255_1_388
10
20.4883372
20
60.7406376
40
0.3970284
50
263.8464302
51
270.0830805
0
ARC
8
DEFAULT_255_1_388
10
20.4929917
20
60.7115808
40
0.3679937
50
269.3649295
51
287.5149684
0
ARC
8
DEFAULT_255_1_388
10
20.5130358
20
60.6387714
40
0.2925408
50
288.0629019
51
323.8115617
0
ARC
8
DEFAULT_255_1_388
10
20.4150334
20
60.7118754
40
0.4148018
50
323.6546541
51
342.6591359
0
ARC
8
DEFAULT_255_1_388
10
20.1864992
20
60.786228
40
0.6551163
50
342.4092446
51
353.6451501
0
ARC
8
DEFAULT_255_1_388
10
19.8679785
20
60.8258565
40
0.9760748
50
353.4027553
51
359.4846611
0
LINE
8
DEFAULT_255_1_388
10
22.0285868
20
61.5299898
11
22.2029747
21
61.5299898
0
LINE
8
DEFAULT_255_1_388
10
22.2029747
20
61.5299898
11
22.2029747
21
60.635461
0
LINE
8
DEFAULT_255_1_388
10
21.7710709
20
60.1981358
11
21.7249891
21
60.1963287
0
LINE
8
DEFAULT_255_1_388
10
21.2506178
20
60.6336539
11
21.2506178
21
61.5299898
0
LINE
8
DEFAULT_255_1_388
10
21.2506178
20
61.5299898
11
21.422295
21
61.5299898
0
LINE
8
DEFAULT_255_1_388
10
21.422295
20
61.5299898
11
21.422295
21
60.6390753
0
LINE
8
DEFAULT_255_1_388
10
22.0285868
20
60.6381717
11
22.0285868
21
61.5299898
0
ARC
8
DEFAULT_255_1_388
10
21.7132546
20
60.633227
40
0.4897252
50
343.0897723
51
0.2613727
0
ARC
8
DEFAULT_255_1_388
10
21.8064517
20
60.607227
40
0.3930016
50
315.3344451
51
342.7642569
0
ARC
8
DEFAULT_255_1_388
10
21.7813012
20
60.6333085
40
0.4292244
50
284.6605441
51
315.2183439
0
ARC
8
DEFAULT_255_1_388
10
21.7300792
20
60.8072508
40
0.6104926
50
273.8500371
51
285.1796441
0
ARC
8
DEFAULT_255_1_388
10
21.7201857
20
60.8456762
40
0.6493653
50
257.6315393
51
270.4238259
0
ARC
8
DEFAULT_255_1_388
10
21.672394
20
60.6407915
40
0.4390079
50
230.6086859
51
257.9965362
0
ARC
8
DEFAULT_255_1_388
10
21.6577998
20
60.6178643
40
0.4120404
50
227.745033
51
230.1538266
0
ARC
8
DEFAULT_255_1_388
10
21.6424528
20
60.5994253
40
0.3880742
50
189.2524335
51
227.5915299
0
ARC
8
DEFAULT_255_1_388
10
21.8136399
20
60.6362735
40
0.5630282
50
180.2665782
51
190.1525221
0
ARC
8
DEFAULT_255_1_388
10
21.8386127
20
60.6359254
40
0.4163296
50
179.566507
51
191.9954402
0
ARC
8
DEFAULT_255_1_388
10
21.7004816
20
60.6051151
40
0.274815
50
191.6974619
51
215.1403758
0
ARC
8
DEFAULT_255_1_388
10
21.6737208
20
60.5891689
40
0.2437647
50
215.6958251
51
224.8509274
0
ARC
8
DEFAULT_255_1_388
10
21.6799684
20
60.5981016
40
0.2545012
50
225.2846515
51
255.0110023
0
ARC
8
DEFAULT_255_1_388
10
21.716413
20
60.7234017
40
0.384974
50
254.5945979
51
267.9129427
0
ARC
8
DEFAULT_255_1_388
10
21.7247823
20
60.8451444
40
0.506956
50
267.4687563
51
270.0233681
0
ARC
8
DEFAULT_255_1_388
10
21.7281819
20
60.7791288
40
0.440952
50
269.5851384
51
281.1845308
0
ARC
8
DEFAULT_255_1_388
10
21.7595423
20
60.6269469
40
0.2855802
50
280.9345159
51
300.9740496
0
ARC
8
DEFAULT_255_1_388
10
21.7834603
20
60.5829128
40
0.2355257
50
301.4982546
51
315.1468616
0
ARC
8
DEFAULT_255_1_388
10
21.7672099
20
60.5962488
40
0.2564594
50
315.5952932
51
345.6679188
0
ARC
8
DEFAULT_255_1_388
10
21.6412656
20
60.6313235
40
0.3871766
50
345.2525685
51
358.6303941
0
ARC
8
DEFAULT_255_1_388
10
21.5269047
20
60.6380695
40
0.5016822
50
358.1723541
51
0.0116795
0
LINE
8
DEFAULT_255_1_388
10
23.3857406
20
61.5299898
11
23.3857406
21
61.3872267
0
LINE
8
DEFAULT_255_1_388
10
23.3857406
20
61.3872267
11
22.9628724
21
61.3872267
0
LINE
8
DEFAULT_255_1_388
10
22.9628724
20
61.3872267
11
22.9628724
21
60.2144
0
LINE
8
DEFAULT_255_1_388
10
22.9628724
20
60.2144
11
22.7902916
21
60.2144
0
LINE
8
DEFAULT_255_1_388
10
22.7902916
20
60.2144
11
22.7902916
21
61.3872267
0
LINE
8
DEFAULT_255_1_388
10
22.7902916
20
61.3872267
11
22.368327
21
61.3872267
0
LINE
8
DEFAULT_255_1_388
10
22.368327
20
61.3872267
11
22.368327
21
61.5299898
0
LINE
8
DEFAULT_255_1_388
10
22.368327
20
61.5299898
11
23.3857406
21
61.5299898
0
LINE
8
DEFAULT_255_1_388
10
24.3462296
20
61.0041153
11
24.3462296
21
60.9553229
0
LINE
8
DEFAULT_255_1_388
10
23.7363236
20
60.2134964
11
23.7037953
21
60.2134964
0
LINE
8
DEFAULT_255_1_388
10
23.7037953
20
60.2134964
11
23.7037953
21
60.3544525
0
LINE
8
DEFAULT_255_1_388
10
23.7037953
20
60.3544525
11
23.7390343
21
60.3544525
0
LINE
8
DEFAULT_255_1_388
10
24.1790702
20
60.971587
11
24.1790702
21
61.0384508
0
ARC
8
DEFAULT_255_1_388
10
23.8647794
20
61.0554877
40
0.4089973
50
297.4036461
51
320.0168133
0
ARC
8
DEFAULT_255_1_388
10
23.8973974
20
60.9928072
40
0.3383378
50
270.2631886
51
297.3852322
0
ARC
8
DEFAULT_255_1_388
10
23.893565
20
61.0465343
40
0.3920983
50
269.9969069
51
270.7871389
0
ARC
8
DEFAULT_255_1_388
10
23.8906973
20
61.0447737
40
0.3903482
50
254.5997295
51
270.4178147
0
ARC
8
DEFAULT_255_1_388
10
23.8746505
20
60.9812693
40
0.3248657
50
236.4717231
51
254.3539376
0
ARC
8
DEFAULT_255_1_388
10
23.8922236
20
61.0048999
40
0.3542746
50
208.4727261
51
236.2134628
0
ARC
8
DEFAULT_255_1_388
10
23.9641
20
61.0488676
40
0.4384402
50
204.3450776
51
209.0455365
0
ARC
8
DEFAULT_255_1_388
10
24.0405376
20
61.08128
40
0.5214459
50
183.9375459
51
204.1275509
0
ARC
8
DEFAULT_255_1_388
10
24.1427682
20
61.0922863
40
0.6242037
50
179.9652726
51
184.3010611
0
ARC
8
DEFAULT_255_1_388
10
24.1157227
20
61.0960004
40
0.5971675
50
166.7585952
51
180.3200491
0
ARC
8
DEFAULT_255_1_388
10
24.0205035
20
61.1166979
40
0.4997418
50
154.6954866
51
166.5679151
0
ARC
8
DEFAULT_255_1_388
10
23.9245276
20
61.1650411
40
0.3923208
50
136.3325251
51
155.0871367
0
ARC
8
DEFAULT_255_1_388
10
23.8929195
20
61.1921271
40
0.3507618
50
121.2365985
51
135.9680081
0
ARC
8
DEFAULT_255_1_388
10
23.9087259
20
61.1628541
40
0.3839917
50
96.8454764
51
120.9881329
0
ARC
8
DEFAULT_255_1_388
10
23.9251066
20
61.0575942
40
0.4904679
50
89.887204
51
97.2797758
0
ARC
8
DEFAULT_255_1_388
10
23.9310038
20
61.1293652
40
0.418725
50
70.6505767
51
90.6748382
0
ARC
8
DEFAULT_255_1_388
10
23.9457735
20
61.1871091
40
0.3593866
50
36.7493297
51
69.8220487
0
ARC
8
DEFAULT_255_1_388
10
23.8334082
20
61.0995446
40
0.5018201
50
15.3958155
51
37.0841102
0
ARC
8
DEFAULT_255_1_388
10
23.5938367
20
61.0297111
40
0.7513436
50
3.9487796
51
15.6798517
0
ARC
8
DEFAULT_255_1_388
10
23.3237009
20
61.005381
40
1.0225293
50
359.9290791
51
4.266464
0
ARC
8
DEFAULT_255_1_388
10
22.8055926
20
60.9478372
40
1.5406551
50
352.8365702
51
0.2783851
0
ARC
8
DEFAULT_255_1_388
10
23.4004157
20
60.8705664
40
0.9408425
50
341.8359339
51
352.9884057
0
ARC
8
DEFAULT_255_1_388
10
23.7625144
20
60.7485144
40
0.5587481
50
322.8579243
51
342.1527461
0
ARC
8
DEFAULT_255_1_388
10
23.8596836
20
60.682235
40
0.4413099
50
319.3348471
51
322.100194
0
ARC
8
DEFAULT_255_1_388
10
23.8248768
20
60.7171814
40
0.4904992
50
285.954114
51
318.8878716
0
ARC
8
DEFAULT_255_1_388
10
23.7431205
20
60.9770865
40
0.7628991
50
272.9280841
51
286.4924389
0
ARC
8
DEFAULT_255_1_388
10
23.7217509
20
61.230524
40
1.017132
50
270.8209173
51
273.4010121
0
ARC
8
DEFAULT_255_1_388
10
23.7317532
20
61.0257073
40
0.6712943
50
270.6214576
51
281.4062333
0
ARC
8
DEFAULT_255_1_388
10
23.7801257
20
60.794425
40
0.4350167
50
281.1852583
51
299.0622058
0
ARC
8
DEFAULT_255_1_388
10
23.8221502
20
60.7133138
40
0.3437146
50
299.5068171
51
313.1200142
0
ARC
8
DEFAULT_255_1_388
10
23.8246239
20
60.7043959
40
0.3355418
50
313.8525725
51
338.5989631
0
ARC
8
DEFAULT_255_1_388
10
23.6419367
20
60.7794576
40
0.5330317
50
338.2523315
51
351.2431701
0
ARC
8
DEFAULT_255_1_388
10
23.3707118
20
60.8255494
40
0.8081235
50
350.940933
51
357.6690137
0
ARC
8
DEFAULT_255_1_388
10
23.9208998
20
61.0508048
40
0.2581236
50
269.9447107
51
306.8249644
0
ARC
8
DEFAULT_255_1_388
10
23.89423
20
61.098406
40
0.3122948
50
305.5071046
51
327.0773808
0
ARC
8
DEFAULT_255_1_388
10
23.9075352
20
61.0877445
40
0.2953369
50
327.4106457
51
336.8396801
0
ARC
8
DEFAULT_255_1_388
10
23.5595066
20
61.0420932
40
0.6195743
50
359.663158
51
10.1176387
0
ARC
8
DEFAULT_255_1_388
10
23.7567828
20
61.0785922
40
0.4189561
50
9.9431549
51
26.7699242
0
ARC
8
DEFAULT_255_1_388
10
23.8239814
20
61.1095796
40
0.3450125
50
27.2018067
51
34.6833639
0
ARC
8
DEFAULT_255_1_388
10
23.8790427
20
61.150956
40
0.2762035
50
34.124913
51
50.30709
0
ARC
8
DEFAULT_255_1_388
10
23.929291
20
61.2110741
40
0.1978518
50
50.3850304
51
90.6705051
0
ARC
8
DEFAULT_255_1_388
10
23.9240304
20
61.1768074
40
0.2321235
50
89.2729817
51
111.9140267
0
ARC
8
DEFAULT_255_1_388
10
23.9218391
20
61.1926308
40
0.2166604
50
112.9381864
51
142.5320936
0
ARC
8
DEFAULT_255_1_388
10
23.983288
20
61.1427392
40
0.2957902
50
142.1024021
51
166.3835244
0
ARC
8
DEFAULT_255_1_388
10
24.116185
20
61.1084213
40
0.4330361
50
166.1100968
51
178.6653563
0
ARC
8
DEFAULT_255_1_388
10
24.2343776
20
61.1018061
40
0.5513642
50
178.2641888
51
180.010994
0
ARC
8
DEFAULT_255_1_388
10
24.1438277
20
61.0986136
40
0.4608248
50
179.6162225
51
191.8786013
0
ARC
8
DEFAULT_255_1_388
10
24.0065587
20
61.068259
40
0.3202502
50
191.6192934
51
215.2970746
0
ARC
8
DEFAULT_255_1_388
10
23.9826243
20
61.0539963
40
0.2924827
50
215.7258926
51
216.5355437
0
ARC
8
DEFAULT_255_1_388
10
23.9237863
20
61.0066919
40
0.2170661
50
215.7486606
51
239.9728403
0
ARC
8
DEFAULT_255_1_388
10
23.9159028
20
61.0009838
40
0.208217
50
241.065081
51
269.280972
0
ARC
8
DEFAULT_255_1_388
10
23.9206187
20
61.0565327
40
0.2638514
50
268.4083352
51
270.0069622
0
LINE
8
DEFAULT_255_1_388
10
21.0165946
20
68.8503553
11
21.0165946
21
68.7672274
0
LINE
8
DEFAULT_255_1_388
10
19.9585206
20
68.7554811
11
19.9585206
21
68.8503553
0
LINE
8
DEFAULT_255_1_388
10
20.8440138
20
68.7545775
11
20.8440138
21
68.8521625
0
LINE
8
DEFAULT_255_1_388
10
20.1311014
20
68.8639088
11
20.1311014
21
68.7672274
0
ARC
8
DEFAULT_255_1_388
10
20.0443684
20
68.7627726
40
0.9722364
50
350.4878118
51
0.2625322
0
ARC
8
DEFAULT_255_1_388
10
20.3023644
20
68.7183994
40
0.7104556
50
336.0277991
51
350.5787241
0
ARC
8
DEFAULT_255_1_388
10
20.4536751
20
68.6500243
40
0.544417
50
319.887443
51
336.1331163
0
ARC
8
DEFAULT_255_1_388
10
20.5214563
20
68.5957733
40
0.4576311
50
302.4806296
51
319.6144102
0
ARC
8
DEFAULT_255_1_388
10
20.5085184
20
68.6207067
40
0.4856183
50
275.8196423
51
302.1885521
0
ARC
8
DEFAULT_255_1_388
10
20.4898046
20
68.7492466
40
0.6154183
50
269.9169897
51
276.339506
0
ARC
8
DEFAULT_255_1_388
10
20.4847646
20
68.672068
40
0.5382553
50
252.5221437
51
270.441579
0
ARC
8
DEFAULT_255_1_388
10
20.4685897
20
68.6114046
40
0.4755426
50
237.5349961
51
252.1858334
0
ARC
8
DEFAULT_255_1_388
10
20.4786273
20
68.624212
40
0.4917393
50
209.0632754
51
237.3492577
0
ARC
8
DEFAULT_255_1_388
10
20.5765599
20
68.6857104
40
0.6072464
50
205.118533
51
209.6465345
0
ARC
8
DEFAULT_255_1_388
10
20.6661601
20
68.7237174
40
0.7045164
50
188.7216633
51
204.8239753
0
ARC
8
DEFAULT_255_1_388
10
20.8908376
20
68.7615387
40
0.9323368
50
180.3722704
51
188.9253909
0
ARC
8
DEFAULT_255_1_388
10
20.8877938
20
68.8548416
40
0.929284
50
169.5253055
51
180.2766048
0
ARC
8
DEFAULT_255_1_388
10
20.6737737
20
68.8942024
40
0.7116745
50
155.8314601
51
169.5088611
0
ARC
8
DEFAULT_255_1_388
10
20.52972
20
68.9610312
40
0.5528904
50
139.6259579
51
156.0379072
0
ARC
8
DEFAULT_255_1_388
10
20.4633733
20
69.0144143
40
0.4677708
50
122.6414784
51
139.3431662
0
ARC
8
DEFAULT_255_1_388
10
20.4746988
20
68.9937787
40
0.4912586
50
93.0224537
51
122.4556091
0
ARC
8
DEFAULT_255_1_388
10
20.4868509
20
68.8851776
40
0.6003837
50
89.9756766
51
93.6340839
0
ARC
8
DEFAULT_255_1_388
10
20.4912107
20
68.9300879
40
0.5554884
50
73.7463329
51
90.4234008
0
ARC
8
DEFAULT_255_1_388
10
20.510958
20
69.0065772
40
0.4765353
50
57.663051
51
73.4516911
0
ARC
8
DEFAULT_255_1_388
10
20.5100618
20
69.0090108
40
0.4749629
50
29.1441355
51
57.4146687
0
ARC
8
DEFAULT_255_1_388
10
20.4048429
20
68.9433046
40
0.5988917
50
24.0985653
51
29.732054
0
ARC
8
DEFAULT_255_1_388
10
20.2886061
20
68.8951154
40
0.7246823
50
8.6654943
51
23.8241215
0
ARC
8
DEFAULT_255_1_388
10
20.0372479
20
68.8541037
40
0.9793537
50
359.7807044
51
8.8218476
0
ARC
8
DEFAULT_255_1_388
10
19.9082184
20
68.8569731
40
0.9358078
50
359.7054632
51
8.0359751
0
ARC
8
DEFAULT_255_1_388
10
20.2457235
20
68.9061252
40
0.5947474
50
7.8926278
51
20.2962188
0
ARC
8
DEFAULT_255_1_388
10
20.4288085
20
68.9736367
40
0.3996117
50
20.3231056
51
36.4990255
0
ARC
8
DEFAULT_255_1_388
10
20.5059383
20
69.0330399
40
0.3022818
50
36.1436715
51
85.6627846
0
ARC
8
DEFAULT_255_1_388
10
20.4876638
20
68.9160881
40
0.4203853
50
84.3845912
51
90.076054
0
ARC
8
DEFAULT_255_1_388
10
20.4828993
20
68.9903416
40
0.346157
50
89.3037228
51
109.9046209
0
ARC
8
DEFAULT_255_1_388
10
20.4724826
20
69.0333379
40
0.3022217
50
110.8229774
51
143.917961
0
ARC
8
DEFAULT_255_1_388
10
20.5775185
20
68.9531455
40
0.434348
50
143.5289166
51
163.2980252
0
ARC
8
DEFAULT_255_1_388
10
20.7921472
20
68.8856685
40
0.659321
50
163.0418884
51
174.3139873
0
ARC
8
DEFAULT_255_1_388
10
21.0626437
20
68.8544378
40
0.9315905
50
174.050934
51
179.4174954
0
ARC
8
DEFAULT_255_1_388
10
21.0058381
20
68.7625382
40
0.8747493
50
179.6928582
51
188.7908948
0
ARC
8
DEFAULT_255_1_388
10
20.7062181
20
68.7146086
40
0.5713262
50
188.6328449
51
202.5630732
0
ARC
8
DEFAULT_255_1_388
10
20.5651018
20
68.6579142
40
0.4192612
50
202.8078931
51
216.1195888
0
ARC
8
DEFAULT_255_1_388
10
20.4740535
20
68.5846479
40
0.3025752
50
215.0755613
51
264.6379773
0
ARC
8
DEFAULT_255_1_388
10
20.4883372
20
68.6781376
40
0.3970284
50
263.8464302
51
270.0830805
0
ARC
8
DEFAULT_255_1_388
10
20.4929917
20
68.6490808
40
0.3679937
50
269.3649295
51
287.5149684
0
ARC
8
DEFAULT_255_1_388
10
20.5130358
20
68.5762714
40
0.2925408
50
288.0629019
51
323.8115617
0
ARC
8
DEFAULT_255_1_388
10
20.4150334
20
68.6493754
40
0.4148018
50
323.6546541
51
342.6591359
0
ARC
8
DEFAULT_255_1_388
10
20.1864992
20
68.723728
40
0.6551163
50
342.4092446
51
353.6451501
0
ARC
8
DEFAULT_255_1_388
10
19.8679785
20
68.7633565
40
0.9760748
50
353.4027553
51
359.4846611
0
LINE
8
DEFAULT_255_1_388
10
22.0285868
20
69.4674898
11
22.2029747
21
69.4674898
0
LINE
8
DEFAULT_255_1_388
10
22.2029747
20
69.4674898
11
22.2029747
21
68.572961
0
LINE
8
DEFAULT_255_1_388
10
21.7710709
20
68.1356358
11
21.7249891
21
68.1338287
0
LINE
8
DEFAULT_255_1_388
10
21.2506178
20
68.5711539
11
21.2506178
21
69.4674898
0
LINE
8
DEFAULT_255_1_388
10
21.2506178
20
69.4674898
11
21.422295
21
69.4674898
0
LINE
8
DEFAULT_255_1_388
10
21.422295
20
69.4674898
11
21.422295
21
68.5765753
0
LINE
8
DEFAULT_255_1_388
10
22.0285868
20
68.5756717
11
22.0285868
21
69.4674898
0
ARC
8
DEFAULT_255_1_388
10
21.7132546
20
68.570727
40
0.4897252
50
343.0897723
51
0.2613727
0
ARC
8
DEFAULT_255_1_388
10
21.8064517
20
68.544727
40
0.3930016
50
315.3344451
51
342.7642569
0
ARC
8
DEFAULT_255_1_388
10
21.7813012
20
68.5708085
40
0.4292244
50
284.6605441
51
315.2183439
0
ARC
8
DEFAULT_255_1_388
10
21.7300792
20
68.7447508
40
0.6104926
50
273.8500371
51
285.1796441
0
ARC
8
DEFAULT_255_1_388
10
21.7201857
20
68.7831762
40
0.6493653
50
257.6315393
51
270.4238259
0
ARC
8
DEFAULT_255_1_388
10
21.672394
20
68.5782915
40
0.4390079
50
230.6086859
51
257.9965362
0
ARC
8
DEFAULT_255_1_388
10
21.6577998
20
68.5553643
40
0.4120404
50
227.745033
51
230.1538266
0
ARC
8
DEFAULT_255_1_388
10
21.6424528
20
68.5369253
40
0.3880742
50
189.2524335
51
227.5915299
0
ARC
8
DEFAULT_255_1_388
10
21.8136399
20
68.5737735
40
0.5630282
50
180.2665782
51
190.1525221
0
ARC
8
DEFAULT_255_1_388
10
21.8386127
20
68.5734254
40
0.4163296
50
179.566507
51
191.9954402
0
ARC
8
DEFAULT_255_1_388
10
21.7004816
20
68.5426151
40
0.274815
50
191.6974619
51
215.1403758
0
ARC
8
DEFAULT_255_1_388
10
21.6737208
20
68.5266689
40
0.2437647
50
215.6958251
51
224.8509274
0
ARC
8
DEFAULT_255_1_388
10
21.6799684
20
68.5356016
40
0.2545012
50
225.2846515
51
255.0110023
0
ARC
8
DEFAULT_255_1_388
10
21.716413
20
68.6609017
40
0.384974
50
254.5945979
51
267.9129427
0
ARC
8
DEFAULT_255_1_388
10
21.7247823
20
68.7826444
40
0.506956
50
267.4687563
51
270.0233681
0
ARC
8
DEFAULT_255_1_388
10
21.7281819
20
68.7166288
40
0.440952
50
269.5851384
51
281.1845308
0
ARC
8
DEFAULT_255_1_388
10
21.7595423
20
68.5644469
40
0.2855802
50
280.9345159
51
300.9740496
0
ARC
8
DEFAULT_255_1_388
10
21.7834603
20
68.5204128
40
0.2355257
50
301.4982546
51
315.1468616
0
ARC
8
DEFAULT_255_1_388
10
21.7672099
20
68.5337488
40
0.2564594
50
315.5952932
51
345.6679188
0
ARC
8
DEFAULT_255_1_388
10
21.6412656
20
68.5688235
40
0.3871766
50
345.2525685
51
358.6303941
0
ARC
8
DEFAULT_255_1_388
10
21.5269047
20
68.5755695
40
0.5016822
50
358.1723541
51
0.0116795
0
LINE
8
DEFAULT_255_1_388
10
23.3857406
20
69.4674898
11
23.3857406
21
69.3247267
0
LINE
8
DEFAULT_255_1_388
10
23.3857406
20
69.3247267
11
22.9628724
21
69.3247267
0
LINE
8
DEFAULT_255_1_388
10
22.9628724
20
69.3247267
11
22.9628724
21
68.1519
0
LINE
8
DEFAULT_255_1_388
10
22.9628724
20
68.1519
11
22.7902916
21
68.1519
0
LINE
8
DEFAULT_255_1_388
10
22.7902916
20
68.1519
11
22.7902916
21
69.3247267
0
LINE
8
DEFAULT_255_1_388
10
22.7902916
20
69.3247267
11
22.368327
21
69.3247267
0
LINE
8
DEFAULT_255_1_388
10
22.368327
20
69.3247267
11
22.368327
21
69.4674898
0
LINE
8
DEFAULT_255_1_388
10
22.368327
20
69.4674898
11
23.3857406
21
69.4674898
0
ARC
8
DEFAULT_255_1_388
10
24.0178899
20
69.121272
40
0.3175098
50
338.8762533
51
0.5167111
0
ARC
8
DEFAULT_255_1_388
10
24.0368493
20
69.11616
40
0.2979894
50
325.8415285
51
338.4793574
0
ARC
8
DEFAULT_255_1_388
10
23.9929127
20
69.1466242
40
0.351452
50
296.7587686
51
325.7536481
0
ARC
8
DEFAULT_255_1_388
10
23.9600755
20
69.2020363
40
0.4157374
50
296.0927901
51
297.3613472
0
ARC
8
DEFAULT_255_1_388
10
23.989495
20
68.4637593
40
0.395855
50
47.9007294
51
67.1948823
0
ARC
8
DEFAULT_255_1_388
10
24.0115592
20
68.4914599
40
0.360516
50
35.2363914
51
47.551141
0
ARC
8
DEFAULT_255_1_388
10
24.0409996
20
68.5111093
40
0.3251343
50
359.2759765
51
35.4014143
0
ARC
8
DEFAULT_255_1_388
10
23.9571922
20
68.5028787
40
0.4089365
50
343.1293083
51
0.5775513
0
ARC
8
DEFAULT_255_1_388
10
24.0387036
20
68.4804336
40
0.3244269
50
310.8496669
51
342.7449331
0
ARC
8
DEFAULT_255_1_388
10
23.991691
20
68.5340913
40
0.3957651
50
281.5472888
51
310.9170406
0
ARC
8
DEFAULT_255_1_388
10
23.9515785
20
68.7087814
40
0.5749654
50
269.619248
51
281.9789564
0
ARC
8
DEFAULT_255_1_388
10
23.9434563
20
68.7088776
40
0.5750649
50
257.4585678
51
270.4285689
0
ARC
8
DEFAULT_255_1_388
10
23.9006083
20
68.5284741
40
0.389671
50
228.7554326
51
257.8484789
0
ARC
8
DEFAULT_255_1_388
10
23.8657568
20
68.4865228
40
0.335154
50
184.0104975
51
228.5071184
0
ARC
8
DEFAULT_255_1_388
10
23.9965961
20
68.506443
40
0.4671891
50
179.9315832
51
185.3253753
0
ARC
8
DEFAULT_255_1_388
10
23.8642473
20
68.5106592
40
0.33486
50
145.6796023
51
180.6259786
0
ARC
8
DEFAULT_255_1_388
10
23.8826239
20
68.4978271
40
0.3572723
50
115.5537685
51
145.6415986
0
ARC
8
DEFAULT_255_1_388
10
23.9209283
20
68.4292087
40
0.4357296
50
113.243307
51
116.2057839
0
ARC
8
DEFAULT_255_1_388
10
23.9037935
20
69.1489379
40
0.3549126
50
222.9549744
51
244.1370481
0
ARC
8
DEFAULT_255_1_388
10
23.8900578
20
69.1335378
40
0.3343711
50
213.3436887
51
222.6274467
0
ARC
8
DEFAULT_255_1_388
10
23.8684647
20
69.1188653
40
0.3082678
50
180.431584
51
213.271499
0
ARC
8
DEFAULT_255_1_388
10
23.9319646
20
69.1241296
40
0.3718363
50
179.9991191
51
181.1690594
0
ARC
8
DEFAULT_255_1_388
10
23.9792102
20
69.1280072
40
0.4190996
50
164.6186169
51
180.529336
0
ARC
8
DEFAULT_255_1_388
10
23.8781751
20
69.155178
40
0.3144772
50
132.2455553
51
164.5090724
0
ARC
8
DEFAULT_255_1_388
10
23.910473
20
69.118607
40
0.3632644
50
100.7053914
51
132.1386381
0
ARC
8
DEFAULT_255_1_388
10
23.9447791
20
68.9636118
40
0.5219578
50
89.6730358
51
101.2451698
0
ARC
8
DEFAULT_255_1_388
10
23.9517782
20
68.9832648
40
0.5023124
50
76.287748
51
90.4586006
0
ARC
8
DEFAULT_255_1_388
10
23.9862284
20
69.1207671
40
0.3605639
50
47.8240511
51
76.4266241
0
ARC
8
DEFAULT_255_1_388
10
24.0112668
20
69.1500599
40
0.3220463
50
6.9168387
51
47.6262497
0
ARC
8
DEFAULT_255_1_388
10
23.8778121
20
69.1254004
40
0.4575765
50
359.8415968
51
7.9697453
0
ARC
8
DEFAULT_255_1_388
10
23.9162391
20
68.5133519
40
0.2827228
50
359.445363
51
16.9256873
0
ARC
8
DEFAULT_255_1_388
10
23.9689825
20
68.5278781
40
0.2280396
50
17.2920767
51
45.4630727
0
ARC
8
DEFAULT_255_1_388
10
23.962896
20
68.5226324
40
0.2360485
50
45.30305
51
83.1920945
0
ARC
8
DEFAULT_255_1_388
10
23.9467705
20
68.4324473
40
0.3275527
50
82.2612665
51
90.1434275
0
ARC
8
DEFAULT_255_1_388
10
23.9432981
20
68.4586869
40
0.3013237
50
89.4956434
51
104.8580688
0
ARC
8
DEFAULT_255_1_388
10
23.9234171
20
68.5340455
40
0.2233867
50
104.8856641
51
135.244616
0
ARC
8
DEFAULT_255_1_388
10
23.929016
20
68.5290352
40
0.2308906
50
135.3399546
51
172.1044062
0
ARC
8
DEFAULT_255_1_388
10
24.0197685
20
68.5116667
40
0.3232034
50
171.2645637
51
180.186429
0
ARC
8
DEFAULT_255_1_388
10
24.0007689
20
68.5080426
40
0.304213
50
179.5154935
51
193.6464289
0
ARC
8
DEFAULT_255_1_388
10
23.9089365
20
68.4846473
40
0.209456
50
193.3540274
51
225.8258581
0
ARC
8
DEFAULT_255_1_388
10
23.9135237
20
68.4926076
40
0.2183738
50
226.4180634
51
255.8552336
0
ARC
8
DEFAULT_255_1_388
10
23.9423704
20
68.5979521
40
0.3275812
50
255.4654104
51
268.7987425
0
ARC
8
DEFAULT_255_1_388
10
23.947688
20
68.6921545
40
0.4218877
50
268.3449238
51
270.0094605
0
ARC
8
DEFAULT_255_1_388
10
23.9503113
20
68.6153094
40
0.3450519
50
269.5759586
51
282.0820163
0
ARC
8
DEFAULT_255_1_388
10
23.975615
20
68.5034363
40
0.2303642
50
281.752014
51
306.6056188
0
ARC
8
DEFAULT_255_1_388
10
23.9866958
20
68.4852802
40
0.2091906
50
307.1346085
51
314.027845
0
ARC
8
DEFAULT_255_1_388
10
23.982647
20
68.4882459
40
0.2141385
50
314.2552483
51
350.1694025
0
ARC
8
DEFAULT_255_1_388
10
23.8868707
20
68.5090175
40
0.312082
50
349.4140529
51
0.2933014
0
ARC
8
DEFAULT_255_1_388
10
23.9453984
20
69.0893924
40
0.2588377
50
89.477747
51
105.729729
0
ARC
8
DEFAULT_255_1_388
10
23.9300904
20
69.1462367
40
0.1999733
50
105.9233417
51
135.1660906
0
ARC
8
DEFAULT_255_1_388
10
23.9323935
20
69.1446412
40
0.2027322
50
135.3052302
51
168.9883645
0
ARC
8
DEFAULT_255_1_388
10
24.0254951
20
69.1232996
40
0.2982129
50
168.3801673
51
180.3602268
0
ARC
8
DEFAULT_255_1_388
10
23.9998068
20
69.1190622
40
0.2725291
50
179.5033122
51
194.9125571
0
ARC
8
DEFAULT_255_1_388
10
23.9339475
20
69.1017427
40
0.204431
50
194.9720816
51
224.194444
0
ARC
8
DEFAULT_255_1_388
10
23.930784
20
69.0991635
40
0.2003651
50
224.2962453
51
262.015664
0
ARC
8
DEFAULT_255_1_388
10
23.9467844
20
69.1814315
40
0.2840925
50
261.1245923
51
270.1962896
0
ARC
8
DEFAULT_255_1_388
10
23.9501325
20
69.1603859
40
0.2630559
50
269.4827276
51
285.0987215
0
ARC
8
DEFAULT_255_1_388
10
23.9674762
20
69.0953175
40
0.1957162
50
285.1585357
51
315.9484501
0
ARC
8
DEFAULT_255_1_388
10
23.9574635
20
69.1045315
40
0.2093195
50
316.0413965
51
351.916092
0
ARC
8
DEFAULT_255_1_388
10
23.8750009
20
69.1204323
40
0.2932279
50
351.105835
51
0.1939062
0
ARC
8
DEFAULT_255_1_388
10
23.9045644
20
69.1238224
40
0.2636739
50
359.4789618
51
16.0678224
0
ARC
8
DEFAULT_255_1_388
10
23.9581115
20
69.1382721
40
0.2082215
50
16.3252067
51
44.7913869
0
ARC
8
DEFAULT_255_1_388
10
23.9561177
20
69.138332
40
0.2095992
50
44.3957814
51
88.2499162
0
ARC
8
DEFAULT_255_1_388
10
23.9478512
20
69.0695006
40
0.2787189
50
86.9833854
51
90.0192215
0
LINE
8
DEFAULT_255_1_388
10
21.0165946
20
76.7878553
11
21.0165946
21
76.7047274
0
LINE
8
DEFAULT_255_1_388
10
19.9585206
20
76.6929811
11
19.9585206
21
76.7878553
0
LINE
8
DEFAULT_255_1_388
10
20.8440138
20
76.6920775
11
20.8440138
21
76.7896625
0
LINE
8
DEFAULT_255_1_388
10
20.1311014
20
76.8014088
11
20.1311014
21
76.7047274
0
ARC
8
DEFAULT_255_1_388
10
20.0443684
20
76.7002726
40
0.9722364
50
350.4878118
51
0.2625322
0
ARC
8
DEFAULT_255_1_388
10
20.3023644
20
76.6558994
40
0.7104556
50
336.0277991
51
350.5787241
0
ARC
8
DEFAULT_255_1_388
10
20.4536751
20
76.5875243
40
0.544417
50
319.887443
51
336.1331163
0
ARC
8
DEFAULT_255_1_388
10
20.5214563
20
76.5332733
40
0.4576311
50
302.4806296
51
319.6144102
0
ARC
8
DEFAULT_255_1_388
10
20.5085184
20
76.5582067
40
0.4856183
50
275.8196423
51
302.1885521
0
ARC
8
DEFAULT_255_1_388
10
20.4898046
20
76.6867466
40
0.6154183
50
269.9169897
51
276.339506
0
ARC
8
DEFAULT_255_1_388
10
20.4847646
20
76.609568
40
0.5382553
50
252.5221437
51
270.441579
0
ARC
8
DEFAULT_255_1_388
10
20.4685897
20
76.5489046
40
0.4755426
50
237.5349961
51
252.1858334
0
ARC
8
DEFAULT_255_1_388
10
20.4786273
20
76.561712
40
0.4917393
50
209.0632754
51
237.3492577
0
ARC
8
DEFAULT_255_1_388
10
20.5765599
20
76.6232104
40
0.6072464
50
205.118533
51
209.6465345
0
ARC
8
DEFAULT_255_1_388
10
20.6661601
20
76.6612174
40
0.7045164
50
188.7216633
51
204.8239753
0
ARC
8
DEFAULT_255_1_388
10
20.8908376
20
76.6990387
40
0.9323368
50
180.3722704
51
188.9253909
0
ARC
8
DEFAULT_255_1_388
10
20.8877938
20
76.7923416
40
0.929284
50
169.5253055
51
180.2766048
0
ARC
8
DEFAULT_255_1_388
10
20.6737737
20
76.8317024
40
0.7116745
50
155.8314601
51
169.5088611
0
ARC
8
DEFAULT_255_1_388
10
20.52972
20
76.8985312
40
0.5528904
50
139.6259579
51
156.0379072
0
ARC
8
DEFAULT_255_1_388
10
20.4633733
20
76.9519143
40
0.4677708
50
122.6414784
51
139.3431662
0
ARC
8
DEFAULT_255_1_388
10
20.4746988
20
76.9312787
40
0.4912586
50
93.0224537
51
122.4556091
0
ARC
8
DEFAULT_255_1_388
10
20.4868509
20
76.8226776
40
0.6003837
50
89.9756766
51
93.6340839
0
ARC
8
DEFAULT_255_1_388
10
20.4912107
20
76.8675879
40
0.5554884
50
73.7463329
51
90.4234008
0
ARC
8
DEFAULT_255_1_388
10
20.510958
20
76.9440772
40
0.4765353
50
57.663051
51
73.4516911
0
ARC
8
DEFAULT_255_1_388
10
20.5100618
20
76.9465108
40
0.4749629
50
29.1441355
51
57.4146687
0
ARC
8
DEFAULT_255_1_388
10
20.4048429
20
76.8808046
40
0.5988917
50
24.0985653
51
29.732054
0
ARC
8
DEFAULT_255_1_388
10
20.2886061
20
76.8326154
40
0.7246823
50
8.6654943
51
23.8241215
0
ARC
8
DEFAULT_255_1_388
10
20.0372479
20
76.7916037
40
0.9793537
50
359.7807044
51
8.8218476
0
ARC
8
DEFAULT_255_1_388
10
19.9082184
20
76.7944731
40
0.9358078
50
359.7054632
51
8.0359751
0
ARC
8
DEFAULT_255_1_388
10
20.2457235
20
76.8436252
40
0.5947474
50
7.8926278
51
20.2962188
0
ARC
8
DEFAULT_255_1_388
10
20.4288085
20
76.9111367
40
0.3996117
50
20.3231056
51
36.4990255
0
ARC
8
DEFAULT_255_1_388
10
20.5059383
20
76.9705399
40
0.3022818
50
36.1436715
51
85.6627846
0
ARC
8
DEFAULT_255_1_388
10
20.4876638
20
76.8535881
40
0.4203853
50
84.3845912
51
90.076054
0
ARC
8
DEFAULT_255_1_388
10
20.4828993
20
76.9278416
40
0.346157
50
89.3037228
51
109.9046209
0
ARC
8
DEFAULT_255_1_388
10
20.4724826
20
76.9708379
40
0.3022217
50
110.8229774
51
143.917961
0
ARC
8
DEFAULT_255_1_388
10
20.5775185
20
76.8906455
40
0.434348
50
143.5289166
51
163.2980252
0
ARC
8
DEFAULT_255_1_388
10
20.7921472
20
76.8231685
40
0.659321
50
163.0418884
51
174.3139873
0
ARC
8
DEFAULT_255_1_388
10
21.0626437
20
76.7919378
40
0.9315905
50
174.050934
51
179.4174954
0
ARC
8
DEFAULT_255_1_388
10
21.0058381
20
76.7000382
40
0.8747493
50
179.6928582
51
188.7908948
0
ARC
8
DEFAULT_255_1_388
10
20.7062181
20
76.6521086
40
0.5713262
50
188.6328449
51
202.5630732
0
ARC
8
DEFAULT_255_1_388
10
20.5651018
20
76.5954142
40
0.4192612
50
202.8078931
51
216.1195888
0
ARC
8
DEFAULT_255_1_388
10
20.4740535
20
76.5221479
40
0.3025752
50
215.0755613
51
264.6379773
0
ARC
8
DEFAULT_255_1_388
10
20.4883372
20
76.6156376
40
0.3970284
50
263.8464302
51
270.0830805
0
ARC
8
DEFAULT_255_1_388
10
20.4929917
20
76.5865808
40
0.3679937
50
269.3649295
51
287.5149684
0
ARC
8
DEFAULT_255_1_388
10
20.5130358
20
76.5137714
40
0.2925408
50
288.0629019
51
323.8115617
0
ARC
8
DEFAULT_255_1_388
10
20.4150334
20
76.5868754
40
0.4148018
50
323.6546541
51
342.6591359
0
ARC
8
DEFAULT_255_1_388
10
20.1864992
20
76.661228
40
0.6551163
50
342.4092446
51
353.6451501
0
ARC
8
DEFAULT_255_1_388
10
19.8679785
20
76.7008565
40
0.9760748
50
353.4027553
51
359.4846611
0
LINE
8
DEFAULT_255_1_388
10
22.0285868
20
77.4049898
11
22.2029747
21
77.4049898
0
LINE
8
DEFAULT_255_1_388
10
22.2029747
20
77.4049898
11
22.2029747
21
76.510461
0
LINE
8
DEFAULT_255_1_388
10
21.7710709
20
76.0731358
11
21.7249891
21
76.0713287
0
LINE
8
DEFAULT_255_1_388
10
21.2506178
20
76.5086539
11
21.2506178
21
77.4049898
0
LINE
8
DEFAULT_255_1_388
10
21.2506178
20
77.4049898
11
21.422295
21
77.4049898
0
LINE
8
DEFAULT_255_1_388
10
21.422295
20
77.4049898
11
21.422295
21
76.5140753
0
LINE
8
DEFAULT_255_1_388
10
22.0285868
20
76.5131717
11
22.0285868
21
77.4049898
0
ARC
8
DEFAULT_255_1_388
10
21.7132546
20
76.508227
40
0.4897252
50
343.0897723
51
0.2613727
0
ARC
8
DEFAULT_255_1_388
10
21.8064517
20
76.482227
40
0.3930016
50
315.3344451
51
342.7642569
0
ARC
8
DEFAULT_255_1_388
10
21.7813012
20
76.5083085
40
0.4292244
50
284.6605441
51
315.2183439
0
ARC
8
DEFAULT_255_1_388
10
21.7300792
20
76.6822508
40
0.6104926
50
273.8500371
51
285.1796441
0
ARC
8
DEFAULT_255_1_388
10
21.7201857
20
76.7206762
40
0.6493653
50
257.6315393
51
270.4238259
0
ARC
8
DEFAULT_255_1_388
10
21.672394
20
76.5157915
40
0.4390079
50
230.6086859
51
257.9965362
0
ARC
8
DEFAULT_255_1_388
10
21.6577998
20
76.4928643
40
0.4120404
50
227.745033
51
230.1538266
0
ARC
8
DEFAULT_255_1_388
10
21.6424528
20
76.4744253
40
0.3880742
50
189.2524335
51
227.5915299
0
ARC
8
DEFAULT_255_1_388
10
21.8136399
20
76.5112735
40
0.5630282
50
180.2665782
51
190.1525221
0
ARC
8
DEFAULT_255_1_388
10
21.8386127
20
76.5109254
40
0.4163296
50
179.566507
51
191.9954402
0
ARC
8
DEFAULT_255_1_388
10
21.7004816
20
76.4801151
40
0.274815
50
191.6974619
51
215.1403758
0
ARC
8
DEFAULT_255_1_388
10
21.6737208
20
76.4641689
40
0.2437647
50
215.6958251
51
224.8509274
0
ARC
8
DEFAULT_255_1_388
10
21.6799684
20
76.4731016
40
0.2545012
50
225.2846515
51
255.0110023
0
ARC
8
DEFAULT_255_1_388
10
21.716413
20
76.5984017
40
0.384974
50
254.5945979
51
267.9129427
0
ARC
8
DEFAULT_255_1_388
10
21.7247823
20
76.7201444
40
0.506956
50
267.4687563
51
270.0233681
0
ARC
8
DEFAULT_255_1_388
10
21.7281819
20
76.6541288
40
0.440952
50
269.5851384
51
281.1845308
0
ARC
8
DEFAULT_255_1_388
10
21.7595423
20
76.5019469
40
0.2855802
50
280.9345159
51
300.9740496
0
ARC
8
DEFAULT_255_1_388
10
21.7834603
20
76.4579128
40
0.2355257
50
301.4982546
51
315.1468616
0
ARC
8
DEFAULT_255_1_388
10
21.7672099
20
76.4712488
40
0.2564594
50
315.5952932
51
345.6679188
0
ARC
8
DEFAULT_255_1_388
10
21.6412656
20
76.5063235
40
0.3871766
50
345.2525685
51
358.6303941
0
ARC
8
DEFAULT_255_1_388
10
21.5269047
20
76.5130695
40
0.5016822
50
358.1723541
51
0.0116795
0
LINE
8
DEFAULT_255_1_388
10
23.3857406
20
77.4049898
11
23.3857406
21
77.2622267
0
LINE
8
DEFAULT_255_1_388
10
23.3857406
20
77.2622267
11
22.9628724
21
77.2622267
0
LINE
8
DEFAULT_255_1_388
10
22.9628724
20
77.2622267
11
22.9628724
21
76.0894
0
LINE
8
DEFAULT_255_1_388
10
22.9628724
20
76.0894
11
22.7902916
21
76.0894
0
LINE
8
DEFAULT_255_1_388
10
22.7902916
20
76.0894
11
22.7902916
21
77.2622267
0
LINE
8
DEFAULT_255_1_388
10
22.7902916
20
77.2622267
11
22.368327
21
77.2622267
0
LINE
8
DEFAULT_255_1_388
10
22.368327
20
77.2622267
11
22.368327
21
77.4049898
0
LINE
8
DEFAULT_255_1_388
10
22.368327
20
77.4049898
11
23.3857406
21
77.4049898
0
LINE
8
DEFAULT_255_1_388
10
24.38689
20
77.4049898
11
24.38689
21
77.3110191
0
LINE
8
DEFAULT_255_1_388
10
24.38689
20
77.3110191
11
23.8420406
21
76.0894
0
LINE
8
DEFAULT_255_1_388
10
23.8420406
20
76.0894
11
23.6667491
21
76.0894
0
LINE
8
DEFAULT_255_1_388
10
23.6667491
20
76.0894
11
24.2097914
21
77.267648
0
LINE
8
DEFAULT_255_1_388
10
24.2097914
20
77.267648
11
23.4977826
21
77.267648
0
LINE
8
DEFAULT_255_1_388
10
23.4977826
20
77.267648
11
23.4977826
21
77.4049898
0
LINE
8
DEFAULT_255_1_388
10
23.4977826
20
77.4049898
11
24.38689
21
77.4049898
0
LINE
8
DEFAULT_255_1_388
10
21.0165946
20
84.7253553
11
21.0165946
21
84.6422274
0
LINE
8
DEFAULT_255_1_388
10
19.9585206
20
84.6304811
11
19.9585206
21
84.7253553
0
LINE
8
DEFAULT_255_1_388
10
20.8440138
20
84.6295775
11
20.8440138
21
84.7271625
0
LINE
8
DEFAULT_255_1_388
10
20.1311014
20
84.7389088
11
20.1311014
21
84.6422274
0
ARC
8
DEFAULT_255_1_388
10
20.0443684
20
84.6377726
40
0.9722364
50
350.4878118
51
0.2625322
0
ARC
8
DEFAULT_255_1_388
10
20.3023644
20
84.5933994
40
0.7104556
50
336.0277991
51
350.5787241
0
ARC
8
DEFAULT_255_1_388
10
20.4536751
20
84.5250243
40
0.544417
50
319.887443
51
336.1331163
0
ARC
8
DEFAULT_255_1_388
10
20.5214563
20
84.4707733
40
0.4576311
50
302.4806296
51
319.6144102
0
ARC
8
DEFAULT_255_1_388
10
20.5085184
20
84.4957067
40
0.4856183
50
275.8196423
51
302.1885521
0
ARC
8
DEFAULT_255_1_388
10
20.4898046
20
84.6242466
40
0.6154183
50
269.9169897
51
276.339506
0
ARC
8
DEFAULT_255_1_388
10
20.4847646
20
84.547068
40
0.5382553
50
252.5221437
51
270.441579
0
ARC
8
DEFAULT_255_1_388
10
20.4685897
20
84.4864046
40
0.4755426
50
237.5349961
51
252.1858334
0
ARC
8
DEFAULT_255_1_388
10
20.4786273
20
84.499212
40
0.4917393
50
209.0632754
51
237.3492577
0
ARC
8
DEFAULT_255_1_388
10
20.5765599
20
84.5607104
40
0.6072464
50
205.118533
51
209.6465345
0
ARC
8
DEFAULT_255_1_388
10
20.6661601
20
84.5987174
40
0.7045164
50
188.7216633
51
204.8239753
0
ARC
8
DEFAULT_255_1_388
10
20.8908376
20
84.6365387
40
0.9323368
50
180.3722704
51
188.9253909
0
ARC
8
DEFAULT_255_1_388
10
20.8877938
20
84.7298416
40
0.929284
50
169.5253055
51
180.2766048
0
ARC
8
DEFAULT_255_1_388
10
20.6737737
20
84.7692024
40
0.7116745
50
155.8314601
51
169.5088611
0
ARC
8
DEFAULT_255_1_388
10
20.52972
20
84.8360312
40
0.5528904
50
139.6259579
51
156.0379072
0
ARC
8
DEFAULT_255_1_388
10
20.4633733
20
84.8894143
40
0.4677708
50
122.6414784
51
139.3431662
0
ARC
8
DEFAULT_255_1_388
10
20.4746988
20
84.8687787
40
0.4912586
50
93.0224537
51
122.4556091
0
ARC
8
DEFAULT_255_1_388
10
20.4868509
20
84.7601776
40
0.6003837
50
89.9756766
51
93.6340839
0
ARC
8
DEFAULT_255_1_388
10
20.4912107
20
84.8050879
40
0.5554884
50
73.7463329
51
90.4234008
0
ARC
8
DEFAULT_255_1_388
10
20.510958
20
84.8815772
40
0.4765353
50
57.663051
51
73.4516911
0
ARC
8
DEFAULT_255_1_388
10
20.5100618
20
84.8840108
40
0.4749629
50
29.1441355
51
57.4146687
0
ARC
8
DEFAULT_255_1_388
10
20.4048429
20
84.8183046
40
0.5988917
50
24.0985653
51
29.732054
0
ARC
8
DEFAULT_255_1_388
10
20.2886061
20
84.7701154
40
0.7246823
50
8.6654943
51
23.8241215
0
ARC
8
DEFAULT_255_1_388
10
20.0372479
20
84.7291037
40
0.9793537
50
359.7807044
51
8.8218476
0
ARC
8
DEFAULT_255_1_388
10
19.9082184
20
84.7319731
40
0.9358078
50
359.7054632
51
8.0359751
0
ARC
8
DEFAULT_255_1_388
10
20.2457235
20
84.7811252
40
0.5947474
50
7.8926278
51
20.2962188
0
ARC
8
DEFAULT_255_1_388
10
20.4288085
20
84.8486367
40
0.3996117
50
20.3231056
51
36.4990255
0
ARC
8
DEFAULT_255_1_388
10
20.5059383
20
84.9080399
40
0.3022818
50
36.1436715
51
85.6627846
0
ARC
8
DEFAULT_255_1_388
10
20.4876638
20
84.7910881
40
0.4203853
50
84.3845912
51
90.076054
0
ARC
8
DEFAULT_255_1_388
10
20.4828993
20
84.8653416
40
0.346157
50
89.3037228
51
109.9046209
0
ARC
8
DEFAULT_255_1_388
10
20.4724826
20
84.9083379
40
0.3022217
50
110.8229774
51
143.917961
0
ARC
8
DEFAULT_255_1_388
10
20.5775185
20
84.8281455
40
0.434348
50
143.5289166
51
163.2980252
0
ARC
8
DEFAULT_255_1_388
10
20.7921472
20
84.7606685
40
0.659321
50
163.0418884
51
174.3139873
0
ARC
8
DEFAULT_255_1_388
10
21.0626437
20
84.7294378
40
0.9315905
50
174.050934
51
179.4174954
0
ARC
8
DEFAULT_255_1_388
10
21.0058381
20
84.6375382
40
0.8747493
50
179.6928582
51
188.7908948
0
ARC
8
DEFAULT_255_1_388
10
20.7062181
20
84.5896086
40
0.5713262
50
188.6328449
51
202.5630732
0
ARC
8
DEFAULT_255_1_388
10
20.5651018
20
84.5329142
40
0.4192612
50
202.8078931
51
216.1195888
0
ARC
8
DEFAULT_255_1_388
10
20.4740535
20
84.4596479
40
0.3025752
50
215.0755613
51
264.6379773
0
ARC
8
DEFAULT_255_1_388
10
20.4883372
20
84.5531376
40
0.3970284
50
263.8464302
51
270.0830805
0
ARC
8
DEFAULT_255_1_388
10
20.4929917
20
84.5240808
40
0.3679937
50
269.3649295
51
287.5149684
0
ARC
8
DEFAULT_255_1_388
10
20.5130358
20
84.4512714
40
0.2925408
50
288.0629019
51
323.8115617
0
ARC
8
DEFAULT_255_1_388
10
20.4150334
20
84.5243754
40
0.4148018
50
323.6546541
51
342.6591359
0
ARC
8
DEFAULT_255_1_388
10
20.1864992
20
84.598728
40
0.6551163
50
342.4092446
51
353.6451501
0
ARC
8
DEFAULT_255_1_388
10
19.8679785
20
84.6383565
40
0.9760748
50
353.4027553
51
359.4846611
0
LINE
8
DEFAULT_255_1_388
10
22.0285868
20
85.3424898
11
22.2029747
21
85.3424898
0
LINE
8
DEFAULT_255_1_388
10
22.2029747
20
85.3424898
11
22.2029747
21
84.447961
0
LINE
8
DEFAULT_255_1_388
10
21.7710709
20
84.0106358
11
21.7249891
21
84.0088287
0
LINE
8
DEFAULT_255_1_388
10
21.2506178
20
84.4461539
11
21.2506178
21
85.3424898
0
LINE
8
DEFAULT_255_1_388
10
21.2506178
20
85.3424898
11
21.422295
21
85.3424898
0
LINE
8
DEFAULT_255_1_388
10
21.422295
20
85.3424898
11
21.422295
21
84.4515753
0
LINE
8
DEFAULT_255_1_388
10
22.0285868
20
84.4506717
11
22.0285868
21
85.3424898
0
ARC
8
DEFAULT_255_1_388
10
21.7132546
20
84.445727
40
0.4897252
50
343.0897723
51
0.2613727
0
ARC
8
DEFAULT_255_1_388
10
21.8064517
20
84.419727
40
0.3930016
50
315.3344451
51
342.7642569
0
ARC
8
DEFAULT_255_1_388
10
21.7813012
20
84.4458085
40
0.4292244
50
284.6605441
51
315.2183439
0
ARC
8
DEFAULT_255_1_388
10
21.7300792
20
84.6197508
40
0.6104926
50
273.8500371
51
285.1796441
0
ARC
8
DEFAULT_255_1_388
10
21.7201857
20
84.6581762
40
0.6493653
50
257.6315393
51
270.4238259
0
ARC
8
DEFAULT_255_1_388
10
21.672394
20
84.4532915
40
0.4390079
50
230.6086859
51
257.9965362
0
ARC
8
DEFAULT_255_1_388
10
21.6577998
20
84.4303643
40
0.4120404
50
227.745033
51
230.1538266
0
ARC
8
DEFAULT_255_1_388
10
21.6424528
20
84.4119253
40
0.3880742
50
189.2524335
51
227.5915299
0
ARC
8
DEFAULT_255_1_388
10
21.8136399
20
84.4487735
40
0.5630282
50
180.2665782
51
190.1525221
0
ARC
8
DEFAULT_255_1_388
10
21.8386127
20
84.4484254
40
0.4163296
50
179.566507
51
191.9954402
0
ARC
8
DEFAULT_255_1_388
10
21.7004816
20
84.4176151
40
0.274815
50
191.6974619
51
215.1403758
0
ARC
8
DEFAULT_255_1_388
10
21.6737208
20
84.4016689
40
0.2437647
50
215.6958251
51
224.8509274
0
ARC
8
DEFAULT_255_1_388
10
21.6799684
20
84.4106016
40
0.2545012
50
225.2846515
51
255.0110023
0
ARC
8
DEFAULT_255_1_388
10
21.716413
20
84.5359017
40
0.384974
50
254.5945979
51
267.9129427
0
ARC
8
DEFAULT_255_1_388
10
21.7247823
20
84.6576444
40
0.506956
50
267.4687563
51
270.0233681
0
ARC
8
DEFAULT_255_1_388
10
21.7281819
20
84.5916288
40
0.440952
50
269.5851384
51
281.1845308
0
ARC
8
DEFAULT_255_1_388
10
21.7595423
20
84.4394469
40
0.2855802
50
280.9345159
51
300.9740496
0
ARC
8
DEFAULT_255_1_388
10
21.7834603
20
84.3954128
40
0.2355257
50
301.4982546
51
315.1468616
0
ARC
8
DEFAULT_255_1_388
10
21.7672099
20
84.4087488
40
0.2564594
50
315.5952932
51
345.6679188
0
ARC
8
DEFAULT_255_1_388
10
21.6412656
20
84.4438235
40
0.3871766
50
345.2525685
51
358.6303941
0
ARC
8
DEFAULT_255_1_388
10
21.5269047
20
84.4505695
40
0.5016822
50
358.1723541
51
0.0116795
0
LINE
8
DEFAULT_255_1_388
10
23.3857406
20
85.3424898
11
23.3857406
21
85.1997267
0
LINE
8
DEFAULT_255_1_388
10
23.3857406
20
85.1997267
11
22.9628724
21
85.1997267
0
LINE
8
DEFAULT_255_1_388
10
22.9628724
20
85.1997267
11
22.9628724
21
84.0269
0
LINE
8
DEFAULT_255_1_388
10
22.9628724
20
84.0269
11
22.7902916
21
84.0269
0
LINE
8
DEFAULT_255_1_388
10
22.7902916
20
84.0269
11
22.7902916
21
85.1997267
0
LINE
8
DEFAULT_255_1_388
10
22.7902916
20
85.1997267
11
22.368327
21
85.1997267
0
LINE
8
DEFAULT_255_1_388
10
22.368327
20
85.1997267
11
22.368327
21
85.3424898
0
LINE
8
DEFAULT_255_1_388
10
22.368327
20
85.3424898
11
23.3857406
21
85.3424898
0
LINE
8
DEFAULT_255_1_388
10
24.1637096
20
85.3433934
11
24.1935272
21
85.3433934
0
LINE
8
DEFAULT_255_1_388
10
24.1935272
20
85.3433934
11
24.1935272
21
85.2015338
0
LINE
8
DEFAULT_255_1_388
10
24.1935272
20
85.2015338
11
24.162806
21
85.2015338
0
LINE
8
DEFAULT_255_1_388
10
23.5474786
20
84.5274747
11
23.5474786
21
84.5916278
0
LINE
8
DEFAULT_255_1_388
10
23.7155416
20
84.5699422
11
23.7155416
21
84.5084999
0
ARC
8
DEFAULT_255_1_388
10
24.1686952
20
84.6392826
40
0.562282
50
90.6001079
51
104.5146616
0
ARC
8
DEFAULT_255_1_388
10
24.1249911
20
84.80181
40
0.3939917
50
104.2855758
51
133.8630124
0
ARC
8
DEFAULT_255_1_388
10
24.1434164
20
84.7896243
40
0.4155734
50
134.5304124
51
161.6210222
0
ARC
8
DEFAULT_255_1_388
10
24.3294096
20
84.7240421
40
0.6127682
50
161.2850533
51
174.2074364
0
ARC
8
DEFAULT_255_1_388
10
24.4883663
20
84.7021437
40
0.7731446
50
173.7817938
51
174.9251711
0
ARC
8
DEFAULT_255_1_388
10
23.9757856
20
84.546627
40
0.3412588
50
95.8332067
51
138.995412
0
ARC
8
DEFAULT_255_1_388
10
24.0009137
20
84.4027695
40
0.4870358
50
89.8755506
51
97.0540979
0
ARC
8
DEFAULT_255_1_388
10
24.0062526
20
84.4967841
40
0.3930432
50
71.6407016
51
90.6240821
0
ARC
8
DEFAULT_255_1_388
10
24.0231919
20
84.5591433
40
0.3285421
50
39.6368051
51
71.0190743
0
ARC
8
DEFAULT_255_1_388
10
23.9515827
20
84.4972586
40
0.4231706
50
10.6588054
51
39.9044509
0
ARC
8
DEFAULT_255_1_388
10
23.7774372
20
84.4594223
40
0.60133
50
359.6827842
51
11.1326896
0
ARC
8
DEFAULT_255_1_388
10
23.7729708
20
84.4514715
40
0.6058047
50
347.2485908
51
0.4371098
0
ARC
8
DEFAULT_255_1_388
10
23.9605494
20
84.4063379
40
0.4128987
50
318.1408565
51
347.6118497
0
ARC
8
DEFAULT_255_1_388
10
23.997109
20
84.3762903
40
0.3656244
50
275.6342406
51
317.824739
0
ARC
8
DEFAULT_255_1_388
10
23.9722611
20
84.5224827
40
0.513655
50
269.8872513
51
276.7916069
0
ARC
8
DEFAULT_255_1_388
10
23.9660804
20
84.4071181
40
0.398323
50
246.9139443
51
270.7436787
0
ARC
8
DEFAULT_255_1_388
10
23.9668
20
84.3911044
40
0.3839368
50
218.1665534
51
245.8780431
0
ARC
8
DEFAULT_255_1_388
10
24.0657372
20
84.4738903
40
0.5128958
50
191.4115343
51
218.6077624
0
ARC
8
DEFAULT_255_1_388
10
24.2837688
20
84.5227777
40
0.7363054
50
179.6344971
51
191.7836758
0
ARC
8
DEFAULT_255_1_388
10
24.9117563
20
84.5991495
40
1.3642984
50
171.4523743
51
180.3158856
0
ARC
8
DEFAULT_255_1_388
10
24.417329
20
84.6760895
40
0.8639311
50
157.9802296
51
171.6246761
0
ARC
8
DEFAULT_255_1_388
10
24.168264
20
84.7754038
40
0.5958004
50
141.4299236
51
157.8541251
0
ARC
8
DEFAULT_255_1_388
10
24.0960724
20
84.8264746
40
0.5075416
50
102.871586
51
140.8564533
0
ARC
8
DEFAULT_255_1_388
10
24.1689276
20
84.5519943
40
0.7914163
50
90.377773
51
103.5868422
0
ARC
8
DEFAULT_255_1_388
10
23.9733798
20
84.4839543
40
0.2667015
50
89.8751238
51
126.2072139
0
ARC
8
DEFAULT_255_1_388
10
23.9785269
20
84.4665847
40
0.2838229
50
124.9742447
51
144.8960197
0
ARC
8
DEFAULT_255_1_388
10
23.9587514
20
84.4826981
40
0.2583845
50
145.2974778
51
160.2660922
0
ARC
8
DEFAULT_255_1_388
10
24.3044002
20
84.5049151
40
0.5888695
50
179.6512124
51
190.285571
0
ARC
8
DEFAULT_255_1_388
10
24.1138482
20
84.4689968
40
0.3949683
50
190.0944895
51
207.5099647
0
ARC
8
DEFAULT_255_1_388
10
24.0502063
20
84.4387177
40
0.3245464
50
207.9585471
51
216.325377
0
ARC
8
DEFAULT_255_1_388
10
24.0119701
20
84.4072712
40
0.2751259
50
215.7661336
51
232.5457193
0
ARC
8
DEFAULT_255_1_388
10
23.9688816
20
84.3525273
40
0.2054668
50
232.8005815
51
270.6605497
0
ARC
8
DEFAULT_255_1_388
10
23.9740241
20
84.3934853
40
0.2464268
50
269.3550767
51
288.474612
0
ARC
8
DEFAULT_255_1_388
10
23.9844748
20
84.3541721
40
0.2058436
50
289.1831976
51
322.9685307
0
ARC
8
DEFAULT_255_1_388
10
23.9156849
20
84.4084279
40
0.2934408
50
322.6007085
51
346.5183319
0
ARC
8
DEFAULT_255_1_388
10
23.7854605
20
84.4416434
40
0.4278249
50
346.2584622
51
358.7739592
0
ARC
8
DEFAULT_255_1_388
10
23.6703181
20
84.4478829
40
0.5430876
50
358.3757628
51
0.0082477
0
ARC
8
DEFAULT_255_1_388
10
23.7559999
20
84.4509856
40
0.4574157
50
359.6211417
51
11.28403
0
ARC
8
DEFAULT_255_1_388
10
23.8996605
20
84.4809535
40
0.3106708
50
11.0483152
51
31.8145585
0
ARC
8
DEFAULT_255_1_388
10
23.9344311
20
84.4998045
40
0.2711963
50
32.3028554
51
38.0820598
0
ARC
8
DEFAULT_255_1_388
10
23.9817544
20
84.5426717
40
0.2075566
50
36.8249851
51
85.741667
0
ARC
8
DEFAULT_255_1_388
10
23.9741956
20
84.4863065
40
0.2643487
50
85.0150021
51
90.050843
0
LINE
8
DEFAULT_255_1_388
10
21.0165946
20
92.6628553
11
21.0165946
21
92.5797274
0
LINE
8
DEFAULT_255_1_388
10
19.9585206
20
92.5679811
11
19.9585206
21
92.6628553
0
LINE
8
DEFAULT_255_1_388
10
20.8440138
20
92.5670775
11
20.8440138
21
92.6646625
0
LINE
8
DEFAULT_255_1_388
10
20.1311014
20
92.6764088
11
20.1311014
21
92.5797274
0
ARC
8
DEFAULT_255_1_388
10
20.0443684
20
92.5752726
40
0.9722364
50
350.4878118
51
0.2625322
0
ARC
8
DEFAULT_255_1_388
10
20.3023644
20
92.5308994
40
0.7104556
50
336.0277991
51
350.5787241
0
ARC
8
DEFAULT_255_1_388
10
20.4536751
20
92.4625243
40
0.544417
50
319.887443
51
336.1331163
0
ARC
8
DEFAULT_255_1_388
10
20.5214563
20
92.4082733
40
0.4576311
50
302.4806296
51
319.6144102
0
ARC
8
DEFAULT_255_1_388
10
20.5085184
20
92.4332067
40
0.4856183
50
275.8196423
51
302.1885521
0
ARC
8
DEFAULT_255_1_388
10
20.4898046
20
92.5617466
40
0.6154183
50
269.9169897
51
276.339506
0
ARC
8
DEFAULT_255_1_388
10
20.4847646
20
92.484568
40
0.5382553
50
252.5221437
51
270.441579
0
ARC
8
DEFAULT_255_1_388
10
20.4685897
20
92.4239046
40
0.4755426
50
237.5349961
51
252.1858334
0
ARC
8
DEFAULT_255_1_388
10
20.4786273
20
92.436712
40
0.4917393
50
209.0632754
51
237.3492577
0
ARC
8
DEFAULT_255_1_388
10
20.5765599
20
92.4982104
40
0.6072464
50
205.118533
51
209.6465345
0
ARC
8
DEFAULT_255_1_388
10
20.6661601
20
92.5362174
40
0.7045164
50
188.7216633
51
204.8239753
0
ARC
8
DEFAULT_255_1_388
10
20.8908376
20
92.5740387
40
0.9323368
50
180.3722704
51
188.9253909
0
ARC
8
DEFAULT_255_1_388
10
20.8877938
20
92.6673416
40
0.929284
50
169.5253055
51
180.2766048
0
ARC
8
DEFAULT_255_1_388
10
20.6737737
20
92.7067024
40
0.7116745
50
155.8314601
51
169.5088611
0
ARC
8
DEFAULT_255_1_388
10
20.52972
20
92.7735312
40
0.5528904
50
139.6259579
51
156.0379072
0
ARC
8
DEFAULT_255_1_388
10
20.4633733
20
92.8269143
40
0.4677708
50
122.6414784
51
139.3431662
0
ARC
8
DEFAULT_255_1_388
10
20.4746988
20
92.8062787
40
0.4912586
50
93.0224537
51
122.4556091
0
ARC
8
DEFAULT_255_1_388
10
20.4868509
20
92.6976776
40
0.6003837
50
89.9756766
51
93.6340839
0
ARC
8
DEFAULT_255_1_388
10
20.4912107
20
92.7425879
40
0.5554884
50
73.7463329
51
90.4234008
0
ARC
8
DEFAULT_255_1_388
10
20.510958
20
92.8190772
40
0.4765353
50
57.663051
51
73.4516911
0
ARC
8
DEFAULT_255_1_388
10
20.5100618
20
92.8215108
40
0.4749629
50
29.1441355
51
57.4146687
0
ARC
8
DEFAULT_255_1_388
10
20.4048429
20
92.7558046
40
0.5988917
50
24.0985653
51
29.732054
0
ARC
8
DEFAULT_255_1_388
10
20.2886061
20
92.7076154
40
0.7246823
50
8.6654943
51
23.8241215
0
ARC
8
DEFAULT_255_1_388
10
20.0372479
20
92.6666037
40
0.9793537
50
359.7807044
51
8.8218476
0
ARC
8
DEFAULT_255_1_388
10
19.9082184
20
92.6694731
40
0.9358078
50
359.7054632
51
8.0359751
0
ARC
8
DEFAULT_255_1_388
10
20.2457235
20
92.7186252
40
0.5947474
50
7.8926278
51
20.2962188
0
ARC
8
DEFAULT_255_1_388
10
20.4288085
20
92.7861367
40
0.3996117
50
20.3231056
51
36.4990255
0
ARC
8
DEFAULT_255_1_388
10
20.5059383
20
92.8455399
40
0.3022818
50
36.1436715
51
85.6627846
0
ARC
8
DEFAULT_255_1_388
10
20.4876638
20
92.7285881
40
0.4203853
50
84.3845912
51
90.076054
0
ARC
8
DEFAULT_255_1_388
10
20.4828993
20
92.8028416
40
0.346157
50
89.3037228
51
109.9046209
0
ARC
8
DEFAULT_255_1_388
10
20.4724826
20
92.8458379
40
0.3022217
50
110.8229774
51
143.917961
0
ARC
8
DEFAULT_255_1_388
10
20.5775185
20
92.7656455
40
0.434348
50
143.5289166
51
163.2980252
0
ARC
8
DEFAULT_255_1_388
10
20.7921472
20
92.6981685
40
0.659321
50
163.0418884
51
174.3139873
0
ARC
8
DEFAULT_255_1_388
10
21.0626437
20
92.6669378
40
0.9315905
50
174.050934
51
179.4174954
0
ARC
8
DEFAULT_255_1_388
10
21.0058381
20
92.5750382
40
0.8747493
50
179.6928582
51
188.7908948
0
ARC
8
DEFAULT_255_1_388
10
20.7062181
20
92.5271086
40
0.5713262
50
188.6328449
51
202.5630732
0
ARC
8
DEFAULT_255_1_388
10
20.5651018
20
92.4704142
40
0.4192612
50
202.8078931
51
216.1195888
0
ARC
8
DEFAULT_255_1_388
10
20.4740535
20
92.3971479
40
0.3025752
50
215.0755613
51
264.6379773
0
ARC
8
DEFAULT_255_1_388
10
20.4883372
20
92.4906376
40
0.3970284
50
263.8464302
51
270.0830805
0
ARC
8
DEFAULT_255_1_388
10
20.4929917
20
92.4615808
40
0.3679937
50
269.3649295
51
287.5149684
0
ARC
8
DEFAULT_255_1_388
10
20.5130358
20
92.3887714
40
0.2925408
50
288.0629019
51
323.8115617
0
ARC
8
DEFAULT_255_1_388
10
20.4150334
20
92.4618754
40
0.4148018
50
323.6546541
51
342.6591359
0
ARC
8
DEFAULT_255_1_388
10
20.1864992
20
92.536228
40
0.6551163
50
342.4092446
51
353.6451501
0
ARC
8
DEFAULT_255_1_388
10
19.8679785
20
92.5758565
40
0.9760748
50
353.4027553
51
359.4846611
0
LINE
8
DEFAULT_255_1_388
10
22.0285868
20
93.2799898
11
22.2029747
21
93.2799898
0
LINE
8
DEFAULT_255_1_388
10
22.2029747
20
93.2799898
11
22.2029747
21
92.385461
0
LINE
8
DEFAULT_255_1_388
10
21.7710709
20
91.9481358
11
21.7249891
21
91.9463287
0
LINE
8
DEFAULT_255_1_388
10
21.2506178
20
92.3836539
11
21.2506178
21
93.2799898
0
LINE
8
DEFAULT_255_1_388
10
21.2506178
20
93.2799898
11
21.422295
21
93.2799898
0
LINE
8
DEFAULT_255_1_388
10
21.422295
20
93.2799898
11
21.422295
21
92.3890753
0
LINE
8
DEFAULT_255_1_388
10
22.0285868
20
92.3881717
11
22.0285868
21
93.2799898
0
ARC
8
DEFAULT_255_1_388
10
21.7132546
20
92.383227
40
0.4897252
50
343.0897723
51
0.2613727
0
ARC
8
DEFAULT_255_1_388
10
21.8064517
20
92.357227
40
0.3930016
50
315.3344451
51
342.7642569
0
ARC
8
DEFAULT_255_1_388
10
21.7813012
20
92.3833085
40
0.4292244
50
284.6605441
51
315.2183439
0
ARC
8
DEFAULT_255_1_388
10
21.7300792
20
92.5572508
40
0.6104926
50
273.8500371
51
285.1796441
0
ARC
8
DEFAULT_255_1_388
10
21.7201857
20
92.5956762
40
0.6493653
50
257.6315393
51
270.4238259
0
ARC
8
DEFAULT_255_1_388
10
21.672394
20
92.3907915
40
0.4390079
50
230.6086859
51
257.9965362
0
ARC
8
DEFAULT_255_1_388
10
21.6577998
20
92.3678643
40
0.4120404
50
227.745033
51
230.1538266
0
ARC
8
DEFAULT_255_1_388
10
21.6424528
20
92.3494253
40
0.3880742
50
189.2524335
51
227.5915299
0
ARC
8
DEFAULT_255_1_388
10
21.8136399
20
92.3862735
40
0.5630282
50
180.2665782
51
190.1525221
0
ARC
8
DEFAULT_255_1_388
10
21.8386127
20
92.3859254
40
0.4163296
50
179.566507
51
191.9954402
0
ARC
8
DEFAULT_255_1_388
10
21.7004816
20
92.3551151
40
0.274815
50
191.6974619
51
215.1403758
0
ARC
8
DEFAULT_255_1_388
10
21.6737208
20
92.3391689
40
0.2437647
50
215.6958251
51
224.8509274
0
ARC
8
DEFAULT_255_1_388
10
21.6799684
20
92.3481016
40
0.2545012
50
225.2846515
51
255.0110023
0
ARC
8
DEFAULT_255_1_388
10
21.716413
20
92.4734017
40
0.384974
50
254.5945979
51
267.9129427
0
ARC
8
DEFAULT_255_1_388
10
21.7247823
20
92.5951444
40
0.506956
50
267.4687563
51
270.0233681
0
ARC
8
DEFAULT_255_1_388
10
21.7281819
20
92.5291288
40
0.440952
50
269.5851384
51
281.1845308
0
ARC
8
DEFAULT_255_1_388
10
21.7595423
20
92.3769469
40
0.2855802
50
280.9345159
51
300.9740496
0
ARC
8
DEFAULT_255_1_388
10
21.7834603
20
92.3329128
40
0.2355257
50
301.4982546
51
315.1468616
0
ARC
8
DEFAULT_255_1_388
10
21.7672099
20
92.3462488
40
0.2564594
50
315.5952932
51
345.6679188
0
ARC
8
DEFAULT_255_1_388
10
21.6412656
20
92.3813235
40
0.3871766
50
345.2525685
51
358.6303941
0
ARC
8
DEFAULT_255_1_388
10
21.5269047
20
92.3880695
40
0.5016822
50
358.1723541
51
0.0116795
0
LINE
8
DEFAULT_255_1_388
10
23.3857406
20
93.2799898
11
23.3857406
21
93.1372267
0
LINE
8
DEFAULT_255_1_388
10
23.3857406
20
93.1372267
11
22.9628724
21
93.1372267
0
LINE
8
DEFAULT_255_1_388
10
22.9628724
20
93.1372267
11
22.9628724
21
91.9644
0
LINE
8
DEFAULT_255_1_388
10
22.9628724
20
91.9644
11
22.7902916
21
91.9644
0
LINE
8
DEFAULT_255_1_388
10
22.7902916
20
91.9644
11
22.7902916
21
93.1372267
0
LINE
8
DEFAULT_255_1_388
10
22.7902916
20
93.1372267
11
22.368327
21
93.1372267
0
LINE
8
DEFAULT_255_1_388
10
22.368327
20
93.1372267
11
22.368327
21
93.2799898
0
LINE
8
DEFAULT_255_1_388
10
22.368327
20
93.2799898
11
23.3857406
21
93.2799898
0
LINE
8
DEFAULT_255_1_388
10
23.7480699
20
92.5896666
11
23.6143424
21
92.6240021
0
LINE
8
DEFAULT_255_1_388
10
23.6143424
20
92.6240021
11
23.6812062
21
93.2799898
0
LINE
8
DEFAULT_255_1_388
10
23.6812062
20
93.2799898
11
24.3552652
21
93.2799898
0
LINE
8
DEFAULT_255_1_388
10
24.3552652
20
93.2799898
11
24.3552652
21
93.1254803
0
LINE
8
DEFAULT_255_1_388
10
24.3552652
20
93.1254803
11
23.8230658
21
93.1254803
0
LINE
8
DEFAULT_255_1_388
10
23.8230658
20
93.1254803
11
23.7833089
21
92.7667652
0
LINE
8
DEFAULT_255_1_388
10
23.567357
20
92.3104652
11
23.7254808
21
92.3104652
0
LINE
8
DEFAULT_255_1_388
10
23.7923446
20
92.6258092
11
23.7480699
21
92.5896666
0
ARC
8
DEFAULT_255_1_388
10
23.9919703
20
92.4090241
40
0.4141476
50
93.7181681
51
120.253934
0
ARC
8
DEFAULT_255_1_388
10
24.0025755
20
92.3181284
40
0.5055616
50
89.9660471
51
94.2495185
0
ARC
8
DEFAULT_255_1_388
10
24.0071577
20
92.3844154
40
0.4392953
50
73.8045384
51
90.5585736
0
ARC
8
DEFAULT_255_1_388
10
24.0335835
20
92.480952
40
0.3392225
50
41.3071072
51
73.543002
0
ARC
8
DEFAULT_255_1_388
10
23.9867655
20
92.4406461
40
0.4009977
50
13.5075837
51
41.2174839
0
ARC
8
DEFAULT_255_1_388
10
23.8020752
20
92.3922907
40
0.5918864
50
1.1330171
51
13.8830737
0
ARC
8
DEFAULT_255_1_388
10
23.6424398
20
92.3837522
40
0.7516787
50
359.9925091
51
1.5431298
0
ARC
8
DEFAULT_255_1_388
10
23.7869013
20
92.3791027
40
0.6072343
50
347.8572712
51
0.4294349
0
ARC
8
DEFAULT_255_1_388
10
23.9838148
20
92.3344898
40
0.4053482
50
323.6727442
51
348.1674594
0
ARC
8
DEFAULT_255_1_388
10
24.0169112
20
92.3143175
40
0.3667495
50
316.8171818
51
323.1486802
0
ARC
8
DEFAULT_255_1_388
10
24.0238236
20
92.3101612
40
0.358869
50
281.839603
51
316.5458142
0
ARC
8
DEFAULT_255_1_388
10
23.9815523
20
92.4851363
40
0.5388223
50
269.5770964
51
282.4214641
0
ARC
8
DEFAULT_255_1_388
10
23.9735444
20
92.461093
40
0.5147801
50
256.2425863
51
270.4486481
0
ARC
8
DEFAULT_255_1_388
10
23.9398972
20
92.3261124
40
0.3756708
50
228.9024379
51
256.33135
0
ARC
8
DEFAULT_255_1_388
10
23.9315952
20
92.3130054
40
0.360344
50
193.7536029
51
228.5272638
0
ARC
8
DEFAULT_255_1_388
10
24.0708517
20
92.3538463
40
0.5053599
50
184.9244437
51
194.4976052
0
ARC
8
DEFAULT_255_1_388
10
24.0925158
20
92.3578722
40
0.3700839
50
187.3596909
51
198.6733728
0
ARC
8
DEFAULT_255_1_388
10
23.9744402
20
92.3169373
40
0.2451195
50
198.4453795
51
217.7945479
0
ARC
8
DEFAULT_255_1_388
10
23.9411574
20
92.2933563
40
0.2043754
50
218.2887146
51
228.5613203
0
ARC
8
DEFAULT_255_1_388
10
23.9521581
20
92.3081902
40
0.2227819
50
228.9652423
51
258.1237049
0
ARC
8
DEFAULT_255_1_388
10
23.9753018
20
92.4072964
40
0.3245374
50
257.7260585
51
270.4013717
0
ARC
8
DEFAULT_255_1_388
10
23.9803516
20
92.3572255
40
0.2744726
50
269.4204315
51
286.420998
0
ARC
8
DEFAULT_255_1_388
10
23.9970572
20
92.2965705
40
0.2115721
50
286.7250065
51
320.6004665
0
ARC
8
DEFAULT_255_1_388
10
23.9539488
20
92.3315527
40
0.2670878
50
320.6712228
51
344.5440474
0
ARC
8
DEFAULT_255_1_388
10
23.8238202
20
92.3697394
40
0.4026927
50
344.241448
51
356.735803
0
ARC
8
DEFAULT_255_1_388
10
23.6834509
20
92.3813656
40
0.5435085
50
356.3547471
51
0.0507222
0
ARC
8
DEFAULT_255_1_388
10
23.8336774
20
92.3848812
40
0.3932934
50
359.5579289
51
12.9534322
0
ARC
8
DEFAULT_255_1_388
10
23.9523614
20
92.4136586
40
0.2711827
50
12.6489751
51
41.608121
0
ARC
8
DEFAULT_255_1_388
10
23.9782774
20
92.4356946
40
0.2371737
50
41.7851122
51
85.9892156
0
ARC
8
DEFAULT_255_1_388
10
23.9644084
20
92.3441738
40
0.3295244
50
84.6965848
51
90.0672125
0
ARC
8
DEFAULT_255_1_388
10
23.9617651
20
92.2690118
40
0.4046926
50
89.6804991
51
99.161352
0
ARC
8
DEFAULT_255_1_388
10
23.9386661
20
92.4070848
40
0.2647044
50
98.9836248
51
113.8905702
0
ARC
8
DEFAULT_255_1_388
10
23.9128335
20
92.4680118
40
0.1985386
50
114.195234
51
127.3641866
0
LINE
8
DEFAULT_255_1_388
10
20.8842946
20
100.6003553
11
20.8842946
21
100.5172274
0
LINE
8
DEFAULT_255_1_388
10
19.8262206
20
100.5054811
11
19.8262206
21
100.6003553
0
LINE
8
DEFAULT_255_1_388
10
20.7117138
20
100.5045775
11
20.7117138
21
100.6021625
0
LINE
8
DEFAULT_255_1_388
10
19.9988014
20
100.6139088
11
19.9988014
21
100.5172274
0
ARC
8
DEFAULT_255_1_388
10
19.9120684
20
100.5127726
40
0.9722364
50
350.4878118
51
0.2625322
0
ARC
8
DEFAULT_255_1_388
10
20.1700644
20
100.4683994
40
0.7104556
50
336.0277991
51
350.5787241
0
ARC
8
DEFAULT_255_1_388
10
20.3213751
20
100.4000243
40
0.544417
50
319.887443
51
336.1331163
0
ARC
8
DEFAULT_255_1_388
10
20.3891563
20
100.3457733
40
0.4576311
50
302.4806296
51
319.6144102
0
ARC
8
DEFAULT_255_1_388
10
20.3762184
20
100.3707067
40
0.4856183
50
275.8196423
51
302.1885521
0
ARC
8
DEFAULT_255_1_388
10
20.3575046
20
100.4992466
40
0.6154183
50
269.9169897
51
276.339506
0
ARC
8
DEFAULT_255_1_388
10
20.3524646
20
100.422068
40
0.5382553
50
252.5221437
51
270.441579
0
ARC
8
DEFAULT_255_1_388
10
20.3362897
20
100.3614046
40
0.4755426
50
237.5349961
51
252.1858334
0
ARC
8
DEFAULT_255_1_388
10
20.3463273
20
100.374212
40
0.4917393
50
209.0632754
51
237.3492577
0
ARC
8
DEFAULT_255_1_388
10
20.4442599
20
100.4357104
40
0.6072464
50
205.118533
51
209.6465345
0
ARC
8
DEFAULT_255_1_388
10
20.5338601
20
100.4737174
40
0.7045164
50
188.7216633
51
204.8239753
0
ARC
8
DEFAULT_255_1_388
10
20.7585376
20
100.5115387
40
0.9323368
50
180.3722704
51
188.9253909
0
ARC
8
DEFAULT_255_1_388
10
20.7554938
20
100.6048416
40
0.929284
50
169.5253055
51
180.2766048
0
ARC
8
DEFAULT_255_1_388
10
20.5414737
20
100.6442024
40
0.7116745
50
155.8314601
51
169.5088611
0
ARC
8
DEFAULT_255_1_388
10
20.39742
20
100.7110312
40
0.5528904
50
139.6259579
51
156.0379072
0
ARC
8
DEFAULT_255_1_388
10
20.3310733
20
100.7644143
40
0.4677708
50
122.6414784
51
139.3431662
0
ARC
8
DEFAULT_255_1_388
10
20.3423988
20
100.7437787
40
0.4912586
50
93.0224537
51
122.4556091
0
ARC
8
DEFAULT_255_1_388
10
20.3545509
20
100.6351776
40
0.6003837
50
89.9756766
51
93.6340839
0
ARC
8
DEFAULT_255_1_388
10
20.3589107
20
100.6800879
40
0.5554884
50
73.7463329
51
90.4234008
0
ARC
8
DEFAULT_255_1_388
10
20.378658
20
100.7565772
40
0.4765353
50
57.663051
51
73.4516911
0
ARC
8
DEFAULT_255_1_388
10
20.3777618
20
100.7590108
40
0.4749629
50
29.1441355
51
57.4146687
0
ARC
8
DEFAULT_255_1_388
10
20.2725429
20
100.6933046
40
0.5988917
50
24.0985653
51
29.732054
0
ARC
8
DEFAULT_255_1_388
10
20.1563061
20
100.6451154
40
0.7246823
50
8.6654943
51
23.8241215
0
ARC
8
DEFAULT_255_1_388
10
19.9049479
20
100.6041037
40
0.9793537
50
359.7807044
51
8.8218476
0
ARC
8
DEFAULT_255_1_388
10
19.7759184
20
100.6069731
40
0.9358078
50
359.7054632
51
8.0359751
0
ARC
8
DEFAULT_255_1_388
10
20.1134235
20
100.6561252
40
0.5947474
50
7.8926278
51
20.2962188
0
ARC
8
DEFAULT_255_1_388
10
20.2965085
20
100.7236367
40
0.3996117
50
20.3231056
51
36.4990255
0
ARC
8
DEFAULT_255_1_388
10
20.3736383
20
100.7830399
40
0.3022818
50
36.1436715
51
85.6627846
0
ARC
8
DEFAULT_255_1_388
10
20.3553638
20
100.6660881
40
0.4203853
50
84.3845912
51
90.076054
0
ARC
8
DEFAULT_255_1_388
10
20.3505993
20
100.7403416
40
0.346157
50
89.3037228
51
109.9046209
0
ARC
8
DEFAULT_255_1_388
10
20.3401826
20
100.7833379
40
0.3022217
50
110.8229774
51
143.917961
0
ARC
8
DEFAULT_255_1_388
10
20.4452185
20
100.7031455
40
0.434348
50
143.5289166
51
163.2980252
0
ARC
8
DEFAULT_255_1_388
10
20.6598472
20
100.6356685
40
0.659321
50
163.0418884
51
174.3139873
0
ARC
8
DEFAULT_255_1_388
10
20.9303437
20
100.6044378
40
0.9315905
50
174.050934
51
179.4174954
0
ARC
8
DEFAULT_255_1_388
10
20.8735381
20
100.5125382
40
0.8747493
50
179.6928582
51
188.7908948
0
ARC
8
DEFAULT_255_1_388
10
20.5739181
20
100.4646086
40
0.5713262
50
188.6328449
51
202.5630732
0
ARC
8
DEFAULT_255_1_388
10
20.4328018
20
100.4079142
40
0.4192612
50
202.8078931
51
216.1195888
0
ARC
8
DEFAULT_255_1_388
10
20.3417535
20
100.3346479
40
0.3025752
50
215.0755613
51
264.6379773
0
ARC
8
DEFAULT_255_1_388
10
20.3560372
20
100.4281376
40
0.3970284
50
263.8464302
51
270.0830805
0
ARC
8
DEFAULT_255_1_388
10
20.3606917
20
100.3990808
40
0.3679937
50
269.3649295
51
287.5149684
0
ARC
8
DEFAULT_255_1_388
10
20.3807358
20
100.3262714
40
0.2925408
50
288.0629019
51
323.8115617
0
ARC
8
DEFAULT_255_1_388
10
20.2827334
20
100.3993754
40
0.4148018
50
323.6546541
51
342.6591359
0
ARC
8
DEFAULT_255_1_388
10
20.0541992
20
100.473728
40
0.6551163
50
342.4092446
51
353.6451501
0
ARC
8
DEFAULT_255_1_388
10
19.7356785
20
100.5133565
40
0.9760748
50
353.4027553
51
359.4846611
0
LINE
8
DEFAULT_255_1_388
10
21.8962868
20
101.2174898
11
22.0706747
21
101.2174898
0
LINE
8
DEFAULT_255_1_388
10
22.0706747
20
101.2174898
11
22.0706747
21
100.322961
0
LINE
8
DEFAULT_255_1_388
10
21.6387709
20
99.8856358
11
21.5926891
21
99.8838287
0
LINE
8
DEFAULT_255_1_388
10
21.1183178
20
100.3211539
11
21.1183178
21
101.2174898
0
LINE
8
DEFAULT_255_1_388
10
21.1183178
20
101.2174898
11
21.289995
21
101.2174898
0
LINE
8
DEFAULT_255_1_388
10
21.289995
20
101.2174898
11
21.289995
21
100.3265753
0
LINE
8
DEFAULT_255_1_388
10
21.8962868
20
100.3256717
11
21.8962868
21
101.2174898
0
ARC
8
DEFAULT_255_1_388
10
21.5809546
20
100.320727
40
0.4897252
50
343.0897723
51
0.2613727
0
ARC
8
DEFAULT_255_1_388
10
21.6741517
20
100.294727
40
0.3930016
50
315.3344451
51
342.7642569
0
ARC
8
DEFAULT_255_1_388
10
21.6490012
20
100.3208085
40
0.4292244
50
284.6605441
51
315.2183439
0
ARC
8
DEFAULT_255_1_388
10
21.5977792
20
100.4947508
40
0.6104926
50
273.8500371
51
285.1796441
0
ARC
8
DEFAULT_255_1_388
10
21.5878857
20
100.5331762
40
0.6493653
50
257.6315393
51
270.4238259
0
ARC
8
DEFAULT_255_1_388
10
21.540094
20
100.3282915
40
0.4390079
50
230.6086859
51
257.9965362
0
ARC
8
DEFAULT_255_1_388
10
21.5254998
20
100.3053643
40
0.4120404
50
227.745033
51
230.1538266
0
ARC
8
DEFAULT_255_1_388
10
21.5101528
20
100.2869253
40
0.3880742
50
189.2524335
51
227.5915299
0
ARC
8
DEFAULT_255_1_388
10
21.6813399
20
100.3237735
40
0.5630282
50
180.2665782
51
190.1525221
0
ARC
8
DEFAULT_255_1_388
10
21.7063127
20
100.3234254
40
0.4163296
50
179.566507
51
191.9954402
0
ARC
8
DEFAULT_255_1_388
10
21.5681816
20
100.2926151
40
0.274815
50
191.6974619
51
215.1403758
0
ARC
8
DEFAULT_255_1_388
10
21.5414208
20
100.2766689
40
0.2437647
50
215.6958251
51
224.8509274
0
ARC
8
DEFAULT_255_1_388
10
21.5476684
20
100.2856016
40
0.2545012
50
225.2846515
51
255.0110023
0
ARC
8
DEFAULT_255_1_388
10
21.584113
20
100.4109017
40
0.384974
50
254.5945979
51
267.9129427
0
ARC
8
DEFAULT_255_1_388
10
21.5924823
20
100.5326444
40
0.506956
50
267.4687563
51
270.0233681
0
ARC
8
DEFAULT_255_1_388
10
21.5958819
20
100.4666288
40
0.440952
50
269.5851384
51
281.1845308
0
ARC
8
DEFAULT_255_1_388
10
21.6272423
20
100.3144469
40
0.2855802
50
280.9345159
51
300.9740496
0
ARC
8
DEFAULT_255_1_388
10
21.6511603
20
100.2704128
40
0.2355257
50
301.4982546
51
315.1468616
0
ARC
8
DEFAULT_255_1_388
10
21.6349099
20
100.2837488
40
0.2564594
50
315.5952932
51
345.6679188
0
ARC
8
DEFAULT_255_1_388
10
21.5089656
20
100.3188235
40
0.3871766
50
345.2525685
51
358.6303941
0
ARC
8
DEFAULT_255_1_388
10
21.3946047
20
100.3255695
40
0.5016822
50
358.1723541
51
0.0116795
0
LINE
8
DEFAULT_255_1_388
10
23.2534406
20
101.2174898
11
23.2534406
21
101.0747267
0
LINE
8
DEFAULT_255_1_388
10
23.2534406
20
101.0747267
11
22.8305724
21
101.0747267
0
LINE
8
DEFAULT_255_1_388
10
22.8305724
20
101.0747267
11
22.8305724
21
99.9019
0
LINE
8
DEFAULT_255_1_388
10
22.8305724
20
99.9019
11
22.6579916
21
99.9019
0
LINE
8
DEFAULT_255_1_388
10
22.6579916
20
99.9019
11
22.6579916
21
101.0747267
0
LINE
8
DEFAULT_255_1_388
10
22.6579916
20
101.0747267
11
22.236027
21
101.0747267
0
LINE
8
DEFAULT_255_1_388
10
22.236027
20
101.0747267
11
22.236027
21
101.2174898
0
LINE
8
DEFAULT_255_1_388
10
22.236027
20
101.2174898
11
23.2534406
21
101.2174898
0
LINE
8
DEFAULT_255_1_388
10
24.1109232
20
101.2174898
11
24.1109232
21
100.343743
0
LINE
8
DEFAULT_255_1_388
10
24.1109232
20
100.343743
11
24.2934433
21
100.343743
0
LINE
8
DEFAULT_255_1_388
10
24.2934433
20
100.343743
11
24.2934433
21
100.2073048
0
LINE
8
DEFAULT_255_1_388
10
24.2934433
20
100.2073048
11
24.1109232
21
100.2073048
0
LINE
8
DEFAULT_255_1_388
10
24.1109232
20
100.2073048
11
24.1109232
21
99.9019
0
LINE
8
DEFAULT_255_1_388
10
24.1109232
20
99.9019
11
23.9428603
21
99.9019
0
LINE
8
DEFAULT_255_1_388
10
23.9428603
20
99.9019
11
23.9428603
21
100.2073048
0
LINE
8
DEFAULT_255_1_388
10
23.9428603
20
100.2073048
11
23.343797
21
100.2073048
0
LINE
8
DEFAULT_255_1_388
10
23.343797
20
100.2073048
11
23.343797
21
100.3057933
0
LINE
8
DEFAULT_255_1_388
10
23.343797
20
100.3057933
11
23.932921
21
101.2174898
0
LINE
8
DEFAULT_255_1_388
10
23.932921
20
101.2174898
11
24.1109232
21
101.2174898
0
LINE
8
DEFAULT_255_1_388
10
23.9229818
20
100.9527455
11
23.5335456
21
100.343743
0
LINE
8
DEFAULT_255_1_388
10
23.5335456
20
100.343743
11
23.9428603
21
100.343743
0
LINE
8
DEFAULT_255_1_388
10
23.9428603
20
100.343743
11
23.9428603
21
100.988888
0
LINE
8
DEFAULT_255_1_388
10
23.9428603
20
100.988888
11
23.9229818
21
100.9527455
0
LINE
8
DEFAULT_255_1_388
10
21.0165946
20
108.5378553
11
21.0165946
21
108.4547274
0
LINE
8
DEFAULT_255_1_388
10
19.9585206
20
108.4429811
11
19.9585206
21
108.5378553
0
LINE
8
DEFAULT_255_1_388
10
20.8440138
20
108.4420775
11
20.8440138
21
108.5396625
0
LINE
8
DEFAULT_255_1_388
10
20.1311014
20
108.5514088
11
20.1311014
21
108.4547274
0
ARC
8
DEFAULT_255_1_388
10
20.0443684
20
108.4502726
40
0.9722364
50
350.4878118
51
0.2625322
0
ARC
8
DEFAULT_255_1_388
10
20.3023644
20
108.4058994
40
0.7104556
50
336.0277991
51
350.5787241
0
ARC
8
DEFAULT_255_1_388
10
20.4536751
20
108.3375243
40
0.544417
50
319.887443
51
336.1331163
0
ARC
8
DEFAULT_255_1_388
10
20.5214563
20
108.2832733
40
0.4576311
50
302.4806296
51
319.6144102
0
ARC
8
DEFAULT_255_1_388
10
20.5085184
20
108.3082067
40
0.4856183
50
275.8196423
51
302.1885521
0
ARC
8
DEFAULT_255_1_388
10
20.4898046
20
108.4367466
40
0.6154183
50
269.9169897
51
276.339506
0
ARC
8
DEFAULT_255_1_388
10
20.4847646
20
108.359568
40
0.5382553
50
252.5221437
51
270.441579
0
ARC
8
DEFAULT_255_1_388
10
20.4685897
20
108.2989046
40
0.4755426
50
237.5349961
51
252.1858334
0
ARC
8
DEFAULT_255_1_388
10
20.4786273
20
108.311712
40
0.4917393
50
209.0632754
51
237.3492577
0
ARC
8
DEFAULT_255_1_388
10
20.5765599
20
108.3732104
40
0.6072464
50
205.118533
51
209.6465345
0
ARC
8
DEFAULT_255_1_388
10
20.6661601
20
108.4112174
40
0.7045164
50
188.7216633
51
204.8239753
0
ARC
8
DEFAULT_255_1_388
10
20.8908376
20
108.4490387
40
0.9323368
50
180.3722704
51
188.9253909
0
ARC
8
DEFAULT_255_1_388
10
20.8877938
20
108.5423416
40
0.929284
50
169.5253055
51
180.2766048
0
ARC
8
DEFAULT_255_1_388
10
20.6737737
20
108.5817024
40
0.7116745
50
155.8314601
51
169.5088611
0
ARC
8
DEFAULT_255_1_388
10
20.52972
20
108.6485312
40
0.5528904
50
139.6259579
51
156.0379072
0
ARC
8
DEFAULT_255_1_388
10
20.4633733
20
108.7019143
40
0.4677708
50
122.6414784
51
139.3431662
0
ARC
8
DEFAULT_255_1_388
10
20.4746988
20
108.6812787
40
0.4912586
50
93.0224537
51
122.4556091
0
ARC
8
DEFAULT_255_1_388
10
20.4868509
20
108.5726776
40
0.6003837
50
89.9756766
51
93.6340839
0
ARC
8
DEFAULT_255_1_388
10
20.4912107
20
108.6175879
40
0.5554884
50
73.7463329
51
90.4234008
0
ARC
8
DEFAULT_255_1_388
10
20.510958
20
108.6940772
40
0.4765353
50
57.663051
51
73.4516911
0
ARC
8
DEFAULT_255_1_388
10
20.5100618
20
108.6965108
40
0.4749629
50
29.1441355
51
57.4146687
0
ARC
8
DEFAULT_255_1_388
10
20.4048429
20
108.6308046
40
0.5988917
50
24.0985653
51
29.732054
0
ARC
8
DEFAULT_255_1_388
10
20.2886061
20
108.5826154
40
0.7246823
50
8.6654943
51
23.8241215
0
ARC
8
DEFAULT_255_1_388
10
20.0372479
20
108.5416037
40
0.9793537
50
359.7807044
51
8.8218476
0
ARC
8
DEFAULT_255_1_388
10
19.9082184
20
108.5444731
40
0.9358078
50
359.7054632
51
8.0359751
0
ARC
8
DEFAULT_255_1_388
10
20.2457235
20
108.5936252
40
0.5947474
50
7.8926278
51
20.2962188
0
ARC
8
DEFAULT_255_1_388
10
20.4288085
20
108.6611367
40
0.3996117
50
20.3231056
51
36.4990255
0
ARC
8
DEFAULT_255_1_388
10
20.5059383
20
108.7205399
40
0.3022818
50
36.1436715
51
85.6627846
0
ARC
8
DEFAULT_255_1_388
10
20.4876638
20
108.6035881
40
0.4203853
50
84.3845912
51
90.076054
0
ARC
8
DEFAULT_255_1_388
10
20.4828993
20
108.6778416
40
0.346157
50
89.3037228
51
109.9046209
0
ARC
8
DEFAULT_255_1_388
10
20.4724826
20
108.7208379
40
0.3022217
50
110.8229774
51
143.917961
0
ARC
8
DEFAULT_255_1_388
10
20.5775185
20
108.6406455
40
0.434348
50
143.5289166
51
163.2980252
0
ARC
8
DEFAULT_255_1_388
10
20.7921472
20
108.5731685
40
0.659321
50
163.0418884
51
174.3139873
0
ARC
8
DEFAULT_255_1_388
10
21.0626437
20
108.5419378
40
0.9315905
50
174.050934
51
179.4174954
0
ARC
8
DEFAULT_255_1_388
10
21.0058381
20
108.4500382
40
0.8747493
50
179.6928582
51
188.7908948
0
ARC
8
DEFAULT_255_1_388
10
20.7062181
20
108.4021086
40
0.5713262
50
188.6328449
51
202.5630732
0
ARC
8
DEFAULT_255_1_388
10
20.5651018
20
108.3454142
40
0.4192612
50
202.8078931
51
216.1195888
0
ARC
8
DEFAULT_255_1_388
10
20.4740535
20
108.2721479
40
0.3025752
50
215.0755613
51
264.6379773
0
ARC
8
DEFAULT_255_1_388
10
20.4883372
20
108.3656376
40
0.3970284
50
263.8464302
51
270.0830805
0
ARC
8
DEFAULT_255_1_388
10
20.4929917
20
108.3365808
40
0.3679937
50
269.3649295
51
287.5149684
0
ARC
8
DEFAULT_255_1_388
10
20.5130358
20
108.2637714
40
0.2925408
50
288.0629019
51
323.8115617
0
ARC
8
DEFAULT_255_1_388
10
20.4150334
20
108.3368754
40
0.4148018
50
323.6546541
51
342.6591359
0
ARC
8
DEFAULT_255_1_388
10
20.1864992
20
108.411228
40
0.6551163
50
342.4092446
51
353.6451501
0
ARC
8
DEFAULT_255_1_388
10
19.8679785
20
108.4508565
40
0.9760748
50
353.4027553
51
359.4846611
0
LINE
8
DEFAULT_255_1_388
10
22.0285868
20
109.1549898
11
22.2029747
21
109.1549898
0
LINE
8
DEFAULT_255_1_388
10
22.2029747
20
109.1549898
11
22.2029747
21
108.260461
0
LINE
8
DEFAULT_255_1_388
10
21.7710709
20
107.8231358
11
21.7249891
21
107.8213287
0
LINE
8
DEFAULT_255_1_388
10
21.2506178
20
108.2586539
11
21.2506178
21
109.1549898
0
LINE
8
DEFAULT_255_1_388
10
21.2506178
20
109.1549898
11
21.422295
21
109.1549898
0
LINE
8
DEFAULT_255_1_388
10
21.422295
20
109.1549898
11
21.422295
21
108.2640753
0
LINE
8
DEFAULT_255_1_388
10
22.0285868
20
108.2631717
11
22.0285868
21
109.1549898
0
ARC
8
DEFAULT_255_1_388
10
21.7132546
20
108.258227
40
0.4897252
50
343.0897723
51
0.2613727
0
ARC
8
DEFAULT_255_1_388
10
21.8064517
20
108.232227
40
0.3930016
50
315.3344451
51
342.7642569
0
ARC
8
DEFAULT_255_1_388
10
21.7813012
20
108.2583085
40
0.4292244
50
284.6605441
51
315.2183439
0
ARC
8
DEFAULT_255_1_388
10
21.7300792
20
108.4322508
40
0.6104926
50
273.8500371
51
285.1796441
0
ARC
8
DEFAULT_255_1_388
10
21.7201857
20
108.4706762
40
0.6493653
50
257.6315393
51
270.4238259
0
ARC
8
DEFAULT_255_1_388
10
21.672394
20
108.2657915
40
0.4390079
50
230.6086859
51
257.9965362
0
ARC
8
DEFAULT_255_1_388
10
21.6577998
20
108.2428643
40
0.4120404
50
227.745033
51
230.1538266
0
ARC
8
DEFAULT_255_1_388
10
21.6424528
20
108.2244253
40
0.3880742
50
189.2524335
51
227.5915299
0
ARC
8
DEFAULT_255_1_388
10
21.8136399
20
108.2612735
40
0.5630282
50
180.2665782
51
190.1525221
0
ARC
8
DEFAULT_255_1_388
10
21.8386127
20
108.2609254
40
0.4163296
50
179.566507
51
191.9954402
0
ARC
8
DEFAULT_255_1_388
10
21.7004816
20
108.2301151
40
0.274815
50
191.6974619
51
215.1403758
0
ARC
8
DEFAULT_255_1_388
10
21.6737208
20
108.2141689
40
0.2437647
50
215.6958251
51
224.8509274
0
ARC
8
DEFAULT_255_1_388
10
21.6799684
20
108.2231016
40
0.2545012
50
225.2846515
51
255.0110023
0
ARC
8
DEFAULT_255_1_388
10
21.716413
20
108.3484017
40
0.384974
50
254.5945979
51
267.9129427
0
ARC
8
DEFAULT_255_1_388
10
21.7247823
20
108.4701444
40
0.506956
50
267.4687563
51
270.0233681
0
ARC
8
DEFAULT_255_1_388
10
21.7281819
20
108.4041288
40
0.440952
50
269.5851384
51
281.1845308
0
ARC
8
DEFAULT_255_1_388
10
21.7595423
20
108.2519469
40
0.2855802
50
280.9345159
51
300.9740496
0
ARC
8
DEFAULT_255_1_388
10
21.7834603
20
108.2079128
40
0.2355257
50
301.4982546
51
315.1468616
0
ARC
8
DEFAULT_255_1_388
10
21.7672099
20
108.2212488
40
0.2564594
50
315.5952932
51
345.6679188
0
ARC
8
DEFAULT_255_1_388
10
21.6412656
20
108.2563235
40
0.3871766
50
345.2525685
51
358.6303941
0
ARC
8
DEFAULT_255_1_388
10
21.5269047
20
108.2630695
40
0.5016822
50
358.1723541
51
0.0116795
0
LINE
8
DEFAULT_255_1_388
10
23.3857406
20
109.1549898
11
23.3857406
21
109.0122267
0
LINE
8
DEFAULT_255_1_388
10
23.3857406
20
109.0122267
11
22.9628724
21
109.0122267
0
LINE
8
DEFAULT_255_1_388
10
22.9628724
20
109.0122267
11
22.9628724
21
107.8394
0
LINE
8
DEFAULT_255_1_388
10
22.9628724
20
107.8394
11
22.7902916
21
107.8394
0
LINE
8
DEFAULT_255_1_388
10
22.7902916
20
107.8394
11
22.7902916
21
109.0122267
0
LINE
8
DEFAULT_255_1_388
10
22.7902916
20
109.0122267
11
22.368327
21
109.0122267
0
LINE
8
DEFAULT_255_1_388
10
22.368327
20
109.0122267
11
22.368327
21
109.1549898
0
LINE
8
DEFAULT_255_1_388
10
22.368327
20
109.1549898
11
23.3857406
21
109.1549898
0
LINE
8
DEFAULT_255_1_388
10
23.7805982
20
108.4420775
11
23.7805982
21
108.5785157
0
LINE
8
DEFAULT_255_1_388
10
23.7805982
20
108.5785157
11
23.9061937
21
108.5785157
0
LINE
8
DEFAULT_255_1_388
10
23.6920489
20
108.8098282
11
23.5248895
21
108.8098282
0
LINE
8
DEFAULT_255_1_388
10
23.5131432
20
108.1863688
11
23.6812062
21
108.1863688
0
LINE
8
DEFAULT_255_1_388
10
23.9061937
20
108.4420775
11
23.7805982
21
108.4420775
0
ARC
8
DEFAULT_255_1_388
10
23.9029164
20
108.9601922
40
0.3816905
50
270.491971
51
281.8953028
0
ARC
8
DEFAULT_255_1_388
10
23.930059
20
108.8362199
40
0.2547877
50
281.6690378
51
301.2943765
0
ARC
8
DEFAULT_255_1_388
10
23.9492042
20
108.8011926
40
0.2149197
50
301.7834992
51
311.754567
0
ARC
8
DEFAULT_255_1_388
10
23.9595083
20
108.789765
40
0.1995326
50
311.7325027
51
354.2803031
0
ARC
8
DEFAULT_255_1_388
10
23.8777499
20
108.803828
40
0.2823461
50
353.0941646
51
0.1174696
0
ARC
8
DEFAULT_255_1_388
10
23.8259057
20
108.8091874
40
0.3342238
50
359.1804452
51
15.0452323
0
ARC
8
DEFAULT_255_1_388
10
23.9773115
20
108.8533546
40
0.1765747
50
13.957816
51
77.6713812
0
ARC
8
DEFAULT_255_1_388
10
23.9338351
20
108.6975464
40
0.3381982
50
76.111571
51
90.7028736
0
ARC
8
DEFAULT_255_1_388
10
23.9271763
20
108.728325
40
0.3074046
50
89.5321574
51
103.5319393
0
ARC
8
DEFAULT_255_1_388
10
23.9046147
20
108.8182443
40
0.2147041
50
103.2930114
51
133.5619756
0
ARC
8
DEFAULT_255_1_388
10
23.8996088
20
108.8249351
40
0.2064084
50
133.8349761
51
173.5343225
0
ARC
8
DEFAULT_255_1_388
10
23.9809746
20
108.8105144
40
0.2889266
50
172.5097183
51
180.1360699
0
ARC
8
DEFAULT_255_1_388
10
23.873951
20
108.814388
40
0.3490913
50
155.3483706
51
180.7484035
0
ARC
8
DEFAULT_255_1_388
10
23.8684486
20
108.8111519
40
0.3454798
50
131.5745177
51
154.4799474
0
ARC
8
DEFAULT_255_1_388
10
23.9036768
20
108.7755422
40
0.3955058
50
96.9874487
51
131.9690874
0
ARC
8
DEFAULT_255_1_388
10
23.9283661
20
108.6354407
40
0.537622
50
89.8592909
51
97.7827481
0
ARC
8
DEFAULT_255_1_388
10
23.933777
20
108.605936
40
0.5671399
50
78.3654493
51
90.4132586
0
ARC
8
DEFAULT_255_1_388
10
23.9740411
20
108.7925918
40
0.3762034
50
56.6229818
51
78.6387103
0
ARC
8
DEFAULT_255_1_388
10
23.998224
20
108.8348846
40
0.3275964
50
47.0254604
51
56.085558
0
ARC
8
DEFAULT_255_1_388
10
24.0004491
20
108.8393189
40
0.3228382
50
10.9207523
51
46.777927
0
ARC
8
DEFAULT_255_1_388
10
23.8470085
20
108.8038401
40
0.4802559
50
359.6364235
51
11.6087615
0
ARC
8
DEFAULT_255_1_388
10
24.0534251
20
108.8021404
40
0.273833
50
332.3549969
51
359.7179765
0
ARC
8
DEFAULT_255_1_388
10
23.9802651
20
108.8368285
40
0.3547505
50
325.2332381
51
332.8746682
0
ARC
8
DEFAULT_255_1_388
10
23.9974234
20
108.8248763
40
0.3338396
50
292.9803892
51
325.2391113
0
ARC
8
DEFAULT_255_1_388
10
23.966343
20
108.8853679
40
0.4016959
50
292.542178
51
293.6931461
0
ARC
8
DEFAULT_255_1_388
10
24.0107002
20
108.1588036
40
0.372079
50
57.643292
51
72.8626085
0
ARC
8
DEFAULT_255_1_388
10
24.0505836
20
108.2234273
40
0.2961455
50
36.7246661
51
57.4701329
0
ARC
8
DEFAULT_255_1_388
10
24.0492993
20
108.224847
40
0.2963321
50
8.054535
51
36.3561529
0
ARC
8
DEFAULT_255_1_388
10
23.9522666
20
108.2074073
40
0.3948682
50
359.8316595
51
8.5873361
0
ARC
8
DEFAULT_255_1_388
10
23.910014
20
108.201997
40
0.4371398
50
343.9831631
51
0.557075
0
ARC
8
DEFAULT_255_1_388
10
24.009719
20
108.1746963
40
0.3337749
50
311.6358204
51
343.7652116
0
ARC
8
DEFAULT_255_1_388
10
23.9671443
20
108.2226955
40
0.3979351
50
279.7829743
51
311.625622
0
ARC
8
DEFAULT_255_1_388
10
23.9332579
20
108.3843642
40
0.5630417
50
269.7285092
51
280.3857694
0
ARC
8
DEFAULT_255_1_388
10
23.9262891
20
108.3797241
40
0.5584119
50
256.6827433
51
270.4412869
0
ARC
8
DEFAULT_255_1_388
10
23.8881878
20
108.2239698
40
0.3980715
50
229.4223821
51
256.8554507
0
ARC
8
DEFAULT_255_1_388
10
23.8415431
20
108.1714683
40
0.3278564
50
181.8183354
51
229.6455015
0
ARC
8
DEFAULT_255_1_388
10
23.9585041
20
108.1861825
40
0.4453611
50
179.9760419
51
183.2330638
0
ARC
8
DEFAULT_255_1_388
10
23.9391593
20
108.1838781
40
0.2579652
50
179.4467996
51
196.2871626
0
ARC
8
DEFAULT_255_1_388
10
23.8843047
20
108.1688709
40
0.2011057
50
196.5661293
51
227.7059371
0
ARC
8
DEFAULT_255_1_388
10
23.9027654
20
108.1895155
40
0.2287994
50
227.7653015
51
257.8763321
0
ARC
8
DEFAULT_255_1_388
10
23.9280737
20
108.2955961
40
0.3378385
50
257.4583525
51
270.4267406
0
ARC
8
DEFAULT_255_1_388
10
23.9331987
20
108.328223
40
0.3704652
50
269.5965319
51
280.8788143
0
ARC
8
DEFAULT_255_1_388
10
23.9590215
20
108.1992529
40
0.2389415
50
280.6347277
51
299.8594068
0
ARC
8
DEFAULT_255_1_388
10
23.9804985
20
108.1584736
40
0.19289
50
300.3575552
51
314.5515667
0
ARC
8
DEFAULT_255_1_388
10
23.971166
20
108.1653025
40
0.204312
50
315.0730962
51
345.0429362
0
ARC
8
DEFAULT_255_1_388
10
23.8673168
20
108.1955539
40
0.31246
50
344.598526
51
357.9270698
0
ARC
8
DEFAULT_255_1_388
10
23.7663472
20
108.2024705
40
0.4136265
50
357.4755098
51
0.0224936
0
ARC
8
DEFAULT_255_1_388
10
23.881635
20
108.2052099
40
0.2983498
50
359.5051035
51
13.4236939
0
ARC
8
DEFAULT_255_1_388
10
23.979144
20
108.2301637
40
0.1977186
50
12.9497905
51
48.7550905
0
ARC
8
DEFAULT_255_1_388
10
23.9586362
20
108.2021373
40
0.2323321
50
49.509109
51
72.1832965
0
ARC
8
DEFAULT_255_1_388
10
23.918383
20
108.0826632
40
0.358397
50
71.9008458
51
84.3555134
0
ARC
8
DEFAULT_255_1_388
10
23.9002225
20
107.9294712
40
0.512641
50
84.019632
51
89.3326067
0
LINE
8
DEFAULT_255_1_388
10
21.0165946
20
116.4753553
11
21.0165946
21
116.3922274
0
LINE
8
DEFAULT_255_1_388
10
19.9585206
20
116.3804811
11
19.9585206
21
116.4753553
0
LINE
8
DEFAULT_255_1_388
10
20.8440138
20
116.3795775
11
20.8440138
21
116.4771625
0
LINE
8
DEFAULT_255_1_388
10
20.1311014
20
116.4889088
11
20.1311014
21
116.3922274
0
ARC
8
DEFAULT_255_1_388
10
20.0443684
20
116.3877726
40
0.9722364
50
350.4878118
51
0.2625322
0
ARC
8
DEFAULT_255_1_388
10
20.3023644
20
116.3433994
40
0.7104556
50
336.0277991
51
350.5787241
0
ARC
8
DEFAULT_255_1_388
10
20.4536751
20
116.2750243
40
0.544417
50
319.887443
51
336.1331163
0
ARC
8
DEFAULT_255_1_388
10
20.5214563
20
116.2207733
40
0.4576311
50
302.4806296
51
319.6144102
0
ARC
8
DEFAULT_255_1_388
10
20.5085184
20
116.2457067
40
0.4856183
50
275.8196423
51
302.1885521
0
ARC
8
DEFAULT_255_1_388
10
20.4898046
20
116.3742466
40
0.6154183
50
269.9169897
51
276.339506
0
ARC
8
DEFAULT_255_1_388
10
20.4847646
20
116.297068
40
0.5382553
50
252.5221437
51
270.441579
0
ARC
8
DEFAULT_255_1_388
10
20.4685897
20
116.2364046
40
0.4755426
50
237.5349961
51
252.1858334
0
ARC
8
DEFAULT_255_1_388
10
20.4786273
20
116.249212
40
0.4917393
50
209.0632754
51
237.3492577
0
ARC
8
DEFAULT_255_1_388
10
20.5765599
20
116.3107104
40
0.6072464
50
205.118533
51
209.6465345
0
ARC
8
DEFAULT_255_1_388
10
20.6661601
20
116.3487174
40
0.7045164
50
188.7216633
51
204.8239753
0
ARC
8
DEFAULT_255_1_388
10
20.8908376
20
116.3865387
40
0.9323368
50
180.3722704
51
188.9253909
0
ARC
8
DEFAULT_255_1_388
10
20.8877938
20
116.4798416
40
0.929284
50
169.5253055
51
180.2766048
0
ARC
8
DEFAULT_255_1_388
10
20.6737737
20
116.5192024
40
0.7116745
50
155.8314601
51
169.5088611
0
ARC
8
DEFAULT_255_1_388
10
20.52972
20
116.5860312
40
0.5528904
50
139.6259579
51
156.0379072
0
ARC
8
DEFAULT_255_1_388
10
20.4633733
20
116.6394143
40
0.4677708
50
122.6414784
51
139.3431662
0
ARC
8
DEFAULT_255_1_388
10
20.4746988
20
116.6187787
40
0.4912586
50
93.0224537
51
122.4556091
0
ARC
8
DEFAULT_255_1_388
10
20.4868509
20
116.5101776
40
0.6003837
50
89.9756766
51
93.6340839
0
ARC
8
DEFAULT_255_1_388
10
20.4912107
20
116.5550879
40
0.5554884
50
73.7463329
51
90.4234008
0
ARC
8
DEFAULT_255_1_388
10
20.510958
20
116.6315772
40
0.4765353
50
57.663051
51
73.4516911
0
ARC
8
DEFAULT_255_1_388
10
20.5100618
20
116.6340108
40
0.4749629
50
29.1441355
51
57.4146687
0
ARC
8
DEFAULT_255_1_388
10
20.4048429
20
116.5683046
40
0.5988917
50
24.0985653
51
29.732054
0
ARC
8
DEFAULT_255_1_388
10
20.2886061
20
116.5201154
40
0.7246823
50
8.6654943
51
23.8241215
0
ARC
8
DEFAULT_255_1_388
10
20.0372479
20
116.4791037
40
0.9793537
50
359.7807044
51
8.8218476
0
ARC
8
DEFAULT_255_1_388
10
19.9082184
20
116.4819731
40
0.9358078
50
359.7054632
51
8.0359751
0
ARC
8
DEFAULT_255_1_388
10
20.2457235
20
116.5311252
40
0.5947474
50
7.8926278
51
20.2962188
0
ARC
8
DEFAULT_255_1_388
10
20.4288085
20
116.5986367
40
0.3996117
50
20.3231056
51
36.4990255
0
ARC
8
DEFAULT_255_1_388
10
20.5059383
20
116.6580399
40
0.3022818
50
36.1436715
51
85.6627846
0
ARC
8
DEFAULT_255_1_388
10
20.4876638
20
116.5410881
40
0.4203853
50
84.3845912
51
90.076054
0
ARC
8
DEFAULT_255_1_388
10
20.4828993
20
116.6153416
40
0.346157
50
89.3037228
51
109.9046209
0
ARC
8
DEFAULT_255_1_388
10
20.4724826
20
116.6583379
40
0.3022217
50
110.8229774
51
143.917961
0
ARC
8
DEFAULT_255_1_388
10
20.5775185
20
116.5781455
40
0.434348
50
143.5289166
51
163.2980252
0
ARC
8
DEFAULT_255_1_388
10
20.7921472
20
116.5106685
40
0.659321
50
163.0418884
51
174.3139873
0
ARC
8
DEFAULT_255_1_388
10
21.0626437
20
116.4794378
40
0.9315905
50
174.050934
51
179.4174954
0
ARC
8
DEFAULT_255_1_388
10
21.0058381
20
116.3875382
40
0.8747493
50
179.6928582
51
188.7908948
0
ARC
8
DEFAULT_255_1_388
10
20.7062181
20
116.3396086
40
0.5713262
50
188.6328449
51
202.5630732
0
ARC
8
DEFAULT_255_1_388
10
20.5651018
20
116.2829142
40
0.4192612
50
202.8078931
51
216.1195888
0
ARC
8
DEFAULT_255_1_388
10
20.4740535
20
116.2096479
40
0.3025752
50
215.0755613
51
264.6379773
0
ARC
8
DEFAULT_255_1_388
10
20.4883372
20
116.3031376
40
0.3970284
50
263.8464302
51
270.0830805
0
ARC
8
DEFAULT_255_1_388
10
20.4929917
20
116.2740808
40
0.3679937
50
269.3649295
51
287.5149684
0
ARC
8
DEFAULT_255_1_388
10
20.5130358
20
116.2012714
40
0.2925408
50
288.0629019
51
323.8115617
0
ARC
8
DEFAULT_255_1_388
10
20.4150334
20
116.2743754
40
0.4148018
50
323.6546541
51
342.6591359
0
ARC
8
DEFAULT_255_1_388
10
20.1864992
20
116.348728
40
0.6551163
50
342.4092446
51
353.6451501
0
ARC
8
DEFAULT_255_1_388
10
19.8679785
20
116.3883565
40
0.9760748
50
353.4027553
51
359.4846611
0
LINE
8
DEFAULT_255_1_388
10
22.0285868
20
117.0924898
11
22.2029747
21
117.0924898
0
LINE
8
DEFAULT_255_1_388
10
22.2029747
20
117.0924898
11
22.2029747
21
116.197961
0
LINE
8
DEFAULT_255_1_388
10
21.7710709
20
115.7606358
11
21.7249891
21
115.7588287
0
LINE
8
DEFAULT_255_1_388
10
21.2506178
20
116.1961539
11
21.2506178
21
117.0924898
0
LINE
8
DEFAULT_255_1_388
10
21.2506178
20
117.0924898
11
21.422295
21
117.0924898
0
LINE
8
DEFAULT_255_1_388
10
21.422295
20
117.0924898
11
21.422295
21
116.2015753
0
LINE
8
DEFAULT_255_1_388
10
22.0285868
20
116.2006717
11
22.0285868
21
117.0924898
0
ARC
8
DEFAULT_255_1_388
10
21.7132546
20
116.195727
40
0.4897252
50
343.0897723
51
0.2613727
0
ARC
8
DEFAULT_255_1_388
10
21.8064517
20
116.169727
40
0.3930016
50
315.3344451
51
342.7642569
0
ARC
8
DEFAULT_255_1_388
10
21.7813012
20
116.1958085
40
0.4292244
50
284.6605441
51
315.2183439
0
ARC
8
DEFAULT_255_1_388
10
21.7300792
20
116.3697508
40
0.6104926
50
273.8500371
51
285.1796441
0
ARC
8
DEFAULT_255_1_388
10
21.7201857
20
116.4081762
40
0.6493653
50
257.6315393
51
270.4238259
0
ARC
8
DEFAULT_255_1_388
10
21.672394
20
116.2032915
40
0.4390079
50
230.6086859
51
257.9965362
0
ARC
8
DEFAULT_255_1_388
10
21.6577998
20
116.1803643
40
0.4120404
50
227.745033
51
230.1538266
0
ARC
8
DEFAULT_255_1_388
10
21.6424528
20
116.1619253
40
0.3880742
50
189.2524335
51
227.5915299
0
ARC
8
DEFAULT_255_1_388
10
21.8136399
20
116.1987735
40
0.5630282
50
180.2665782
51
190.1525221
0
ARC
8
DEFAULT_255_1_388
10
21.8386127
20
116.1984254
40
0.4163296
50
179.566507
51
191.9954402
0
ARC
8
DEFAULT_255_1_388
10
21.7004816
20
116.1676151
40
0.274815
50
191.6974619
51
215.1403758
0
ARC
8
DEFAULT_255_1_388
10
21.6737208
20
116.1516689
40
0.2437647
50
215.6958251
51
224.8509274
0
ARC
8
DEFAULT_255_1_388
10
21.6799684
20
116.1606016
40
0.2545012
50
225.2846515
51
255.0110023
0
ARC
8
DEFAULT_255_1_388
10
21.716413
20
116.2859017
40
0.384974
50
254.5945979
51
267.9129427
0
ARC
8
DEFAULT_255_1_388
10
21.7247823
20
116.4076444
40
0.506956
50
267.4687563
51
270.0233681
0
ARC
8
DEFAULT_255_1_388
10
21.7281819
20
116.3416288
40
0.440952
50
269.5851384
51
281.1845308
0
ARC
8
DEFAULT_255_1_388
10
21.7595423
20
116.1894469
40
0.2855802
50
280.9345159
51
300.9740496
0
ARC
8
DEFAULT_255_1_388
10
21.7834603
20
116.1454128
40
0.2355257
50
301.4982546
51
315.1468616
0
ARC
8
DEFAULT_255_1_388
10
21.7672099
20
116.1587488
40
0.2564594
50
315.5952932
51
345.6679188
0
ARC
8
DEFAULT_255_1_388
10
21.6412656
20
116.1938235
40
0.3871766
50
345.2525685
51
358.6303941
0
ARC
8
DEFAULT_255_1_388
10
21.5269047
20
116.2005695
40
0.5016822
50
358.1723541
51
0.0116795
0
LINE
8
DEFAULT_255_1_388
10
23.3857406
20
117.0924898
11
23.3857406
21
116.9497267
0
LINE
8
DEFAULT_255_1_388
10
23.3857406
20
116.9497267
11
22.9628724
21
116.9497267
0
LINE
8
DEFAULT_255_1_388
10
22.9628724
20
116.9497267
11
22.9628724
21
115.7769
0
LINE
8
DEFAULT_255_1_388
10
22.9628724
20
115.7769
11
22.7902916
21
115.7769
0
LINE
8
DEFAULT_255_1_388
10
22.7902916
20
115.7769
11
22.7902916
21
116.9497267
0
LINE
8
DEFAULT_255_1_388
10
22.7902916
20
116.9497267
11
22.368327
21
116.9497267
0
LINE
8
DEFAULT_255_1_388
10
22.368327
20
116.9497267
11
22.368327
21
117.0924898
0
LINE
8
DEFAULT_255_1_388
10
22.368327
20
117.0924898
11
23.3857406
21
117.0924898
0
LINE
8
DEFAULT_255_1_388
10
24.3995399
20
115.9133382
11
24.3995399
21
115.7769
0
LINE
8
DEFAULT_255_1_388
10
24.3995399
20
115.7769
11
23.5375394
21
115.7769
0
LINE
8
DEFAULT_255_1_388
10
23.5375394
20
115.7769
11
23.5375394
21
115.8970741
0
LINE
8
DEFAULT_255_1_388
10
23.5375394
20
115.8970741
11
23.9929359
21
116.4030702
0
LINE
8
DEFAULT_255_1_388
10
23.679399
20
116.7048607
11
23.5122396
21
116.7048607
0
LINE
8
DEFAULT_255_1_388
10
24.0914244
20
116.295546
11
23.7390343
21
115.9133382
0
LINE
8
DEFAULT_255_1_388
10
23.7390343
20
115.9133382
11
24.3995399
21
115.9133382
0
ARC
8
DEFAULT_255_1_388
10
22.4753418
20
117.7450983
40
2.0258655
50
318.5132526
51
320.7829045
0
ARC
8
DEFAULT_255_1_388
10
23.0701375
20
117.2609929
40
1.2589638
50
320.7372878
51
323.9739031
0
ARC
8
DEFAULT_255_1_388
10
23.5110307
20
116.9415554
40
0.7145141
50
323.8962701
51
328.64194
0
ARC
8
DEFAULT_255_1_388
10
23.7412565
20
116.7995545
40
0.4440242
50
328.8294576
51
331.7891185
0
ARC
8
DEFAULT_255_1_388
10
23.8534885
20
116.7416374
40
0.3177517
50
331.4254512
51
352.9365785
0
ARC
8
DEFAULT_255_1_388
10
23.8687885
20
116.738205
40
0.3021496
50
353.2257659
51
0.0166158
0
ARC
8
DEFAULT_255_1_388
10
23.8924645
20
116.7407894
40
0.2784847
50
359.486299
51
15.9343185
0
ARC
8
DEFAULT_255_1_388
10
23.9494912
20
116.7561269
40
0.2194403
50
16.1712913
51
43.5286088
0
ARC
8
DEFAULT_255_1_388
10
23.9581857
20
116.7648191
40
0.2071504
50
43.4417391
51
83.1661095
0
ARC
8
DEFAULT_255_1_388
10
23.9431018
20
116.6819316
40
0.2912888
50
82.160179
51
90.1505708
0
ARC
8
DEFAULT_255_1_388
10
23.9395499
20
116.6215279
40
0.3517025
50
89.5460741
51
102.5418361
0
ARC
8
DEFAULT_255_1_388
10
23.9122219
20
116.7374933
40
0.2325748
50
102.1738499
51
129.206123
0
ARC
8
DEFAULT_255_1_388
10
23.9033673
20
116.7514664
40
0.2161591
50
129.72865
51
135.753947
0
ARC
8
DEFAULT_255_1_388
10
23.9170155
20
116.7405728
40
0.2335433
50
136.1757367
51
166.3673339
0
ARC
8
DEFAULT_255_1_388
10
24.0302843
20
116.7102148
40
0.3507873
50
165.9090694
51
178.8684636
0
ARC
8
DEFAULT_255_1_388
10
24.1278615
20
116.7049263
40
0.4484624
50
178.4391136
51
180.0083808
0
ARC
8
DEFAULT_255_1_388
10
23.9699316
20
116.7093197
40
0.4577138
50
163.2878482
51
180.5581842
0
ARC
8
DEFAULT_255_1_388
10
23.8797357
20
116.7341393
40
0.3641968
50
133.4540601
51
162.947111
0
ARC
8
DEFAULT_255_1_388
10
23.8998239
20
116.7127789
40
0.3935189
50
100.7869829
51
133.4382499
0
ARC
8
DEFAULT_255_1_388
10
23.9389484
20
116.5385399
40
0.5720313
50
89.660664
51
101.3702276
0
ARC
8
DEFAULT_255_1_388
10
23.9464093
20
116.5454263
40
0.5651495
50
78.2172678
51
90.412935
0
ARC
8
DEFAULT_255_1_388
10
23.9863559
20
116.7281511
40
0.378122
50
55.9269121
51
78.4888449
0
ARC
8
DEFAULT_255_1_388
10
24.0084274
20
116.7662187
40
0.3342379
50
47.929771
51
55.4049217
0
ARC
8
DEFAULT_255_1_388
10
24.0198804
20
116.7778618
40
0.3179217
50
4.334829
51
48.0560205
0
ARC
8
DEFAULT_255_1_388
10
23.8966606
20
116.7587487
40
0.442341
50
359.9251713
51
5.5971671
0
ARC
8
DEFAULT_255_1_388
10
23.9448761
20
116.7650728
40
0.3941854
50
337.8914027
51
358.9967534
0
ARC
8
DEFAULT_255_1_388
10
23.6396331
20
116.8828295
40
0.7213271
50
326.9132501
51
338.3508308
0
ARC
8
DEFAULT_255_1_388
10
23.1912443
20
117.1702105
40
1.2538973
50
319.6471833
51
327.0959558
0
ARC
8
DEFAULT_255_1_388
10
22.7599101
20
117.526005
40
1.8129975
50
317.2588228
51
319.9045804
0
LINE
8
DEFAULT_255_1_388
10
21.0165946
20
124.4128553
11
21.0165946
21
124.3297274
0
LINE
8
DEFAULT_255_1_388
10
19.9585206
20
124.3179811
11
19.9585206
21
124.4128553
0
LINE
8
DEFAULT_255_1_388
10
20.8440138
20
124.3170775
11
20.8440138
21
124.4146625
0
LINE
8
DEFAULT_255_1_388
10
20.1311014
20
124.4264088
11
20.1311014
21
124.3297274
0
ARC
8
DEFAULT_255_1_388
10
20.0443684
20
124.3252726
40
0.9722364
50
350.4878118
51
0.2625322
0
ARC
8
DEFAULT_255_1_388
10
20.3023644
20
124.2808994
40
0.7104556
50
336.0277991
51
350.5787241
0
ARC
8
DEFAULT_255_1_388
10
20.4536751
20
124.2125243
40
0.544417
50
319.887443
51
336.1331163
0
ARC
8
DEFAULT_255_1_388
10
20.5214563
20
124.1582733
40
0.4576311
50
302.4806296
51
319.6144102
0
ARC
8
DEFAULT_255_1_388
10
20.5085184
20
124.1832067
40
0.4856183
50
275.8196423
51
302.1885521
0
ARC
8
DEFAULT_255_1_388
10
20.4898046
20
124.3117466
40
0.6154183
50
269.9169897
51
276.339506
0
ARC
8
DEFAULT_255_1_388
10
20.4847646
20
124.234568
40
0.5382553
50
252.5221437
51
270.441579
0
ARC
8
DEFAULT_255_1_388
10
20.4685897
20
124.1739046
40
0.4755426
50
237.5349961
51
252.1858334
0
ARC
8
DEFAULT_255_1_388
10
20.4786273
20
124.186712
40
0.4917393
50
209.0632754
51
237.3492577
0
ARC
8
DEFAULT_255_1_388
10
20.5765599
20
124.2482104
40
0.6072464
50
205.118533
51
209.6465345
0
ARC
8
DEFAULT_255_1_388
10
20.6661601
20
124.2862174
40
0.7045164
50
188.7216633
51
204.8239753
0
ARC
8
DEFAULT_255_1_388
10
20.8908376
20
124.3240387
40
0.9323368
50
180.3722704
51
188.9253909
0
ARC
8
DEFAULT_255_1_388
10
20.8877938
20
124.4173416
40
0.929284
50
169.5253055
51
180.2766048
0
ARC
8
DEFAULT_255_1_388
10
20.6737737
20
124.4567024
40
0.7116745
50
155.8314601
51
169.5088611
0
ARC
8
DEFAULT_255_1_388
10
20.52972
20
124.5235312
40
0.5528904
50
139.6259579
51
156.0379072
0
ARC
8
DEFAULT_255_1_388
10
20.4633733
20
124.5769143
40
0.4677708
50
122.6414784
51
139.3431662
0
ARC
8
DEFAULT_255_1_388
10
20.4746988
20
124.5562787
40
0.4912586
50
93.0224537
51
122.4556091
0
ARC
8
DEFAULT_255_1_388
10
20.4868509
20
124.4476776
40
0.6003837
50
89.9756766
51
93.6340839
0
ARC
8
DEFAULT_255_1_388
10
20.4912107
20
124.4925879
40
0.5554884
50
73.7463329
51
90.4234008
0
ARC
8
DEFAULT_255_1_388
10
20.510958
20
124.5690772
40
0.4765353
50
57.663051
51
73.4516911
0
ARC
8
DEFAULT_255_1_388
10
20.5100618
20
124.5715108
40
0.4749629
50
29.1441355
51
57.4146687
0
ARC
8
DEFAULT_255_1_388
10
20.4048429
20
124.5058046
40
0.5988917
50
24.0985653
51
29.732054
0
ARC
8
DEFAULT_255_1_388
10
20.2886061
20
124.4576154
40
0.7246823
50
8.6654943
51
23.8241215
0
ARC
8
DEFAULT_255_1_388
10
20.0372479
20
124.4166037
40
0.9793537
50
359.7807044
51
8.8218476
0
ARC
8
DEFAULT_255_1_388
10
19.9082184
20
124.4194731
40
0.9358078
50
359.7054632
51
8.0359751
0
ARC
8
DEFAULT_255_1_388
10
20.2457235
20
124.4686252
40
0.5947474
50
7.8926278
51
20.2962188
0
ARC
8
DEFAULT_255_1_388
10
20.4288085
20
124.5361367
40
0.3996117
50
20.3231056
51
36.4990255
0
ARC
8
DEFAULT_255_1_388
10
20.5059383
20
124.5955399
40
0.3022818
50
36.1436715
51
85.6627846
0
ARC
8
DEFAULT_255_1_388
10
20.4876638
20
124.4785881
40
0.4203853
50
84.3845912
51
90.076054
0
ARC
8
DEFAULT_255_1_388
10
20.4828993
20
124.5528416
40
0.346157
50
89.3037228
51
109.9046209
0
ARC
8
DEFAULT_255_1_388
10
20.4724826
20
124.5958379
40
0.3022217
50
110.8229774
51
143.917961
0
ARC
8
DEFAULT_255_1_388
10
20.5775185
20
124.5156455
40
0.434348
50
143.5289166
51
163.2980252
0
ARC
8
DEFAULT_255_1_388
10
20.7921472
20
124.4481685
40
0.659321
50
163.0418884
51
174.3139873
0
ARC
8
DEFAULT_255_1_388
10
21.0626437
20
124.4169378
40
0.9315905
50
174.050934
51
179.4174954
0
ARC
8
DEFAULT_255_1_388
10
21.0058381
20
124.3250382
40
0.8747493
50
179.6928582
51
188.7908948
0
ARC
8
DEFAULT_255_1_388
10
20.7062181
20
124.2771086
40
0.5713262
50
188.6328449
51
202.5630732
0
ARC
8
DEFAULT_255_1_388
10
20.5651018
20
124.2204142
40
0.4192612
50
202.8078931
51
216.1195888
0
ARC
8
DEFAULT_255_1_388
10
20.4740535
20
124.1471479
40
0.3025752
50
215.0755613
51
264.6379773
0
ARC
8
DEFAULT_255_1_388
10
20.4883372
20
124.2406376
40
0.3970284
50
263.8464302
51
270.0830805
0
ARC
8
DEFAULT_255_1_388
10
20.4929917
20
124.2115808
40
0.3679937
50
269.3649295
51
287.5149684
0
ARC
8
DEFAULT_255_1_388
10
20.5130358
20
124.1387714
40
0.2925408
50
288.0629019
51
323.8115617
0
ARC
8
DEFAULT_255_1_388
10
20.4150334
20
124.2118754
40
0.4148018
50
323.6546541
51
342.6591359
0
ARC
8
DEFAULT_255_1_388
10
20.1864992
20
124.286228
40
0.6551163
50
342.4092446
51
353.6451501
0
ARC
8
DEFAULT_255_1_388
10
19.8679785
20
124.3258565
40
0.9760748
50
353.4027553
51
359.4846611
0
LINE
8
DEFAULT_255_1_388
10
22.0285868
20
125.0299898
11
22.2029747
21
125.0299898
0
LINE
8
DEFAULT_255_1_388
10
22.2029747
20
125.0299898
11
22.2029747
21
124.135461
0
LINE
8
DEFAULT_255_1_388
10
21.7710709
20
123.6981358
11
21.7249891
21
123.6963287
0
LINE
8
DEFAULT_255_1_388
10
21.2506178
20
124.1336539
11
21.2506178
21
125.0299898
0
LINE
8
DEFAULT_255_1_388
10
21.2506178
20
125.0299898
11
21.422295
21
125.0299898
0
LINE
8
DEFAULT_255_1_388
10
21.422295
20
125.0299898
11
21.422295
21
124.1390753
0
LINE
8
DEFAULT_255_1_388
10
22.0285868
20
124.1381717
11
22.0285868
21
125.0299898
0
ARC
8
DEFAULT_255_1_388
10
21.7132546
20
124.133227
40
0.4897252
50
343.0897723
51
0.2613727
0
ARC
8
DEFAULT_255_1_388
10
21.8064517
20
124.107227
40
0.3930016
50
315.3344451
51
342.7642569
0
ARC
8
DEFAULT_255_1_388
10
21.7813012
20
124.1333085
40
0.4292244
50
284.6605441
51
315.2183439
0
ARC
8
DEFAULT_255_1_388
10
21.7300792
20
124.3072508
40
0.6104926
50
273.8500371
51
285.1796441
0
ARC
8
DEFAULT_255_1_388
10
21.7201857
20
124.3456762
40
0.6493653
50
257.6315393
51
270.4238259
0
ARC
8
DEFAULT_255_1_388
10
21.672394
20
124.1407915
40
0.4390079
50
230.6086859
51
257.9965362
0
ARC
8
DEFAULT_255_1_388
10
21.6577998
20
124.1178643
40
0.4120404
50
227.745033
51
230.1538266
0
ARC
8
DEFAULT_255_1_388
10
21.6424528
20
124.0994253
40
0.3880742
50
189.2524335
51
227.5915299
0
ARC
8
DEFAULT_255_1_388
10
21.8136399
20
124.1362735
40
0.5630282
50
180.2665782
51
190.1525221
0
ARC
8
DEFAULT_255_1_388
10
21.8386127
20
124.1359254
40
0.4163296
50
179.566507
51
191.9954402
0
ARC
8
DEFAULT_255_1_388
10
21.7004816
20
124.1051151
40
0.274815
50
191.6974619
51
215.1403758
0
ARC
8
DEFAULT_255_1_388
10
21.6737208
20
124.0891689
40
0.2437647
50
215.6958251
51
224.8509274
0
ARC
8
DEFAULT_255_1_388
10
21.6799684
20
124.0981016
40
0.2545012
50
225.2846515
51
255.0110023
0
ARC
8
DEFAULT_255_1_388
10
21.716413
20
124.2234017
40
0.384974
50
254.5945979
51
267.9129427
0
ARC
8
DEFAULT_255_1_388
10
21.7247823
20
124.3451444
40
0.506956
50
267.4687563
51
270.0233681
0
ARC
8
DEFAULT_255_1_388
10
21.7281819
20
124.2791288
40
0.440952
50
269.5851384
51
281.1845308
0
ARC
8
DEFAULT_255_1_388
10
21.7595423
20
124.1269469
40
0.2855802
50
280.9345159
51
300.9740496
0
ARC
8
DEFAULT_255_1_388
10
21.7834603
20
124.0829128
40
0.2355257
50
301.4982546
51
315.1468616
0
ARC
8
DEFAULT_255_1_388
10
21.7672099
20
124.0962488
40
0.2564594
50
315.5952932
51
345.6679188
0
ARC
8
DEFAULT_255_1_388
10
21.6412656
20
124.1313235
40
0.3871766
50
345.2525685
51
358.6303941
0
ARC
8
DEFAULT_255_1_388
10
21.5269047
20
124.1380695
40
0.5016822
50
358.1723541
51
0.0116795
0
LINE
8
DEFAULT_255_1_388
10
23.3857406
20
125.0299898
11
23.3857406
21
124.8872267
0
LINE
8
DEFAULT_255_1_388
10
23.3857406
20
124.8872267
11
22.9628724
21
124.8872267
0
LINE
8
DEFAULT_255_1_388
10
22.9628724
20
124.8872267
11
22.9628724
21
123.7144
0
LINE
8
DEFAULT_255_1_388
10
22.9628724
20
123.7144
11
22.7902916
21
123.7144
0
LINE
8
DEFAULT_255_1_388
10
22.7902916
20
123.7144
11
22.7902916
21
124.8872267
0
LINE
8
DEFAULT_255_1_388
10
22.7902916
20
124.8872267
11
22.368327
21
124.8872267
0
LINE
8
DEFAULT_255_1_388
10
22.368327
20
124.8872267
11
22.368327
21
125.0299898
0
LINE
8
DEFAULT_255_1_388
10
22.368327
20
125.0299898
11
23.3857406
21
125.0299898
0
LINE
8
DEFAULT_255_1_388
10
24.3995399
20
123.8508382
11
24.3995399
21
123.7144
0
LINE
8
DEFAULT_255_1_388
10
24.3995399
20
123.7144
11
23.5375394
21
123.7144
0
LINE
8
DEFAULT_255_1_388
10
23.5375394
20
123.7144
11
23.5375394
21
123.8345741
0
LINE
8
DEFAULT_255_1_388
10
23.5375394
20
123.8345741
11
23.9929359
21
124.3405702
0
LINE
8
DEFAULT_255_1_388
10
23.679399
20
124.6423607
11
23.5122396
21
124.6423607
0
LINE
8
DEFAULT_255_1_388
10
24.0914244
20
124.233046
11
23.7390343
21
123.8508382
0
LINE
8
DEFAULT_255_1_388
10
23.7390343
20
123.8508382
11
24.3995399
21
123.8508382
0
ARC
8
DEFAULT_255_1_388
10
22.4753418
20
125.6825983
40
2.0258655
50
318.5132526
51
320.7829045
0
ARC
8
DEFAULT_255_1_388
10
23.0701375
20
125.1984929
40
1.2589638
50
320.7372878
51
323.9739031
0
ARC
8
DEFAULT_255_1_388
10
23.5110307
20
124.8790554
40
0.7145141
50
323.8962701
51
328.64194
0
ARC
8
DEFAULT_255_1_388
10
23.7412565
20
124.7370545
40
0.4440242
50
328.8294576
51
331.7891185
0
ARC
8
DEFAULT_255_1_388
10
23.8534885
20
124.6791374
40
0.3177517
50
331.4254512
51
352.9365785
0
ARC
8
DEFAULT_255_1_388
10
23.8687885
20
124.675705
40
0.3021496
50
353.2257659
51
0.0166158
0
ARC
8
DEFAULT_255_1_388
10
23.8924645
20
124.6782894
40
0.2784847
50
359.486299
51
15.9343185
0
ARC
8
DEFAULT_255_1_388
10
23.9494912
20
124.6936269
40
0.2194403
50
16.1712913
51
43.5286088
0
ARC
8
DEFAULT_255_1_388
10
23.9581857
20
124.7023191
40
0.2071504
50
43.4417391
51
83.1661095
0
ARC
8
DEFAULT_255_1_388
10
23.9431018
20
124.6194316
40
0.2912888
50
82.160179
51
90.1505708
0
ARC
8
DEFAULT_255_1_388
10
23.9395499
20
124.5590279
40
0.3517025
50
89.5460741
51
102.5418361
0
ARC
8
DEFAULT_255_1_388
10
23.9122219
20
124.6749933
40
0.2325748
50
102.1738499
51
129.206123
0
ARC
8
DEFAULT_255_1_388
10
23.9033673
20
124.6889664
40
0.2161591
50
129.72865
51
135.753947
0
ARC
8
DEFAULT_255_1_388
10
23.9170155
20
124.6780728
40
0.2335433
50
136.1757367
51
166.3673339
0
ARC
8
DEFAULT_255_1_388
10
24.0302843
20
124.6477148
40
0.3507873
50
165.9090694
51
178.8684636
0
ARC
8
DEFAULT_255_1_388
10
24.1278615
20
124.6424263
40
0.4484624
50
178.4391136
51
180.0083808
0
ARC
8
DEFAULT_255_1_388
10
23.9699316
20
124.6468197
40
0.4577138
50
163.2878482
51
180.5581842
0
ARC
8
DEFAULT_255_1_388
10
23.8797357
20
124.6716393
40
0.3641968
50
133.4540601
51
162.947111
0
ARC
8
DEFAULT_255_1_388
10
23.8998239
20
124.6502789
40
0.3935189
50
100.7869829
51
133.4382499
0
ARC
8
DEFAULT_255_1_388
10
23.9389484
20
124.4760399
40
0.5720313
50
89.660664
51
101.3702276
0
ARC
8
DEFAULT_255_1_388
10
23.9464093
20
124.4829263
40
0.5651495
50
78.2172678
51
90.412935
0
ARC
8
DEFAULT_255_1_388
10
23.9863559
20
124.6656511
40
0.378122
50
55.9269121
51
78.4888449
0
ARC
8
DEFAULT_255_1_388
10
24.0084274
20
124.7037187
40
0.3342379
50
47.929771
51
55.4049217
0
ARC
8
DEFAULT_255_1_388
10
24.0198804
20
124.7153618
40
0.3179217
50
4.334829
51
48.0560205
0
ARC
8
DEFAULT_255_1_388
10
23.8966606
20
124.6962487
40
0.442341
50
359.9251713
51
5.5971671
0
ARC
8
DEFAULT_255_1_388
10
23.9448761
20
124.7025728
40
0.3941854
50
337.8914027
51
358.9967534
0
ARC
8
DEFAULT_255_1_388
10
23.6396331
20
124.8203295
40
0.7213271
50
326.9132501
51
338.3508308
0
ARC
8
DEFAULT_255_1_388
10
23.1912443
20
125.1077105
40
1.2538973
50
319.6471833
51
327.0959558
0
ARC
8
DEFAULT_255_1_388
10
22.7599101
20
125.463505
40
1.8129975
50
317.2588228
51
319.9045804
0
LINE
8
DEFAULT_255_1_388
10
21.0165946
20
132.3503553
11
21.0165946
21
132.2672274
0
LINE
8
DEFAULT_255_1_388
10
19.9585206
20
132.2554811
11
19.9585206
21
132.3503553
0
LINE
8
DEFAULT_255_1_388
10
20.8440138
20
132.2545775
11
20.8440138
21
132.3521625
0
LINE
8
DEFAULT_255_1_388
10
20.1311014
20
132.3639088
11
20.1311014
21
132.2672274
0
ARC
8
DEFAULT_255_1_388
10
20.0443684
20
132.2627726
40
0.9722364
50
350.4878118
51
0.2625322
0
ARC
8
DEFAULT_255_1_388
10
20.3023644
20
132.2183994
40
0.7104556
50
336.0277991
51
350.5787241
0
ARC
8
DEFAULT_255_1_388
10
20.4536751
20
132.1500243
40
0.544417
50
319.887443
51
336.1331163
0
ARC
8
DEFAULT_255_1_388
10
20.5214563
20
132.0957733
40
0.4576311
50
302.4806296
51
319.6144102
0
ARC
8
DEFAULT_255_1_388
10
20.5085184
20
132.1207067
40
0.4856183
50
275.8196423
51
302.1885521
0
ARC
8
DEFAULT_255_1_388
10
20.4898046
20
132.2492466
40
0.6154183
50
269.9169897
51
276.339506
0
ARC
8
DEFAULT_255_1_388
10
20.4847646
20
132.172068
40
0.5382553
50
252.5221437
51
270.441579
0
ARC
8
DEFAULT_255_1_388
10
20.4685897
20
132.1114046
40
0.4755426
50
237.5349961
51
252.1858334
0
ARC
8
DEFAULT_255_1_388
10
20.4786273
20
132.124212
40
0.4917393
50
209.0632754
51
237.3492577
0
ARC
8
DEFAULT_255_1_388
10
20.5765599
20
132.1857104
40
0.6072464
50
205.118533
51
209.6465345
0
ARC
8
DEFAULT_255_1_388
10
20.6661601
20
132.2237174
40
0.7045164
50
188.7216633
51
204.8239753
0
ARC
8
DEFAULT_255_1_388
10
20.8908376
20
132.2615387
40
0.9323368
50
180.3722704
51
188.9253909
0
ARC
8
DEFAULT_255_1_388
10
20.8877938
20
132.3548416
40
0.929284
50
169.5253055
51
180.2766048
0
ARC
8
DEFAULT_255_1_388
10
20.6737737
20
132.3942024
40
0.7116745
50
155.8314601
51
169.5088611
0
ARC
8
DEFAULT_255_1_388
10
20.52972
20
132.4610312
40
0.5528904
50
139.6259579
51
156.0379072
0
ARC
8
DEFAULT_255_1_388
10
20.4633733
20
132.5144143
40
0.4677708
50
122.6414784
51
139.3431662
0
ARC
8
DEFAULT_255_1_388
10
20.4746988
20
132.4937787
40
0.4912586
50
93.0224537
51
122.4556091
0
ARC
8
DEFAULT_255_1_388
10
20.4868509
20
132.3851776
40
0.6003837
50
89.9756766
51
93.6340839
0
ARC
8
DEFAULT_255_1_388
10
20.4912107
20
132.4300879
40
0.5554884
50
73.7463329
51
90.4234008
0
ARC
8
DEFAULT_255_1_388
10
20.510958
20
132.5065772
40
0.4765353
50
57.663051
51
73.4516911
0
ARC
8
DEFAULT_255_1_388
10
20.5100618
20
132.5090108
40
0.4749629
50
29.1441355
51
57.4146687
0
ARC
8
DEFAULT_255_1_388
10
20.4048429
20
132.4433046
40
0.5988917
50
24.0985653
51
29.732054
0
ARC
8
DEFAULT_255_1_388
10
20.2886061
20
132.3951154
40
0.7246823
50
8.6654943
51
23.8241215
0
ARC
8
DEFAULT_255_1_388
10
20.0372479
20
132.3541037
40
0.9793537
50
359.7807044
51
8.8218476
0
ARC
8
DEFAULT_255_1_388
10
19.9082184
20
132.3569731
40
0.9358078
50
359.7054632
51
8.0359751
0
ARC
8
DEFAULT_255_1_388
10
20.2457235
20
132.4061252
40
0.5947474
50
7.8926278
51
20.2962188
0
ARC
8
DEFAULT_255_1_388
10
20.4288085
20
132.4736367
40
0.3996117
50
20.3231056
51
36.4990255
0
ARC
8
DEFAULT_255_1_388
10
20.5059383
20
132.5330399
40
0.3022818
50
36.1436715
51
85.6627846
0
ARC
8
DEFAULT_255_1_388
10
20.4876638
20
132.4160881
40
0.4203853
50
84.3845912
51
90.076054
0
ARC
8
DEFAULT_255_1_388
10
20.4828993
20
132.4903416
40
0.346157
50
89.3037228
51
109.9046209
0
ARC
8
DEFAULT_255_1_388
10
20.4724826
20
132.5333379
40
0.3022217
50
110.8229774
51
143.917961
0
ARC
8
DEFAULT_255_1_388
10
20.5775185
20
132.4531455
40
0.434348
50
143.5289166
51
163.2980252
0
ARC
8
DEFAULT_255_1_388
10
20.7921472
20
132.3856685
40
0.659321
50
163.0418884
51
174.3139873
0
ARC
8
DEFAULT_255_1_388
10
21.0626437
20
132.3544378
40
0.9315905
50
174.050934
51
179.4174954
0
ARC
8
DEFAULT_255_1_388
10
21.0058381
20
132.2625382
40
0.8747493
50
179.6928582
51
188.7908948
0
ARC
8
DEFAULT_255_1_388
10
20.7062181
20
132.2146086
40
0.5713262
50
188.6328449
51
202.5630732
0
ARC
8
DEFAULT_255_1_388
10
20.5651018
20
132.1579142
40
0.4192612
50
202.8078931
51
216.1195888
0
ARC
8
DEFAULT_255_1_388
10
20.4740535
20
132.0846479
40
0.3025752
50
215.0755613
51
264.6379773
0
ARC
8
DEFAULT_255_1_388
10
20.4883372
20
132.1781376
40
0.3970284
50
263.8464302
51
270.0830805
0
ARC
8
DEFAULT_255_1_388
10
20.4929917
20
132.1490808
40
0.3679937
50
269.3649295
51
287.5149684
0
ARC
8
DEFAULT_255_1_388
10
20.5130358
20
132.0762714
40
0.2925408
50
288.0629019
51
323.8115617
0
ARC
8
DEFAULT_255_1_388
10
20.4150334
20
132.1493754
40
0.4148018
50
323.6546541
51
342.6591359
0
ARC
8
DEFAULT_255_1_388
10
20.1864992
20
132.223728
40
0.6551163
50
342.4092446
51
353.6451501
0
ARC
8
DEFAULT_255_1_388
10
19.8679785
20
132.2633565
40
0.9760748
50
353.4027553
51
359.4846611
0
LINE
8
DEFAULT_255_1_388
10
22.0285868
20
132.9674898
11
22.2029747
21
132.9674898
0
LINE
8
DEFAULT_255_1_388
10
22.2029747
20
132.9674898
11
22.2029747
21
132.072961
0
LINE
8
DEFAULT_255_1_388
10
21.7710709
20
131.6356358
11
21.7249891
21
131.6338287
0
LINE
8
DEFAULT_255_1_388
10
21.2506178
20
132.0711539
11
21.2506178
21
132.9674898
0
LINE
8
DEFAULT_255_1_388
10
21.2506178
20
132.9674898
11
21.422295
21
132.9674898
0
LINE
8
DEFAULT_255_1_388
10
21.422295
20
132.9674898
11
21.422295
21
132.0765753
0
LINE
8
DEFAULT_255_1_388
10
22.0285868
20
132.0756717
11
22.0285868
21
132.9674898
0
ARC
8
DEFAULT_255_1_388
10
21.7132546
20
132.070727
40
0.4897252
50
343.0897723
51
0.2613727
0
ARC
8
DEFAULT_255_1_388
10
21.8064517
20
132.044727
40
0.3930016
50
315.3344451
51
342.7642569
0
ARC
8
DEFAULT_255_1_388
10
21.7813012
20
132.0708085
40
0.4292244
50
284.6605441
51
315.2183439
0
ARC
8
DEFAULT_255_1_388
10
21.7300792
20
132.2447508
40
0.6104926
50
273.8500371
51
285.1796441
0
ARC
8
DEFAULT_255_1_388
10
21.7201857
20
132.2831762
40
0.6493653
50
257.6315393
51
270.4238259
0
ARC
8
DEFAULT_255_1_388
10
21.672394
20
132.0782915
40
0.4390079
50
230.6086859
51
257.9965362
0
ARC
8
DEFAULT_255_1_388
10
21.6577998
20
132.0553643
40
0.4120404
50
227.745033
51
230.1538266
0
ARC
8
DEFAULT_255_1_388
10
21.6424528
20
132.0369253
40
0.3880742
50
189.2524335
51
227.5915299
0
ARC
8
DEFAULT_255_1_388
10
21.8136399
20
132.0737735
40
0.5630282
50
180.2665782
51
190.1525221
0
ARC
8
DEFAULT_255_1_388
10
21.8386127
20
132.0734254
40
0.4163296
50
179.566507
51
191.9954402
0
ARC
8
DEFAULT_255_1_388
10
21.7004816
20
132.0426151
40
0.274815
50
191.6974619
51
215.1403758
0
ARC
8
DEFAULT_255_1_388
10
21.6737208
20
132.0266689
40
0.2437647
50
215.6958251
51
224.8509274
0
ARC
8
DEFAULT_255_1_388
10
21.6799684
20
132.0356016
40
0.2545012
50
225.2846515
51
255.0110023
0
ARC
8
DEFAULT_255_1_388
10
21.716413
20
132.1609017
40
0.384974
50
254.5945979
51
267.9129427
0
ARC
8
DEFAULT_255_1_388
10
21.7247823
20
132.2826444
40
0.506956
50
267.4687563
51
270.0233681
0
ARC
8
DEFAULT_255_1_388
10
21.7281819
20
132.2166288
40
0.440952
50
269.5851384
51
281.1845308
0
ARC
8
DEFAULT_255_1_388
10
21.7595423
20
132.0644469
40
0.2855802
50
280.9345159
51
300.9740496
0
ARC
8
DEFAULT_255_1_388
10
21.7834603
20
132.0204128
40
0.2355257
50
301.4982546
51
315.1468616
0
ARC
8
DEFAULT_255_1_388
10
21.7672099
20
132.0337488
40
0.2564594
50
315.5952932
51
345.6679188
0
ARC
8
DEFAULT_255_1_388
10
21.6412656
20
132.0688235
40
0.3871766
50
345.2525685
51
358.6303941
0
ARC
8
DEFAULT_255_1_388
10
21.5269047
20
132.0755695
40
0.5016822
50
358.1723541
51
0.0116795
0
LINE
8
DEFAULT_255_1_388
10
23.3857406
20
132.9674898
11
23.3857406
21
132.8247267
0
LINE
8
DEFAULT_255_1_388
10
23.3857406
20
132.8247267
11
22.9628724
21
132.8247267
0
LINE
8
DEFAULT_255_1_388
10
22.9628724
20
132.8247267
11
22.9628724
21
131.6519
0
LINE
8
DEFAULT_255_1_388
10
22.9628724
20
131.6519
11
22.7902916
21
131.6519
0
LINE
8
DEFAULT_255_1_388
10
22.7902916
20
131.6519
11
22.7902916
21
132.8247267
0
LINE
8
DEFAULT_255_1_388
10
22.7902916
20
132.8247267
11
22.368327
21
132.8247267
0
LINE
8
DEFAULT_255_1_388
10
22.368327
20
132.8247267
11
22.368327
21
132.9674898
0
LINE
8
DEFAULT_255_1_388
10
22.368327
20
132.9674898
11
23.3857406
21
132.9674898
0
LINE
8
DEFAULT_255_1_388
10
24.3624938
20
132.429869
11
24.3624938
21
132.2130135
0
LINE
8
DEFAULT_255_1_388
10
23.532118
20
132.1904244
11
23.532118
21
132.4136048
0
LINE
8
DEFAULT_255_1_388
10
24.1953343
20
132.1678353
11
24.1953343
21
132.4416153
0
LINE
8
DEFAULT_255_1_388
10
23.6992774
20
132.4542652
11
23.6992774
21
132.1868102
0
ARC
8
DEFAULT_255_1_388
10
22.9847271
20
132.2075118
40
1.3777776
50
353.8440855
51
0.2287917
0
ARC
8
DEFAULT_255_1_388
10
23.5066289
20
132.1492414
40
0.852639
50
344.4934746
51
353.9763743
0
ARC
8
DEFAULT_255_1_388
10
23.8433096
20
132.0535191
40
0.5026273
50
329.2803599
51
344.7473406
0
ARC
8
DEFAULT_255_1_388
10
23.9548592
20
131.9923038
40
0.3754848
50
324.9361395
51
328.6153007
0
ARC
8
DEFAULT_255_1_388
10
23.9974242
20
131.9625586
40
0.3235566
50
280.5801797
51
324.9173226
0
ARC
8
DEFAULT_255_1_388
10
23.952287
20
132.1505236
40
0.5167077
50
269.5979457
51
281.6732777
0
ARC
8
DEFAULT_255_1_388
10
23.9441774
20
132.1370113
40
0.5032026
50
256.6228565
51
270.5105488
0
ARC
8
DEFAULT_255_1_388
10
23.8989516
20
131.9628345
40
0.3233092
50
215.8618351
51
257.2787793
0
ARC
8
DEFAULT_255_1_388
10
24.0138223
20
132.0399106
40
0.4615831
50
197.9695203
51
215.2622745
0
ARC
8
DEFAULT_255_1_388
10
24.2933899
20
132.1342641
40
0.7566307
50
187.8816486
51
198.2346584
0
ARC
8
DEFAULT_255_1_388
10
24.7387137
20
132.1985453
40
1.2065653
50
180.8977266
51
188.0054894
0
ARC
8
DEFAULT_255_1_388
10
25.0437351
20
132.21004
40
1.5117443
50
180.7434591
51
181.152202
0
ARC
8
DEFAULT_255_1_388
10
24.8762347
20
132.4190371
40
1.3441277
50
173.7674302
51
180.2315596
0
ARC
8
DEFAULT_255_1_388
10
24.3680216
20
132.4764779
40
0.8326847
50
164.3058537
51
173.9000553
0
ARC
8
DEFAULT_255_1_388
10
24.0404216
20
132.5708652
40
0.4917711
50
148.7922028
51
164.5682288
0
ARC
8
DEFAULT_255_1_388
10
23.9334953
20
132.6305457
40
0.3694204
50
144.5883979
51
148.1161588
0
ARC
8
DEFAULT_255_1_388
10
23.8947699
20
132.6575667
40
0.322202
50
101.6440149
51
144.5142619
0
ARC
8
DEFAULT_255_1_388
10
23.9425891
20
132.4675337
40
0.5180451
50
89.528284
51
102.5820197
0
ARC
8
DEFAULT_255_1_388
10
23.9514883
20
132.4631376
40
0.5224441
50
77.0437914
51
90.508231
0
ARC
8
DEFAULT_255_1_388
10
23.9967136
20
132.6479272
40
0.3322297
50
48.2777708
51
77.4996087
0
ARC
8
DEFAULT_255_1_388
10
24.0048876
20
132.6624557
40
0.315966
50
36.3141586
51
47.6307332
0
ARC
8
DEFAULT_255_1_388
10
23.9071599
20
132.5966159
40
0.4337313
50
18.2931065
51
35.6770203
0
ARC
8
DEFAULT_255_1_388
10
23.6210439
20
132.4984107
40
0.7362203
50
8.0246996
51
18.5605636
0
ARC
8
DEFAULT_255_1_388
10
23.1526795
20
132.4292432
40
1.2096583
50
1.127539
51
8.1718423
0
ARC
8
DEFAULT_255_1_388
10
22.7877928
20
132.4149374
40
1.5747719
50
0.5432713
51
1.38669
0
ARC
8
DEFAULT_255_1_388
10
22.9935307
20
132.4456163
40
1.2018103
50
359.8092569
51
4.9408001
0
ARC
8
DEFAULT_255_1_388
10
23.4671888
20
132.48789
40
0.7262727
50
4.8364937
51
12.2906017
0
ARC
8
DEFAULT_255_1_388
10
23.7771353
20
132.5569485
40
0.4087324
50
12.0806994
51
23.8171225
0
ARC
8
DEFAULT_255_1_388
10
23.9091749
20
132.6128508
40
0.2653719
50
24.2874621
51
31.3934353
0
ARC
8
DEFAULT_255_1_388
10
23.9682185
20
132.6514822
40
0.1948607
50
30.7407708
51
82.4658033
0
ARC
8
DEFAULT_255_1_388
10
23.9479846
20
132.5521017
40
0.2961198
50
81.1057101
51
90.2187368
0
ARC
8
DEFAULT_255_1_388
10
23.9439658
20
132.5811421
40
0.2670929
50
89.380395
51
105.6763916
0
ARC
8
DEFAULT_255_1_388
10
23.923338
20
132.656132
40
0.1893189
50
105.7980655
51
149.7387869
0
ARC
8
DEFAULT_255_1_388
10
24.043052
20
132.5841719
40
0.3289892
50
149.4208441
51
163.628295
0
ARC
8
DEFAULT_255_1_388
10
24.278275
20
132.5124345
40
0.5749004
50
163.3764549
51
172.141138
0
ARC
8
DEFAULT_255_1_388
10
24.6495471
20
132.4592582
40
0.9499585
50
172.0258462
51
178.0705453
0
ARC
8
DEFAULT_255_1_388
10
24.9917024
20
132.4430682
40
1.2924734
50
177.8639301
51
179.5036263
0
ARC
8
DEFAULT_255_1_388
10
24.8698042
20
132.1827151
40
1.170534
50
179.7995545
51
185.246089
0
ARC
8
DEFAULT_255_1_388
10
24.4149636
20
132.1396404
40
0.7136613
50
185.1411911
51
193.0082205
0
ARC
8
DEFAULT_255_1_388
10
24.1175896
20
132.0693441
40
0.4080987
50
192.7897338
51
205.2507384
0
ARC
8
DEFAULT_255_1_388
10
23.9998106
20
132.0167538
40
0.2791522
50
205.8001921
51
211.2545876
0
ARC
8
DEFAULT_255_1_388
10
23.9409645
20
131.9773132
40
0.2084074
50
210.3789935
51
238.4007996
0
ARC
8
DEFAULT_255_1_388
10
23.9387731
20
131.9825786
40
0.2117943
50
239.6521916
51
265.9793852
0
ARC
8
DEFAULT_255_1_388
10
23.948358
20
132.0582358
40
0.2879689
50
265.1324455
51
270.0603288
0
ARC
8
DEFAULT_255_1_388
10
23.9515957
20
132.0217418
40
0.2514919
50
269.3314378
51
287.2180039
0
ARC
8
DEFAULT_255_1_388
10
23.9671039
20
131.9651291
40
0.1928357
50
287.7957942
51
329.0808983
0
ARC
8
DEFAULT_255_1_388
10
23.8593797
20
132.0323651
40
0.319808
50
328.6635261
51
343.3325043
0
ARC
8
DEFAULT_255_1_388
10
23.6149255
20
132.1085195
40
0.5758408
50
343.0498092
51
351.9392499
0
ARC
8
DEFAULT_255_1_388
10
23.2248577
20
132.1660205
40
0.9701202
50
351.8071632
51
357.7957897
0
ARC
8
DEFAULT_255_1_388
10
22.8614054
20
132.1848724
40
1.3340376
50
357.5870923
51
359.2682493
0
ENDSEC
0
EOF