0
SECTION
2
HEADER
9
$MEASUREMENT
70
1
0
ENDSEC
0
SECTION
2
TABLES
0
TABLE
2
LTYPE
0
LTYPE
72
65
70
64
2
CONTINUOUS
3
______
73
0
40
0
0
ENDTAB
0
TABLE
2
LAYER
0
LAYER
2
DEFAULT_255_2_778
70
0
62
255
6
CONTINUOUS
0
LAYER
2
DEFAULT_255_1_388
70
0
62
255
6
CONTINUOUS
0
ENDTAB
0
ENDSEC
0
SECTION
2
ENTITIES
0
ARC
8
DEFAULT_255_2_778
10
3.5700693
20
107.5552026
40
0.7914215
50
129.1312896
51
180.1450914
0
ARC
8
DEFAULT_255_2_778
10
3.5703345
20
107.5556897
40
0.7912112
50
89.854026
51
129.1684493
0
ARC
8
DEFAULT_255_2_778
10
25.7993937
20
107.5553762
40
0.7915249
50
39.4792447
51
90.147911
0
ARC
8
DEFAULT_255_2_778
10
25.7999935
20
107.5552229
40
0.7911595
50
359.8533901
51
39.5154338
0
ARC
8
DEFAULT_255_2_778
10
25.7996693
20
-1.9863497
40
0.7914836
50
309.4761667
51
0.1482649
0
ARC
8
DEFAULT_255_2_778
10
25.799398
20
-1.9867808
40
0.7913235
50
269.8517415
51
309.511178
0
ARC
8
DEFAULT_255_2_778
10
3.570342
20
-1.9867226
40
0.7913815
50
219.1282118
51
270.1454017
0
ARC
8
DEFAULT_255_2_778
10
3.5700247
20
-1.9863401
40
0.7913769
50
179.8524075
51
219.1641908
0
LINE
8
DEFAULT_255_2_778
10
3.5723503
20
108.3468985
11
25.7973503
21
108.3468985
0
LINE
8
DEFAULT_255_2_778
10
26.5911503
20
107.5531985
11
26.5911503
21
-1.9843015
0
LINE
8
DEFAULT_255_2_778
10
25.7973503
20
-2.7781015
11
3.5723503
21
-2.7781015
0
LINE
8
DEFAULT_255_2_778
10
2.7786503
20
-1.9843015
11
2.7786503
21
107.5531985
0
LINE
8
DEFAULT_255_1_388
10
7.3674618
20
-0.0145334
11
7.2337343
21
0.0198021
0
LINE
8
DEFAULT_255_1_388
10
7.2337343
20
0.0198021
11
7.300598
21
0.6757898
0
LINE
8
DEFAULT_255_1_388
10
7.300598
20
0.6757898
11
7.9746571
21
0.6757898
0
LINE
8
DEFAULT_255_1_388
10
7.9746571
20
0.6757898
11
7.9746571
21
0.5212803
0
LINE
8
DEFAULT_255_1_388
10
7.9746571
20
0.5212803
11
7.4424577
21
0.5212803
0
LINE
8
DEFAULT_255_1_388
10
7.4424577
20
0.5212803
11
7.4027008
21
0.1625652
0
LINE
8
DEFAULT_255_1_388
10
7.1867489
20
-0.2937348
11
7.3448727
21
-0.2937348
0
LINE
8
DEFAULT_255_1_388
10
7.4117365
20
0.0216092
11
7.3674618
21
-0.0145334
0
ARC
8
DEFAULT_255_1_388
10
7.6113622
20
-0.1951759
40
0.4141476
50
93.7181681
51
120.253934
0
ARC
8
DEFAULT_255_1_388
10
7.6219674
20
-0.2860716
40
0.5055616
50
89.9660471
51
94.2495185
0
ARC
8
DEFAULT_255_1_388
10
7.6265496
20
-0.2197846
40
0.4392953
50
73.8045384
51
90.5585736
0
ARC
8
DEFAULT_255_1_388
10
7.6529754
20
-0.123248
40
0.3392225
50
41.3071072
51
73.543002
0
ARC
8
DEFAULT_255_1_388
10
7.6061574
20
-0.1635539
40
0.4009977
50
13.5075837
51
41.2174839
0
ARC
8
DEFAULT_255_1_388
10
7.4214671
20
-0.2119093
40
0.5918864
50
1.1330171
51
13.8830737
0
ARC
8
DEFAULT_255_1_388
10
7.2618317
20
-0.2204478
40
0.7516787
50
359.9925091
51
1.5431298
0
ARC
8
DEFAULT_255_1_388
10
7.4062932
20
-0.2250973
40
0.6072343
50
347.8572712
51
0.4294349
0
ARC
8
DEFAULT_255_1_388
10
7.6032066
20
-0.2697102
40
0.4053482
50
323.6727442
51
348.1674594
0
ARC
8
DEFAULT_255_1_388
10
7.6363031
20
-0.2898825
40
0.3667495
50
316.8171818
51
323.1486802
0
ARC
8
DEFAULT_255_1_388
10
7.6432155
20
-0.2940388
40
0.358869
50
281.839603
51
316.5458142
0
ARC
8
DEFAULT_255_1_388
10
7.6009442
20
-0.1190637
40
0.5388223
50
269.5770964
51
282.4214641
0
ARC
8
DEFAULT_255_1_388
10
7.5929363
20
-0.143107
40
0.5147801
50
256.2425863
51
270.4486481
0
ARC
8
DEFAULT_255_1_388
10
7.5592891
20
-0.2780876
40
0.3756708
50
228.9024379
51
256.33135
0
ARC
8
DEFAULT_255_1_388
10
7.5509871
20
-0.2911946
40
0.360344
50
193.7536029
51
228.5272638
0
ARC
8
DEFAULT_255_1_388
10
7.6902436
20
-0.2503537
40
0.5053599
50
184.9244437
51
194.4976052
0
ARC
8
DEFAULT_255_1_388
10
7.7119077
20
-0.2463278
40
0.3700839
50
187.3596909
51
198.6733728
0
ARC
8
DEFAULT_255_1_388
10
7.5938321
20
-0.2872627
40
0.2451195
50
198.4453795
51
217.7945479
0
ARC
8
DEFAULT_255_1_388
10
7.5605493
20
-0.3108437
40
0.2043754
50
218.2887146
51
228.5613203
0
ARC
8
DEFAULT_255_1_388
10
7.57155
20
-0.2960098
40
0.2227819
50
228.9652423
51
258.1237049
0
ARC
8
DEFAULT_255_1_388
10
7.5946937
20
-0.1969036
40
0.3245374
50
257.7260585
51
270.4013717
0
ARC
8
DEFAULT_255_1_388
10
7.5997435
20
-0.2469745
40
0.2744726
50
269.4204315
51
286.420998
0
ARC
8
DEFAULT_255_1_388
10
7.6164491
20
-0.3076295
40
0.2115721
50
286.7250065
51
320.6004665
0
ARC
8
DEFAULT_255_1_388
10
7.5733407
20
-0.2726473
40
0.2670878
50
320.6712228
51
344.5440474
0
ARC
8
DEFAULT_255_1_388
10
7.443212
20
-0.2344606
40
0.4026927
50
344.241448
51
356.735803
0
ARC
8
DEFAULT_255_1_388
10
7.3028428
20
-0.2228344
40
0.5435085
50
356.3547471
51
0.0507222
0
ARC
8
DEFAULT_255_1_388
10
7.4530693
20
-0.2193188
40
0.3932934
50
359.5579289
51
12.9534322
0
ARC
8
DEFAULT_255_1_388
10
7.5717533
20
-0.1905414
40
0.2711827
50
12.6489751
51
41.608121
0
ARC
8
DEFAULT_255_1_388
10
7.5976693
20
-0.1685054
40
0.2371737
50
41.7851122
51
85.9892156
0
ARC
8
DEFAULT_255_1_388
10
7.5838003
20
-0.2600262
40
0.3295244
50
84.6965848
51
90.0672125
0
ARC
8
DEFAULT_255_1_388
10
7.581157
20
-0.3351882
40
0.4046926
50
89.6804991
51
99.161352
0
ARC
8
DEFAULT_255_1_388
10
7.5580579
20
-0.1971152
40
0.2647044
50
98.9836248
51
113.8905702
0
ARC
8
DEFAULT_255_1_388
10
7.5322254
20
-0.1361882
40
0.1985386
50
114.195234
51
127.3641866
0
LINE
8
DEFAULT_255_1_388
10
9.0209848
20
0.138169
11
9.0209848
21
-0.0786865
0
LINE
8
DEFAULT_255_1_388
10
8.190609
20
-0.1012756
11
8.190609
21
0.1219048
0
LINE
8
DEFAULT_255_1_388
10
8.8538253
20
-0.1238647
11
8.8538253
21
0.1499153
0
LINE
8
DEFAULT_255_1_388
10
8.3577685
20
0.1625652
11
8.3577685
21
-0.1048898
0
ARC
8
DEFAULT_255_1_388
10
7.6432182
20
-0.0841882
40
1.3777776
50
353.8440855
51
0.2287917
0
ARC
8
DEFAULT_255_1_388
10
8.1651199
20
-0.1424586
40
0.852639
50
344.4934746
51
353.9763743
0
ARC
8
DEFAULT_255_1_388
10
8.5018006
20
-0.2381809
40
0.5026273
50
329.2803599
51
344.7473406
0
ARC
8
DEFAULT_255_1_388
10
8.6133502
20
-0.2993962
40
0.3754848
50
324.9361395
51
328.6153007
0
ARC
8
DEFAULT_255_1_388
10
8.6559152
20
-0.3291414
40
0.3235566
50
280.5801797
51
324.9173226
0
ARC
8
DEFAULT_255_1_388
10
8.610778
20
-0.1411764
40
0.5167077
50
269.5979457
51
281.6732777
0
ARC
8
DEFAULT_255_1_388
10
8.6026684
20
-0.1546887
40
0.5032026
50
256.6228565
51
270.5105488
0
ARC
8
DEFAULT_255_1_388
10
8.5574427
20
-0.3288655
40
0.3233092
50
215.8618351
51
257.2787793
0
ARC
8
DEFAULT_255_1_388
10
8.6723134
20
-0.2517894
40
0.4615831
50
197.9695203
51
215.2622745
0
ARC
8
DEFAULT_255_1_388
10
8.9518809
20
-0.1574359
40
0.7566307
50
187.8816486
51
198.2346584
0
ARC
8
DEFAULT_255_1_388
10
9.3972048
20
-0.0931547
40
1.2065653
50
180.8977266
51
188.0054894
0
ARC
8
DEFAULT_255_1_388
10
9.7022261
20
-0.08166
40
1.5117443
50
180.7434591
51
181.152202
0
ARC
8
DEFAULT_255_1_388
10
9.5347257
20
0.1273371
40
1.3441277
50
173.7674302
51
180.2315596
0
ARC
8
DEFAULT_255_1_388
10
9.0265126
20
0.1847779
40
0.8326847
50
164.3058537
51
173.9000553
0
ARC
8
DEFAULT_255_1_388
10
8.6989126
20
0.2791652
40
0.4917711
50
148.7922028
51
164.5682288
0
ARC
8
DEFAULT_255_1_388
10
8.5919864
20
0.3388457
40
0.3694204
50
144.5883979
51
148.1161588
0
ARC
8
DEFAULT_255_1_388
10
8.5532609
20
0.3658667
40
0.322202
50
101.6440149
51
144.5142619
0
ARC
8
DEFAULT_255_1_388
10
8.6010801
20
0.1758337
40
0.5180451
50
89.528284
51
102.5820197
0
ARC
8
DEFAULT_255_1_388
10
8.6099793
20
0.1714376
40
0.5224441
50
77.0437914
51
90.508231
0
ARC
8
DEFAULT_255_1_388
10
8.6552047
20
0.3562272
40
0.3322297
50
48.2777708
51
77.4996087
0
ARC
8
DEFAULT_255_1_388
10
8.6633787
20
0.3707557
40
0.315966
50
36.3141586
51
47.6307332
0
ARC
8
DEFAULT_255_1_388
10
8.5656509
20
0.3049159
40
0.4337313
50
18.2931065
51
35.6770203
0
ARC
8
DEFAULT_255_1_388
10
8.279535
20
0.2067107
40
0.7362203
50
8.0246996
51
18.5605636
0
ARC
8
DEFAULT_255_1_388
10
7.8111705
20
0.1375432
40
1.2096583
50
1.127539
51
8.1718423
0
ARC
8
DEFAULT_255_1_388
10
7.4462839
20
0.1232374
40
1.5747719
50
0.5432713
51
1.38669
0
ARC
8
DEFAULT_255_1_388
10
7.6520217
20
0.1539163
40
1.2018103
50
359.8092569
51
4.9408001
0
ARC
8
DEFAULT_255_1_388
10
8.1256799
20
0.19619
40
0.7262727
50
4.8364937
51
12.2906017
0
ARC
8
DEFAULT_255_1_388
10
8.4356263
20
0.2652485
40
0.4087324
50
12.0806994
51
23.8171225
0
ARC
8
DEFAULT_255_1_388
10
8.5676659
20
0.3211508
40
0.2653719
50
24.2874621
51
31.3934353
0
ARC
8
DEFAULT_255_1_388
10
8.6267095
20
0.3597822
40
0.1948607
50
30.7407708
51
82.4658033
0
ARC
8
DEFAULT_255_1_388
10
8.6064756
20
0.2604017
40
0.2961198
50
81.1057101
51
90.2187368
0
ARC
8
DEFAULT_255_1_388
10
8.6024568
20
0.2894421
40
0.2670929
50
89.380395
51
105.6763916
0
ARC
8
DEFAULT_255_1_388
10
8.581829
20
0.364432
40
0.1893189
50
105.7980655
51
149.7387869
0
ARC
8
DEFAULT_255_1_388
10
8.701543
20
0.2924719
40
0.3289892
50
149.4208441
51
163.628295
0
ARC
8
DEFAULT_255_1_388
10
8.936766
20
0.2207345
40
0.5749004
50
163.3764549
51
172.141138
0
ARC
8
DEFAULT_255_1_388
10
9.3080381
20
0.1675582
40
0.9499585
50
172.0258462
51
178.0705453
0
ARC
8
DEFAULT_255_1_388
10
9.6501934
20
0.1513682
40
1.2924734
50
177.8639301
51
179.5036263
0
ARC
8
DEFAULT_255_1_388
10
9.5282953
20
-0.1089849
40
1.170534
50
179.7995545
51
185.246089
0
ARC
8
DEFAULT_255_1_388
10
9.0734546
20
-0.1520596
40
0.7136613
50
185.1411911
51
193.0082205
0
ARC
8
DEFAULT_255_1_388
10
8.7760806
20
-0.2223559
40
0.4080987
50
192.7897338
51
205.2507384
0
ARC
8
DEFAULT_255_1_388
10
8.6583016
20
-0.2749462
40
0.2791522
50
205.8001921
51
211.2545876
0
ARC
8
DEFAULT_255_1_388
10
8.5994555
20
-0.3143868
40
0.2084074
50
210.3789935
51
238.4007996
0
ARC
8
DEFAULT_255_1_388
10
8.5972641
20
-0.3091214
40
0.2117943
50
239.6521916
51
265.9793852
0
ARC
8
DEFAULT_255_1_388
10
8.606849
20
-0.2334642
40
0.2879689
50
265.1324455
51
270.0603288
0
ARC
8
DEFAULT_255_1_388
10
8.6100867
20
-0.2699582
40
0.2514919
50
269.3314378
51
287.2180039
0
ARC
8
DEFAULT_255_1_388
10
8.625595
20
-0.3265709
40
0.1928357
50
287.7957942
51
329.0808983
0
ARC
8
DEFAULT_255_1_388
10
8.5178707
20
-0.2593349
40
0.319808
50
328.6635261
51
343.3325043
0
ARC
8
DEFAULT_255_1_388
10
8.2734165
20
-0.1831805
40
0.5758408
50
343.0498092
51
351.9392499
0
ARC
8
DEFAULT_255_1_388
10
7.8833487
20
-0.1256795
40
0.9701202
50
351.8071632
51
357.7957897
0
ARC
8
DEFAULT_255_1_388
10
7.5198964
20
-0.1068276
40
1.3340376
50
357.5870923
51
359.2682493
0
LINE
8
DEFAULT_255_1_388
10
9.8612997
20
0.6766934
11
9.8911173
21
0.6766934
0
LINE
8
DEFAULT_255_1_388
10
9.8911173
20
0.6766934
11
9.8911173
21
0.5348338
0
LINE
8
DEFAULT_255_1_388
10
9.8911173
20
0.5348338
11
9.8603961
21
0.5348338
0
LINE
8
DEFAULT_255_1_388
10
9.2450688
20
-0.1392253
11
9.2450688
21
-0.0750722
0
LINE
8
DEFAULT_255_1_388
10
9.4131317
20
-0.0967578
11
9.4131317
21
-0.1582001
0
ARC
8
DEFAULT_255_1_388
10
9.8662853
20
-0.0274174
40
0.562282
50
90.6001079
51
104.5146616
0
ARC
8
DEFAULT_255_1_388
10
9.8225812
20
0.13511
40
0.3939917
50
104.2855758
51
133.8630124
0
ARC
8
DEFAULT_255_1_388
10
9.8410065
20
0.1229243
40
0.4155734
50
134.5304124
51
161.6210222
0
ARC
8
DEFAULT_255_1_388
10
10.0269997
20
0.0573421
40
0.6127682
50
161.2850533
51
174.2074364
0
ARC
8
DEFAULT_255_1_388
10
10.1859564
20
0.0354437
40
0.7731446
50
173.7817938
51
174.9251711
0
ARC
8
DEFAULT_255_1_388
10
9.6733758
20
-0.120073
40
0.3412588
50
95.8332067
51
138.995412
0
ARC
8
DEFAULT_255_1_388
10
9.6985038
20
-0.2639305
40
0.4870358
50
89.8755506
51
97.0540979
0
ARC
8
DEFAULT_255_1_388
10
9.7038427
20
-0.1699159
40
0.3930432
50
71.6407016
51
90.6240821
0
ARC
8
DEFAULT_255_1_388
10
9.7207821
20
-0.1075567
40
0.3285421
50
39.6368051
51
71.0190743
0
ARC
8
DEFAULT_255_1_388
10
9.6491728
20
-0.1694414
40
0.4231706
50
10.6588054
51
39.9044509
0
ARC
8
DEFAULT_255_1_388
10
9.4750274
20
-0.2072777
40
0.60133
50
359.6827842
51
11.1326896
0
ARC
8
DEFAULT_255_1_388
10
9.470561
20
-0.2152285
40
0.6058047
50
347.2485908
51
0.4371098
0
ARC
8
DEFAULT_255_1_388
10
9.6581395
20
-0.2603621
40
0.4128987
50
318.1408565
51
347.6118497
0
ARC
8
DEFAULT_255_1_388
10
9.6946992
20
-0.2904097
40
0.3656244
50
275.6342406
51
317.824739
0
ARC
8
DEFAULT_255_1_388
10
9.6698513
20
-0.1442173
40
0.513655
50
269.8872513
51
276.7916069
0
ARC
8
DEFAULT_255_1_388
10
9.6636705
20
-0.2595819
40
0.398323
50
246.9139443
51
270.7436787
0
ARC
8
DEFAULT_255_1_388
10
9.6643901
20
-0.2755956
40
0.3839368
50
218.1665534
51
245.8780431
0
ARC
8
DEFAULT_255_1_388
10
9.7633273
20
-0.1928097
40
0.5128958
50
191.4115343
51
218.6077624
0
ARC
8
DEFAULT_255_1_388
10
9.981359
20
-0.1439223
40
0.7363054
50
179.6344971
51
191.7836758
0
ARC
8
DEFAULT_255_1_388
10
10.6093464
20
-0.0675505
40
1.3642984
50
171.4523743
51
180.3158856
0
ARC
8
DEFAULT_255_1_388
10
10.1149191
20
0.0093895
40
0.8639311
50
157.9802296
51
171.6246761
0
ARC
8
DEFAULT_255_1_388
10
9.8658542
20
0.1087038
40
0.5958004
50
141.4299236
51
157.8541251
0
ARC
8
DEFAULT_255_1_388
10
9.7936625
20
0.1597746
40
0.5075416
50
102.871586
51
140.8564533
0
ARC
8
DEFAULT_255_1_388
10
9.8665178
20
-0.1147057
40
0.7914163
50
90.377773
51
103.5868422
0
ARC
8
DEFAULT_255_1_388
10
9.6709699
20
-0.1827457
40
0.2667015
50
89.8751238
51
126.2072139
0
ARC
8
DEFAULT_255_1_388
10
9.676117
20
-0.2001153
40
0.2838229
50
124.9742447
51
144.8960197
0
ARC
8
DEFAULT_255_1_388
10
9.6563415
20
-0.1840019
40
0.2583845
50
145.2974778
51
160.2660922
0
ARC
8
DEFAULT_255_1_388
10
10.0019903
20
-0.1617849
40
0.5888695
50
179.6512124
51
190.285571
0
ARC
8
DEFAULT_255_1_388
10
9.8114383
20
-0.1977032
40
0.3949683
50
190.0944895
51
207.5099647
0
ARC
8
DEFAULT_255_1_388
10
9.7477965
20
-0.2279823
40
0.3245464
50
207.9585471
51
216.325377
0
ARC
8
DEFAULT_255_1_388
10
9.7095602
20
-0.2594288
40
0.2751259
50
215.7661336
51
232.5457193
0
ARC
8
DEFAULT_255_1_388
10
9.6664718
20
-0.3141727
40
0.2054668
50
232.8005815
51
270.6605497
0
ARC
8
DEFAULT_255_1_388
10
9.6716142
20
-0.2732147
40
0.2464268
50
269.3550767
51
288.474612
0
ARC
8
DEFAULT_255_1_388
10
9.6820649
20
-0.3125279
40
0.2058436
50
289.1831976
51
322.9685307
0
ARC
8
DEFAULT_255_1_388
10
9.6132751
20
-0.2582721
40
0.2934408
50
322.6007085
51
346.5183319
0
ARC
8
DEFAULT_255_1_388
10
9.4830507
20
-0.2250566
40
0.4278249
50
346.2584622
51
358.7739592
0
ARC
8
DEFAULT_255_1_388
10
9.3679082
20
-0.2188171
40
0.5430876
50
358.3757628
51
0.0082477
0
ARC
8
DEFAULT_255_1_388
10
9.45359
20
-0.2157144
40
0.4574157
50
359.6211417
51
11.28403
0
ARC
8
DEFAULT_255_1_388
10
9.5972507
20
-0.1857465
40
0.3106708
50
11.0483152
51
31.8145585
0
ARC
8
DEFAULT_255_1_388
10
9.6320212
20
-0.1668955
40
0.2711963
50
32.3028554
51
38.0820598
0
ARC
8
DEFAULT_255_1_388
10
9.6793445
20
-0.1240283
40
0.2075566
50
36.8249851
51
85.741667
0
ARC
8
DEFAULT_255_1_388
10
9.6717857
20
-0.1803935
40
0.2643487
50
85.0150021
51
90.050843
0
LINE
8
DEFAULT_255_1_388
10
11.0829188
20
0.1499153
11
11.0829188
21
0.1011229
0
LINE
8
DEFAULT_255_1_388
10
10.4730128
20
-0.6407036
11
10.4404845
21
-0.6407036
0
LINE
8
DEFAULT_255_1_388
10
10.4404845
20
-0.6407036
11
10.4404845
21
-0.4997475
0
LINE
8
DEFAULT_255_1_388
10
10.4404845
20
-0.4997475
11
10.4757235
21
-0.4997475
0
LINE
8
DEFAULT_255_1_388
10
10.9157594
20
0.117387
11
10.9157594
21
0.1842508
0
ARC
8
DEFAULT_255_1_388
10
10.6014686
20
0.2012877
40
0.4089973
50
297.4036461
51
320.0168133
0
ARC
8
DEFAULT_255_1_388
10
10.6340866
20
0.1386072
40
0.3383378
50
270.2631886
51
297.3852322
0
ARC
8
DEFAULT_255_1_388
10
10.6302542
20
0.1923343
40
0.3920983
50
269.9969069
51
270.7871389
0
ARC
8
DEFAULT_255_1_388
10
10.6273866
20
0.1905737
40
0.3903482
50
254.5997295
51
270.4178147
0
ARC
8
DEFAULT_255_1_388
10
10.6113397
20
0.1270693
40
0.3248657
50
236.4717231
51
254.3539376
0
ARC
8
DEFAULT_255_1_388
10
10.6289129
20
0.1506999
40
0.3542746
50
208.4727261
51
236.2134628
0
ARC
8
DEFAULT_255_1_388
10
10.7007892
20
0.1946676
40
0.4384402
50
204.3450776
51
209.0455365
0
ARC
8
DEFAULT_255_1_388
10
10.7772268
20
0.22708
40
0.5214459
50
183.9375459
51
204.1275509
0
ARC
8
DEFAULT_255_1_388
10
10.8794574
20
0.2380863
40
0.6242037
50
179.9652726
51
184.3010611
0
ARC
8
DEFAULT_255_1_388
10
10.852412
20
0.2418004
40
0.5971675
50
166.7585952
51
180.3200491
0
ARC
8
DEFAULT_255_1_388
10
10.7571928
20
0.2624979
40
0.4997418
50
154.6954866
51
166.5679151
0
ARC
8
DEFAULT_255_1_388
10
10.6612168
20
0.3108411
40
0.3923208
50
136.3325251
51
155.0871367
0
ARC
8
DEFAULT_255_1_388
10
10.6296087
20
0.3379271
40
0.3507618
50
121.2365985
51
135.9680081
0
ARC
8
DEFAULT_255_1_388
10
10.6454152
20
0.3086541
40
0.3839917
50
96.8454764
51
120.9881329
0
ARC
8
DEFAULT_255_1_388
10
10.6617958
20
0.2033942
40
0.4904679
50
89.887204
51
97.2797758
0
ARC
8
DEFAULT_255_1_388
10
10.6676931
20
0.2751652
40
0.418725
50
70.6505767
51
90.6748382
0
ARC
8
DEFAULT_255_1_388
10
10.6824628
20
0.3329091
40
0.3593866
50
36.7493297
51
69.8220487
0
ARC
8
DEFAULT_255_1_388
10
10.5700975
20
0.2453446
40
0.5018201
50
15.3958155
51
37.0841102
0
ARC
8
DEFAULT_255_1_388
10
10.330526
20
0.1755111
40
0.7513436
50
3.9487796
51
15.6798517
0
ARC
8
DEFAULT_255_1_388
10
10.0603902
20
0.151181
40
1.0225293
50
359.9290791
51
4.266464
0
ARC
8
DEFAULT_255_1_388
10
9.5422819
20
0.0936372
40
1.5406551
50
352.8365702
51
0.2783851
0
ARC
8
DEFAULT_255_1_388
10
10.137105
20
0.0163664
40
0.9408425
50
341.8359339
51
352.9884057
0
ARC
8
DEFAULT_255_1_388
10
10.4992037
20
-0.1056856
40
0.5587481
50
322.8579243
51
342.1527461
0
ARC
8
DEFAULT_255_1_388
10
10.5963729
20
-0.171965
40
0.4413099
50
319.3348471
51
322.100194
0
ARC
8
DEFAULT_255_1_388
10
10.561566
20
-0.1370186
40
0.4904992
50
285.954114
51
318.8878716
0
ARC
8
DEFAULT_255_1_388
10
10.4798098
20
0.1228865
40
0.7628991
50
272.9280841
51
286.4924389
0
ARC
8
DEFAULT_255_1_388
10
10.4584402
20
0.376324
40
1.017132
50
270.8209173
51
273.4010121
0
ARC
8
DEFAULT_255_1_388
10
10.4684425
20
0.1715073
40
0.6712943
50
270.6214576
51
281.4062333
0
ARC
8
DEFAULT_255_1_388
10
10.5168149
20
-0.059775
40
0.4350167
50
281.1852583
51
299.0622058
0
ARC
8
DEFAULT_255_1_388
10
10.5588394
20
-0.1408862
40
0.3437146
50
299.5068171
51
313.1200142
0
ARC
8
DEFAULT_255_1_388
10
10.5613132
20
-0.1498041
40
0.3355418
50
313.8525725
51
338.5989631
0
ARC
8
DEFAULT_255_1_388
10
10.378626
20
-0.0747424
40
0.5330317
50
338.2523315
51
351.2431701
0
ARC
8
DEFAULT_255_1_388
10
10.1074011
20
-0.0286506
40
0.8081235
50
350.940933
51
357.6690137
0
ARC
8
DEFAULT_255_1_388
10
10.6575891
20
0.1966048
40
0.2581236
50
269.9447107
51
306.8249644
0
ARC
8
DEFAULT_255_1_388
10
10.6309193
20
0.244206
40
0.3122948
50
305.5071046
51
327.0773808
0
ARC
8
DEFAULT_255_1_388
10
10.6442244
20
0.2335445
40
0.2953369
50
327.4106457
51
336.8396801
0
ARC
8
DEFAULT_255_1_388
10
10.2961958
20
0.1878932
40
0.6195743
50
359.663158
51
10.1176387
0
ARC
8
DEFAULT_255_1_388
10
10.4934721
20
0.2243922
40
0.4189561
50
9.9431549
51
26.7699242
0
ARC
8
DEFAULT_255_1_388
10
10.5606707
20
0.2553796
40
0.3450125
50
27.2018067
51
34.6833639
0
ARC
8
DEFAULT_255_1_388
10
10.615732
20
0.296756
40
0.2762035
50
34.124913
51
50.30709
0
ARC
8
DEFAULT_255_1_388
10
10.6659803
20
0.3568741
40
0.1978518
50
50.3850304
51
90.6705051
0
ARC
8
DEFAULT_255_1_388
10
10.6607196
20
0.3226074
40
0.2321235
50
89.2729817
51
111.9140267
0
ARC
8
DEFAULT_255_1_388
10
10.6585284
20
0.3384308
40
0.2166604
50
112.9381864
51
142.5320936
0
ARC
8
DEFAULT_255_1_388
10
10.7199773
20
0.2885392
40
0.2957902
50
142.1024021
51
166.3835244
0
ARC
8
DEFAULT_255_1_388
10
10.8528743
20
0.2542213
40
0.4330361
50
166.1100968
51
178.6653563
0
ARC
8
DEFAULT_255_1_388
10
10.9710668
20
0.2476061
40
0.5513642
50
178.2641888
51
180.010994
0
ARC
8
DEFAULT_255_1_388
10
10.880517
20
0.2444136
40
0.4608248
50
179.6162225
51
191.8786013
0
ARC
8
DEFAULT_255_1_388
10
10.743248
20
0.214059
40
0.3202502
50
191.6192934
51
215.2970746
0
ARC
8
DEFAULT_255_1_388
10
10.7193135
20
0.1997963
40
0.2924827
50
215.7258926
51
216.5355437
0
ARC
8
DEFAULT_255_1_388
10
10.6604755
20
0.1524919
40
0.2170661
50
215.7486606
51
239.9728403
0
ARC
8
DEFAULT_255_1_388
10
10.6525921
20
0.1467838
40
0.208217
50
241.065081
51
269.280972
0
ARC
8
DEFAULT_255_1_388
10
10.6573079
20
0.2023327
40
0.2638514
50
268.4083352
51
270.0069622
0
LINE
8
DEFAULT_255_1_388
10
11.6783678
20
-0.0127263
11
11.6783678
21
-0.1491645
0
LINE
8
DEFAULT_255_1_388
10
11.6783678
20
-0.1491645
11
11.2374284
21
-0.1491645
0
LINE
8
DEFAULT_255_1_388
10
11.2374284
20
-0.1491645
11
11.2374284
21
-0.0127263
0
LINE
8
DEFAULT_255_1_388
10
11.2374284
20
-0.0127263
11
11.6783678
21
-0.0127263
0
LINE
8
DEFAULT_255_1_388
10
12.0416007
20
0.6757898
11
12.0416007
21
-0.4979404
0
LINE
8
DEFAULT_255_1_388
10
12.0416007
20
-0.4979404
11
12.6650602
21
-0.4979404
0
LINE
8
DEFAULT_255_1_388
10
12.6650602
20
-0.4979404
11
12.6650602
21
-0.6398
0
LINE
8
DEFAULT_255_1_388
10
12.6650602
20
-0.6398
11
11.8672128
21
-0.6398
0
LINE
8
DEFAULT_255_1_388
10
11.8672128
20
-0.6398
11
11.8672128
21
0.6757898
0
LINE
8
DEFAULT_255_1_388
10
11.8672128
20
0.6757898
11
12.0416007
21
0.6757898
0
LINE
8
DEFAULT_255_1_388
10
13.5252536
20
0.6757898
11
13.5252536
21
-0.197957
0
LINE
8
DEFAULT_255_1_388
10
13.5252536
20
-0.197957
11
13.7077736
21
-0.197957
0
LINE
8
DEFAULT_255_1_388
10
13.7077736
20
-0.197957
11
13.7077736
21
-0.3343952
0
LINE
8
DEFAULT_255_1_388
10
13.7077736
20
-0.3343952
11
13.5252536
21
-0.3343952
0
LINE
8
DEFAULT_255_1_388
10
13.5252536
20
-0.3343952
11
13.5252536
21
-0.6398
0
LINE
8
DEFAULT_255_1_388
10
13.5252536
20
-0.6398
11
13.3571906
21
-0.6398
0
LINE
8
DEFAULT_255_1_388
10
13.3571906
20
-0.6398
11
13.3571906
21
-0.3343952
0
LINE
8
DEFAULT_255_1_388
10
13.3571906
20
-0.3343952
11
12.7581273
21
-0.3343952
0
LINE
8
DEFAULT_255_1_388
10
12.7581273
20
-0.3343952
11
12.7581273
21
-0.2359067
0
LINE
8
DEFAULT_255_1_388
10
12.7581273
20
-0.2359067
11
13.3472514
21
0.6757898
0
LINE
8
DEFAULT_255_1_388
10
13.3472514
20
0.6757898
11
13.5252536
21
0.6757898
0
LINE
8
DEFAULT_255_1_388
10
13.3373122
20
0.4110455
11
12.9478759
21
-0.197957
0
LINE
8
DEFAULT_255_1_388
10
12.9478759
20
-0.197957
11
13.3571906
21
-0.197957
0
LINE
8
DEFAULT_255_1_388
10
13.3571906
20
-0.197957
11
13.3571906
21
0.447188
0
LINE
8
DEFAULT_255_1_388
10
13.3571906
20
0.447188
11
13.3373122
21
0.4110455
0
LINE
8
DEFAULT_255_1_388
10
14.1017277
20
-0.0371225
11
14.1017277
21
0.0993157
0
LINE
8
DEFAULT_255_1_388
10
14.1017277
20
0.0993157
11
14.2273231
21
0.0993157
0
LINE
8
DEFAULT_255_1_388
10
14.0131784
20
0.3306282
11
13.8460189
21
0.3306282
0
LINE
8
DEFAULT_255_1_388
10
13.8342726
20
-0.2928312
11
14.0023356
21
-0.2928312
0
LINE
8
DEFAULT_255_1_388
10
14.2273231
20
-0.0371225
11
14.1017277
21
-0.0371225
0
ARC
8
DEFAULT_255_1_388
10
14.2240458
20
0.4809922
40
0.3816905
50
270.491971
51
281.8953028
0
ARC
8
DEFAULT_255_1_388
10
14.2511885
20
0.3570199
40
0.2547877
50
281.6690378
51
301.2943765
0
ARC
8
DEFAULT_255_1_388
10
14.2703336
20
0.3219926
40
0.2149197
50
301.7834992
51
311.754567
0
ARC
8
DEFAULT_255_1_388
10
14.2806378
20
0.310565
40
0.1995326
50
311.7325027
51
354.2803031
0
ARC
8
DEFAULT_255_1_388
10
14.1988794
20
0.324628
40
0.2823461
50
353.0941646
51
0.1174696
0
ARC
8
DEFAULT_255_1_388
10
14.1470351
20
0.3299874
40
0.3342238
50
359.1804452
51
15.0452323
0
ARC
8
DEFAULT_255_1_388
10
14.298441
20
0.3741546
40
0.1765747
50
13.957816
51
77.6713812
0
ARC
8
DEFAULT_255_1_388
10
14.2549646
20
0.2183464
40
0.3381982
50
76.111571
51
90.7028736
0
ARC
8
DEFAULT_255_1_388
10
14.2483058
20
0.249125
40
0.3074046
50
89.5321574
51
103.5319393
0
ARC
8
DEFAULT_255_1_388
10
14.2257441
20
0.3390443
40
0.2147041
50
103.2930114
51
133.5619756
0
ARC
8
DEFAULT_255_1_388
10
14.2207383
20
0.3457351
40
0.2064084
50
133.8349761
51
173.5343225
0
ARC
8
DEFAULT_255_1_388
10
14.302104
20
0.3313144
40
0.2889266
50
172.5097183
51
180.1360699
0
ARC
8
DEFAULT_255_1_388
10
14.1950804
20
0.335188
40
0.3490913
50
155.3483706
51
180.7484035
0
ARC
8
DEFAULT_255_1_388
10
14.189578
20
0.3319519
40
0.3454798
50
131.5745177
51
154.4799474
0
ARC
8
DEFAULT_255_1_388
10
14.2248062
20
0.2963422
40
0.3955058
50
96.9874487
51
131.9690874
0
ARC
8
DEFAULT_255_1_388
10
14.2494955
20
0.1562407
40
0.537622
50
89.8592909
51
97.7827481
0
ARC
8
DEFAULT_255_1_388
10
14.2549064
20
0.126736
40
0.5671399
50
78.3654493
51
90.4132586
0
ARC
8
DEFAULT_255_1_388
10
14.2951705
20
0.3133918
40
0.3762034
50
56.6229818
51
78.6387103
0
ARC
8
DEFAULT_255_1_388
10
14.3193535
20
0.3556846
40
0.3275964
50
47.0254604
51
56.085558
0
ARC
8
DEFAULT_255_1_388
10
14.3215786
20
0.3601189
40
0.3228382
50
10.9207523
51
46.777927
0
ARC
8
DEFAULT_255_1_388
10
14.1681379
20
0.3246401
40
0.4802559
50
359.6364235
51
11.6087615
0
ARC
8
DEFAULT_255_1_388
10
14.3745545
20
0.3229404
40
0.273833
50
332.3549969
51
359.7179765
0
ARC
8
DEFAULT_255_1_388
10
14.3013946
20
0.3576285
40
0.3547505
50
325.2332381
51
332.8746682
0
ARC
8
DEFAULT_255_1_388
10
14.3185529
20
0.3456763
40
0.3338396
50
292.9803892
51
325.2391113
0
ARC
8
DEFAULT_255_1_388
10
14.2874724
20
0.4061679
40
0.4016959
50
292.542178
51
293.6931461
0
ARC
8
DEFAULT_255_1_388
10
14.3318296
20
-0.3203964
40
0.372079
50
57.643292
51
72.8626085
0
ARC
8
DEFAULT_255_1_388
10
14.3717131
20
-0.2557727
40
0.2961455
50
36.7246661
51
57.4701329
0
ARC
8
DEFAULT_255_1_388
10
14.3704288
20
-0.254353
40
0.2963321
50
8.054535
51
36.3561529
0
ARC
8
DEFAULT_255_1_388
10
14.273396
20
-0.2717927
40
0.3948682
50
359.8316595
51
8.5873361
0
ARC
8
DEFAULT_255_1_388
10
14.2311434
20
-0.277203
40
0.4371398
50
343.9831631
51
0.557075
0
ARC
8
DEFAULT_255_1_388
10
14.3308484
20
-0.3045037
40
0.3337749
50
311.6358204
51
343.7652116
0
ARC
8
DEFAULT_255_1_388
10
14.2882738
20
-0.2565045
40
0.3979351
50
279.7829743
51
311.625622
0
ARC
8
DEFAULT_255_1_388
10
14.2543873
20
-0.0948358
40
0.5630417
50
269.7285092
51
280.3857694
0
ARC
8
DEFAULT_255_1_388
10
14.2474186
20
-0.0994759
40
0.5584119
50
256.6827433
51
270.4412869
0
ARC
8
DEFAULT_255_1_388
10
14.2093172
20
-0.2552302
40
0.3980715
50
229.4223821
51
256.8554507
0
ARC
8
DEFAULT_255_1_388
10
14.1626726
20
-0.3077317
40
0.3278564
50
181.8183354
51
229.6455015
0
ARC
8
DEFAULT_255_1_388
10
14.2796335
20
-0.2930175
40
0.4453611
50
179.9760419
51
183.2330638
0
ARC
8
DEFAULT_255_1_388
10
14.2602888
20
-0.2953219
40
0.2579652
50
179.4467996
51
196.2871626
0
ARC
8
DEFAULT_255_1_388
10
14.2054341
20
-0.3103291
40
0.2011057
50
196.5661293
51
227.7059371
0
ARC
8
DEFAULT_255_1_388
10
14.2238948
20
-0.2896845
40
0.2287994
50
227.7653015
51
257.8763321
0
ARC
8
DEFAULT_255_1_388
10
14.2492032
20
-0.1836039
40
0.3378385
50
257.4583525
51
270.4267406
0
ARC
8
DEFAULT_255_1_388
10
14.2543281
20
-0.150977
40
0.3704652
50
269.5965319
51
280.8788143
0
ARC
8
DEFAULT_255_1_388
10
14.2801509
20
-0.2799471
40
0.2389415
50
280.6347277
51
299.8594068
0
ARC
8
DEFAULT_255_1_388
10
14.3016279
20
-0.3207264
40
0.19289
50
300.3575552
51
314.5515667
0
ARC
8
DEFAULT_255_1_388
10
14.2922955
20
-0.3138975
40
0.204312
50
315.0730962
51
345.0429362
0
ARC
8
DEFAULT_255_1_388
10
14.1884462
20
-0.2836461
40
0.31246
50
344.598526
51
357.9270698
0
ARC
8
DEFAULT_255_1_388
10
14.0874767
20
-0.2767295
40
0.4136265
50
357.4755098
51
0.0224936
0
ARC
8
DEFAULT_255_1_388
10
14.2027645
20
-0.2739901
40
0.2983498
50
359.5051035
51
13.4236939
0
ARC
8
DEFAULT_255_1_388
10
14.3002734
20
-0.2490363
40
0.1977186
50
12.9497905
51
48.7550905
0
ARC
8
DEFAULT_255_1_388
10
14.2797656
20
-0.2770627
40
0.2323321
50
49.509109
51
72.1832965
0
ARC
8
DEFAULT_255_1_388
10
14.2395125
20
-0.3965368
40
0.358397
50
71.9008458
51
84.3555134
0
ARC
8
DEFAULT_255_1_388
10
14.2213519
20
-0.5497288
40
0.512641
50
84.019632
51
89.3326067
0
LINE
8
DEFAULT_255_1_388
10
15.7227223
20
0.138169
11
15.7227223
21
-0.0786865
0
LINE
8
DEFAULT_255_1_388
10
14.8923466
20
-0.1012756
11
14.8923466
21
0.1219048
0
LINE
8
DEFAULT_255_1_388
10
15.5555629
20
-0.1238647
11
15.5555629
21
0.1499153
0
LINE
8
DEFAULT_255_1_388
10
15.059506
20
0.1625652
11
15.059506
21
-0.1048898
0
ARC
8
DEFAULT_255_1_388
10
14.3449557
20
-0.0841882
40
1.3777776
50
353.8440855
51
0.2287917
0
ARC
8
DEFAULT_255_1_388
10
14.8668574
20
-0.1424586
40
0.852639
50
344.4934746
51
353.9763743
0
ARC
8
DEFAULT_255_1_388
10
15.2035382
20
-0.2381809
40
0.5026273
50
329.2803599
51
344.7473406
0
ARC
8
DEFAULT_255_1_388
10
15.3150877
20
-0.2993962
40
0.3754848
50
324.9361395
51
328.6153007
0
ARC
8
DEFAULT_255_1_388
10
15.3576527
20
-0.3291414
40
0.3235566
50
280.5801797
51
324.9173226
0
ARC
8
DEFAULT_255_1_388
10
15.3125156
20
-0.1411764
40
0.5167077
50
269.5979457
51
281.6732777
0
ARC
8
DEFAULT_255_1_388
10
15.3044059
20
-0.1546887
40
0.5032026
50
256.6228565
51
270.5105488
0
ARC
8
DEFAULT_255_1_388
10
15.2591802
20
-0.3288655
40
0.3233092
50
215.8618351
51
257.2787793
0
ARC
8
DEFAULT_255_1_388
10
15.3740509
20
-0.2517894
40
0.4615831
50
197.9695203
51
215.2622745
0
ARC
8
DEFAULT_255_1_388
10
15.6536185
20
-0.1574359
40
0.7566307
50
187.8816486
51
198.2346584
0
ARC
8
DEFAULT_255_1_388
10
16.0989423
20
-0.0931547
40
1.2065653
50
180.8977266
51
188.0054894
0
ARC
8
DEFAULT_255_1_388
10
16.4039637
20
-0.08166
40
1.5117443
50
180.7434591
51
181.152202
0
ARC
8
DEFAULT_255_1_388
10
16.2364633
20
0.1273371
40
1.3441277
50
173.7674302
51
180.2315596
0
ARC
8
DEFAULT_255_1_388
10
15.7282502
20
0.1847779
40
0.8326847
50
164.3058537
51
173.9000553
0
ARC
8
DEFAULT_255_1_388
10
15.4006502
20
0.2791652
40
0.4917711
50
148.7922028
51
164.5682288
0
ARC
8
DEFAULT_255_1_388
10
15.2937239
20
0.3388457
40
0.3694204
50
144.5883979
51
148.1161588
0
ARC
8
DEFAULT_255_1_388
10
15.2549984
20
0.3658667
40
0.322202
50
101.6440149
51
144.5142619
0
ARC
8
DEFAULT_255_1_388
10
15.3028177
20
0.1758337
40
0.5180451
50
89.528284
51
102.5820197
0
ARC
8
DEFAULT_255_1_388
10
15.3117168
20
0.1714376
40
0.5224441
50
77.0437914
51
90.508231
0
ARC
8
DEFAULT_255_1_388
10
15.3569422
20
0.3562272
40
0.3322297
50
48.2777708
51
77.4996087
0
ARC
8
DEFAULT_255_1_388
10
15.3651162
20
0.3707557
40
0.315966
50
36.3141586
51
47.6307332
0
ARC
8
DEFAULT_255_1_388
10
15.2673884
20
0.3049159
40
0.4337313
50
18.2931065
51
35.6770203
0
ARC
8
DEFAULT_255_1_388
10
14.9812725
20
0.2067107
40
0.7362203
50
8.0246996
51
18.5605636
0
ARC
8
DEFAULT_255_1_388
10
14.5129081
20
0.1375432
40
1.2096583
50
1.127539
51
8.1718423
0
ARC
8
DEFAULT_255_1_388
10
14.1480214
20
0.1232374
40
1.5747719
50
0.5432713
51
1.38669
0
ARC
8
DEFAULT_255_1_388
10
14.3537593
20
0.1539163
40
1.2018103
50
359.8092569
51
4.9408001
0
ARC
8
DEFAULT_255_1_388
10
14.8274174
20
0.19619
40
0.7262727
50
4.8364937
51
12.2906017
0
ARC
8
DEFAULT_255_1_388
10
15.1373639
20
0.2652485
40
0.4087324
50
12.0806994
51
23.8171225
0
ARC
8
DEFAULT_255_1_388
10
15.2694035
20
0.3211508
40
0.2653719
50
24.2874621
51
31.3934353
0
ARC
8
DEFAULT_255_1_388
10
15.3284471
20
0.3597822
40
0.1948607
50
30.7407708
51
82.4658033
0
ARC
8
DEFAULT_255_1_388
10
15.3082132
20
0.2604017
40
0.2961198
50
81.1057101
51
90.2187368
0
ARC
8
DEFAULT_255_1_388
10
15.3041943
20
0.2894421
40
0.2670929
50
89.380395
51
105.6763916
0
ARC
8
DEFAULT_255_1_388
10
15.2835665
20
0.364432
40
0.1893189
50
105.7980655
51
149.7387869
0
ARC
8
DEFAULT_255_1_388
10
15.4032805
20
0.2924719
40
0.3289892
50
149.4208441
51
163.628295
0
ARC
8
DEFAULT_255_1_388
10
15.6385035
20
0.2207345
40
0.5749004
50
163.3764549
51
172.141138
0
ARC
8
DEFAULT_255_1_388
10
16.0097757
20
0.1675582
40
0.9499585
50
172.0258462
51
178.0705453
0
ARC
8
DEFAULT_255_1_388
10
16.3519309
20
0.1513682
40
1.2924734
50
177.8639301
51
179.5036263
0
ARC
8
DEFAULT_255_1_388
10
16.2300328
20
-0.1089849
40
1.170534
50
179.7995545
51
185.246089
0
ARC
8
DEFAULT_255_1_388
10
15.7751921
20
-0.1520596
40
0.7136613
50
185.1411911
51
193.0082205
0
ARC
8
DEFAULT_255_1_388
10
15.4778182
20
-0.2223559
40
0.4080987
50
192.7897338
51
205.2507384
0
ARC
8
DEFAULT_255_1_388
10
15.3600392
20
-0.2749462
40
0.2791522
50
205.8001921
51
211.2545876
0
ARC
8
DEFAULT_255_1_388
10
15.3011931
20
-0.3143868
40
0.2084074
50
210.3789935
51
238.4007996
0
ARC
8
DEFAULT_255_1_388
10
15.2990017
20
-0.3091214
40
0.2117943
50
239.6521916
51
265.9793852
0
ARC
8
DEFAULT_255_1_388
10
15.3085866
20
-0.2334642
40
0.2879689
50
265.1324455
51
270.0603288
0
ARC
8
DEFAULT_255_1_388
10
15.3118243
20
-0.2699582
40
0.2514919
50
269.3314378
51
287.2180039
0
ARC
8
DEFAULT_255_1_388
10
15.3273325
20
-0.3265709
40
0.1928357
50
287.7957942
51
329.0808983
0
ARC
8
DEFAULT_255_1_388
10
15.2196082
20
-0.2593349
40
0.319808
50
328.6635261
51
343.3325043
0
ARC
8
DEFAULT_255_1_388
10
14.9751541
20
-0.1831805
40
0.5758408
50
343.0498092
51
351.9392499
0
ARC
8
DEFAULT_255_1_388
10
14.5850862
20
-0.1256795
40
0.9701202
50
351.8071632
51
357.7957897
0
ARC
8
DEFAULT_255_1_388
10
14.2216339
20
-0.1068276
40
1.3340376
50
357.5870923
51
359.2682493
0
LINE
8
DEFAULT_255_1_388
10
16.7238717
20
0.1101585
11
16.7238717
21
-0.0317011
0
LINE
8
DEFAULT_255_1_388
10
16.7238717
20
-0.0317011
11
16.1537226
21
-0.0317011
0
LINE
8
DEFAULT_255_1_388
10
16.1537226
20
-0.0317011
11
16.1537226
21
-0.4979404
0
LINE
8
DEFAULT_255_1_388
10
16.1537226
20
-0.4979404
11
16.8160353
21
-0.4979404
0
LINE
8
DEFAULT_255_1_388
10
16.8160353
20
-0.4979404
11
16.8160353
21
-0.6398
0
LINE
8
DEFAULT_255_1_388
10
16.8160353
20
-0.6398
11
15.9802382
21
-0.6398
0
LINE
8
DEFAULT_255_1_388
10
15.9802382
20
-0.6398
11
15.9802382
21
0.6757898
0
LINE
8
DEFAULT_255_1_388
10
15.9802382
20
0.6757898
11
16.8069997
21
0.6757898
0
LINE
8
DEFAULT_255_1_388
10
16.8069997
20
0.6757898
11
16.8069997
21
0.5330267
0
LINE
8
DEFAULT_255_1_388
10
16.8069997
20
0.5330267
11
16.1537226
21
0.5330267
0
LINE
8
DEFAULT_255_1_388
10
16.1537226
20
0.5330267
11
16.1537226
21
0.1101585
0
LINE
8
DEFAULT_255_1_388
10
16.1537226
20
0.1101585
11
16.7238717
21
0.1101585
0
LINE
8
DEFAULT_255_1_388
10
17.800017
20
-0.6398
11
17.5144906
21
-0.1076005
0
LINE
8
DEFAULT_255_1_388
10
17.5144906
20
-0.1076005
11
17.2054716
21
-0.1076005
0
LINE
8
DEFAULT_255_1_388
10
17.2054716
20
-0.1076005
11
17.2054716
21
-0.6398
0
LINE
8
DEFAULT_255_1_388
10
17.2054716
20
-0.6398
11
17.0310836
21
-0.6398
0
LINE
8
DEFAULT_255_1_388
10
17.0310836
20
-0.6398
11
17.0310836
21
0.6757898
0
LINE
8
DEFAULT_255_1_388
10
17.0310836
20
0.6757898
11
17.4666017
21
0.6757898
0
LINE
8
DEFAULT_255_1_388
10
17.6771322
20
-0.0705544
11
17.9861513
21
-0.6289572
0
LINE
8
DEFAULT_255_1_388
10
17.9861513
20
-0.6289572
11
17.9861513
21
-0.6398
0
LINE
8
DEFAULT_255_1_388
10
17.9861513
20
-0.6398
11
17.800017
21
-0.6398
0
LINE
8
DEFAULT_255_1_388
10
17.2054716
20
0.5330267
11
17.2054716
21
0.0342591
0
LINE
8
DEFAULT_255_1_388
10
17.2054716
20
0.0342591
11
17.4720231
21
0.0342591
0
LINE
8
DEFAULT_255_1_388
10
17.4711195
20
0.5330267
11
17.2054716
21
0.5330267
0
ARC
8
DEFAULT_255_1_388
10
17.4712863
20
-0.1073654
40
0.7831693
50
80.6535681
51
90.3427203
0
ARC
8
DEFAULT_255_1_388
10
17.5184774
20
0.1696722
40
0.5021479
50
65.6987674
51
80.8330164
0
ARC
8
DEFAULT_255_1_388
10
17.5722067
20
0.2928479
40
0.3677787
50
50.0019152
51
65.4304412
0
ARC
8
DEFAULT_255_1_388
10
17.5967883
20
0.3260603
40
0.3265454
50
11.6284215
51
49.5603681
0
ARC
8
DEFAULT_255_1_388
10
17.4240369
20
0.2838524
40
0.5043009
50
359.5655533
51
12.3693319
0
ARC
8
DEFAULT_255_1_388
10
17.5451706
20
0.2768038
40
0.3831661
50
341.998418
51
0.4822212
0
ARC
8
DEFAULT_255_1_388
10
17.5895892
20
0.2647479
40
0.3372036
50
323.8610842
51
341.6141514
0
ARC
8
DEFAULT_255_1_388
10
17.5556438
20
0.2909615
40
0.3800784
50
296.7019299
51
323.6876213
0
ARC
8
DEFAULT_255_1_388
10
17.5060396
20
0.3796532
40
0.4816219
50
290.808313
51
297.2325929
0
ARC
8
DEFAULT_255_1_388
10
17.474919
20
0.4385377
40
0.404289
50
269.5895908
51
281.8058892
0
ARC
8
DEFAULT_255_1_388
10
17.5031456
20
0.309436
40
0.2721459
50
281.5499321
51
303.9358954
0
ARC
8
DEFAULT_255_1_388
10
17.5185991
20
0.2826588
40
0.2413121
50
304.4410786
51
311.211123
0
ARC
8
DEFAULT_255_1_388
10
17.5334396
20
0.2670152
40
0.2197678
50
310.9874923
51
356.2715203
0
ARC
8
DEFAULT_255_1_388
10
17.4484142
20
0.2796992
40
0.3055212
50
354.9346315
51
0.0617816
0
ARC
8
DEFAULT_255_1_388
10
17.4272983
20
0.2827427
40
0.3266482
50
359.5239293
51
12.8808621
0
ARC
8
DEFAULT_255_1_388
10
17.5372746
20
0.3096638
40
0.2134449
50
12.417206
51
43.1023141
0
ARC
8
DEFAULT_255_1_388
10
17.5442076
20
0.3138253
40
0.2055463
50
43.575886
51
48.2047245
0
ARC
8
DEFAULT_255_1_388
10
17.5251337
20
0.2889151
40
0.2368418
50
48.7809155
51
72.6968768
0
ARC
8
DEFAULT_255_1_388
10
17.4852701
20
0.1679385
40
0.364206
50
72.3699892
51
84.8793749
0
ARC
8
DEFAULT_255_1_388
10
17.4686707
20
0.0169651
40
0.5160674
50
84.5398226
51
89.7281165
0
LINE
8
DEFAULT_255_1_388
10
18.171382
20
0.6757898
11
18.395466
21
0.6757898
0
LINE
8
DEFAULT_255_1_388
10
18.395466
20
0.6757898
11
18.8255626
21
-0.3976447
0
LINE
8
DEFAULT_255_1_388
10
18.8255626
20
-0.3976447
11
19.2556593
21
0.6757898
0
LINE
8
DEFAULT_255_1_388
10
19.2556593
20
0.6757898
11
19.4806469
21
0.6757898
0
LINE
8
DEFAULT_255_1_388
10
19.4806469
20
0.6757898
11
19.4806469
21
-0.6398
0
LINE
8
DEFAULT_255_1_388
10
19.4806469
20
-0.6398
11
19.3071625
21
-0.6398
0
LINE
8
DEFAULT_255_1_388
10
19.3071625
20
-0.6398
11
19.3071625
21
-0.127479
0
LINE
8
DEFAULT_255_1_388
10
19.3071625
20
-0.127479
11
19.3234267
21
0.4255025
0
LINE
8
DEFAULT_255_1_388
10
19.3234267
20
0.4255025
11
18.8915229
21
-0.6398
0
LINE
8
DEFAULT_255_1_388
10
18.8915229
20
-0.6398
11
18.7586989
21
-0.6398
0
LINE
8
DEFAULT_255_1_388
10
18.7586989
20
-0.6398
11
18.3276986
21
0.4227918
0
LINE
8
DEFAULT_255_1_388
10
18.3276986
20
0.4227918
11
18.3448664
21
-0.127479
0
LINE
8
DEFAULT_255_1_388
10
18.3448664
20
-0.127479
11
18.3448664
21
-0.6398
0
LINE
8
DEFAULT_255_1_388
10
18.3448664
20
-0.6398
11
18.171382
21
-0.6398
0
LINE
8
DEFAULT_255_1_388
10
18.171382
20
-0.6398
11
18.171382
21
0.6757898
0
LINE
8
DEFAULT_255_1_388
10
19.8628546
20
0.6757898
11
20.0706745
21
-0.2250639
0
LINE
8
DEFAULT_255_1_388
10
20.0706745
20
-0.2250639
11
20.0959743
21
-0.3985483
0
LINE
8
DEFAULT_255_1_388
10
20.0959743
20
-0.3985483
11
20.1330204
21
-0.2422316
0
LINE
8
DEFAULT_255_1_388
10
20.1330204
20
-0.2422316
11
20.393247
21
0.6757898
0
LINE
8
DEFAULT_255_1_388
10
20.393247
20
0.6757898
11
20.5396244
21
0.6757898
0
LINE
8
DEFAULT_255_1_388
10
20.5396244
20
0.6757898
11
20.793526
21
-0.2422316
0
LINE
8
DEFAULT_255_1_388
10
20.793526
20
-0.2422316
11
20.8296686
21
-0.401259
0
LINE
8
DEFAULT_255_1_388
10
20.8296686
20
-0.401259
11
20.8576791
21
-0.2241604
0
LINE
8
DEFAULT_255_1_388
10
20.8576791
20
-0.2241604
11
21.0618847
21
0.6757898
0
LINE
8
DEFAULT_255_1_388
10
21.0618847
20
0.6757898
11
21.2362726
21
0.6757898
0
LINE
8
DEFAULT_255_1_388
10
21.2362726
20
0.6757898
11
20.9173144
21
-0.6398
0
LINE
8
DEFAULT_255_1_388
10
20.9173144
20
-0.6398
11
20.7591906
21
-0.6398
0
LINE
8
DEFAULT_255_1_388
10
20.7591906
20
-0.6398
11
20.4881212
21
0.3188819
0
LINE
8
DEFAULT_255_1_388
10
20.4881212
20
0.3188819
11
20.4673393
21
0.4191775
0
LINE
8
DEFAULT_255_1_388
10
20.4673393
20
0.4191775
11
20.4465573
21
0.3188819
0
LINE
8
DEFAULT_255_1_388
10
20.4465573
20
0.3188819
11
20.1655487
21
-0.6398
0
LINE
8
DEFAULT_255_1_388
10
20.1655487
20
-0.6398
11
20.007425
21
-0.6398
0
LINE
8
DEFAULT_255_1_388
10
20.007425
20
-0.6398
11
19.6893703
21
0.6757898
0
LINE
8
DEFAULT_255_1_388
10
19.6893703
20
0.6757898
11
19.8628546
21
0.6757898
0
LINE
8
DEFAULT_255_1_388
10
6.823232
20
102.3037468
11
6.9976199
21
102.3037468
0
LINE
8
DEFAULT_255_1_388
10
5.9847242
20
102.4826525
11
5.9847242
21
102.6091516
0
LINE
8
DEFAULT_255_1_388
10
6.9976199
20
102.7790217
11
6.823232
21
102.7790217
0
LINE
8
DEFAULT_255_1_388
10
6.1591121
20
102.6046337
11
6.1591121
21
102.4772312
0
ARC
8
DEFAULT_255_1_388
10
6.3810433
20
102.3709329
40
0.6202263
50
340.1774904
51
353.7812217
0
ARC
8
DEFAULT_255_1_388
10
6.5578286
20
102.3050893
40
0.4315926
50
311.4560052
51
340.4420756
0
ARC
8
DEFAULT_255_1_388
10
6.5540826
20
102.3175665
40
0.4434573
50
282.4332229
51
310.7514507
0
ARC
8
DEFAULT_255_1_388
10
6.5046644
20
102.5217703
40
0.6535262
50
269.9358869
51
282.8096729
0
ARC
8
DEFAULT_255_1_388
10
6.4988583
20
102.6730329
40
0.8048043
50
269.9995752
51
270.3612856
0
ARC
8
DEFAULT_255_1_388
10
6.4929073
20
102.3931781
40
0.5249831
50
250.7885263
51
270.6488451
0
ARC
8
DEFAULT_255_1_388
10
6.4739898
20
102.3214853
40
0.4510942
50
219.3628377
51
250.0611024
0
ARC
8
DEFAULT_255_1_388
10
6.5672772
20
102.4007653
40
0.5735046
50
193.5480293
51
219.5755675
0
ARC
8
DEFAULT_255_1_388
10
6.8340981
20
102.470052
40
0.849146
50
181.1220183
51
193.8754971
0
ARC
8
DEFAULT_255_1_388
10
7.0664214
20
102.4824914
40
1.0816971
50
179.9914644
51
181.5398227
0
ARC
8
DEFAULT_255_1_388
10
6.8587525
20
102.6133586
40
0.8740384
50
169.5837606
51
180.275782
0
ARC
8
DEFAULT_255_1_388
10
6.6520873
20
102.6515439
40
0.6638751
50
155.0367033
51
169.6002779
0
ARC
8
DEFAULT_255_1_388
10
6.5243331
20
102.7131336
40
0.5220662
50
136.7831557
51
155.2472983
0
ARC
8
DEFAULT_255_1_388
10
6.4805122
20
102.7503577
40
0.4646502
50
121.7633063
51
136.4281161
0
ARC
8
DEFAULT_255_1_388
10
6.4956962
20
102.7223049
40
0.4964979
50
95.6460018
51
121.5489589
0
ARC
8
DEFAULT_255_1_388
10
6.5133936
20
102.5975704
40
0.6223912
50
89.9245727
51
96.1375919
0
ARC
8
DEFAULT_255_1_388
10
6.5190641
20
102.6109721
40
0.6090084
50
76.6779212
51
90.456405
0
ARC
8
DEFAULT_255_1_388
10
6.5633454
20
102.789906
40
0.42469
50
47.4858803
51
76.9287069
0
ARC
8
DEFAULT_255_1_388
10
6.5468068
20
102.7786623
40
0.4441778
50
16.5424081
51
46.8934505
0
ARC
8
DEFAULT_255_1_388
10
6.3659118
20
102.7192265
40
0.6345318
50
5.4072971
51
17.0363711
0
ARC
8
DEFAULT_255_1_388
10
6.2040843
20
102.6932304
40
0.6250632
50
7.8888693
51
15.9242022
0
ARC
8
DEFAULT_255_1_388
10
6.4275828
20
102.7581309
40
0.3923364
50
15.7650676
51
27.9410069
0
ARC
8
DEFAULT_255_1_388
10
6.5517997
20
102.8246317
40
0.2514401
50
27.8167196
51
46.4007942
0
ARC
8
DEFAULT_255_1_388
10
6.5573839
20
102.8239882
40
0.2480958
50
47.4372362
51
75.0695672
0
ARC
8
DEFAULT_255_1_388
10
6.5226675
20
102.7031277
40
0.3738281
50
74.7009379
51
87.8124314
0
ARC
8
DEFAULT_255_1_388
10
6.5144292
20
102.5847659
40
0.4924321
50
87.3802571
51
90.0251599
0
ARC
8
DEFAULT_255_1_388
10
6.5100939
20
102.7167997
40
0.3604218
50
89.3451886
51
108.5744412
0
ARC
8
DEFAULT_255_1_388
10
6.4946931
20
102.7745836
40
0.3007661
50
109.2998307
51
143.3037387
0
ARC
8
DEFAULT_255_1_388
10
6.5804221
20
102.7086584
40
0.4089031
50
143.075267
51
163.1918576
0
ARC
8
DEFAULT_255_1_388
10
6.8000055
20
102.6393652
40
0.6391492
50
162.9375929
51
174.6208776
0
ARC
8
DEFAULT_255_1_388
10
7.0954437
20
102.6069711
40
0.9363344
50
174.342123
51
180.1430283
0
ARC
8
DEFAULT_255_1_388
10
6.9906978
20
102.4726117
40
0.8315986
50
179.6817261
51
189.150555
0
ARC
8
DEFAULT_255_1_388
10
6.7093727
20
102.4257559
40
0.5464044
50
188.9911061
51
203.5772363
0
ARC
8
DEFAULT_255_1_388
10
6.5879019
20
102.3753539
40
0.4149206
50
203.9075402
51
215.1312435
0
ARC
8
DEFAULT_255_1_388
10
6.4840817
20
102.2948907
40
0.2837747
50
213.9071511
51
263.8848919
0
ARC
8
DEFAULT_255_1_388
10
6.498181
20
102.3831519
40
0.3730641
50
263.1757928
51
270.1031044
0
ARC
8
DEFAULT_255_1_388
10
6.501789
20
102.5234511
40
0.5133712
50
269.6722503
51
279.0606936
0
ARC
8
DEFAULT_255_1_388
10
6.5318045
20
102.342015
40
0.3294739
50
278.8749101
51
293.6349581
0
ARC
8
DEFAULT_255_1_388
10
6.5678249
20
102.2574251
40
0.2375405
50
293.8553806
51
310.0518171
0
ARC
8
DEFAULT_255_1_388
10
6.5683758
20
102.2504021
40
0.2318463
50
311.0644687
51
332.0111037
0
ARC
8
DEFAULT_255_1_388
10
6.4342431
20
102.3243702
40
0.3850112
50
331.6586806
51
343.2877423
0
ARC
8
DEFAULT_255_1_388
10
6.2021896
20
102.3956806
40
0.6277712
50
343.1446576
51
351.0103568
0
ARC
8
DEFAULT_255_1_388
10
6.038922
20
102.4256873
40
0.7937327
50
350.71248
51
351.1626997
0
LINE
8
DEFAULT_255_1_388
10
7.1638758
20
102.3724177
11
7.1638758
21
102.384164
0
LINE
8
DEFAULT_255_1_388
10
8.0538868
20
102.3760319
11
8.0538868
21
102.3642856
0
ARC
8
DEFAULT_255_1_388
10
7.7923202
20
102.387804
40
0.628455
50
166.3005265
51
180.3318609
0
ARC
8
DEFAULT_255_1_388
10
7.6952552
20
102.4095267
40
0.52901
50
153.8608648
51
166.0965672
0
ARC
8
DEFAULT_255_1_388
10
7.6203718
20
102.4496652
40
0.4441126
50
135.1317053
51
154.2534962
0
ARC
8
DEFAULT_255_1_388
10
7.5890369
20
102.4773431
40
0.4023863
50
121.7042632
51
134.7771455
0
ARC
8
DEFAULT_255_1_388
10
7.5965801
20
102.4628469
40
0.4186852
50
93.4001111
51
121.5399523
0
ARC
8
DEFAULT_255_1_388
10
7.6072635
20
102.3698759
40
0.5121521
50
89.9706387
51
93.9763381
0
ARC
8
DEFAULT_255_1_388
10
7.6125619
20
102.4138563
40
0.4681988
50
71.3321659
51
90.6162917
0
ARC
8
DEFAULT_255_1_388
10
7.6308653
20
102.4816003
40
0.3981841
50
41.1813875
51
70.7072086
0
ARC
8
DEFAULT_255_1_388
10
7.5771369
20
102.432813
40
0.4707474
50
12.1971434
51
41.3446641
0
ARC
8
DEFAULT_255_1_388
10
7.3604633
20
102.3812328
40
0.6934429
50
359.5702713
51
12.5803533
0
ARC
8
DEFAULT_255_1_388
10
7.4136949
20
102.3607207
40
0.6402018
50
347.0196754
51
0.3190452
0
ARC
8
DEFAULT_255_1_388
10
7.5215002
20
102.3375189
40
0.5299421
50
334.350439
51
346.8460534
0
ARC
8
DEFAULT_255_1_388
10
7.6166249
20
102.2881244
40
0.4228234
50
310.4228125
51
334.8045131
0
ARC
8
DEFAULT_255_1_388
10
7.6258227
20
102.2809301
40
0.4113892
50
301.8488154
51
310.0972985
0
ARC
8
DEFAULT_255_1_388
10
7.6221967
20
102.2894573
40
0.4205483
50
274.3078723
51
301.6554173
0
ARC
8
DEFAULT_255_1_388
10
7.6097423
20
102.3881943
40
0.5199658
50
269.954904
51
274.859116
0
ARC
8
DEFAULT_255_1_388
10
7.6042247
20
102.3318239
40
0.4636233
50
250.8887647
51
270.6313164
0
ARC
8
DEFAULT_255_1_388
10
7.5873407
20
102.2689405
40
0.398705
50
221.1701369
51
250.2227012
0
ARC
8
DEFAULT_255_1_388
10
7.6418073
20
102.3185716
40
0.4723796
50
191.6263861
51
221.3526879
0
ARC
8
DEFAULT_255_1_388
10
7.8541918
20
102.3677203
40
0.6903321
50
179.6101251
51
192.0694841
0
ARC
8
DEFAULT_255_1_388
10
7.9018266
20
102.3606681
40
0.5698993
50
179.636304
51
190.6161344
0
ARC
8
DEFAULT_255_1_388
10
7.7170598
20
102.3246635
40
0.3816643
50
190.4136062
51
208.7168709
0
ARC
8
DEFAULT_255_1_388
10
7.6596632
20
102.2961905
40
0.3176572
50
209.187109
51
217.4221816
0
ARC
8
DEFAULT_255_1_388
10
7.6001102
20
102.2437729
40
0.2385702
50
216.1156863
51
265.2575395
0
ARC
8
DEFAULT_255_1_388
10
7.6090139
20
102.3082608
40
0.3035941
50
264.5891546
51
270.0602378
0
ARC
8
DEFAULT_255_1_388
10
7.6127335
20
102.2655539
40
0.2609091
50
269.2532353
51
291.8793864
0
ARC
8
DEFAULT_255_1_388
10
7.6160214
20
102.2455359
40
0.241148
50
292.9269367
51
323.1777736
0
ARC
8
DEFAULT_255_1_388
10
7.56895
20
102.2868762
40
0.3036446
50
322.25666
51
323.087958
0
ARC
8
DEFAULT_255_1_388
10
7.5386757
20
102.3051332
40
0.3388345
50
323.6941379
51
343.8493587
0
ARC
8
DEFAULT_255_1_388
10
7.3611193
20
102.3591698
40
0.5244204
50
343.5746655
51
355.008149
0
ARC
8
DEFAULT_255_1_388
10
7.1352885
20
102.3825797
40
0.7514406
50
354.728272
51
0.1208026
0
ARC
8
DEFAULT_255_1_388
10
7.3341911
20
102.3877947
40
0.5525482
50
359.6235211
51
11.2016685
0
ARC
8
DEFAULT_255_1_388
10
7.5067738
20
102.4233284
40
0.3763527
50
10.9991302
51
30.8317616
0
ARC
8
DEFAULT_255_1_388
10
7.5513042
20
102.4467988
40
0.3260975
50
31.3007463
51
37.395541
0
ARC
8
DEFAULT_255_1_388
10
7.6071761
20
102.4939773
40
0.253082
50
36.5918894
51
62.2439906
0
ARC
8
DEFAULT_255_1_388
10
7.6124052
20
102.4936378
40
0.2509927
50
63.3364883
51
89.7193846
0
ARC
8
DEFAULT_255_1_388
10
7.6075506
20
102.4288375
40
0.3158485
50
88.8962924
51
90.004475
0
ARC
8
DEFAULT_255_1_388
10
7.6039933
20
102.4941071
40
0.250604
50
89.1923115
51
114.7099029
0
ARC
8
DEFAULT_255_1_388
10
7.6072275
20
102.4983675
40
0.2481307
50
115.7996284
51
142.2901353
0
ARC
8
DEFAULT_255_1_388
10
7.6540546
20
102.4564752
40
0.310833
50
141.4607507
51
142.383894
0
ARC
8
DEFAULT_255_1_388
10
7.6688397
20
102.4496449
40
0.3267335
50
143.0176473
51
163.2340089
0
ARC
8
DEFAULT_255_1_388
10
7.8463686
20
102.3934553
40
0.5129308
50
162.9446504
51
174.3733893
0
ARC
8
DEFAULT_255_1_388
10
8.0877659
20
102.3663483
40
0.75583
50
174.1225809
51
180.1563667
0
LINE
8
DEFAULT_255_1_388
10
8.2626102
20
102.8639567
11
8.4207339
21
102.8639567
0
LINE
8
DEFAULT_255_1_388
10
8.4207339
20
102.8639567
11
8.4252518
21
102.755529
0
LINE
8
DEFAULT_255_1_388
10
9.6333174
20
102.5413842
11
9.6333174
21
101.8863
0
LINE
8
DEFAULT_255_1_388
10
9.6333174
20
101.8863
11
9.466158
21
101.8863
0
LINE
8
DEFAULT_255_1_388
10
9.466158
20
101.8863
11
9.466158
21
102.531445
0
LINE
8
DEFAULT_255_1_388
10
9.0315435
20
102.5350593
11
9.0315435
21
101.8863
0
LINE
8
DEFAULT_255_1_388
10
9.0315435
20
101.8863
11
8.8634805
21
101.8863
0
LINE
8
DEFAULT_255_1_388
10
8.8634805
20
101.8863
11
8.8634805
21
102.5269272
0
LINE
8
DEFAULT_255_1_388
10
8.4297696
20
102.6001159
11
8.4297696
21
101.8863
0
LINE
8
DEFAULT_255_1_388
10
8.4297696
20
101.8863
11
8.2626102
21
101.8863
0
LINE
8
DEFAULT_255_1_388
10
8.2626102
20
101.8863
11
8.2626102
21
102.8639567
0
ARC
8
DEFAULT_255_1_388
10
8.6948714
20
102.5285947
40
0.3524116
50
93.0261693
51
139.913241
0
ARC
8
DEFAULT_255_1_388
10
8.7148789
20
102.3887673
40
0.493261
50
89.9515559
51
94.4896559
0
ARC
8
DEFAULT_255_1_388
10
8.7196267
20
102.4690293
40
0.4130214
50
75.8912256
51
90.6007843
0
ARC
8
DEFAULT_255_1_388
10
8.7607563
20
102.6207686
40
0.2558497
50
23.9940553
51
76.5407673
0
ARC
8
DEFAULT_255_1_388
10
9.2985998
20
102.5134138
40
0.3703589
50
118.5760068
51
145.1952627
0
ARC
8
DEFAULT_255_1_388
10
9.2842051
20
102.5409672
40
0.3392772
50
99.1481537
51
118.6669021
0
ARC
8
DEFAULT_255_1_388
10
9.3044764
20
102.4277244
40
0.454307
50
89.7792127
51
99.4015557
0
ARC
8
DEFAULT_255_1_388
10
9.3131877
20
102.4463109
40
0.4357727
50
73.2646335
51
90.9152299
0
ARC
8
DEFAULT_255_1_388
10
9.3625954
20
102.6141955
40
0.2607739
50
10.756495
51
73.0388383
0
ARC
8
DEFAULT_255_1_388
10
9.0936521
20
102.5384448
40
0.5396733
50
0.3120729
51
13.3293082
0
ARC
8
DEFAULT_255_1_388
10
9.0999
20
102.5335363
40
0.366264
50
359.6728567
51
8.7129231
0
ARC
8
DEFAULT_255_1_388
10
9.2345914
20
102.5549524
40
0.2298841
50
8.5221448
51
22.6803231
0
ARC
8
DEFAULT_255_1_388
10
9.3029614
20
102.5833786
40
0.1558403
50
22.7298708
51
42.2763259
0
ARC
8
DEFAULT_255_1_388
10
9.3168315
20
102.5921235
40
0.1397242
50
43.4492352
51
69.272112
0
ARC
8
DEFAULT_255_1_388
10
9.2822545
20
102.5057568
40
0.2327451
50
68.836098
51
81.9786568
0
ARC
8
DEFAULT_255_1_388
10
9.2596981
20
102.3547247
40
0.385449
50
81.7913044
51
90.3003404
0
LINE
8
DEFAULT_255_1_388
10
9.2576777
20
102.7401683
11
9.2574346
21
102.7401684
0
ARC
8
DEFAULT_255_1_388
10
9.2551155
20
102.4841083
40
0.2560706
50
89.4810922
51
106.5055613
0
ARC
8
DEFAULT_255_1_388
10
9.2423064
20
102.5312872
40
0.2071998
50
106.8160071
51
132.2750747
0
ARC
8
DEFAULT_255_1_388
10
9.2471587
20
102.5261017
40
0.2143007
50
132.3023562
51
166.9931148
0
ARC
8
DEFAULT_255_1_388
10
9.3199825
20
102.5052518
40
0.2899752
50
166.2176327
51
174.0999541
0
ARC
8
DEFAULT_255_1_388
10
8.5484954
20
102.531209
40
0.3150142
50
359.2211859
51
14.4876062
0
ARC
8
DEFAULT_255_1_388
10
8.6963177
20
102.5737235
40
0.1613108
50
13.0021013
51
76.7082612
0
ARC
8
DEFAULT_255_1_388
10
8.6586377
20
102.4406286
40
0.299565
50
75.5470628
51
90.7422407
0
ARC
8
DEFAULT_255_1_388
10
8.6510003
20
102.4440964
40
0.2960958
50
89.2730201
51
106.8379289
0
ARC
8
DEFAULT_255_1_388
10
8.6287408
20
102.5248973
40
0.2123216
50
107.4046439
51
156.621812
0
ARC
8
DEFAULT_255_1_388
10
8.7052222
20
102.4810952
40
0.3000669
50
154.7390611
51
156.6312403
0
LINE
8
DEFAULT_255_1_388
10
10.7112698
20
102.3796462
11
10.7112698
21
102.3642856
0
LINE
8
DEFAULT_255_1_388
10
10.0525713
20
101.9811743
11
10.0525713
21
101.5104172
0
LINE
8
DEFAULT_255_1_388
10
10.0525713
20
101.5104172
11
9.8854119
21
101.5104172
0
LINE
8
DEFAULT_255_1_388
10
9.8854119
20
101.5104172
11
9.8854119
21
102.8639567
0
LINE
8
DEFAULT_255_1_388
10
9.8854119
20
102.8639567
11
10.0381143
21
102.8639567
0
LINE
8
DEFAULT_255_1_388
10
10.0381143
20
102.8639567
11
10.0462464
21
102.755529
0
LINE
8
DEFAULT_255_1_388
10
10.0525713
20
102.6055373
11
10.0525713
21
102.1383945
0
ARC
8
DEFAULT_255_1_388
10
9.9159935
20
102.3593831
40
0.7952914
50
349.5457689
51
0.3531959
0
ARC
8
DEFAULT_255_1_388
10
10.1718713
20
102.3102711
40
0.5347531
50
331.7801944
51
349.7458841
0
ARC
8
DEFAULT_255_1_388
10
10.2535032
20
102.2705052
40
0.4440347
50
323.2239993
51
331.320727
0
ARC
8
DEFAULT_255_1_388
10
10.3461519
20
102.1919189
40
0.3228626
50
275.1519108
51
324.5512858
0
ARC
8
DEFAULT_255_1_388
10
10.3331891
20
102.2820763
40
0.4138479
50
269.929002
51
275.8184771
0
ARC
8
DEFAULT_255_1_388
10
10.3285254
20
102.3196586
40
0.451449
50
255.0666642
51
270.5268285
0
ARC
8
DEFAULT_255_1_388
10
10.2967746
20
102.2008476
40
0.3284686
50
221.9730059
51
255.0773797
0
ARC
8
DEFAULT_255_1_388
10
10.3061905
20
102.5477287
40
0.3327941
50
94.4346057
51
141.3610235
0
ARC
8
DEFAULT_255_1_388
10
10.3292435
20
102.4051867
40
0.4768419
50
89.913234
51
95.8721355
0
ARC
8
DEFAULT_255_1_388
10
10.3343973
20
102.5060946
40
0.3759596
50
70.3260364
51
90.6753935
0
ARC
8
DEFAULT_255_1_388
10
10.3457416
20
102.5527349
40
0.328261
50
36.7636238
51
69.44976
0
ARC
8
DEFAULT_255_1_388
10
10.2496025
20
102.4777455
40
0.4501685
50
16.0027939
51
37.086172
0
ARC
8
DEFAULT_255_1_388
10
10.0201792
20
102.4085013
40
0.6897988
50
4.5018317
51
16.2779312
0
ARC
8
DEFAULT_255_1_388
10
9.7419939
20
102.381276
40
0.9692771
50
359.9036593
51
4.8154966
0
ARC
8
DEFAULT_255_1_388
10
9.915523
20
102.3867646
40
0.6285971
50
359.6805954
51
9.1297647
0
ARC
8
DEFAULT_255_1_388
10
10.1302326
20
102.4225143
40
0.4109369
50
8.9584658
51
23.6939885
0
ARC
8
DEFAULT_255_1_388
10
10.2242084
20
102.4618721
40
0.3090717
50
24.0136272
51
36.1951724
0
ARC
8
DEFAULT_255_1_388
10
10.290768
20
102.5161253
40
0.2233637
50
35.0467028
51
84.5489768
0
ARC
8
DEFAULT_255_1_388
10
10.2806874
20
102.4494397
40
0.2907289
50
83.8197232
51
90.0823413
0
ARC
8
DEFAULT_255_1_388
10
10.2763005
20
102.4716874
40
0.2685104
50
89.1530367
51
112.3459134
0
ARC
8
DEFAULT_255_1_388
10
10.2712093
20
102.4975252
40
0.2427311
50
113.5532703
51
146.2373945
0
ARC
8
DEFAULT_255_1_388
10
10.343472
20
102.4420111
40
0.3337124
50
145.2086902
51
150.6580233
0
ARC
8
DEFAULT_255_1_388
10
10.2932197
20
102.2688753
40
0.273746
50
208.46678
51
230.7447697
0
ARC
8
DEFAULT_255_1_388
10
10.2692737
20
102.2473351
40
0.2419641
50
231.9080157
51
266.0622442
0
ARC
8
DEFAULT_255_1_388
10
10.2817249
20
102.3365434
40
0.3318765
50
264.9752933
51
270.060741
0
ARC
8
DEFAULT_255_1_388
10
10.2852849
20
102.2480683
40
0.2434225
50
269.2448363
51
292.3382162
0
ARC
8
DEFAULT_255_1_388
10
10.2872163
20
102.2322065
40
0.2280566
50
293.4040635
51
323.0231773
0
ARC
8
DEFAULT_255_1_388
10
10.2414412
20
102.2724037
40
0.2888399
50
322.1147526
51
323.3512864
0
ARC
8
DEFAULT_255_1_388
10
10.2233824
20
102.2812269
40
0.3086176
50
324.0383098
51
342.5340044
0
ARC
8
DEFAULT_255_1_388
10
10.036182
20
102.3425984
40
0.5056129
50
342.2670619
51
353.2817647
0
ARC
8
DEFAULT_255_1_388
10
9.7402477
20
102.379797
40
0.8038702
50
353.1162085
51
0.2468587
0
LINE
8
DEFAULT_255_1_388
10
11.70248
20
101.8863
11
11.5271885
21
101.8863
0
LINE
8
DEFAULT_255_1_388
10
11.3383436
20
102.4790383
11
11.5009852
21
102.4790383
0
LINE
8
DEFAULT_255_1_388
10
11.5009852
20
102.4790383
11
11.5009852
21
102.5558413
0
LINE
8
DEFAULT_255_1_388
10
11.0835384
20
102.5928874
11
10.9154754
21
102.5928874
0
LINE
8
DEFAULT_255_1_388
10
11.6681446
20
102.5648769
11
11.6681446
21
102.1149018
0
LINE
8
DEFAULT_255_1_388
10
11.70248
20
101.900757
11
11.70248
21
101.8863
0
LINE
8
DEFAULT_255_1_388
10
11.5009852
20
102.16008
11
11.5009852
21
102.3606713
0
LINE
8
DEFAULT_255_1_388
10
11.5009852
20
102.3606713
11
11.3699683
21
102.3606713
0
ARC
8
DEFAULT_255_1_388
10
11.6441035
20
101.94301
40
0.1299428
50
197.0784902
51
205.8758668
0
ARC
8
DEFAULT_255_1_388
10
11.7835621
20
101.9871959
40
0.2762313
50
192.2927663
51
197.3441989
0
ARC
8
DEFAULT_255_1_388
10
12.0031126
20
102.035976
40
0.5011345
50
189.1573793
51
192.3977084
0
ARC
8
DEFAULT_255_1_388
10
12.3195973
20
102.0875878
40
0.8217995
50
186.8686098
51
189.1982636
0
ARC
8
DEFAULT_255_1_388
10
11.2141064
20
102.261626
40
0.3975173
50
294.0079259
51
316.7603918
0
ARC
8
DEFAULT_255_1_388
10
11.2286246
20
102.2411902
40
0.3729755
50
269.5043226
51
293.2478373
0
ARC
8
DEFAULT_255_1_388
10
11.2219298
20
102.2862915
40
0.4180772
50
255.4034155
51
270.4753052
0
ARC
8
DEFAULT_255_1_388
10
11.1960512
20
102.1858652
40
0.3143705
50
228.6141063
51
255.3550831
0
ARC
8
DEFAULT_255_1_388
10
11.1586493
20
102.150054
40
0.2628114
50
181.8954381
51
229.5703134
0
ARC
8
DEFAULT_255_1_388
10
11.2251429
20
102.1572824
40
0.329546
50
179.9848815
51
182.7691528
0
ARC
8
DEFAULT_255_1_388
10
11.2158496
20
102.1611827
40
0.3202753
50
161.0342928
51
180.6822077
0
ARC
8
DEFAULT_255_1_388
10
11.1664111
20
102.1740422
40
0.2693695
50
125.0525065
51
160.2034058
0
ARC
8
DEFAULT_255_1_388
10
11.2408832
20
102.0724275
40
0.3953338
50
106.2670809
51
125.4300189
0
ARC
8
DEFAULT_255_1_388
10
11.3052874
20
101.8619795
40
0.6154041
50
95.4857579
51
106.5348562
0
ARC
8
DEFAULT_255_1_388
10
11.3360161
20
101.5807993
40
0.8982419
50
89.8515405
51
95.7222579
0
ARC
8
DEFAULT_255_1_388
10
11.2640742
20
102.5578925
40
0.2369198
50
359.5039339
51
14.3181205
0
ARC
8
DEFAULT_255_1_388
10
11.3286747
20
102.5746862
40
0.170173
50
14.2184556
51
45.2028524
0
ARC
8
DEFAULT_255_1_388
10
11.3327443
20
102.5762862
40
0.1661795
50
45.8098216
51
73.0032926
0
ARC
8
DEFAULT_255_1_388
10
11.3047269
20
102.490626
40
0.2562942
50
72.6112517
51
85.7231489
0
ARC
8
DEFAULT_255_1_388
10
11.2946054
20
102.3879339
40
0.3594635
50
85.335019
51
90.0855069
0
ARC
8
DEFAULT_255_1_388
10
11.2919487
20
102.4543472
40
0.2930574
50
89.5854741
51
103.459124
0
ARC
8
DEFAULT_255_1_388
10
11.2748026
20
102.5258134
40
0.2195632
50
103.448332
51
126.5403399
0
ARC
8
DEFAULT_255_1_388
10
11.2479002
20
102.5602224
40
0.1759039
50
126.1730306
51
141.5008224
0
ARC
8
DEFAULT_255_1_388
10
11.2053317
20
102.5936266
40
0.1217955
50
141.3332087
51
180.3477313
0
ARC
8
DEFAULT_255_1_388
10
11.1294741
20
102.5916904
40
0.214002
50
151.6373605
51
179.6795088
0
ARC
8
DEFAULT_255_1_388
10
11.1971976
20
102.5579768
40
0.2896224
50
142.4981529
51
152.1330509
0
ARC
8
DEFAULT_255_1_388
10
11.2329981
20
102.5298781
40
0.3351307
50
120.8284906
51
142.4132156
0
ARC
8
DEFAULT_255_1_388
10
11.2797956
20
102.4566185
40
0.4220297
50
113.9634885
51
121.1871733
0
ARC
8
DEFAULT_255_1_388
10
11.2951265
20
102.4192705
40
0.4623867
50
93.3784336
51
113.8197902
0
ARC
8
DEFAULT_255_1_388
10
11.3037648
20
102.3331549
40
0.5488732
50
89.9745993
51
93.7488475
0
ARC
8
DEFAULT_255_1_388
10
11.3076894
20
102.3372587
40
0.5447818
50
79.1327128
51
90.3871707
0
ARC
8
DEFAULT_255_1_388
10
11.3442658
20
102.5200597
40
0.3583662
50
60.1434453
51
79.365517
0
ARC
8
DEFAULT_255_1_388
10
11.3731424
20
102.5755195
40
0.2959028
50
48.6191018
51
59.6466565
0
ARC
8
DEFAULT_255_1_388
10
11.3785136
20
102.5826356
40
0.2870136
50
9.0349502
51
48.4845487
0
ARC
8
DEFAULT_255_1_388
10
11.2574434
20
102.5562084
40
0.4107927
50
1.2091359
51
10.0234369
0
ARC
8
DEFAULT_255_1_388
10
12.5271882
20
102.1121422
40
0.8590481
50
179.8159449
51
185.3205667
0
ARC
8
DEFAULT_255_1_388
10
12.2239728
20
102.0831945
40
0.5544553
50
185.2475628
51
192.7952551
0
ARC
8
DEFAULT_255_1_388
10
12.0257552
20
102.0377024
40
0.3510853
50
192.7195981
51
202.9584216
0
ARC
8
DEFAULT_255_1_388
10
11.2497588
20
102.3074895
40
0.2937869
50
270.006916
51
300.503478
0
ARC
8
DEFAULT_255_1_388
10
11.2635523
20
102.2930888
40
0.2744162
50
299.5482616
51
315.609538
0
ARC
8
DEFAULT_255_1_388
10
11.2961819
20
102.2597072
40
0.2277499
50
315.8682065
51
334.0592465
0
ARC
8
DEFAULT_255_1_388
10
11.3650792
20
101.57609
40
0.7845965
50
89.64297
51
97.2867877
0
ARC
8
DEFAULT_255_1_388
10
11.315439
20
101.9477936
40
0.4096042
50
96.9938706
51
109.7783917
0
ARC
8
DEFAULT_255_1_388
10
11.2405852
20
102.1481851
40
0.1957225
50
109.0087985
51
135.3265591
0
ARC
8
DEFAULT_255_1_388
10
11.2098272
20
102.1862764
40
0.1471704
50
137.4537784
51
182.1083946
0
ARC
8
DEFAULT_255_1_388
10
11.2518971
20
102.1790101
40
0.1891498
50
179.4390335
51
195.7201623
0
ARC
8
DEFAULT_255_1_388
10
11.2056006
20
102.1663585
40
0.1411576
50
195.8683556
51
230.157074
0
ARC
8
DEFAULT_255_1_388
10
11.2328729
20
102.1990228
40
0.1837102
50
230.1532486
51
259.7486257
0
ARC
8
DEFAULT_255_1_388
10
11.2484772
20
102.2725472
40
0.258848
50
259.2461118
51
270.2915316
0
LINE
8
DEFAULT_255_1_388
10
12.5527342
20
102.1944155
11
12.710858
21
102.1944155
0
LINE
8
DEFAULT_255_1_388
10
11.8868072
20
102.3660927
11
11.8868072
21
102.3941032
0
LINE
8
DEFAULT_255_1_388
10
12.710858
20
102.5278308
11
12.5527342
21
102.5278308
0
LINE
8
DEFAULT_255_1_388
10
12.0539666
20
102.3877783
11
12.0539666
21
102.3561535
0
ARC
8
DEFAULT_255_1_388
10
12.3263899
20
102.2454109
40
0.2407783
50
269.0327343
51
309.2224588
0
ARC
8
DEFAULT_255_1_388
10
12.3499902
20
102.221219
40
0.207135
50
308.3965377
51
329.6987678
0
ARC
8
DEFAULT_255_1_388
10
12.3654961
20
102.2094899
40
0.1878439
50
330.4013397
51
355.3970937
0
ARC
8
DEFAULT_255_1_388
10
12.4168945
20
102.2114312
40
0.2944555
50
329.2357424
51
356.6872018
0
ARC
8
DEFAULT_255_1_388
10
12.355084
20
102.2441153
40
0.3643032
50
324.8702872
51
329.7911998
0
ARC
8
DEFAULT_255_1_388
10
12.3462122
20
102.2517113
40
0.3759315
50
298.8769973
51
324.7015261
0
ARC
8
DEFAULT_255_1_388
10
12.3088666
20
102.311229
40
0.4461015
50
296.902888
51
299.3854973
0
ARC
8
DEFAULT_255_1_388
10
12.3234663
20
102.2788595
40
0.4106323
50
269.8407861
51
297.1298875
0
ARC
8
DEFAULT_255_1_388
10
12.3174659
20
102.3506354
40
0.4824312
50
253.3156606
51
270.5771301
0
ARC
8
DEFAULT_255_1_388
10
12.2896837
20
102.2500943
40
0.3781531
50
221.1002518
51
252.9743523
0
ARC
8
DEFAULT_255_1_388
10
12.3414307
20
102.2945131
40
0.4463481
50
194.5394284
51
221.0302764
0
ARC
8
DEFAULT_255_1_388
10
12.5494128
20
102.3524897
40
0.6622359
50
182.0498004
51
194.8774376
0
ARC
8
DEFAULT_255_1_388
10
12.7487218
20
102.3657778
40
0.8619146
50
179.9790673
51
182.4586753
0
ARC
8
DEFAULT_255_1_388
10
12.5530531
20
102.3974412
40
0.6662543
50
168.615001
51
180.2870547
0
ARC
8
DEFAULT_255_1_388
10
12.417844
20
102.4239636
40
0.5284705
50
154.9162417
51
168.5402053
0
ARC
8
DEFAULT_255_1_388
10
12.3141716
20
102.4751942
40
0.4128641
50
133.5745308
51
155.2559538
0
ARC
8
DEFAULT_255_1_388
10
12.2958559
20
102.4908116
40
0.3889328
50
122.0165845
51
133.2056002
0
ARC
8
DEFAULT_255_1_388
10
12.2998883
20
102.4808977
40
0.3994808
50
97.8732516
51
121.753124
0
ARC
8
DEFAULT_255_1_388
10
12.3200341
20
102.361959
40
0.5200708
50
89.8471322
51
98.2768545
0
ARC
8
DEFAULT_255_1_388
10
12.3255189
20
102.4305809
40
0.4514657
50
73.3760755
51
90.5199878
0
ARC
8
DEFAULT_255_1_388
10
12.3476105
20
102.511855
40
0.3672743
50
47.7085939
51
73.0510707
0
ARC
8
DEFAULT_255_1_388
10
12.3622208
20
102.5245231
40
0.3480795
50
3.7442743
51
48.0844373
0
ARC
8
DEFAULT_255_1_388
10
12.2510202
20
102.5067946
40
0.4603187
50
2.6192831
51
5.0424684
0
ARC
8
DEFAULT_255_1_388
10
12.3025673
20
102.5112986
40
0.2507126
50
3.78087
51
23.9354314
0
ARC
8
DEFAULT_255_1_388
10
12.3282932
20
102.5203644
40
0.2235311
50
24.4867863
51
46.9439952
0
ARC
8
DEFAULT_255_1_388
10
12.3283878
20
102.5229874
40
0.2215567
50
46.4987715
51
89.3298168
0
ARC
8
DEFAULT_255_1_388
10
12.3214537
20
102.4563742
40
0.2883121
50
88.1066411
51
90.0063536
0
ARC
8
DEFAULT_255_1_388
10
12.3183512
20
102.4621548
40
0.2825481
50
89.3773571
51
107.2070287
0
ARC
8
DEFAULT_255_1_388
10
12.3022781
20
102.5203667
40
0.2221946
50
107.688418
51
143.3582986
0
ARC
8
DEFAULT_255_1_388
10
12.3661075
20
102.4724064
40
0.3020337
50
143.2845866
51
162.9352432
0
ARC
8
DEFAULT_255_1_388
10
12.5355091
20
102.4180401
40
0.4799362
50
162.6652705
51
174.0802646
0
ARC
8
DEFAULT_255_1_388
10
12.7765572
20
102.3900287
40
0.7225942
50
173.8422673
51
180.1784414
0
ARC
8
DEFAULT_255_1_388
10
12.7149242
20
102.3527276
40
0.6609665
50
179.7030218
51
188.2277356
0
ARC
8
DEFAULT_255_1_388
10
12.478485
20
102.3173143
40
0.4218948
50
188.0630838
51
201.115837
0
ARC
8
DEFAULT_255_1_388
10
12.3549735
20
102.270173
40
0.2896941
50
201.2186162
51
216.9761863
0
ARC
8
DEFAULT_255_1_388
10
12.3041892
20
102.2321225
40
0.2262366
50
217.0136373
51
265.2055518
0
ARC
8
DEFAULT_255_1_388
10
12.3217229
20
102.3358503
40
0.3311837
50
263.6824874
51
270.1042034
0
LINE
8
DEFAULT_255_1_388
10
12.9584346
20
103.1006906
11
13.125594
21
103.1006906
0
LINE
8
DEFAULT_255_1_388
10
13.125594
20
103.1006906
11
13.125594
21
102.8639567
0
LINE
8
DEFAULT_255_1_388
10
13.125594
20
102.8639567
11
13.3081141
21
102.8639567
0
LINE
8
DEFAULT_255_1_388
10
13.3081141
20
102.8639567
11
13.3081141
21
102.734747
0
LINE
8
DEFAULT_255_1_388
10
13.3081141
20
102.734747
11
13.125594
21
102.734747
0
LINE
8
DEFAULT_255_1_388
10
13.125594
20
102.734747
11
13.125594
21
102.1284553
0
LINE
8
DEFAULT_255_1_388
10
13.3126319
20
102.0218347
11
13.3126319
21
101.8863
0
LINE
8
DEFAULT_255_1_388
10
12.9584346
20
102.1284553
11
12.9584346
21
102.734747
0
LINE
8
DEFAULT_255_1_388
10
12.9584346
20
102.734747
11
12.7804324
21
102.734747
0
LINE
8
DEFAULT_255_1_388
10
12.7804324
20
102.734747
11
12.7804324
21
102.8639567
0
LINE
8
DEFAULT_255_1_388
10
12.7804324
20
102.8639567
11
12.9584346
21
102.8639567
0
LINE
8
DEFAULT_255_1_388
10
12.9584346
20
102.8639567
11
12.9584346
21
103.1006906
0
ARC
8
DEFAULT_255_1_388
10
13.3514448
20
102.1272842
40
0.2258538
50
179.7029045
51
187.9180047
0
ARC
8
DEFAULT_255_1_388
10
13.2675022
20
102.1152019
40
0.1410477
50
187.7540838
51
200.2454047
0
ARC
8
DEFAULT_255_1_388
10
13.2201928
20
102.0975591
40
0.0905561
50
200.1304287
51
219.1733455
0
ARC
8
DEFAULT_255_1_388
10
13.2049094
20
102.0871695
40
0.0721626
50
220.4434631
51
249.6169985
0
ARC
8
DEFAULT_255_1_388
10
13.2223321
20
102.1309919
40
0.1193141
50
249.1038184
51
262.7745376
0
ARC
8
DEFAULT_255_1_388
10
13.2322502
20
102.2017481
40
0.1907583
50
262.4921618
51
270.2607019
0
ARC
8
DEFAULT_255_1_388
10
13.2319584
20
102.2259817
40
0.2149929
50
270.309081
51
275.6615459
0
ARC
8
DEFAULT_255_1_388
10
13.2158992
20
102.3948342
40
0.3846066
50
275.5607354
51
279.087751
0
ARC
8
DEFAULT_255_1_388
10
13.1786924
20
102.6309428
40
0.6236283
50
279.0369545
51
281.5000133
0
ARC
8
DEFAULT_255_1_388
10
13.1396192
20
102.8286499
40
0.825157
50
281.4217093
51
282.1031556
0
ARC
8
DEFAULT_255_1_388
10
13.1772167
20
102.3743229
40
0.5064619
50
275.2597791
51
285.5081125
0
ARC
8
DEFAULT_255_1_388
10
13.1841181
20
102.3117452
40
0.4435166
50
270.0268175
51
275.1130565
0
ARC
8
DEFAULT_255_1_388
10
13.1818633
20
102.1624367
40
0.2942182
50
257.3572424
51
270.4795428
0
ARC
8
DEFAULT_255_1_388
10
13.1578903
20
102.0613952
40
0.1903838
50
230.8036715
51
257.7414447
0
ARC
8
DEFAULT_255_1_388
10
13.1502399
20
102.0490723
40
0.1760087
50
219.9745381
51
230.1985446
0
ARC
8
DEFAULT_255_1_388
10
13.1875687
20
102.0776116
40
0.2229598
50
196.5081334
51
219.4319996
0
ARC
8
DEFAULT_255_1_388
10
13.3018298
20
102.1134617
40
0.3427033
50
184.6408645
51
196.8266009
0
ARC
8
DEFAULT_255_1_388
10
13.4419203
20
102.127601
40
0.4834863
50
179.8987586
51
184.9677262
0
LINE
8
DEFAULT_255_1_388
10
13.7038753
20
103.2018898
11
13.7038753
21
102.0281596
0
LINE
8
DEFAULT_255_1_388
10
13.7038753
20
102.0281596
11
14.3273348
21
102.0281596
0
LINE
8
DEFAULT_255_1_388
10
14.3273348
20
102.0281596
11
14.3273348
21
101.8863
0
LINE
8
DEFAULT_255_1_388
10
14.3273348
20
101.8863
11
13.5294874
21
101.8863
0
LINE
8
DEFAULT_255_1_388
10
13.5294874
20
101.8863
11
13.5294874
21
103.2018898
0
LINE
8
DEFAULT_255_1_388
10
13.5294874
20
103.2018898
11
13.7038753
21
103.2018898
0
LINE
8
DEFAULT_255_1_388
10
14.4547374
20
102.3724177
11
14.4547374
21
102.384164
0
LINE
8
DEFAULT_255_1_388
10
15.3447483
20
102.3760319
11
15.3447483
21
102.3642856
0
ARC
8
DEFAULT_255_1_388
10
15.0831818
20
102.387804
40
0.628455
50
166.3005265
51
180.3318609
0
ARC
8
DEFAULT_255_1_388
10
14.9861168
20
102.4095267
40
0.52901
50
153.8608648
51
166.0965672
0
ARC
8
DEFAULT_255_1_388
10
14.9112334
20
102.4496652
40
0.4441126
50
135.1317053
51
154.2534962
0
ARC
8
DEFAULT_255_1_388
10
14.8798984
20
102.4773431
40
0.4023863
50
121.7042632
51
134.7771455
0
ARC
8
DEFAULT_255_1_388
10
14.8874416
20
102.4628469
40
0.4186852
50
93.4001111
51
121.5399523
0
ARC
8
DEFAULT_255_1_388
10
14.898125
20
102.3698759
40
0.5121521
50
89.9706387
51
93.9763381
0
ARC
8
DEFAULT_255_1_388
10
14.9034235
20
102.4138563
40
0.4681988
50
71.3321659
51
90.6162917
0
ARC
8
DEFAULT_255_1_388
10
14.9217269
20
102.4816003
40
0.3981841
50
41.1813875
51
70.7072086
0
ARC
8
DEFAULT_255_1_388
10
14.8679985
20
102.432813
40
0.4707474
50
12.1971434
51
41.3446641
0
ARC
8
DEFAULT_255_1_388
10
14.6513249
20
102.3812328
40
0.6934429
50
359.5702713
51
12.5803533
0
ARC
8
DEFAULT_255_1_388
10
14.7045565
20
102.3607207
40
0.6402018
50
347.0196754
51
0.3190452
0
ARC
8
DEFAULT_255_1_388
10
14.8123618
20
102.3375189
40
0.5299421
50
334.350439
51
346.8460534
0
ARC
8
DEFAULT_255_1_388
10
14.9074864
20
102.2881244
40
0.4228234
50
310.4228125
51
334.8045131
0
ARC
8
DEFAULT_255_1_388
10
14.9166843
20
102.2809301
40
0.4113892
50
301.8488154
51
310.0972985
0
ARC
8
DEFAULT_255_1_388
10
14.9130583
20
102.2894573
40
0.4205483
50
274.3078723
51
301.6554173
0
ARC
8
DEFAULT_255_1_388
10
14.9006039
20
102.3881943
40
0.5199658
50
269.954904
51
274.859116
0
ARC
8
DEFAULT_255_1_388
10
14.8950863
20
102.3318239
40
0.4636233
50
250.8887647
51
270.6313164
0
ARC
8
DEFAULT_255_1_388
10
14.8782023
20
102.2689405
40
0.398705
50
221.1701369
51
250.2227012
0
ARC
8
DEFAULT_255_1_388
10
14.9326689
20
102.3185716
40
0.4723796
50
191.6263861
51
221.3526879
0
ARC
8
DEFAULT_255_1_388
10
15.1450534
20
102.3677203
40
0.6903321
50
179.6101251
51
192.0694841
0
ARC
8
DEFAULT_255_1_388
10
15.1926882
20
102.3606681
40
0.5698993
50
179.636304
51
190.6161344
0
ARC
8
DEFAULT_255_1_388
10
15.0079213
20
102.3246635
40
0.3816643
50
190.4136062
51
208.7168709
0
ARC
8
DEFAULT_255_1_388
10
14.9505248
20
102.2961905
40
0.3176572
50
209.187109
51
217.4221816
0
ARC
8
DEFAULT_255_1_388
10
14.8909718
20
102.2437729
40
0.2385702
50
216.1156863
51
265.2575395
0
ARC
8
DEFAULT_255_1_388
10
14.8998754
20
102.3082608
40
0.3035941
50
264.5891546
51
270.0602378
0
ARC
8
DEFAULT_255_1_388
10
14.9035951
20
102.2655539
40
0.2609091
50
269.2532353
51
291.8793864
0
ARC
8
DEFAULT_255_1_388
10
14.906883
20
102.2455359
40
0.241148
50
292.9269367
51
323.1777736
0
ARC
8
DEFAULT_255_1_388
10
14.8598115
20
102.2868762
40
0.3036446
50
322.25666
51
323.087958
0
ARC
8
DEFAULT_255_1_388
10
14.8295373
20
102.3051332
40
0.3388345
50
323.6941379
51
343.8493587
0
ARC
8
DEFAULT_255_1_388
10
14.6519809
20
102.3591698
40
0.5244204
50
343.5746655
51
355.008149
0
ARC
8
DEFAULT_255_1_388
10
14.4261501
20
102.3825797
40
0.7514406
50
354.728272
51
0.1208026
0
ARC
8
DEFAULT_255_1_388
10
14.6250527
20
102.3877947
40
0.5525482
50
359.6235211
51
11.2016685
0
ARC
8
DEFAULT_255_1_388
10
14.7976354
20
102.4233284
40
0.3763527
50
10.9991302
51
30.8317616
0
ARC
8
DEFAULT_255_1_388
10
14.8421657
20
102.4467988
40
0.3260975
50
31.3007463
51
37.395541
0
ARC
8
DEFAULT_255_1_388
10
14.8980377
20
102.4939773
40
0.253082
50
36.5918894
51
62.2439906
0
ARC
8
DEFAULT_255_1_388
10
14.9032668
20
102.4936378
40
0.2509927
50
63.3364883
51
89.7193846
0
ARC
8
DEFAULT_255_1_388
10
14.8984122
20
102.4288375
40
0.3158485
50
88.8962924
51
90.004475
0
ARC
8
DEFAULT_255_1_388
10
14.8948549
20
102.4941071
40
0.250604
50
89.1923115
51
114.7099029
0
ARC
8
DEFAULT_255_1_388
10
14.8980891
20
102.4983675
40
0.2481307
50
115.7996284
51
142.2901353
0
ARC
8
DEFAULT_255_1_388
10
14.9449162
20
102.4564752
40
0.310833
50
141.4607507
51
142.383894
0
ARC
8
DEFAULT_255_1_388
10
14.9597013
20
102.4496449
40
0.3267335
50
143.0176473
51
163.2340089
0
ARC
8
DEFAULT_255_1_388
10
15.1372302
20
102.3934553
40
0.5129308
50
162.9446504
51
174.3733893
0
ARC
8
DEFAULT_255_1_388
10
15.3786275
20
102.3663483
40
0.75583
50
174.1225809
51
180.1563667
0
LINE
8
DEFAULT_255_1_388
10
16.1796419
20
102.755529
11
16.187774
21
102.8639567
0
LINE
8
DEFAULT_255_1_388
10
16.187774
20
102.8639567
11
16.3404764
21
102.8639567
0
LINE
8
DEFAULT_255_1_388
10
16.3404764
20
102.8639567
11
16.3404764
21
101.9097927
0
LINE
8
DEFAULT_255_1_388
10
15.5643145
20
101.6703481
11
15.6510567
21
101.7706438
0
LINE
8
DEFAULT_255_1_388
10
16.1724134
20
101.8998535
11
16.1724134
21
101.983885
0
LINE
8
DEFAULT_255_1_388
10
16.1724134
20
102.1537551
11
16.1724134
21
102.6001159
0
ARC
8
DEFAULT_255_1_388
10
16.3185112
20
102.388122
40
0.8039074
50
169.8802333
51
180.3464902
0
ARC
8
DEFAULT_255_1_388
10
16.0537918
20
102.437287
40
0.5346711
50
152.8534324
51
170.0824729
0
ARC
8
DEFAULT_255_1_388
10
15.9600312
20
102.4816868
40
0.4309932
50
142.0147746
51
152.418569
0
ARC
8
DEFAULT_255_1_388
10
15.8883761
20
102.5469169
40
0.3344504
50
94.3317494
51
143.2674518
0
ARC
8
DEFAULT_255_1_388
10
15.900062
20
102.4588903
40
0.423138
50
89.9487512
51
95.0093077
0
ARC
8
DEFAULT_255_1_388
10
15.9047418
20
102.4768021
40
0.4052487
50
72.9496911
51
90.6081488
0
ARC
8
DEFAULT_255_1_388
10
15.9278141
20
102.5603718
40
0.3185963
50
37.7743532
51
72.5099202
0
ARC
8
DEFAULT_255_1_388
10
15.8243007
20
101.9054774
40
0.5161937
50
346.3655403
51
0.4789834
0
ARC
8
DEFAULT_255_1_388
10
15.9781841
20
101.8663644
40
0.3574311
50
314.3365584
51
346.6438898
0
ARC
8
DEFAULT_255_1_388
10
15.9666985
20
101.88249
40
0.3770042
50
280.7144
51
313.872307
0
ARC
8
DEFAULT_255_1_388
10
15.928972
20
102.0506099
40
0.5492378
50
269.6628653
51
281.3208129
0
ARC
8
DEFAULT_255_1_388
10
15.927138
20
102.0042105
40
0.5028309
50
245.5258654
51
269.8407328
0
ARC
8
DEFAULT_255_1_388
10
15.8842226
20
101.9237065
40
0.4118207
50
232.6664457
51
246.3200328
0
ARC
8
DEFAULT_255_1_388
10
15.829747
20
101.8514386
40
0.3213227
50
214.3036526
51
232.5750527
0
ARC
8
DEFAULT_255_1_388
10
15.9555502
20
102.0118259
40
0.3884393
50
218.381912
51
236.3657409
0
ARC
8
DEFAULT_255_1_388
10
15.9105272
20
101.9490326
40
0.3112322
50
236.8637655
51
270.6382272
0
ARC
8
DEFAULT_255_1_388
10
15.9166954
20
101.9862587
40
0.3484494
50
269.5557858
51
282.3972101
0
ARC
8
DEFAULT_255_1_388
10
15.943254
20
101.8720767
40
0.2312324
50
282.043923
51
308.3079272
0
ARC
8
DEFAULT_255_1_388
10
15.9528654
20
101.856747
40
0.2132542
50
308.8347234
51
315.2037678
0
ARC
8
DEFAULT_255_1_388
10
15.9440364
20
101.8632123
40
0.2240808
50
315.6213011
51
345.6795376
0
ARC
8
DEFAULT_255_1_388
10
15.8338789
20
101.8938736
40
0.3384084
50
345.2627538
51
358.6311244
0
ARC
8
DEFAULT_255_1_388
10
15.7340294
20
101.8997581
40
0.4383839
50
358.1739988
51
0.0124651
0
ARC
8
DEFAULT_255_1_388
10
15.923447
20
102.1991381
40
0.3291173
50
275.6950404
51
319.1537182
0
ARC
8
DEFAULT_255_1_388
10
15.8996101
20
102.3369049
40
0.4686772
50
269.8805882
51
276.9235205
0
ARC
8
DEFAULT_255_1_388
10
15.8936402
20
102.21199
40
0.3437976
50
244.0748846
51
270.8321697
0
ARC
8
DEFAULT_255_1_388
10
15.902091
20
102.2142423
40
0.3495805
50
217.781776
51
242.9905232
0
ARC
8
DEFAULT_255_1_388
10
15.9696341
20
102.2743567
40
0.4398355
50
217.5209891
51
218.58043
0
ARC
8
DEFAULT_255_1_388
10
16.001218
20
102.292913
40
0.4762087
50
195.3497149
51
216.9773048
0
ARC
8
DEFAULT_255_1_388
10
16.2288069
20
102.3590667
40
0.7131994
50
183.9387193
51
195.6348167
0
ARC
8
DEFAULT_255_1_388
10
16.4848263
20
102.3820646
40
0.9702086
50
179.929381
51
184.2551265
0
ARC
8
DEFAULT_255_1_388
10
16.336193
20
102.3608515
40
0.6535206
50
179.6989243
51
188.5749266
0
ARC
8
DEFAULT_255_1_388
10
16.109712
20
102.3254789
40
0.4242988
50
188.4117627
51
202.0559679
0
ARC
8
DEFAULT_255_1_388
10
16.0007381
20
102.2826952
40
0.3072368
50
202.2924994
51
215.4475859
0
ARC
8
DEFAULT_255_1_388
10
15.9282451
20
102.2265576
40
0.2156547
50
214.4673097
51
264.3362727
0
ARC
8
DEFAULT_255_1_388
10
15.939712
20
102.2981673
40
0.2880794
50
263.4723224
51
270.0965288
0
ARC
8
DEFAULT_255_1_388
10
15.9442355
20
102.2813896
40
0.2713313
50
269.1472473
51
291.7978484
0
ARC
8
DEFAULT_255_1_388
10
15.9512615
20
102.2500081
40
0.2396396
50
293.0243185
51
327.6232391
0
ARC
8
DEFAULT_255_1_388
10
15.8716049
20
102.3082435
40
0.3381603
50
326.5171836
51
332.8160011
0
ARC
8
DEFAULT_255_1_388
10
15.911123
20
102.4612272
40
0.29591
50
27.9928465
51
47.6314088
0
ARC
8
DEFAULT_255_1_388
10
15.9517935
20
102.4999256
40
0.2399437
50
48.5793547
51
88.6245273
0
ARC
8
DEFAULT_255_1_388
10
15.9421053
20
102.4159448
40
0.3242237
50
87.2690754
51
90.0178312
0
ARC
8
DEFAULT_255_1_388
10
15.9388753
20
102.4897957
40
0.2503923
50
89.2839515
51
110.1847982
0
ARC
8
DEFAULT_255_1_388
10
15.9319553
20
102.5197002
40
0.2199699
50
111.180781
51
145.0423499
0
ARC
8
DEFAULT_255_1_388
10
15.9680414
20
102.4884759
40
0.2674811
50
143.9895932
51
144.106678
0
ARC
8
DEFAULT_255_1_388
10
16.0050485
20
102.466319
40
0.3104736
50
144.7981654
51
162.8715843
0
ARC
8
DEFAULT_255_1_388
10
16.1957084
20
102.4050138
40
0.5107383
50
162.598526
51
173.3417416
0
ARC
8
DEFAULT_255_1_388
10
16.4958457
20
102.3677767
40
0.8131718
50
173.1877249
51
180.2459848
0
LINE
8
DEFAULT_255_1_388
10
16.7741873
20
102.8639567
11
16.7741873
21
101.8863
0
LINE
8
DEFAULT_255_1_388
10
16.7741873
20
101.8863
11
16.6070279
21
101.8863
0
LINE
8
DEFAULT_255_1_388
10
16.6070279
20
101.8863
11
16.6070279
21
102.8639567
0
LINE
8
DEFAULT_255_1_388
10
16.6070279
20
102.8639567
11
16.7741873
21
102.8639567
0
ARC
8
DEFAULT_255_1_388
10
16.7035641
20
103.1243428
40
0.1100948
50
161.4148232
51
180.5532607
0
ARC
8
DEFAULT_255_1_388
10
16.6895951
20
103.1281875
40
0.0956324
50
138.1830164
51
160.9307633
0
ARC
8
DEFAULT_255_1_388
10
16.6772138
20
103.1389313
40
0.0792417
50
104.6371663
51
138.0036136
0
ARC
8
DEFAULT_255_1_388
10
16.6892677
20
103.0976963
40
0.1221906
50
92.0601206
51
105.2198859
0
ARC
8
DEFAULT_255_1_388
10
16.6919041
20
103.0588583
40
0.161103
50
89.9790681
51
92.5006086
0
ARC
8
DEFAULT_255_1_388
10
16.6930217
20
103.0844998
40
0.1354654
50
78.0234649
51
90.4478111
0
ARC
8
DEFAULT_255_1_388
10
16.7033801
20
103.1310203
40
0.0878096
50
55.0521508
51
78.336297
0
ARC
8
DEFAULT_255_1_388
10
16.7090336
20
103.1405168
40
0.0767913
50
42.0506198
51
54.4508489
0
ARC
8
DEFAULT_255_1_388
10
16.6938369
20
103.1265821
40
0.0974091
50
1.7493657
51
42.1498724
0
ARC
8
DEFAULT_255_1_388
10
16.6652274
20
103.1233166
40
0.1261276
50
359.9832635
51
2.8353994
0
ARC
8
DEFAULT_255_1_388
10
16.6838684
20
103.1222412
40
0.1074916
50
342.1062453
51
0.5535864
0
ARC
8
DEFAULT_255_1_388
10
16.6999108
20
103.1178197
40
0.0908695
50
316.7110111
51
341.6513114
0
ARC
8
DEFAULT_255_1_388
10
16.707454
20
103.1110607
40
0.0807447
50
285.4398289
51
316.5320129
0
ARC
8
DEFAULT_255_1_388
10
16.6950711
20
103.1522023
40
0.1237022
50
272.3543902
51
285.8951677
0
ARC
8
DEFAULT_255_1_388
10
16.6920421
20
103.1937742
40
0.1653687
50
269.9725761
51
272.8112722
0
ARC
8
DEFAULT_255_1_388
10
16.6909473
20
103.1686727
40
0.1402709
50
258.8433431
51
270.4148607
0
ARC
8
DEFAULT_255_1_388
10
16.6808253
20
103.1196739
40
0.0902407
50
238.54281
51
259.1289544
0
ARC
8
DEFAULT_255_1_388
10
16.6731574
20
103.1057694
40
0.0743817
50
222.5056676
51
237.9918132
0
ARC
8
DEFAULT_255_1_388
10
16.6875168
20
103.1188295
40
0.0937918
50
184.1070774
51
222.4604165
0
ARC
8
DEFAULT_255_1_388
10
16.7177581
20
103.1231538
40
0.1242838
50
179.9419581
51
185.0970785
0
LINE
8
DEFAULT_255_1_388
10
17.1554915
20
102.8639567
11
17.3696363
21
102.5070488
0
LINE
8
DEFAULT_255_1_388
10
17.3696363
20
102.5070488
11
17.5864917
21
102.8639567
0
LINE
8
DEFAULT_255_1_388
10
17.5864917
20
102.8639567
11
17.7816617
21
102.8639567
0
LINE
8
DEFAULT_255_1_388
10
17.7816617
20
102.8639567
11
17.4617999
21
102.3805498
0
LINE
8
DEFAULT_255_1_388
10
17.4617999
20
102.3805498
11
17.7916009
21
101.8863
0
LINE
8
DEFAULT_255_1_388
10
17.7916009
20
101.8863
11
17.5982381
21
101.8863
0
LINE
8
DEFAULT_255_1_388
10
17.5982381
20
101.8863
11
17.372347
21
102.2522436
0
LINE
8
DEFAULT_255_1_388
10
17.372347
20
102.2522436
11
17.1464559
21
101.8863
0
LINE
8
DEFAULT_255_1_388
10
17.1464559
20
101.8863
11
16.9521895
21
101.8863
0
LINE
8
DEFAULT_255_1_388
10
16.9521895
20
101.8863
11
17.2819905
21
102.3805498
0
LINE
8
DEFAULT_255_1_388
10
17.2819905
20
102.3805498
11
16.9621287
21
102.8639567
0
LINE
8
DEFAULT_255_1_388
10
16.9621287
20
102.8639567
11
17.1554915
21
102.8639567
0
LINE
8
DEFAULT_255_1_388
10
18.6102303
20
102.5115666
11
18.4765027
21
102.5459021
0
LINE
8
DEFAULT_255_1_388
10
18.4765027
20
102.5459021
11
18.5433665
21
103.2018898
0
LINE
8
DEFAULT_255_1_388
10
18.5433665
20
103.2018898
11
19.2174256
21
103.2018898
0
LINE
8
DEFAULT_255_1_388
10
19.2174256
20
103.2018898
11
19.2174256
21
103.0473803
0
LINE
8
DEFAULT_255_1_388
10
19.2174256
20
103.0473803
11
18.6852261
21
103.0473803
0
LINE
8
DEFAULT_255_1_388
10
18.6852261
20
103.0473803
11
18.6454693
21
102.6886652
0
LINE
8
DEFAULT_255_1_388
10
18.4295174
20
102.2323652
11
18.5876412
21
102.2323652
0
LINE
8
DEFAULT_255_1_388
10
18.6545049
20
102.5477092
11
18.6102303
21
102.5115666
0
ARC
8
DEFAULT_255_1_388
10
18.8541306
20
102.3309241
40
0.4141476
50
93.7181681
51
120.253934
0
ARC
8
DEFAULT_255_1_388
10
18.8647359
20
102.2400284
40
0.5055616
50
89.9660471
51
94.2495185
0
ARC
8
DEFAULT_255_1_388
10
18.869318
20
102.3063154
40
0.4392953
50
73.8045384
51
90.5585736
0
ARC
8
DEFAULT_255_1_388
10
18.8957438
20
102.402852
40
0.3392225
50
41.3071072
51
73.543002
0
ARC
8
DEFAULT_255_1_388
10
18.8489258
20
102.3625461
40
0.4009977
50
13.5075837
51
41.2174839
0
ARC
8
DEFAULT_255_1_388
10
18.6642356
20
102.3141907
40
0.5918864
50
1.1330171
51
13.8830737
0
ARC
8
DEFAULT_255_1_388
10
18.5046001
20
102.3056522
40
0.7516787
50
359.9925091
51
1.5431298
0
ARC
8
DEFAULT_255_1_388
10
18.6490616
20
102.3010027
40
0.6072343
50
347.8572712
51
0.4294349
0
ARC
8
DEFAULT_255_1_388
10
18.8459751
20
102.2563898
40
0.4053482
50
323.6727442
51
348.1674594
0
ARC
8
DEFAULT_255_1_388
10
18.8790716
20
102.2362175
40
0.3667495
50
316.8171818
51
323.1486802
0
ARC
8
DEFAULT_255_1_388
10
18.8859839
20
102.2320612
40
0.358869
50
281.839603
51
316.5458142
0
ARC
8
DEFAULT_255_1_388
10
18.8437127
20
102.4070363
40
0.5388223
50
269.5770964
51
282.4214641
0
ARC
8
DEFAULT_255_1_388
10
18.8357048
20
102.382993
40
0.5147801
50
256.2425863
51
270.4486481
0
ARC
8
DEFAULT_255_1_388
10
18.8020575
20
102.2480124
40
0.3756708
50
228.9024379
51
256.33135
0
ARC
8
DEFAULT_255_1_388
10
18.7937556
20
102.2349054
40
0.360344
50
193.7536029
51
228.5272638
0
ARC
8
DEFAULT_255_1_388
10
18.9330121
20
102.2757463
40
0.5053599
50
184.9244437
51
194.4976052
0
ARC
8
DEFAULT_255_1_388
10
18.9546762
20
102.2797722
40
0.3700839
50
187.3596909
51
198.6733728
0
ARC
8
DEFAULT_255_1_388
10
18.8366005
20
102.2388373
40
0.2451195
50
198.4453795
51
217.7945479
0
ARC
8
DEFAULT_255_1_388
10
18.8033178
20
102.2152563
40
0.2043754
50
218.2887146
51
228.5613203
0
ARC
8
DEFAULT_255_1_388
10
18.8143185
20
102.2300902
40
0.2227819
50
228.9652423
51
258.1237049
0
ARC
8
DEFAULT_255_1_388
10
18.8374622
20
102.3291964
40
0.3245374
50
257.7260585
51
270.4013717
0
ARC
8
DEFAULT_255_1_388
10
18.842512
20
102.2791255
40
0.2744726
50
269.4204315
51
286.420998
0
ARC
8
DEFAULT_255_1_388
10
18.8592176
20
102.2184705
40
0.2115721
50
286.7250065
51
320.6004665
0
ARC
8
DEFAULT_255_1_388
10
18.8161091
20
102.2534527
40
0.2670878
50
320.6712228
51
344.5440474
0
ARC
8
DEFAULT_255_1_388
10
18.6859805
20
102.2916394
40
0.4026927
50
344.241448
51
356.735803
0
ARC
8
DEFAULT_255_1_388
10
18.5456112
20
102.3032656
40
0.5435085
50
356.3547471
51
0.0507222
0
ARC
8
DEFAULT_255_1_388
10
18.6958377
20
102.3067812
40
0.3932934
50
359.5579289
51
12.9534322
0
ARC
8
DEFAULT_255_1_388
10
18.8145217
20
102.3355586
40
0.2711827
50
12.6489751
51
41.608121
0
ARC
8
DEFAULT_255_1_388
10
18.8404377
20
102.3575946
40
0.2371737
50
41.7851122
51
85.9892156
0
ARC
8
DEFAULT_255_1_388
10
18.8265687
20
102.2660738
40
0.3295244
50
84.6965848
51
90.0672125
0
ARC
8
DEFAULT_255_1_388
10
18.8239255
20
102.1909118
40
0.4046926
50
89.6804991
51
99.161352
0
ARC
8
DEFAULT_255_1_388
10
18.8008264
20
102.3289848
40
0.2647044
50
98.9836248
51
113.8905702
0
ARC
8
DEFAULT_255_1_388
10
18.7749939
20
102.3899118
40
0.1985386
50
114.195234
51
127.3641866
0
LINE
8
DEFAULT_255_1_388
10
20.1444827
20
103.2018898
11
20.1444827
21
102.328143
0
LINE
8
DEFAULT_255_1_388
10
20.1444827
20
102.328143
11
20.3270027
21
102.328143
0
LINE
8
DEFAULT_255_1_388
10
20.3270027
20
102.328143
11
20.3270027
21
102.1917048
0
LINE
8
DEFAULT_255_1_388
10
20.3270027
20
102.1917048
11
20.1444827
21
102.1917048
0
LINE
8
DEFAULT_255_1_388
10
20.1444827
20
102.1917048
11
20.1444827
21
101.8863
0
LINE
8
DEFAULT_255_1_388
10
20.1444827
20
101.8863
11
19.9764197
21
101.8863
0
LINE
8
DEFAULT_255_1_388
10
19.9764197
20
101.8863
11
19.9764197
21
102.1917048
0
LINE
8
DEFAULT_255_1_388
10
19.9764197
20
102.1917048
11
19.3773565
21
102.1917048
0
LINE
8
DEFAULT_255_1_388
10
19.3773565
20
102.1917048
11
19.3773565
21
102.2901933
0
LINE
8
DEFAULT_255_1_388
10
19.3773565
20
102.2901933
11
19.9664805
21
103.2018898
0
LINE
8
DEFAULT_255_1_388
10
19.9664805
20
103.2018898
11
20.1444827
21
103.2018898
0
LINE
8
DEFAULT_255_1_388
10
19.9565413
20
102.9371455
11
19.567105
21
102.328143
0
LINE
8
DEFAULT_255_1_388
10
19.567105
20
102.328143
11
19.9764197
21
102.328143
0
LINE
8
DEFAULT_255_1_388
10
19.9764197
20
102.328143
11
19.9764197
21
102.973288
0
LINE
8
DEFAULT_255_1_388
10
19.9764197
20
102.973288
11
19.9565413
21
102.9371455
0
ARC
8
DEFAULT_255_1_388
10
20.9582485
20
102.855672
40
0.3175098
50
338.8762533
51
0.5167111
0
ARC
8
DEFAULT_255_1_388
10
20.9772079
20
102.85056
40
0.2979894
50
325.8415285
51
338.4793574
0
ARC
8
DEFAULT_255_1_388
10
20.9332713
20
102.8810242
40
0.351452
50
296.7587686
51
325.7536481
0
ARC
8
DEFAULT_255_1_388
10
20.900434
20
102.9364363
40
0.4157374
50
296.0927901
51
297.3613472
0
ARC
8
DEFAULT_255_1_388
10
20.9298536
20
102.1981593
40
0.395855
50
47.9007294
51
67.1948823
0
ARC
8
DEFAULT_255_1_388
10
20.9519178
20
102.2258599
40
0.360516
50
35.2363914
51
47.551141
0
ARC
8
DEFAULT_255_1_388
10
20.9813582
20
102.2455093
40
0.3251343
50
359.2759765
51
35.4014143
0
ARC
8
DEFAULT_255_1_388
10
20.8975508
20
102.2372787
40
0.4089365
50
343.1293083
51
0.5775513
0
ARC
8
DEFAULT_255_1_388
10
20.9790622
20
102.2148336
40
0.3244269
50
310.8496669
51
342.7449331
0
ARC
8
DEFAULT_255_1_388
10
20.9320496
20
102.2684913
40
0.3957651
50
281.5472888
51
310.9170406
0
ARC
8
DEFAULT_255_1_388
10
20.8919371
20
102.4431814
40
0.5749654
50
269.619248
51
281.9789564
0
ARC
8
DEFAULT_255_1_388
10
20.8838148
20
102.4432776
40
0.5750649
50
257.4585678
51
270.4285689
0
ARC
8
DEFAULT_255_1_388
10
20.8409669
20
102.2628741
40
0.389671
50
228.7554326
51
257.8484789
0
ARC
8
DEFAULT_255_1_388
10
20.8061154
20
102.2209228
40
0.335154
50
184.0104975
51
228.5071184
0
ARC
8
DEFAULT_255_1_388
10
20.9369547
20
102.240843
40
0.4671891
50
179.9315832
51
185.3253753
0
ARC
8
DEFAULT_255_1_388
10
20.8046059
20
102.2450592
40
0.33486
50
145.6796023
51
180.6259786
0
ARC
8
DEFAULT_255_1_388
10
20.8229825
20
102.2322271
40
0.3572723
50
115.5537685
51
145.6415986
0
ARC
8
DEFAULT_255_1_388
10
20.8612869
20
102.1636087
40
0.4357296
50
113.243307
51
116.2057839
0
ARC
8
DEFAULT_255_1_388
10
20.8441521
20
102.8833379
40
0.3549126
50
222.9549744
51
244.1370481
0
ARC
8
DEFAULT_255_1_388
10
20.8304164
20
102.8679378
40
0.3343711
50
213.3436887
51
222.6274467
0
ARC
8
DEFAULT_255_1_388
10
20.8088233
20
102.8532653
40
0.3082678
50
180.431584
51
213.271499
0
ARC
8
DEFAULT_255_1_388
10
20.8723232
20
102.8585296
40
0.3718363
50
179.9991191
51
181.1690594
0
ARC
8
DEFAULT_255_1_388
10
20.9195688
20
102.8624072
40
0.4190996
50
164.6186169
51
180.529336
0
ARC
8
DEFAULT_255_1_388
10
20.8185337
20
102.889578
40
0.3144772
50
132.2455553
51
164.5090724
0
ARC
8
DEFAULT_255_1_388
10
20.8508316
20
102.853007
40
0.3632644
50
100.7053914
51
132.1386381
0
ARC
8
DEFAULT_255_1_388
10
20.8851377
20
102.6980118
40
0.5219578
50
89.6730358
51
101.2451698
0
ARC
8
DEFAULT_255_1_388
10
20.8921368
20
102.7176648
40
0.5023124
50
76.287748
51
90.4586006
0
ARC
8
DEFAULT_255_1_388
10
20.926587
20
102.8551671
40
0.3605639
50
47.8240511
51
76.4266241
0
ARC
8
DEFAULT_255_1_388
10
20.9516254
20
102.8844599
40
0.3220463
50
6.9168387
51
47.6262497
0
ARC
8
DEFAULT_255_1_388
10
20.8181707
20
102.8598004
40
0.4575765
50
359.8415968
51
7.9697453
0
ARC
8
DEFAULT_255_1_388
10
20.8565977
20
102.2477519
40
0.2827228
50
359.445363
51
16.9256873
0
ARC
8
DEFAULT_255_1_388
10
20.9093411
20
102.2622781
40
0.2280396
50
17.2920767
51
45.4630727
0
ARC
8
DEFAULT_255_1_388
10
20.9032546
20
102.2570324
40
0.2360485
50
45.30305
51
83.1920945
0
ARC
8
DEFAULT_255_1_388
10
20.8871291
20
102.1668473
40
0.3275527
50
82.2612665
51
90.1434275
0
ARC
8
DEFAULT_255_1_388
10
20.8836567
20
102.1930869
40
0.3013237
50
89.4956434
51
104.8580688
0
ARC
8
DEFAULT_255_1_388
10
20.8637757
20
102.2684455
40
0.2233867
50
104.8856641
51
135.244616
0
ARC
8
DEFAULT_255_1_388
10
20.8693746
20
102.2634352
40
0.2308906
50
135.3399546
51
172.1044062
0
ARC
8
DEFAULT_255_1_388
10
20.960127
20
102.2460667
40
0.3232034
50
171.2645637
51
180.186429
0
ARC
8
DEFAULT_255_1_388
10
20.9411275
20
102.2424426
40
0.304213
50
179.5154935
51
193.6464289
0
ARC
8
DEFAULT_255_1_388
10
20.8492951
20
102.2190473
40
0.209456
50
193.3540274
51
225.8258581
0
ARC
8
DEFAULT_255_1_388
10
20.8538823
20
102.2270076
40
0.2183738
50
226.4180634
51
255.8552336
0
ARC
8
DEFAULT_255_1_388
10
20.882729
20
102.3323521
40
0.3275812
50
255.4654104
51
268.7987425
0
ARC
8
DEFAULT_255_1_388
10
20.8880466
20
102.4265545
40
0.4218877
50
268.3449238
51
270.0094605
0
ARC
8
DEFAULT_255_1_388
10
20.8906699
20
102.3497094
40
0.3450519
50
269.5759586
51
282.0820163
0
ARC
8
DEFAULT_255_1_388
10
20.9159736
20
102.2378363
40
0.2303642
50
281.752014
51
306.6056188
0
ARC
8
DEFAULT_255_1_388
10
20.9270544
20
102.2196802
40
0.2091906
50
307.1346085
51
314.027845
0
ARC
8
DEFAULT_255_1_388
10
20.9230056
20
102.2226459
40
0.2141385
50
314.2552483
51
350.1694025
0
ARC
8
DEFAULT_255_1_388
10
20.8272293
20
102.2434175
40
0.312082
50
349.4140529
51
0.2933014
0
ARC
8
DEFAULT_255_1_388
10
20.885757
20
102.8237924
40
0.2588377
50
89.477747
51
105.729729
0
ARC
8
DEFAULT_255_1_388
10
20.870449
20
102.8806367
40
0.1999733
50
105.9233417
51
135.1660906
0
ARC
8
DEFAULT_255_1_388
10
20.8727521
20
102.8790412
40
0.2027322
50
135.3052302
51
168.9883645
0
ARC
8
DEFAULT_255_1_388
10
20.9658537
20
102.8576996
40
0.2982129
50
168.3801673
51
180.3602268
0
ARC
8
DEFAULT_255_1_388
10
20.9401654
20
102.8534622
40
0.2725291
50
179.5033122
51
194.9125571
0
ARC
8
DEFAULT_255_1_388
10
20.8743061
20
102.8361427
40
0.204431
50
194.9720816
51
224.194444
0
ARC
8
DEFAULT_255_1_388
10
20.8711426
20
102.8335635
40
0.2003651
50
224.2962453
51
262.015664
0
ARC
8
DEFAULT_255_1_388
10
20.887143
20
102.9158315
40
0.2840925
50
261.1245923
51
270.1962896
0
ARC
8
DEFAULT_255_1_388
10
20.8904911
20
102.8947859
40
0.2630559
50
269.4827276
51
285.0987215
0
ARC
8
DEFAULT_255_1_388
10
20.9078347
20
102.8297175
40
0.1957162
50
285.1585357
51
315.9484501
0
ARC
8
DEFAULT_255_1_388
10
20.8978221
20
102.8389315
40
0.2093195
50
316.0413965
51
351.916092
0
ARC
8
DEFAULT_255_1_388
10
20.8153595
20
102.8548323
40
0.2932279
50
351.105835
51
0.1939062
0
ARC
8
DEFAULT_255_1_388
10
20.8449229
20
102.8582224
40
0.2636739
50
359.4789618
51
16.0678224
0
ARC
8
DEFAULT_255_1_388
10
20.8984701
20
102.8726721
40
0.2082215
50
16.3252067
51
44.7913869
0
ARC
8
DEFAULT_255_1_388
10
20.8964763
20
102.872732
40
0.2095992
50
44.3957814
51
88.2499162
0
ARC
8
DEFAULT_255_1_388
10
20.8882098
20
102.8039006
40
0.2787189
50
86.9833854
51
90.0192215
0
LINE
8
DEFAULT_255_1_388
10
22.3419515
20
102.664269
11
22.3419515
21
102.4474135
0
LINE
8
DEFAULT_255_1_388
10
21.5115757
20
102.4248244
11
21.5115757
21
102.6480048
0
LINE
8
DEFAULT_255_1_388
10
22.174792
20
102.4022353
11
22.174792
21
102.6760153
0
LINE
8
DEFAULT_255_1_388
10
21.6787352
20
102.6886652
11
21.6787352
21
102.4212102
0
ARC
8
DEFAULT_255_1_388
10
20.9641849
20
102.4419118
40
1.3777776
50
353.8440855
51
0.2287917
0
ARC
8
DEFAULT_255_1_388
10
21.4860866
20
102.3836414
40
0.852639
50
344.4934746
51
353.9763743
0
ARC
8
DEFAULT_255_1_388
10
21.8227673
20
102.2879191
40
0.5026273
50
329.2803599
51
344.7473406
0
ARC
8
DEFAULT_255_1_388
10
21.9343169
20
102.2267038
40
0.3754848
50
324.9361395
51
328.6153007
0
ARC
8
DEFAULT_255_1_388
10
21.9768819
20
102.1969586
40
0.3235566
50
280.5801797
51
324.9173226
0
ARC
8
DEFAULT_255_1_388
10
21.9317447
20
102.3849236
40
0.5167077
50
269.5979457
51
281.6732777
0
ARC
8
DEFAULT_255_1_388
10
21.9236351
20
102.3714113
40
0.5032026
50
256.6228565
51
270.5105488
0
ARC
8
DEFAULT_255_1_388
10
21.8784094
20
102.1972345
40
0.3233092
50
215.8618351
51
257.2787793
0
ARC
8
DEFAULT_255_1_388
10
21.9932801
20
102.2743106
40
0.4615831
50
197.9695203
51
215.2622745
0
ARC
8
DEFAULT_255_1_388
10
22.2728476
20
102.3686641
40
0.7566307
50
187.8816486
51
198.2346584
0
ARC
8
DEFAULT_255_1_388
10
22.7181715
20
102.4329453
40
1.2065653
50
180.8977266
51
188.0054894
0
ARC
8
DEFAULT_255_1_388
10
23.0231928
20
102.44444
40
1.5117443
50
180.7434591
51
181.152202
0
ARC
8
DEFAULT_255_1_388
10
22.8556924
20
102.6534371
40
1.3441277
50
173.7674302
51
180.2315596
0
ARC
8
DEFAULT_255_1_388
10
22.3474793
20
102.7108779
40
0.8326847
50
164.3058537
51
173.9000553
0
ARC
8
DEFAULT_255_1_388
10
22.0198793
20
102.8052652
40
0.4917711
50
148.7922028
51
164.5682288
0
ARC
8
DEFAULT_255_1_388
10
21.912953
20
102.8649457
40
0.3694204
50
144.5883979
51
148.1161588
0
ARC
8
DEFAULT_255_1_388
10
21.8742276
20
102.8919667
40
0.322202
50
101.6440149
51
144.5142619
0
ARC
8
DEFAULT_255_1_388
10
21.9220468
20
102.7019337
40
0.5180451
50
89.528284
51
102.5820197
0
ARC
8
DEFAULT_255_1_388
10
21.930946
20
102.6975376
40
0.5224441
50
77.0437914
51
90.508231
0
ARC
8
DEFAULT_255_1_388
10
21.9761714
20
102.8823272
40
0.3322297
50
48.2777708
51
77.4996087
0
ARC
8
DEFAULT_255_1_388
10
21.9843454
20
102.8968557
40
0.315966
50
36.3141586
51
47.6307332
0
ARC
8
DEFAULT_255_1_388
10
21.8866176
20
102.8310159
40
0.4337313
50
18.2931065
51
35.6770203
0
ARC
8
DEFAULT_255_1_388
10
21.6005017
20
102.7328107
40
0.7362203
50
8.0246996
51
18.5605636
0
ARC
8
DEFAULT_255_1_388
10
21.1321372
20
102.6636432
40
1.2096583
50
1.127539
51
8.1718423
0
ARC
8
DEFAULT_255_1_388
10
20.7672506
20
102.6493374
40
1.5747719
50
0.5432713
51
1.38669
0
ARC
8
DEFAULT_255_1_388
10
20.9729884
20
102.6800163
40
1.2018103
50
359.8092569
51
4.9408001
0
ARC
8
DEFAULT_255_1_388
10
21.4466466
20
102.72229
40
0.7262727
50
4.8364937
51
12.2906017
0
ARC
8
DEFAULT_255_1_388
10
21.756593
20
102.7913485
40
0.4087324
50
12.0806994
51
23.8171225
0
ARC
8
DEFAULT_255_1_388
10
21.8886326
20
102.8472508
40
0.2653719
50
24.2874621
51
31.3934353
0
ARC
8
DEFAULT_255_1_388
10
21.9476762
20
102.8858822
40
0.1948607
50
30.7407708
51
82.4658033
0
ARC
8
DEFAULT_255_1_388
10
21.9274423
20
102.7865017
40
0.2961198
50
81.1057101
51
90.2187368
0
ARC
8
DEFAULT_255_1_388
10
21.9234235
20
102.8155421
40
0.2670929
50
89.380395
51
105.6763916
0
ARC
8
DEFAULT_255_1_388
10
21.9027957
20
102.890532
40
0.1893189
50
105.7980655
51
149.7387869
0
ARC
8
DEFAULT_255_1_388
10
22.0225097
20
102.8185719
40
0.3289892
50
149.4208441
51
163.628295
0
ARC
8
DEFAULT_255_1_388
10
22.2577327
20
102.7468345
40
0.5749004
50
163.3764549
51
172.141138
0
ARC
8
DEFAULT_255_1_388
10
22.6290048
20
102.6936582
40
0.9499585
50
172.0258462
51
178.0705453
0
ARC
8
DEFAULT_255_1_388
10
22.9711601
20
102.6774682
40
1.2924734
50
177.8639301
51
179.5036263
0
ARC
8
DEFAULT_255_1_388
10
22.849262
20
102.4171151
40
1.170534
50
179.7995545
51
185.246089
0
ARC
8
DEFAULT_255_1_388
10
22.3944213
20
102.3740404
40
0.7136613
50
185.1411911
51
193.0082205
0
ARC
8
DEFAULT_255_1_388
10
22.0970473
20
102.3037441
40
0.4080987
50
192.7897338
51
205.2507384
0
ARC
8
DEFAULT_255_1_388
10
21.9792683
20
102.2511538
40
0.2791522
50
205.8001921
51
211.2545876
0
ARC
8
DEFAULT_255_1_388
10
21.9204222
20
102.2117132
40
0.2084074
50
210.3789935
51
238.4007996
0
ARC
8
DEFAULT_255_1_388
10
21.9182308
20
102.2169786
40
0.2117943
50
239.6521916
51
265.9793852
0
ARC
8
DEFAULT_255_1_388
10
21.9278157
20
102.2926358
40
0.2879689
50
265.1324455
51
270.0603288
0
ARC
8
DEFAULT_255_1_388
10
21.9310534
20
102.2561418
40
0.2514919
50
269.3314378
51
287.2180039
0
ARC
8
DEFAULT_255_1_388
10
21.9465617
20
102.1995291
40
0.1928357
50
287.7957942
51
329.0808983
0
ARC
8
DEFAULT_255_1_388
10
21.8388374
20
102.2667651
40
0.319808
50
328.6635261
51
343.3325043
0
ARC
8
DEFAULT_255_1_388
10
21.5943832
20
102.3429195
40
0.5758408
50
343.0498092
51
351.9392499
0
ARC
8
DEFAULT_255_1_388
10
21.2043154
20
102.4004205
40
0.9701202
50
351.8071632
51
357.7957897
0
ARC
8
DEFAULT_255_1_388
10
20.8408631
20
102.4192724
40
1.3340376
50
357.5870923
51
359.2682493
0
LINE
8
DEFAULT_255_2_778
10
11.0359959
20
104.8731531
11
10.9838959
21
105.2104531
0
LINE
8
DEFAULT_255_2_778
10
10.9838959
20
105.2104531
11
10.4068959
21
105.2104531
0
LINE
8
DEFAULT_255_2_778
10
10.4068959
20
105.2104531
11
10.2364959
21
104.8731531
0
LINE
8
DEFAULT_255_2_778
10
10.2364959
20
104.8731531
11
9.8694959
21
104.8731531
0
LINE
8
DEFAULT_255_2_778
10
9.8694959
20
104.8731531
11
10.7531959
21
106.5106531
0
LINE
8
DEFAULT_255_2_778
10
10.7531959
20
106.5106531
11
11.0608959
21
106.5106531
0
LINE
8
DEFAULT_255_2_778
10
11.0608959
20
106.5106531
11
11.3754959
21
104.8731531
0
LINE
8
DEFAULT_255_2_778
10
11.3754959
20
104.8731531
11
11.0357959
21
104.8731531
0
LINE
8
DEFAULT_255_2_778
10
11.0357959
20
104.8731531
11
11.0359959
21
104.8731531
0
LINE
8
DEFAULT_255_2_778
10
10.8486959
20
106.0934531
11
10.5430959
21
105.4838531
0
LINE
8
DEFAULT_255_2_778
10
10.5430959
20
105.4838531
11
10.9418959
21
105.4838531
0
LINE
8
DEFAULT_255_2_778
10
10.9418959
20
105.4838531
11
10.8486959
21
106.0934531
0
LINE
8
DEFAULT_255_2_778
10
10.8486959
20
106.0934531
11
10.8486959
21
106.0934531
0
LINE
8
DEFAULT_255_2_778
10
12.1615594
20
106.6006646
11
11.8593594
21
104.8729646
0
LINE
8
DEFAULT_255_2_778
10
11.8593594
20
104.8729646
11
11.5368594
21
104.8729646
0
LINE
8
DEFAULT_255_2_778
10
11.5368594
20
104.8729646
11
11.8400594
21
106.6006646
0
LINE
8
DEFAULT_255_2_778
10
11.8400594
20
106.6006646
11
12.1615594
21
106.6006646
0
LINE
8
DEFAULT_255_2_778
10
12.1615594
20
106.6006646
11
12.1615594
21
106.6006646
0
LINE
8
DEFAULT_255_2_778
10
12.7717594
20
106.6006646
11
12.4695594
21
104.8729646
0
LINE
8
DEFAULT_255_2_778
10
12.4695594
20
104.8729646
11
12.1470594
21
104.8729646
0
LINE
8
DEFAULT_255_2_778
10
12.1470594
20
104.8729646
11
12.4502594
21
106.6006646
0
LINE
8
DEFAULT_255_2_778
10
12.4502594
20
106.6006646
11
12.7717594
21
106.6006646
0
LINE
8
DEFAULT_255_2_778
10
12.7717594
20
106.6006646
11
12.7717594
21
106.6006646
0
ARC
8
DEFAULT_255_2_778
10
13.3180767
20
105.3887764
40
0.5383522
50
238.763891
51
270.7055166
0
ARC
8
DEFAULT_255_2_778
10
13.2867625
20
105.333452
40
0.4748131
50
204.061185
51
238.5328679
0
ARC
8
DEFAULT_255_2_778
10
13.3693681
20
105.3730331
40
0.5663841
50
179.4896096
51
204.3103027
0
ARC
8
DEFAULT_255_2_778
10
13.4933843
20
105.3775727
40
0.6903781
50
175.123126
51
179.9580366
0
ARC
8
DEFAULT_255_2_778
10
13.5850479
20
105.4125152
40
0.7790728
50
149.5392097
51
174.9446897
0
ARC
8
DEFAULT_255_2_778
10
13.459184
20
105.4960212
40
0.628301
50
120.7003982
51
150.2846053
0
ARC
8
DEFAULT_255_2_778
10
13.4196851
20
105.5557024
40
0.556829
50
89.4236852
51
120.3409826
0
ARC
8
DEFAULT_255_2_778
10
13.4252352
20
105.4569671
40
0.6555361
50
88.4553682
51
89.9955718
0
ARC
8
DEFAULT_255_2_778
10
13.4481363
20
105.6411369
40
0.4711572
50
58.4514404
51
90.636095
0
ARC
8
DEFAULT_255_2_778
10
13.4744403
20
105.7045423
40
0.403504
50
35.6058989
51
56.9235594
0
ARC
8
DEFAULT_255_2_778
10
13.3641882
20
105.6307058
40
0.5361477
50
0.6851965
51
35.1616077
0
ARC
8
DEFAULT_255_2_778
10
13.1616313
20
105.6103229
40
0.7391521
50
359.9888194
51
2.0774415
0
ARC
8
DEFAULT_255_2_778
10
13.0480025
20
105.6120249
40
0.852783
50
353.383538
51
359.8759623
0
ARC
8
DEFAULT_255_2_778
10
13.534221
20
105.3596119
40
0.4107176
50
177.8018731
51
179.9839782
0
ARC
8
DEFAULT_255_2_778
10
13.3756217
20
105.348124
40
0.2523852
50
177.3650374
51
219.8309448
0
ARC
8
DEFAULT_255_2_778
10
13.3462068
20
105.3348401
40
0.2214564
50
222.0668323
51
271.55222
0
ARC
8
DEFAULT_255_2_778
10
13.3632002
20
105.5396289
40
0.4263057
50
268.5221572
51
269.9980687
0
ARC
8
DEFAULT_255_2_778
10
13.3616001
20
105.5100217
40
0.3967017
50
270.2290309
51
318.5203973
0
ARC
8
DEFAULT_255_2_778
10
13.4310056
20
105.3267979
40
0.4555006
50
292.4982989
51
325.2807674
0
ARC
8
DEFAULT_255_2_778
10
13.3411907
20
105.5053545
40
0.6549996
50
269.6158853
51
293.7802026
0
ARC
8
DEFAULT_255_2_778
10
13.3368026
20
105.592233
40
0.7418635
50
269.0811303
51
269.9997673
0
ARC
8
DEFAULT_255_2_778
10
13.4205249
20
105.5851977
40
0.2651417
50
88.6426435
51
89.9971979
0
ARC
8
DEFAULT_255_2_778
10
13.4187009
20
105.6204788
40
0.2298681
50
89.5421073
51
130.5025885
0
ARC
8
DEFAULT_255_2_778
10
13.5174398
20
105.5203327
40
0.370282
50
132.0556576
51
154.4346079
0
ARC
8
DEFAULT_255_2_778
10
13.9187288
20
105.3027869
40
0.8264843
50
152.8348001
51
159.2008974
0
ARC
8
DEFAULT_255_2_778
10
13.283715
20
105.6737268
40
0.3137404
50
351.1327381
51
359.8552777
0
ARC
8
DEFAULT_255_2_778
10
13.3301744
20
105.6733274
40
0.2672803
50
359.9157472
51
8.073482
0
ARC
8
DEFAULT_255_2_778
10
13.4328726
20
105.6886276
40
0.1634528
50
7.8192239
51
49.4174523
0
ARC
8
DEFAULT_255_2_778
10
13.4309336
20
105.6754377
40
0.174876
50
51.746929
51
91.3525911
0
LINE
8
DEFAULT_255_2_778
10
12.8055056
20
105.436265
11
12.8090056
21
105.481165
0
LINE
8
DEFAULT_255_2_778
10
13.8951056
20
105.513765
11
13.8768056
21
105.375365
0
LINE
8
DEFAULT_255_2_778
10
13.8768056
20
105.375365
11
13.1238056
21
105.375365
0
LINE
8
DEFAULT_255_2_778
10
13.6588056
20
105.247265
11
13.8054056
21
105.067365
0
LINE
8
DEFAULT_255_2_778
10
13.3249056
20
104.850465
11
13.3247056
21
104.850465
0
LINE
8
DEFAULT_255_2_778
10
13.1461056
20
105.596265
11
13.5868056
21
105.596265
0
LINE
8
DEFAULT_255_2_778
10
13.5868056
20
105.596265
11
13.5937056
21
105.625365
0
LINE
8
DEFAULT_255_2_778
10
13.4268056
20
105.850265
11
13.4268056
21
105.850265
0
ARC
8
DEFAULT_255_2_778
10
14.7973588
20
105.6688783
40
0.4439397
50
89.8554796
51
141.1589213
0
ARC
8
DEFAULT_255_2_778
10
14.7984572
20
105.607943
40
0.5048737
50
88.7717605
51
89.9975792
0
ARC
8
DEFAULT_255_2_778
10
14.8178417
20
105.7968406
40
0.315976
50
50.4893295
51
91.5528058
0
ARC
8
DEFAULT_255_2_778
10
14.8339359
20
105.8312178
40
0.2793745
50
33.8414583
51
48.5499238
0
ARC
8
DEFAULT_255_2_778
10
14.731985
20
105.7723286
40
0.3969262
50
4.3932888
51
32.7062485
0
ARC
8
DEFAULT_255_2_778
10
14.4819065
20
105.7369301
40
0.6491822
50
359.8769204
51
5.8177478
0
ARC
8
DEFAULT_255_2_778
10
14.2701804
20
105.7378881
40
0.8609097
50
353.9399056
51
359.8434284
0
ARC
8
DEFAULT_255_2_778
10
14.4164047
20
105.7035967
40
0.3954956
50
352.2407688
51
359.7520116
0
ARC
8
DEFAULT_255_2_778
10
14.5201997
20
105.7024041
40
0.2916973
50
359.8980094
51
5.448398
0
ARC
8
DEFAULT_255_2_778
10
14.6814536
20
105.7195865
40
0.129553
50
4.6550554
51
97.2610773
0
ARC
8
DEFAULT_255_2_778
10
14.655996
20
105.5938531
40
0.2544097
50
87.9539208
51
89.9945997
0
ARC
8
DEFAULT_255_2_778
10
14.6629447
20
105.5782668
40
0.2700847
50
91.4691634
51
141.078713
0
ARC
8
DEFAULT_255_2_778
10
14.7966376
20
105.4364301
40
0.4639576
50
137.8219849
51
140.394746
0
ARC
8
DEFAULT_255_2_778
10
16.9661161
20
105.483211
40
1.026426
50
77.5141066
51
90.4821212
0
ARC
8
DEFAULT_255_2_778
10
17.0845798
20
105.9924611
40
0.5036389
50
52.814306
51
78.1469212
0
ARC
8
DEFAULT_255_2_778
10
17.1732245
20
106.1207438
40
0.3479303
50
357.5432245
51
51.6759047
0
ARC
8
DEFAULT_255_2_778
10
16.9814613
20
106.1061938
40
0.5393738
50
356.248244
51
359.9613012
0
ARC
8
DEFAULT_255_2_778
10
17.128092
20
106.0935882
40
0.3922439
50
295.0867564
51
356.6841236
0
ARC
8
DEFAULT_255_2_778
10
16.9599154
20
106.3563279
40
0.7026958
50
292.6018649
51
298.4245718
0
ARC
8
DEFAULT_255_2_778
10
17.1412835
20
105.443675
40
0.2784307
50
29.5992916
51
71.4243751
0
ARC
8
DEFAULT_255_2_778
10
17.0686219
20
105.4014727
40
0.3624559
50
358.8250622
51
29.7265593
0
ARC
8
DEFAULT_255_2_778
10
16.932071
20
105.3943262
40
0.4989307
50
356.3312443
51
359.9671937
0
ARC
8
DEFAULT_255_2_778
10
16.9581925
20
105.3755387
40
0.4719696
50
307.6792206
51
358.4048608
0
ARC
8
DEFAULT_255_2_778
10
16.8807048
20
105.4963643
40
0.6150877
50
279.1080464
51
306.5123219
0
ARC
8
DEFAULT_255_2_778
10
16.7961448
20
105.9184116
40
1.0453321
50
269.63465
51
280.0226117
0
ARC
8
DEFAULT_255_2_778
10
16.8094212
20
105.4835308
40
0.3407431
50
267.9747348
51
304.6141501
0
ARC
8
DEFAULT_255_2_778
10
16.8661516
20
105.3973067
40
0.2375665
50
305.166569
51
352.3059676
0
ARC
8
DEFAULT_255_2_778
10
16.775822
20
105.4183166
40
0.3300111
50
350.7906063
51
359.6837465
0
ARC
8
DEFAULT_255_2_778
10
16.9356152
20
105.4239465
40
0.170376
50
357.4933304
51
35.754963
0
ARC
8
DEFAULT_255_2_778
10
16.9423472
20
105.4096963
40
0.1739313
50
40.8670445
51
88.9145542
0
ARC
8
DEFAULT_255_2_778
10
16.9113357
20
105.2244792
40
0.360752
50
84.5431107
51
87.5464559
0
ARC
8
DEFAULT_255_2_778
10
16.8864523
20
106.1965688
40
0.3741259
50
268.9933192
51
299.9063201
0
ARC
8
DEFAULT_255_2_778
10
16.9296435
20
106.1037438
40
0.2722705
50
301.7671328
51
305.0688299
0
ARC
8
DEFAULT_255_2_778
10
16.9572403
20
106.0676463
40
0.2268776
50
304.6024496
51
352.3134516
0
ARC
8
DEFAULT_255_2_778
10
16.9035208
20
106.0783322
40
0.2815642
50
351.6205962
51
359.745937
0
ARC
8
DEFAULT_255_2_778
10
17.0391775
20
106.0844083
40
0.1460884
50
357.1260689
51
87.9509322
0
ARC
8
DEFAULT_255_2_778
10
16.9733166
20
105.8050677
40
0.4312349
50
80.5121161
51
90.1776895
0
ARC
8
DEFAULT_255_2_778
10
18.304359
20
105.1332308
40
0.6634375
50
79.3314563
51
88.7113465
0
ARC
8
DEFAULT_255_2_778
10
18.3079683
20
105.3666839
40
0.4299655
50
88.4925657
51
89.9946723
0
ARC
8
DEFAULT_255_2_778
10
18.2982438
20
105.4867608
40
0.3100425
50
88.1952228
51
143.885382
0
ARC
8
DEFAULT_255_2_778
10
18.4077805
20
105.7317129
40
0.3980768
50
117.0828142
51
147.9763761
0
ARC
8
DEFAULT_255_2_778
10
18.3544747
20
105.8150295
40
0.2997784
50
89.5977622
51
115.2613452
0
ARC
8
DEFAULT_255_2_778
10
18.3464621
20
105.6428482
40
0.4720608
50
75.0830674
51
88.7719532
0
ARC
8
DEFAULT_255_2_778
10
19.3883565
20
104.9600588
40
0.303463
50
178.9513385
51
196.6911244
0
ARC
8
DEFAULT_255_2_778
10
19.5567182
20
104.9654238
40
0.4717738
50
177.8405456
51
179.9770623
0
ARC
8
DEFAULT_255_2_778
10
18.7787325
20
105.2700947
40
0.4198561
50
270.5473861
51
316.8967404
0
ARC
8
DEFAULT_255_2_778
10
18.7827705
20
105.2804581
40
0.4302003
50
268.5226571
51
269.9964175
0
ARC
8
DEFAULT_255_2_778
10
18.7647216
20
105.2285252
40
0.3781887
50
226.455184
51
271.0541416
0
ARC
8
DEFAULT_255_2_778
10
18.7161161
20
105.1831869
40
0.311866
50
179.0506747
51
227.1894377
0
ARC
8
DEFAULT_255_2_778
10
18.7977006
20
105.1882683
40
0.3934079
50
177.4603384
51
179.9875271
0
ARC
8
DEFAULT_255_2_778
10
18.7677222
20
105.2042892
40
0.3630457
50
122.3464314
51
179.7772632
0
ARC
8
DEFAULT_255_2_778
10
18.9127921
20
104.9771577
40
0.6325515
50
98.6956815
51
122.4402135
0
ARC
8
DEFAULT_255_2_778
10
18.9977072
20
104.5221789
40
1.0952432
50
89.6404969
51
99.4883828
0
ARC
8
DEFAULT_255_2_778
10
18.91142
20
105.737456
40
0.2635833
50
349.2520325
51
359.7979352
0
ARC
8
DEFAULT_255_2_778
10
18.9485896
20
105.7366836
40
0.2264121
50
359.9602232
51
5.7075699
0
ARC
8
DEFAULT_255_2_778
10
19.0517084
20
105.7508244
40
0.1224577
50
3.9221136
51
47.9806675
0
ARC
8
DEFAULT_255_2_778
10
19.0461009
20
105.7334028
40
0.1393558
50
51.0640414
51
91.6537281
0
ARC
8
DEFAULT_255_2_778
10
19.0343864
20
105.5992856
40
0.2735232
50
88.3883484
51
89.9950272
0
ARC
8
DEFAULT_255_2_778
10
19.0289472
20
105.6771996
40
0.1956856
50
88.4002709
51
125.6558116
0
ARC
8
DEFAULT_255_2_778
10
19.0229477
20
105.6954867
40
0.1774238
50
127.5242925
51
170.6536699
0
ARC
8
DEFAULT_255_2_778
10
18.8789596
20
105.7092573
40
0.3527561
50
122.7014157
51
177.7346919
0
ARC
8
DEFAULT_255_2_778
10
19.030198
20
105.5042043
40
0.6072396
50
91.7146868
51
124.2570002
0
ARC
8
DEFAULT_255_2_778
10
19.05893
20
105.2473064
40
0.865138
50
89.9735854
51
93.1077226
0
ARC
8
DEFAULT_255_2_778
10
19.0592938
20
105.190756
40
0.9216883
50
89.4414218
51
89.9978259
0
ARC
8
DEFAULT_255_2_778
10
19.0704714
20
105.5922068
40
0.5201984
50
63.6868659
51
90.2414521
0
ARC
8
DEFAULT_255_2_778
10
19.1244671
20
105.7201249
40
0.3816898
50
44.805062
51
62.4405121
0
ARC
8
DEFAULT_255_2_778
10
19.1511934
20
105.7443957
40
0.3456276
50
358.4368244
51
45.0725574
0
ARC
8
DEFAULT_255_2_778
10
18.9988451
20
105.7357092
40
0.4978477
50
354.0151208
51
359.9146153
0
ARC
8
DEFAULT_255_2_778
10
19.916384
20
105.0134006
40
0.5223437
50
178.2666392
51
179.9853875
0
ARC
8
DEFAULT_255_2_778
10
19.7189724
20
105.0055635
40
0.3250299
50
178.5948625
51
200.018038
0
ARC
8
DEFAULT_255_2_778
10
18.8607749
20
105.3944835
40
0.2979407
50
268.1351457
51
269.9967975
0
ARC
8
DEFAULT_255_2_778
10
18.8555143
20
105.3919809
40
0.2954847
50
271.0168715
51
323.4470831
0
ARC
8
DEFAULT_255_2_778
10
19.0185177
20
105.0324003
40
0.3950093
50
89.6139406
51
115.9632081
0
ARC
8
DEFAULT_255_2_778
10
18.9568146
20
105.1735476
40
0.2411766
50
117.4642621
51
142.4598629
0
ARC
8
DEFAULT_255_2_778
10
18.9147894
20
105.2104762
40
0.1853888
50
143.595728
51
174.110017
0
ARC
8
DEFAULT_255_2_778
10
18.8922711
20
105.2049244
40
0.1637466
50
171.368069
51
179.7835889
0
ARC
8
DEFAULT_255_2_778
10
18.8267207
20
105.2018088
40
0.098266
50
177.8221965
51
224.0379617
0
ARC
8
DEFAULT_255_2_778
10
18.8464576
20
105.2268517
40
0.1299333
50
225.9269812
51
272.0384171
0
ARC
8
DEFAULT_255_2_778
10
20.216987
20
105.7619976
40
0.3515032
50
37.8132465
51
89.9360651
0
ARC
8
DEFAULT_255_2_778
10
20.0346749
20
105.2717418
40
0.4267183
50
285.291584
51
321.0175046
0
ARC
8
DEFAULT_255_2_778
10
20.0570669
20
105.2255225
40
0.3763475
50
269.8450062
51
283.8588709
0
ARC
8
DEFAULT_255_2_778
10
20.0560587
20
105.2582286
40
0.4090522
50
268.5880369
51
269.9986183
0
ARC
8
DEFAULT_255_2_778
10
20.0420305
20
105.2050487
40
0.3557701
50
236.3475668
51
270.6359501
0
ARC
8
DEFAULT_255_2_778
10
20.0598141
20
105.2165321
40
0.3752788
50
201.8435891
51
235.058908
0
ARC
8
DEFAULT_255_2_778
10
20.3322211
20
105.3355871
40
0.6724873
50
181.1917384
51
202.6233367
0
ARC
8
DEFAULT_255_2_778
10
20.6351677
20
105.3686339
40
0.9764219
50
180.0156472
51
182.7609519
0
ARC
8
DEFAULT_255_2_778
10
20.5470549
20
105.3692658
40
0.8883095
50
174.2087211
51
180.0579587
0
ARC
8
DEFAULT_255_2_778
10
20.6346038
20
105.3821468
40
0.9727968
50
152.6606942
51
172.4775279
0
ARC
8
DEFAULT_255_2_778
10
20.4685375
20
105.4566269
40
0.7911386
50
151.1967159
51
151.9287309
0
ARC
8
DEFAULT_255_2_778
10
20.2724416
20
105.5806657
40
0.559722
50
125.8155177
51
152.6517649
0
ARC
8
DEFAULT_255_2_778
10
20.1926864
20
105.6751789
40
0.4365104
50
121.2895022
51
124.5859333
0
ARC
8
DEFAULT_255_2_778
10
20.2005174
20
105.6608255
40
0.4528439
50
89.3885498
51
121.1930117
0
ARC
8
DEFAULT_255_2_778
10
20.205315
20
105.5790492
40
0.5345942
50
88.6747242
51
89.9962477
0
ARC
8
DEFAULT_255_2_778
10
21.0229427
20
105.3416181
40
1.044966
50
173.5557888
51
179.5636493
0
ARC
8
DEFAULT_255_2_778
10
20.5582157
20
105.348589
40
0.5802095
50
179.9025124
51
183.3187157
0
ARC
8
DEFAULT_255_2_778
10
20.270534
20
105.319649
40
0.2915917
50
180.9134286
51
207.6247443
0
ARC
8
DEFAULT_255_2_778
10
20.135005
20
105.2552881
40
0.1417894
50
209.9763709
51
272.172214
0
ARC
8
DEFAULT_255_2_778
10
20.1512082
20
105.3790383
40
0.2656585
50
267.6638236
51
269.9934853
0
ARC
8
DEFAULT_255_2_778
10
20.1452669
20
105.3828962
40
0.2695812
50
271.2564257
51
323.4819236
0
ARC
8
DEFAULT_255_2_778
10
20.0042443
20
105.5217425
40
0.4663623
50
320.0808185
51
322.7722781
0
ARC
8
DEFAULT_255_2_778
10
20.2905955
20
105.6680938
40
0.1811681
50
17.7085133
51
91.4917236
0
ARC
8
DEFAULT_255_2_778
10
20.2776466
20
105.5673302
40
0.2819906
50
88.3270304
51
89.9962875
0
ARC
8
DEFAULT_255_2_778
10
20.2751839
20
105.6154886
40
0.2338453
50
89.3920923
51
141.8934507
0
ARC
8
DEFAULT_255_2_778
10
20.4150372
20
105.5058724
40
0.411538
50
141.9009784
51
164.0634131
0
ARC
8
DEFAULT_255_2_778
10
20.9401614
20
105.3381385
40
0.9626867
50
163.0454941
51
172.7936709
0
LINE
8
DEFAULT_255_2_778
10
14.1790793
20
106.0902006
11
14.4788793
21
106.0913006
0
LINE
8
DEFAULT_255_2_778
10
14.4788793
20
106.0913006
11
14.4515793
21
105.9473006
0
LINE
8
DEFAULT_255_2_778
10
15.1262793
20
105.6470006
11
14.9968793
21
104.8731006
0
LINE
8
DEFAULT_255_2_778
10
14.9968793
20
104.8731006
11
14.6764793
21
104.8731006
0
LINE
8
DEFAULT_255_2_778
10
14.6764793
20
104.8731006
11
14.8082793
21
105.6502006
0
LINE
8
DEFAULT_255_2_778
10
14.4391793
20
105.7322006
11
14.2856793
21
104.8729006
0
LINE
8
DEFAULT_255_2_778
10
14.2856793
20
104.8729006
11
13.9652793
21
104.8729006
0
LINE
8
DEFAULT_255_2_778
10
13.9652793
20
104.8729006
11
14.1787793
21
106.0900006
0
LINE
8
DEFAULT_255_2_778
10
14.1787793
20
106.0900006
11
14.1790793
21
106.0902006
0
LINE
8
DEFAULT_255_2_778
10
16.0157793
20
105.7053006
11
15.9692793
21
105.4433006
0
LINE
8
DEFAULT_255_2_778
10
15.9692793
20
105.4433006
11
15.3466793
21
105.4433006
0
LINE
8
DEFAULT_255_2_778
10
15.3466793
20
105.4433006
11
15.3921793
21
105.7053006
0
LINE
8
DEFAULT_255_2_778
10
15.3921793
20
105.7053006
11
16.0157793
21
105.7053006
0
LINE
8
DEFAULT_255_2_778
10
16.0157793
20
105.7053006
11
16.0157793
21
105.7053006
0
LINE
8
DEFAULT_255_2_778
10
16.7894793
20
104.8731006
11
16.1544793
21
104.8731006
0
LINE
8
DEFAULT_255_2_778
10
16.1544793
20
104.8731006
11
16.4417793
21
106.5106006
0
LINE
8
DEFAULT_255_2_778
10
16.4417793
20
106.5106006
11
16.9574793
21
106.5096006
0
LINE
8
DEFAULT_255_2_778
10
16.7894793
20
104.8731006
11
16.7894793
21
104.8731006
0
LINE
8
DEFAULT_255_2_778
10
16.9267793
20
105.5851006
11
16.6131793
21
105.5862006
0
LINE
8
DEFAULT_255_2_778
10
16.6131793
20
105.5862006
11
16.5348793
21
105.1441006
0
LINE
8
DEFAULT_255_2_778
10
16.5348793
20
105.1441006
11
16.7973793
21
105.1430006
0
LINE
8
DEFAULT_255_2_778
10
16.9267793
20
105.5849006
11
16.9267793
21
105.5851006
0
LINE
8
DEFAULT_255_2_778
10
16.7267793
20
106.2376006
11
16.6539793
21
105.8248006
0
LINE
8
DEFAULT_255_2_778
10
16.6539793
20
105.8248006
11
16.8798793
21
105.8225006
0
LINE
8
DEFAULT_255_2_778
10
16.9719793
20
106.2363006
11
16.7267793
21
106.2373006
0
LINE
8
DEFAULT_255_2_778
10
16.7267793
20
106.2373006
11
16.7267793
21
106.2376006
0
LINE
8
DEFAULT_255_2_778
10
18.4681793
20
106.0990006
11
18.4271793
21
105.7852006
0
LINE
8
DEFAULT_255_2_778
10
18.0477793
20
105.6695006
11
17.9056793
21
104.8731006
0
LINE
8
DEFAULT_255_2_778
10
17.9056793
20
104.8731006
11
17.5852793
21
104.8731006
0
LINE
8
DEFAULT_255_2_778
10
17.5852793
20
104.8731006
11
17.7987793
21
106.0902006
0
LINE
8
DEFAULT_255_2_778
10
17.7987793
20
106.0902006
11
18.0998793
21
106.0913006
0
LINE
8
DEFAULT_255_2_778
10
18.0998793
20
106.0913006
11
18.0702793
21
105.9428006
0
LINE
8
DEFAULT_255_2_778
10
18.4679793
20
106.0990006
11
18.4681793
21
106.0990006
0
LINE
8
DEFAULT_255_2_778
10
19.4122793
20
104.8729006
11
19.0976793
21
104.8729006
0
LINE
8
DEFAULT_255_2_778
10
19.0045793
20
105.6174006
11
19.1545793
21
105.6153006
0
LINE
8
DEFAULT_255_2_778
10
19.1545793
20
105.6153006
11
19.1703793
21
105.6883006
0
LINE
8
DEFAULT_255_2_778
10
18.8478793
20
105.7243006
11
18.5264793
21
105.7232006
0
LINE
8
DEFAULT_255_2_778
10
19.4939793
20
105.6838006
11
19.3997793
21
105.1012006
0
LINE
8
DEFAULT_255_2_778
10
19.3997793
20
105.1012006
11
19.3942793
21
105.0292006
0
LINE
8
DEFAULT_255_2_778
10
19.4135793
20
104.8943006
11
19.4124793
21
104.8729006
0
LINE
8
DEFAULT_255_2_778
10
19.4124793
20
104.8729006
11
19.4122793
21
104.8729006
0
LINE
8
DEFAULT_255_2_778
10
19.0928793
20
105.2160006
11
19.1325793
21
105.4264006
0
LINE
8
DEFAULT_255_2_778
10
19.1325793
20
105.4264006
11
19.0211793
21
105.4274006
0
LINE
8
DEFAULT_255_2_778
10
18.8510793
20
105.0970006
11
18.8510793
21
105.0967006
0
LINE
8
DEFAULT_255_2_778
10
20.4946793
20
105.9775006
11
20.6150793
21
106.6006006
0
LINE
8
DEFAULT_255_2_778
10
20.6150793
20
106.6006006
11
20.9364793
21
106.6006006
0
LINE
8
DEFAULT_255_2_778
10
20.9364793
20
106.6006006
11
20.6343793
21
104.8729006
0
LINE
8
DEFAULT_255_2_778
10
20.6343793
20
104.8729006
11
20.3480793
21
104.8729006
0
LINE
8
DEFAULT_255_2_778
10
20.3480793
20
104.8729006
11
20.3663793
21
105.0033006
0
LINE
8
DEFAULT_255_2_778
10
19.6632793
20
105.4589006
11
19.6701793
21
105.5095006
0
LINE
8
DEFAULT_255_2_778
10
20.2176793
20
106.1135006
11
20.2173793
21
106.1135006
0
LINE
8
DEFAULT_255_2_778
10
20.3755793
20
105.2396006
11
20.4631793
21
105.7232006
0
LINE
8
DEFAULT_255_2_778
10
19.9850793
20
105.4589006
11
19.9845793
21
105.4589006
0
LINE
8
DEFAULT_255_2_778
10
21.5304594
20
106.6006646
11
21.2282594
21
104.8729646
0
LINE
8
DEFAULT_255_2_778
10
21.2282594
20
104.8729646
11
20.9057594
21
104.8729646
0
LINE
8
DEFAULT_255_2_778
10
20.9057594
20
104.8729646
11
21.2089594
21
106.6006646
0
LINE
8
DEFAULT_255_2_778
10
21.2089594
20
106.6006646
11
21.5304594
21
106.6006646
0
LINE
8
DEFAULT_255_2_778
10
21.5304594
20
106.6006646
11
21.5304594
21
106.6006646
0
ARC
8
DEFAULT_255_2_778
10
22.0768767
20
105.3887764
40
0.5383522
50
238.763891
51
270.7055166
0
ARC
8
DEFAULT_255_2_778
10
22.0455625
20
105.333452
40
0.4748131
50
204.061185
51
238.5328679
0
ARC
8
DEFAULT_255_2_778
10
22.1281681
20
105.3730331
40
0.5663841
50
179.4896096
51
204.3103027
0
ARC
8
DEFAULT_255_2_778
10
22.2521843
20
105.3775727
40
0.6903781
50
175.123126
51
179.9580366
0
ARC
8
DEFAULT_255_2_778
10
22.3438479
20
105.4125152
40
0.7790728
50
149.5392097
51
174.9446897
0
ARC
8
DEFAULT_255_2_778
10
22.217984
20
105.4960212
40
0.628301
50
120.7003982
51
150.2846053
0
ARC
8
DEFAULT_255_2_778
10
22.1784851
20
105.5557024
40
0.556829
50
89.4236852
51
120.3409826
0
ARC
8
DEFAULT_255_2_778
10
22.1840352
20
105.4569671
40
0.6555361
50
88.4553682
51
89.9955718
0
ARC
8
DEFAULT_255_2_778
10
22.2069363
20
105.6411369
40
0.4711572
50
58.4514404
51
90.636095
0
ARC
8
DEFAULT_255_2_778
10
22.2332403
20
105.7045423
40
0.403504
50
35.6058989
51
56.9235594
0
ARC
8
DEFAULT_255_2_778
10
22.1229882
20
105.6307058
40
0.5361477
50
0.6851965
51
35.1616077
0
ARC
8
DEFAULT_255_2_778
10
21.9204313
20
105.6103229
40
0.7391521
50
359.9888194
51
2.0774415
0
ARC
8
DEFAULT_255_2_778
10
21.8068025
20
105.6120249
40
0.852783
50
353.383538
51
359.8759623
0
ARC
8
DEFAULT_255_2_778
10
22.293021
20
105.3596119
40
0.4107176
50
177.8018731
51
179.9839782
0
ARC
8
DEFAULT_255_2_778
10
22.1344217
20
105.348124
40
0.2523852
50
177.3650374
51
219.8309448
0
ARC
8
DEFAULT_255_2_778
10
22.1050068
20
105.3348401
40
0.2214564
50
222.0668323
51
271.55222
0
ARC
8
DEFAULT_255_2_778
10
22.1220002
20
105.5396289
40
0.4263057
50
268.5221572
51
269.9980687
0
ARC
8
DEFAULT_255_2_778
10
22.1204001
20
105.5100217
40
0.3967017
50
270.2290309
51
318.5203973
0
ARC
8
DEFAULT_255_2_778
10
22.1898056
20
105.3267979
40
0.4555006
50
292.4982989
51
325.2807674
0
ARC
8
DEFAULT_255_2_778
10
22.0999907
20
105.5053545
40
0.6549996
50
269.6158853
51
293.7802026
0
ARC
8
DEFAULT_255_2_778
10
22.0956026
20
105.592233
40
0.7418635
50
269.0811303
51
269.9997673
0
ARC
8
DEFAULT_255_2_778
10
22.1793249
20
105.5851977
40
0.2651417
50
88.6426435
51
89.9971979
0
ARC
8
DEFAULT_255_2_778
10
22.1775009
20
105.6204788
40
0.2298681
50
89.5421073
51
130.5025885
0
ARC
8
DEFAULT_255_2_778
10
22.2762398
20
105.5203327
40
0.370282
50
132.0556576
51
154.4346079
0
ARC
8
DEFAULT_255_2_778
10
22.6775288
20
105.3027869
40
0.8264843
50
152.8348001
51
159.2008974
0
ARC
8
DEFAULT_255_2_778
10
22.042515
20
105.6737268
40
0.3137404
50
351.1327381
51
359.8552777
0
ARC
8
DEFAULT_255_2_778
10
22.0889744
20
105.6733274
40
0.2672803
50
359.9157472
51
8.073482
0
ARC
8
DEFAULT_255_2_778
10
22.1916726
20
105.6886276
40
0.1634528
50
7.8192239
51
49.4174523
0
ARC
8
DEFAULT_255_2_778
10
22.1897336
20
105.6754377
40
0.174876
50
51.746929
51
91.3525911
0
LINE
8
DEFAULT_255_2_778
10
21.5643056
20
105.436265
11
21.5678056
21
105.481165
0
LINE
8
DEFAULT_255_2_778
10
22.6539056
20
105.513765
11
22.6356056
21
105.375365
0
LINE
8
DEFAULT_255_2_778
10
22.6356056
20
105.375365
11
21.8826056
21
105.375365
0
LINE
8
DEFAULT_255_2_778
10
22.4176056
20
105.247265
11
22.5642056
21
105.067365
0
LINE
8
DEFAULT_255_2_778
10
22.0837056
20
104.850465
11
22.0835056
21
104.850465
0
LINE
8
DEFAULT_255_2_778
10
21.9049056
20
105.596265
11
22.3456056
21
105.596265
0
LINE
8
DEFAULT_255_2_778
10
22.3456056
20
105.596265
11
22.3525056
21
105.625365
0
LINE
8
DEFAULT_255_2_778
10
22.1856056
20
105.850265
11
22.1856056
21
105.850265
0
ARC
8
DEFAULT_255_2_778
10
22.5732251
20
104.9893848
40
0.7187609
50
318.1171527
51
335.3457065
0
ARC
8
DEFAULT_255_2_778
10
22.7861338
20
104.8072586
40
0.4387075
50
306.2044829
51
317.2623563
0
ARC
8
DEFAULT_255_2_778
10
22.8118587
20
104.7765063
40
0.3987066
50
269.0092455
51
305.8318035
0
ARC
8
DEFAULT_255_2_778
10
22.8209703
20
104.9411254
40
0.5634934
50
257.9736769
51
268.3723286
0
ARC
8
DEFAULT_255_2_778
10
22.976467
20
105.7953273
40
1.431581
50
256.8370098
51
259.0102636
0
ARC
8
DEFAULT_255_2_778
10
22.7299218
20
105.043381
40
0.396887
50
268.3457775
51
269.9906226
0
ARC
8
DEFAULT_255_2_778
10
22.744688
20
104.8839479
40
0.2379166
50
266.425992
51
328.6474802
0
LINE
8
DEFAULT_255_2_778
10
23.1491646
20
106.0899594
11
23.2378646
21
105.3364594
0
LINE
8
DEFAULT_255_2_778
10
23.2378646
20
105.3364594
11
23.5889646
21
106.0899594
0
LINE
8
DEFAULT_255_2_778
10
23.5889646
20
106.0899594
11
23.9453646
21
106.0899594
0
LINE
8
DEFAULT_255_2_778
10
23.9453646
20
106.0899594
11
23.2264646
21
104.6895594
0
LINE
8
DEFAULT_255_2_778
10
22.6504646
20
104.4013594
11
22.6742646
21
104.6487594
0
LINE
8
DEFAULT_255_2_778
10
22.6742646
20
104.6487594
11
22.7184646
21
104.6466594
0
LINE
8
DEFAULT_255_2_778
10
22.9478646
20
104.7601594
11
23.0182646
21
104.8895594
0
LINE
8
DEFAULT_255_2_778
10
23.0182646
20
104.8895594
11
22.8171646
21
106.0896594
0
LINE
8
DEFAULT_255_2_778
10
22.8171646
20
106.0896594
11
23.1489646
21
106.0896594
0
LINE
8
DEFAULT_255_2_778
10
23.1489646
20
106.0896594
11
23.1491646
21
106.0899594
0
LINE
8
DEFAULT_255_2_778
10
5.4244542
20
106.4894666
11
5.4244542
21
105.3041666
0
LINE
8
DEFAULT_255_2_778
10
5.4244542
20
105.3041666
11
8.3507542
21
105.2671666
0
LINE
8
DEFAULT_255_2_778
10
8.3507542
20
105.2671666
11
8.3507542
21
106.4894666
0
LINE
8
DEFAULT_255_2_778
10
8.3507542
20
106.4894666
11
7.4246542
21
107.3414666
0
LINE
8
DEFAULT_255_2_778
10
7.4246542
20
107.3414666
11
6.2764542
21
107.3414666
0
LINE
8
DEFAULT_255_2_778
10
6.2764542
20
107.3414666
11
5.4244542
21
106.4894666
0
LINE
8
DEFAULT_255_2_778
10
5.5726542
20
105.0819666
11
8.2025542
21
105.0819666
0
LINE
8
DEFAULT_255_2_778
10
8.2025542
20
105.0819666
11
7.4617542
21
104.3781666
0
LINE
8
DEFAULT_255_2_778
10
7.4617542
20
104.3781666
11
6.3504542
21
104.3781666
0
LINE
8
DEFAULT_255_2_778
10
6.3504542
20
104.3781666
11
5.5726542
21
105.0819666
0
ARC
8
DEFAULT_255_2_778
10
7.8458226
20
105.6310768
40
0.1423419
50
264.5115721
51
318.4176283
0
ARC
8
DEFAULT_255_2_778
10
7.8189879
20
105.6281225
40
0.1616977
50
325.5297452
51
3.3557414
0
ARC
8
DEFAULT_255_2_778
10
7.8389795
20
105.9846157
40
0.142084
50
354.4959081
51
48.5537602
0
ARC
8
DEFAULT_255_2_778
10
7.8416444
20
105.9574068
40
0.1619557
50
55.6500697
51
93.3401169
0
ARC
8
DEFAULT_255_2_778
10
7.8414709
20
106.183925
40
0.0654958
50
261.8698976
51
8.1301024
0
ARC
8
DEFAULT_255_2_778
10
7.7988672
20
106.5666455
40
0.1074847
50
358.3696885
51
95.9524071
0
ARC
8
DEFAULT_255_2_778
10
7.7588839
20
106.3382916
40
0.3364968
50
85.0838783
51
90.1320543
0
LINE
8
DEFAULT_255_2_778
10
5.6838084
20
105.4893875
11
6.1283084
21
106.7117875
0
LINE
8
DEFAULT_255_2_778
10
6.1283084
20
106.7117875
11
6.3876084
21
106.7117875
0
LINE
8
DEFAULT_255_2_778
10
6.3876084
20
106.7117875
11
6.8691084
21
105.5264875
0
LINE
8
DEFAULT_255_2_778
10
6.8691084
20
105.5264875
11
6.5358084
21
105.5264875
0
LINE
8
DEFAULT_255_2_778
10
6.5358084
20
105.5264875
11
6.4246084
21
105.7857875
0
LINE
8
DEFAULT_255_2_778
10
6.4246084
20
105.7857875
11
6.0913084
21
105.7857875
0
LINE
8
DEFAULT_255_2_778
10
6.0913084
20
105.7857875
11
6.0913084
21
105.9338875
0
LINE
8
DEFAULT_255_2_778
10
6.0913084
20
105.9338875
11
6.3876084
21
105.9338875
0
LINE
8
DEFAULT_255_2_778
10
6.3876084
20
105.9338875
11
6.2024084
21
106.3783875
0
LINE
8
DEFAULT_255_2_778
10
6.2024084
20
106.3783875
11
5.8690084
21
105.4893875
0
LINE
8
DEFAULT_255_2_778
10
5.8690084
20
105.4893875
11
5.6838084
21
105.4893875
0
LINE
8
DEFAULT_255_2_778
10
5.6838084
20
105.4893875
11
5.6838084
21
105.4893875
0
LINE
8
DEFAULT_255_2_778
10
6.7580084
20
106.1561875
11
6.9062084
21
106.1561875
0
LINE
8
DEFAULT_255_2_778
10
6.9062084
20
106.1561875
11
6.9062084
21
106.0079875
0
LINE
8
DEFAULT_255_2_778
10
6.9062084
20
106.0079875
11
6.7580084
21
106.0079875
0
LINE
8
DEFAULT_255_2_778
10
6.7580084
20
106.0079875
11
6.7580084
21
106.1561875
0
LINE
8
DEFAULT_255_2_778
10
7.2766084
20
106.4895875
11
7.6100084
21
106.4895875
0
LINE
8
DEFAULT_255_2_778
10
7.6100084
20
106.4895875
11
7.6100084
21
106.1190875
0
LINE
8
DEFAULT_255_2_778
10
7.6100084
20
106.1190875
11
7.3507084
21
106.1190875
0
LINE
8
DEFAULT_255_2_778
10
7.3507084
20
106.1190875
11
7.3507084
21
105.9709875
0
LINE
8
DEFAULT_255_2_778
10
7.3507084
20
105.9709875
11
7.6840084
21
105.9709875
0
LINE
8
DEFAULT_255_2_778
10
7.6840084
20
105.9709875
11
7.6840084
21
105.6375875
0
LINE
8
DEFAULT_255_2_778
10
7.6840084
20
105.6375875
11
7.2766084
21
105.6375875
0
LINE
8
DEFAULT_255_2_778
10
7.2766084
20
105.6375875
11
7.2766084
21
106.4895875
0
LINE
8
DEFAULT_255_2_778
10
7.2766084
20
106.4895875
11
7.2766084
21
106.4895875
0
LINE
8
DEFAULT_255_2_778
10
6.9803084
20
106.6747875
11
6.9803084
21
105.4893875
0
LINE
8
DEFAULT_255_2_778
10
6.9803084
20
105.4893875
11
7.8322084
21
105.4893875
0
LINE
8
DEFAULT_255_2_778
10
7.9804084
20
105.6375875
11
7.9804084
21
105.9709875
0
LINE
8
DEFAULT_255_2_778
10
7.9063084
20
106.1931875
11
7.9063084
21
106.5635875
0
LINE
8
DEFAULT_255_2_778
10
7.7581084
20
106.6747875
11
6.9803084
21
106.6747875
0
LINE
8
DEFAULT_255_2_778
10
6.9803084
20
106.6747875
11
6.9803084
21
106.6747875
0
LINE
8
DEFAULT_255_2_778
10
6.3394427
20
104.6990198
11
6.3367427
21
104.6990198
0
ARC
8
DEFAULT_255_2_778
10
6.3340483
20
104.8240854
40
0.1250946
50
247.1356448
51
271.2341787
0
ARC
8
DEFAULT_255_2_778
10
6.3160916
20
104.7817164
40
0.0790776
50
215.0349981
51
247.1960091
0
ARC
8
DEFAULT_255_2_778
10
6.3109464
20
104.7763964
40
0.0718243
50
178.625123
51
213.9163394
0
ARC
8
DEFAULT_255_2_778
10
6.3131693
20
104.8934391
40
0.0740421
50
147.0420611
51
181.175799
0
ARC
8
DEFAULT_255_2_778
10
6.3147919
20
104.8895628
40
0.0775487
50
112.4780918
51
145.2909011
0
ARC
8
DEFAULT_255_2_778
10
6.333917
20
104.8451534
40
0.1258981
50
88.7138988
51
112.7934617
0
ARC
8
DEFAULT_255_2_778
10
6.339481
20
104.8456878
40
0.1253619
50
67.159311
51
91.2516049
0
ARC
8
DEFAULT_255_2_778
10
6.3569794
20
104.8876852
40
0.0798654
50
35.1978461
51
67.0331611
0
ARC
8
DEFAULT_255_2_778
10
6.3626391
20
104.8936431
40
0.0718243
50
358.625123
51
33.9163394
0
ARC
8
DEFAULT_255_2_778
10
6.3604162
20
104.7766004
40
0.0740421
50
327.0420611
51
1.175799
0
ARC
8
DEFAULT_255_2_778
10
6.361381
20
104.7778218
40
0.0739133
50
291.6436853
51
325.8406333
0
ARC
8
DEFAULT_255_2_778
10
6.3401809
20
104.786874
40
0.0482768
50
265.9160158
51
308.3617549
0
ARC
8
DEFAULT_255_2_778
10
6.3451719
20
104.7758207
40
0.036631
50
312.9754563
51
3.2850623
0
ARC
8
DEFAULT_255_2_778
10
6.3448152
20
104.893502
40
0.0369754
50
357.082104
51
47.4006092
0
ARC
8
DEFAULT_255_2_778
10
6.339634
20
104.8833686
40
0.0480383
50
51.0349629
51
93.4505724
0
ARC
8
DEFAULT_255_2_778
10
6.3340455
20
104.883049
40
0.0483461
50
86.8017862
51
128.8135095
0
ARC
8
DEFAULT_255_2_778
10
6.3287702
20
104.893502
40
0.0369754
50
132.5993908
51
182.917896
0
ARC
8
DEFAULT_255_2_778
10
6.3284135
20
104.7758207
40
0.036631
50
176.7149377
51
227.0245437
0
ARC
8
DEFAULT_255_2_778
10
6.3334908
20
104.787186
40
0.0485752
50
231.7867693
51
273.8385805
0
ARC
8
DEFAULT_255_2_778
10
6.5570034
20
104.7755567
40
0.0766655
50
226.2029837
51
273.3195937
0
ARC
8
DEFAULT_255_2_778
10
6.5622798
20
104.7735746
40
0.0790566
50
176.8492311
51
222.4458356
0
ARC
8
DEFAULT_255_2_778
10
6.5699928
20
104.7754647
40
0.043631
50
176.5112098
51
217.639275
0
ARC
8
DEFAULT_255_2_778
10
6.5593879
20
104.7703664
40
0.0322122
50
221.9818643
51
273.6574471
0
ARC
8
DEFAULT_255_2_778
10
6.5632217
20
104.7708151
40
0.0326438
50
266.8760675
51
317.6392064
0
ARC
8
DEFAULT_255_2_778
10
6.5527926
20
104.7754647
40
0.043631
50
322.360725
51
3.4887902
0
ARC
8
DEFAULT_255_2_778
10
6.5605056
20
104.7735746
40
0.0790566
50
317.5541644
51
3.1507689
0
ARC
8
DEFAULT_255_2_778
10
6.5656687
20
104.7758223
40
0.0769357
50
266.6274163
51
313.7210327
0
LINE
8
DEFAULT_255_2_778
10
6.4394427
20
104.6374198
11
6.3828427
21
104.6374198
0
LINE
8
DEFAULT_255_2_778
10
6.3828427
20
104.6374198
11
6.3394427
21
104.6990198
0
LINE
8
DEFAULT_255_2_778
10
6.2391427
20
104.7781198
11
6.2391427
21
104.8919198
0
LINE
8
DEFAULT_255_2_778
10
6.4344427
20
104.8919198
11
6.4344427
21
104.7781198
0
LINE
8
DEFAULT_255_2_778
10
6.3886427
20
104.7091198
11
6.4394427
21
104.6376198
0
LINE
8
DEFAULT_255_2_778
10
6.4394427
20
104.6376198
11
6.4394427
21
104.6374198
0
LINE
8
DEFAULT_255_2_778
10
6.3817427
20
104.7779198
11
6.3817427
21
104.8916198
0
LINE
8
DEFAULT_255_2_778
10
6.2918427
20
104.8916198
11
6.2918427
21
104.7779198
0
LINE
8
DEFAULT_255_2_778
10
6.3367427
20
104.7387198
11
6.3367427
21
104.7387198
0
LINE
8
DEFAULT_255_2_778
10
6.4833427
20
104.7779198
11
6.4833427
21
104.9670198
0
LINE
8
DEFAULT_255_2_778
10
6.4833427
20
104.9670198
11
6.5264427
21
104.9670198
0
LINE
8
DEFAULT_255_2_778
10
6.5264427
20
104.9670198
11
6.5264427
21
104.7781198
0
LINE
8
DEFAULT_255_2_778
10
6.5963427
20
104.7781198
11
6.5963427
21
104.9670198
0
LINE
8
DEFAULT_255_2_778
10
6.5963427
20
104.9670198
11
6.6394427
21
104.9670198
0
LINE
8
DEFAULT_255_2_778
10
6.6394427
20
104.9670198
11
6.6394427
21
104.7779198
0
LINE
8
DEFAULT_255_2_778
10
6.5611427
20
104.6990198
11
6.5614427
21
104.6990198
0
ARC
8
DEFAULT_255_2_778
10
12.1641553
20
106.0021635
40
5.5033955
50
191.4837585
51
191.8239227
0
ARC
8
DEFAULT_255_2_778
10
8.3589245
20
105.1983972
40
1.6145995
50
189.6626565
51
190.4158531
0
ARC
8
DEFAULT_255_2_778
10
6.1197449
20
105.0312409
40
0.6557616
50
349.0334606
51
350.8880298
0
ARC
8
DEFAULT_255_2_778
10
6.0674183
20
105.0348866
40
0.7078549
50
346.9283592
51
349.5494987
0
ARC
8
DEFAULT_255_2_778
10
7.2958769
20
104.8040243
40
0.1856762
50
15.5793022
51
22.5708948
0
ARC
8
DEFAULT_255_2_778
10
7.3328007
20
104.8088058
40
0.1489195
50
11.1061152
51
17.6230497
0
ARC
8
DEFAULT_255_2_778
10
8.063214
20
104.6930593
40
0.6018696
50
164.5010167
51
166.1150622
0
ARC
8
DEFAULT_255_2_778
10
7.6620856
20
104.8040243
40
0.1856762
50
157.4291052
51
164.4206978
0
LINE
8
DEFAULT_255_2_778
10
6.7201313
20
104.7024917
11
6.6762313
21
104.7024917
0
LINE
8
DEFAULT_255_2_778
10
6.6762313
20
104.7024917
11
6.7392313
21
104.9670917
0
LINE
8
DEFAULT_255_2_778
10
6.7392313
20
104.9670917
11
6.7942313
21
104.9670917
0
LINE
8
DEFAULT_255_2_778
10
6.7942313
20
104.9670917
11
6.8577313
21
104.7024917
0
LINE
8
DEFAULT_255_2_778
10
6.8577313
20
104.7024917
11
6.8138313
21
104.7024917
0
LINE
8
DEFAULT_255_2_778
10
6.8138313
20
104.7024917
11
6.8000313
21
104.7664917
0
LINE
8
DEFAULT_255_2_778
10
6.8000313
20
104.7664917
11
6.7336313
21
104.7664917
0
LINE
8
DEFAULT_255_2_778
10
6.7336313
20
104.7664917
11
6.7199313
21
104.7024917
0
LINE
8
DEFAULT_255_2_778
10
6.7199313
20
104.7024917
11
6.7201313
21
104.7024917
0
LINE
8
DEFAULT_255_2_778
10
6.7569313
20
104.8749917
11
6.7418313
21
104.8035917
0
LINE
8
DEFAULT_255_2_778
10
6.7418313
20
104.8035917
11
6.7926313
21
104.8035917
0
LINE
8
DEFAULT_255_2_778
10
6.7926313
20
104.8035917
11
6.7775313
21
104.8744917
0
LINE
8
DEFAULT_255_2_778
10
6.7569313
20
104.8747917
11
6.7569313
21
104.8749917
0
LINE
8
DEFAULT_255_2_778
10
7.0231313
20
104.7024917
11
6.8741313
21
104.7024917
0
LINE
8
DEFAULT_255_2_778
10
6.8741313
20
104.7024917
11
6.8741313
21
104.9670917
0
LINE
8
DEFAULT_255_2_778
10
6.8741313
20
104.9670917
11
6.9170313
21
104.9670917
0
LINE
8
DEFAULT_255_2_778
10
6.9170313
20
104.9670917
11
6.9170313
21
104.7434917
0
LINE
8
DEFAULT_255_2_778
10
6.9170313
20
104.7434917
11
7.0231313
21
104.7434917
0
LINE
8
DEFAULT_255_2_778
10
7.0231313
20
104.7434917
11
7.0231313
21
104.7024917
0
LINE
8
DEFAULT_255_2_778
10
7.0231313
20
104.7024917
11
7.0231313
21
104.7024917
0
LINE
8
DEFAULT_255_2_778
10
7.1760313
20
104.7024917
11
7.0321313
21
104.7024917
0
LINE
8
DEFAULT_255_2_778
10
7.0321313
20
104.7024917
11
7.0321313
21
104.7434917
0
LINE
8
DEFAULT_255_2_778
10
7.0321313
20
104.7434917
11
7.0823313
21
104.7434917
0
LINE
8
DEFAULT_255_2_778
10
7.0823313
20
104.7434917
11
7.0823313
21
104.9260917
0
LINE
8
DEFAULT_255_2_778
10
7.0823313
20
104.9260917
11
7.0321313
21
104.9260917
0
LINE
8
DEFAULT_255_2_778
10
7.0321313
20
104.9260917
11
7.0321313
21
104.9670917
0
LINE
8
DEFAULT_255_2_778
10
7.0321313
20
104.9670917
11
7.1760313
21
104.9670917
0
LINE
8
DEFAULT_255_2_778
10
7.1760313
20
104.9670917
11
7.1760313
21
104.9260917
0
LINE
8
DEFAULT_255_2_778
10
7.1760313
20
104.9260917
11
7.1257313
21
104.9260917
0
LINE
8
DEFAULT_255_2_778
10
7.1257313
20
104.9260917
11
7.1257313
21
104.7434917
0
LINE
8
DEFAULT_255_2_778
10
7.1257313
20
104.7434917
11
7.1760313
21
104.7434917
0
LINE
8
DEFAULT_255_2_778
10
7.1760313
20
104.7434917
11
7.1760313
21
104.7024917
0
LINE
8
DEFAULT_255_2_778
10
7.1760313
20
104.7024917
11
7.1760313
21
104.7024917
0
LINE
8
DEFAULT_255_2_778
10
7.2940313
20
104.7024917
11
7.2509313
21
104.7024917
0
LINE
8
DEFAULT_255_2_778
10
7.2509313
20
104.7024917
11
7.2509313
21
104.9260917
0
LINE
8
DEFAULT_255_2_778
10
7.2509313
20
104.9260917
11
7.1855313
21
104.9260917
0
LINE
8
DEFAULT_255_2_778
10
7.1855313
20
104.9260917
11
7.1855313
21
104.9670917
0
LINE
8
DEFAULT_255_2_778
10
7.1855313
20
104.9670917
11
7.3596313
21
104.9670917
0
LINE
8
DEFAULT_255_2_778
10
7.3596313
20
104.9670917
11
7.3596313
21
104.9260917
0
LINE
8
DEFAULT_255_2_778
10
7.3596313
20
104.9260917
11
7.2943313
21
104.9260917
0
LINE
8
DEFAULT_255_2_778
10
7.2943313
20
104.9260917
11
7.2943313
21
104.7024917
0
LINE
8
DEFAULT_255_2_778
10
7.2943313
20
104.7024917
11
7.2940313
21
104.7024917
0
LINE
8
DEFAULT_255_2_778
10
7.4996313
20
104.7024917
11
7.4565313
21
104.7024917
0
LINE
8
DEFAULT_255_2_778
10
7.4565313
20
104.7024917
11
7.4565313
21
104.7985917
0
LINE
8
DEFAULT_255_2_778
10
7.4565313
20
104.7985917
11
7.3832313
21
104.9670917
0
LINE
8
DEFAULT_255_2_778
10
7.3832313
20
104.9670917
11
7.4281313
21
104.9670917
0
LINE
8
DEFAULT_255_2_778
10
7.4281313
20
104.9670917
11
7.4673313
21
104.8752917
0
LINE
8
DEFAULT_255_2_778
10
7.4906313
20
104.8752917
11
7.5287313
21
104.9670917
0
LINE
8
DEFAULT_255_2_778
10
7.5287313
20
104.9670917
11
7.5731313
21
104.9670917
0
LINE
8
DEFAULT_255_2_778
10
7.5731313
20
104.9670917
11
7.4998313
21
104.7985917
0
LINE
8
DEFAULT_255_2_778
10
7.4998313
20
104.7985917
11
7.4998313
21
104.7024917
0
LINE
8
DEFAULT_255_2_778
10
7.4998313
20
104.7024917
11
7.4996313
21
104.7024917
0
LINE
8
DEFAULT_255_1_388
10
4.8132318
20
100.0383382
11
4.8132318
21
99.9019
0
LINE
8
DEFAULT_255_1_388
10
4.8132318
20
99.9019
11
3.9512313
21
99.9019
0
LINE
8
DEFAULT_255_1_388
10
3.9512313
20
99.9019
11
3.9512313
21
100.0220741
0
LINE
8
DEFAULT_255_1_388
10
3.9512313
20
100.0220741
11
4.4066278
21
100.5280702
0
LINE
8
DEFAULT_255_1_388
10
4.0930909
20
100.8298607
11
3.9259315
21
100.8298607
0
LINE
8
DEFAULT_255_1_388
10
4.5051163
20
100.420546
11
4.1527262
21
100.0383382
0
LINE
8
DEFAULT_255_1_388
10
4.1527262
20
100.0383382
11
4.8132318
21
100.0383382
0
ARC
8
DEFAULT_255_1_388
10
2.8890337
20
101.8700983
40
2.0258655
50
318.5132526
51
320.7829045
0
ARC
8
DEFAULT_255_1_388
10
3.4838294
20
101.3859929
40
1.2589638
50
320.7372878
51
323.9739031
0
ARC
8
DEFAULT_255_1_388
10
3.9247226
20
101.0665554
40
0.7145141
50
323.8962701
51
328.64194
0
ARC
8
DEFAULT_255_1_388
10
4.1549484
20
100.9245545
40
0.4440242
50
328.8294576
51
331.7891185
0
ARC
8
DEFAULT_255_1_388
10
4.2671804
20
100.8666374
40
0.3177517
50
331.4254512
51
352.9365785
0
ARC
8
DEFAULT_255_1_388
10
4.2824804
20
100.863205
40
0.3021496
50
353.2257659
51
0.0166158
0
ARC
8
DEFAULT_255_1_388
10
4.3061564
20
100.8657894
40
0.2784847
50
359.486299
51
15.9343185
0
ARC
8
DEFAULT_255_1_388
10
4.3631831
20
100.8811269
40
0.2194403
50
16.1712913
51
43.5286088
0
ARC
8
DEFAULT_255_1_388
10
4.3718776
20
100.8898191
40
0.2071504
50
43.4417391
51
83.1661095
0
ARC
8
DEFAULT_255_1_388
10
4.3567937
20
100.8069316
40
0.2912888
50
82.160179
51
90.1505708
0
ARC
8
DEFAULT_255_1_388
10
4.3532418
20
100.7465279
40
0.3517025
50
89.5460741
51
102.5418361
0
ARC
8
DEFAULT_255_1_388
10
4.3259138
20
100.8624933
40
0.2325748
50
102.1738499
51
129.206123
0
ARC
8
DEFAULT_255_1_388
10
4.3170592
20
100.8764664
40
0.2161591
50
129.72865
51
135.753947
0
ARC
8
DEFAULT_255_1_388
10
4.3307074
20
100.8655728
40
0.2335433
50
136.1757367
51
166.3673339
0
ARC
8
DEFAULT_255_1_388
10
4.4439762
20
100.8352148
40
0.3507873
50
165.9090694
51
178.8684636
0
ARC
8
DEFAULT_255_1_388
10
4.5415534
20
100.8299263
40
0.4484624
50
178.4391136
51
180.0083808
0
ARC
8
DEFAULT_255_1_388
10
4.3836235
20
100.8343197
40
0.4577138
50
163.2878482
51
180.5581842
0
ARC
8
DEFAULT_255_1_388
10
4.2934276
20
100.8591393
40
0.3641968
50
133.4540601
51
162.947111
0
ARC
8
DEFAULT_255_1_388
10
4.3135158
20
100.8377789
40
0.3935189
50
100.7869829
51
133.4382499
0
ARC
8
DEFAULT_255_1_388
10
4.3526403
20
100.6635399
40
0.5720313
50
89.660664
51
101.3702276
0
ARC
8
DEFAULT_255_1_388
10
4.3601012
20
100.6704263
40
0.5651495
50
78.2172678
51
90.412935
0
ARC
8
DEFAULT_255_1_388
10
4.4000478
20
100.8531511
40
0.378122
50
55.9269121
51
78.4888449
0
ARC
8
DEFAULT_255_1_388
10
4.4221193
20
100.8912187
40
0.3342379
50
47.929771
51
55.4049217
0
ARC
8
DEFAULT_255_1_388
10
4.4335723
20
100.9028618
40
0.3179217
50
4.334829
51
48.0560205
0
ARC
8
DEFAULT_255_1_388
10
4.3103525
20
100.8837487
40
0.442341
50
359.9251713
51
5.5971671
0
ARC
8
DEFAULT_255_1_388
10
4.358568
20
100.8900728
40
0.3941854
50
337.8914027
51
358.9967534
0
ARC
8
DEFAULT_255_1_388
10
4.053325
20
101.0078295
40
0.7213271
50
326.9132501
51
338.3508308
0
ARC
8
DEFAULT_255_1_388
10
3.6049362
20
101.2952105
40
1.2538973
50
319.6471833
51
327.0959558
0
ARC
8
DEFAULT_255_1_388
10
3.173602
20
101.651005
40
1.8129975
50
317.2588228
51
319.9045804
0
LINE
8
DEFAULT_255_1_388
10
5.6960143
20
101.2174898
11
5.6960143
21
100.343743
0
LINE
8
DEFAULT_255_1_388
10
5.6960143
20
100.343743
11
5.8785343
21
100.343743
0
LINE
8
DEFAULT_255_1_388
10
5.8785343
20
100.343743
11
5.8785343
21
100.2073048
0
LINE
8
DEFAULT_255_1_388
10
5.8785343
20
100.2073048
11
5.6960143
21
100.2073048
0
LINE
8
DEFAULT_255_1_388
10
5.6960143
20
100.2073048
11
5.6960143
21
99.9019
0
LINE
8
DEFAULT_255_1_388
10
5.6960143
20
99.9019
11
5.5279513
21
99.9019
0
LINE
8
DEFAULT_255_1_388
10
5.5279513
20
99.9019
11
5.5279513
21
100.2073048
0
LINE
8
DEFAULT_255_1_388
10
5.5279513
20
100.2073048
11
4.928888
21
100.2073048
0
LINE
8
DEFAULT_255_1_388
10
4.928888
20
100.2073048
11
4.928888
21
100.3057933
0
LINE
8
DEFAULT_255_1_388
10
4.928888
20
100.3057933
11
5.5180121
21
101.2174898
0
LINE
8
DEFAULT_255_1_388
10
5.5180121
20
101.2174898
11
5.6960143
21
101.2174898
0
LINE
8
DEFAULT_255_1_388
10
5.5080729
20
100.9527455
11
5.1186366
21
100.343743
0
LINE
8
DEFAULT_255_1_388
10
5.1186366
20
100.343743
11
5.5279513
21
100.343743
0
LINE
8
DEFAULT_255_1_388
10
5.5279513
20
100.343743
11
5.5279513
21
100.988888
0
LINE
8
DEFAULT_255_1_388
10
5.5279513
20
100.988888
11
5.5080729
21
100.9527455
0
LINE
8
DEFAULT_255_1_388
10
6.134243
20
101.2174898
11
6.5083187
21
100.1323089
0
LINE
8
DEFAULT_255_1_388
10
6.5083187
20
100.1323089
11
6.8842015
21
101.2174898
0
LINE
8
DEFAULT_255_1_388
10
6.8842015
20
101.2174898
11
7.07395
21
101.2174898
0
LINE
8
DEFAULT_255_1_388
10
7.07395
20
101.2174898
11
6.5860252
21
99.9019
0
LINE
8
DEFAULT_255_1_388
10
6.5860252
20
99.9019
11
6.4324193
21
99.9019
0
LINE
8
DEFAULT_255_1_388
10
6.4324193
20
99.9019
11
5.945398
21
101.2174898
0
LINE
8
DEFAULT_255_1_388
10
5.945398
20
101.2174898
11
6.134243
21
101.2174898
0
LINE
8
DEFAULT_255_1_388
10
7.7028309
20
100.9915987
11
7.7028309
21
100.6075838
0
LINE
8
DEFAULT_255_1_388
10
7.7028309
20
100.6075838
11
8.0696781
21
100.6075838
0
LINE
8
DEFAULT_255_1_388
10
8.0696781
20
100.6075838
11
8.0696781
21
100.4494601
0
LINE
8
DEFAULT_255_1_388
10
8.0696781
20
100.4494601
11
7.7028309
21
100.4494601
0
LINE
8
DEFAULT_255_1_388
10
7.7028309
20
100.4494601
11
7.7028309
21
100.0338204
0
LINE
8
DEFAULT_255_1_388
10
7.7028309
20
100.0338204
11
7.5347679
21
100.0338204
0
LINE
8
DEFAULT_255_1_388
10
7.5347679
20
100.0338204
11
7.5347679
21
100.4494601
0
LINE
8
DEFAULT_255_1_388
10
7.5347679
20
100.4494601
11
7.1679208
21
100.4494601
0
LINE
8
DEFAULT_255_1_388
10
7.1679208
20
100.4494601
11
7.1679208
21
100.6075838
0
LINE
8
DEFAULT_255_1_388
10
7.1679208
20
100.6075838
11
7.5347679
21
100.6075838
0
LINE
8
DEFAULT_255_1_388
10
7.5347679
20
100.6075838
11
7.5347679
21
100.9915987
0
LINE
8
DEFAULT_255_1_388
10
7.5347679
20
100.9915987
11
7.7028309
21
100.9915987
0
LINE
8
DEFAULT_255_1_388
10
4.1861367
20
5.9674898
11
4.1861367
21
4.6519
0
LINE
8
DEFAULT_255_1_388
10
4.1861367
20
4.6519
11
4.0126523
21
4.6519
0
LINE
8
DEFAULT_255_1_388
10
4.0126523
20
4.6519
11
4.0126523
21
5.9674898
0
LINE
8
DEFAULT_255_1_388
10
4.0126523
20
5.9674898
11
4.1861367
21
5.9674898
0
LINE
8
DEFAULT_255_1_388
10
4.7317646
20
13.3122516
11
4.7317646
21
13.1703919
0
LINE
8
DEFAULT_255_1_388
10
4.7317646
20
13.1703919
11
4.1796868
21
13.1703919
0
LINE
8
DEFAULT_255_1_388
10
4.1796868
20
13.1703919
11
4.1796868
21
12.5894
0
LINE
8
DEFAULT_255_1_388
10
4.1796868
20
12.5894
11
4.0062024
21
12.5894
0
LINE
8
DEFAULT_255_1_388
10
4.0062024
20
12.5894
11
4.0062024
21
13.9049898
0
LINE
8
DEFAULT_255_1_388
10
4.0062024
20
13.9049898
11
4.8212175
21
13.9049898
0
LINE
8
DEFAULT_255_1_388
10
4.8212175
20
13.9049898
11
4.8212175
21
13.7622267
0
LINE
8
DEFAULT_255_1_388
10
4.8212175
20
13.7622267
11
4.1796868
21
13.7622267
0
LINE
8
DEFAULT_255_1_388
10
4.1796868
20
13.7622267
11
4.1796868
21
13.3122516
0
LINE
8
DEFAULT_255_1_388
10
4.1796868
20
13.3122516
11
4.7317646
21
13.3122516
0
LINE
8
DEFAULT_255_1_388
10
4.5302024
20
20.5269
11
4.0739024
21
20.5269
0
LINE
8
DEFAULT_255_1_388
10
4.0739024
20
20.5269
11
4.0739024
21
21.8424898
0
LINE
8
DEFAULT_255_1_388
10
4.0739024
20
21.8424898
11
4.5039991
21
21.8424898
0
LINE
8
DEFAULT_255_1_388
10
4.5365274
20
21.1422274
11
4.2473868
21
21.1422274
0
LINE
8
DEFAULT_255_1_388
10
4.2473868
20
21.1422274
11
4.2473868
21
20.6687596
0
LINE
8
DEFAULT_255_1_388
10
4.2473868
20
20.6687596
11
4.5338167
21
20.6687596
0
LINE
8
DEFAULT_255_1_388
10
4.2473868
20
21.6997267
11
4.2473868
21
21.2813763
0
LINE
8
DEFAULT_255_1_388
10
4.2473868
20
21.2813763
11
4.5094205
21
21.2813763
0
LINE
8
DEFAULT_255_1_388
10
4.5039991
20
21.6997267
11
4.2473868
21
21.6997267
0
ARC
8
DEFAULT_255_1_388
10
4.5082411
20
21.0136824
40
0.8288183
50
82.1256322
51
90.2932506
0
ARC
8
DEFAULT_255_1_388
10
4.5519986
20
21.319459
40
0.5199321
50
69.9044202
51
82.2857574
0
ARC
8
DEFAULT_255_1_388
10
4.6161979
20
21.4929993
40
0.3348993
50
51.1840204
51
70.018125
0
ARC
8
DEFAULT_255_1_388
10
4.6448811
20
21.5346945
40
0.2844579
50
12.1018086
51
50.421322
0
ARC
8
DEFAULT_255_1_388
10
4.4891682
20
21.4955937
40
0.4449429
50
359.5252354
51
12.8212369
0
ARC
8
DEFAULT_255_1_388
10
4.6669112
20
21.4877943
40
0.2672162
50
323.4907456
51
0.8818258
0
ARC
8
DEFAULT_255_1_388
10
4.6198525
20
21.5241523
40
0.3266736
50
298.6824053
51
323.2758285
0
ARC
8
DEFAULT_255_1_388
10
4.5791816
20
21.5917509
40
0.4055105
50
293.1994739
51
299.139634
0
ARC
8
DEFAULT_255_1_388
10
4.6548766
20
20.9071651
40
0.3229926
50
54.0009997
51
74.9168635
0
ARC
8
DEFAULT_255_1_388
10
4.6679693
20
20.9293511
40
0.2973581
50
36.3578854
51
53.5293172
0
ARC
8
DEFAULT_255_1_388
10
4.6537061
20
20.919185
40
0.3148715
50
4.8189348
51
36.3090187
0
ARC
8
DEFAULT_255_1_388
10
4.5660085
20
20.9068383
40
0.4033265
50
359.9373213
51
5.5201284
0
ARC
8
DEFAULT_255_1_388
10
4.5295415
20
20.9022733
40
0.4398126
50
344.7479357
51
0.5372278
0
ARC
8
DEFAULT_255_1_388
10
4.6410314
20
20.8722205
40
0.3243441
50
311.1785587
51
344.6887681
0
ARC
8
DEFAULT_255_1_388
10
4.6081857
20
20.9131084
40
0.3767511
50
286.0417804
51
310.8440924
0
ARC
8
DEFAULT_255_1_388
10
4.5511266
20
21.0983885
40
0.5705957
50
274.1044074
51
286.4070149
0
ARC
8
DEFAULT_255_1_388
10
4.5312482
20
21.3101901
40
0.7832907
50
269.9235077
51
274.4458593
0
ARC
8
DEFAULT_255_1_388
10
4.53642
20
21.0470462
40
0.3782955
50
269.6057074
51
281.3740795
0
ARC
8
DEFAULT_255_1_388
10
4.5623698
20
20.9240569
40
0.2526069
50
281.105298
51
302.5134029
0
ARC
8
DEFAULT_255_1_388
10
4.5789086
20
20.8943944
40
0.2187131
50
303.0365425
51
311.8818034
0
ARC
8
DEFAULT_255_1_388
10
4.5869263
20
20.8848602
40
0.2062624
50
311.9916937
51
351.7143773
0
ARC
8
DEFAULT_255_1_388
10
4.4950288
20
20.9034271
40
0.2999202
50
350.7343295
51
0.2221526
0
ARC
8
DEFAULT_255_1_388
10
4.4829376
20
20.909787
40
0.3120525
50
359.045729
51
17.2295312
0
ARC
8
DEFAULT_255_1_388
10
4.5998406
20
20.9445155
40
0.1901144
50
17.6685208
51
78.9940245
0
ARC
8
DEFAULT_255_1_388
10
4.5416767
20
20.7357011
40
0.4065575
50
76.565218
51
90.7103392
0
LINE
8
DEFAULT_255_1_388
10
4.5366364
20
21.1422274
11
4.5365274
21
21.1422274
0
ARC
8
DEFAULT_255_1_388
10
4.5119593
20
21.6509949
40
0.3696273
50
269.6064514
51
281.4533785
0
ARC
8
DEFAULT_255_1_388
10
4.5370234
20
21.5327283
40
0.2487412
50
281.2044438
51
302.5143998
0
ARC
8
DEFAULT_255_1_388
10
4.5524488
20
21.5049576
40
0.2170405
50
303.0211308
51
309.8378766
0
ARC
8
DEFAULT_255_1_388
10
4.5730605
20
21.4818486
40
0.1860946
50
309.5229446
51
356.9509628
0
ARC
8
DEFAULT_255_1_388
10
4.4984731
20
21.4925831
40
0.2612347
50
355.4699226
51
0.0498632
0
ARC
8
DEFAULT_255_1_388
10
4.4670404
20
21.4950789
40
0.2926762
50
359.5558955
51
11.2092924
0
ARC
8
DEFAULT_255_1_388
10
4.5747372
20
21.5173667
40
0.1827036
50
10.9185717
51
31.322519
0
ARC
8
DEFAULT_255_1_388
10
4.606892
20
21.5352571
40
0.1459418
50
31.8850633
51
52.1415586
0
ARC
8
DEFAULT_255_1_388
10
4.5760349
20
21.4916674
40
0.1993088
50
52.8283418
51
71.9850132
0
ARC
8
DEFAULT_255_1_388
10
4.533751
20
21.3672158
40
0.3307407
50
71.686634
51
82.8453416
0
ARC
8
DEFAULT_255_1_388
10
4.5068157
20
21.1636892
40
0.536039
50
82.6981895
51
90.1730083
0
ARC
8
DEFAULT_255_1_388
10
4.5042989
20
21.2515836
40
0.4481429
50
89.8851568
51
90.0383283
0
LINE
8
DEFAULT_255_1_388
10
4.8471322
20
28.4644
11
4.5616058
21
28.9965995
0
LINE
8
DEFAULT_255_1_388
10
4.5616058
20
28.9965995
11
4.2525868
21
28.9965995
0
LINE
8
DEFAULT_255_1_388
10
4.2525868
20
28.9965995
11
4.2525868
21
28.4644
0
LINE
8
DEFAULT_255_1_388
10
4.2525868
20
28.4644
11
4.0781988
21
28.4644
0
LINE
8
DEFAULT_255_1_388
10
4.0781988
20
28.4644
11
4.0781988
21
29.7799898
0
LINE
8
DEFAULT_255_1_388
10
4.0781988
20
29.7799898
11
4.5137169
21
29.7799898
0
LINE
8
DEFAULT_255_1_388
10
4.7242474
20
29.0336456
11
5.0332665
21
28.4752428
0
LINE
8
DEFAULT_255_1_388
10
5.0332665
20
28.4752428
11
5.0332665
21
28.4644
0
LINE
8
DEFAULT_255_1_388
10
5.0332665
20
28.4644
11
4.8471322
21
28.4644
0
LINE
8
DEFAULT_255_1_388
10
4.2525868
20
29.6372267
11
4.2525868
21
29.1384591
0
LINE
8
DEFAULT_255_1_388
10
4.2525868
20
29.1384591
11
4.5191383
21
29.1384591
0
LINE
8
DEFAULT_255_1_388
10
4.5182347
20
29.6372267
11
4.2525868
21
29.6372267
0
ARC
8
DEFAULT_255_1_388
10
4.5184015
20
28.9968346
40
0.7831693
50
80.6535681
51
90.3427203
0
ARC
8
DEFAULT_255_1_388
10
4.5655925
20
29.2738722
40
0.5021479
50
65.6987674
51
80.8330164
0
ARC
8
DEFAULT_255_1_388
10
4.6193219
20
29.3970479
40
0.3677787
50
50.0019152
51
65.4304412
0
ARC
8
DEFAULT_255_1_388
10
4.6439035
20
29.4302603
40
0.3265454
50
11.6284215
51
49.5603681
0
ARC
8
DEFAULT_255_1_388
10
4.4711521
20
29.3880524
40
0.5043009
50
359.5655533
51
12.3693319
0
ARC
8
DEFAULT_255_1_388
10
4.5922858
20
29.3810038
40
0.3831661
50
341.998418
51
0.4822212
0
ARC
8
DEFAULT_255_1_388
10
4.6367044
20
29.3689479
40
0.3372036
50
323.8610842
51
341.6141514
0
ARC
8
DEFAULT_255_1_388
10
4.602759
20
29.3951615
40
0.3800784
50
296.7019299
51
323.6876213
0
ARC
8
DEFAULT_255_1_388
10
4.5531548
20
29.4838532
40
0.4816219
50
290.808313
51
297.2325929
0
ARC
8
DEFAULT_255_1_388
10
4.5220342
20
29.5427377
40
0.404289
50
269.5895908
51
281.8058892
0
ARC
8
DEFAULT_255_1_388
10
4.5502608
20
29.413636
40
0.2721459
50
281.5499321
51
303.9358954
0
ARC
8
DEFAULT_255_1_388
10
4.5657143
20
29.3868588
40
0.2413121
50
304.4410786
51
311.211123
0
ARC
8
DEFAULT_255_1_388
10
4.5805548
20
29.3712152
40
0.2197678
50
310.9874923
51
356.2715203
0
ARC
8
DEFAULT_255_1_388
10
4.4955294
20
29.3838992
40
0.3055212
50
354.9346315
51
0.0617816
0
ARC
8
DEFAULT_255_1_388
10
4.4744135
20
29.3869427
40
0.3266482
50
359.5239293
51
12.8808621
0
ARC
8
DEFAULT_255_1_388
10
4.5843898
20
29.4138638
40
0.2134449
50
12.417206
51
43.1023141
0
ARC
8
DEFAULT_255_1_388
10
4.5913228
20
29.4180253
40
0.2055463
50
43.575886
51
48.2047245
0
ARC
8
DEFAULT_255_1_388
10
4.5722489
20
29.3931151
40
0.2368418
50
48.7809155
51
72.6968768
0
ARC
8
DEFAULT_255_1_388
10
4.5323853
20
29.2721385
40
0.364206
50
72.3699892
51
84.8793749
0
ARC
8
DEFAULT_255_1_388
10
4.5157859
20
29.1211651
40
0.5160674
50
84.5398226
51
89.7281165
0
LINE
8
DEFAULT_255_1_388
10
4.4470024
20
36.4019
11
3.9907024
21
36.4019
0
LINE
8
DEFAULT_255_1_388
10
3.9907024
20
36.4019
11
3.9907024
21
37.7174898
0
LINE
8
DEFAULT_255_1_388
10
3.9907024
20
37.7174898
11
4.4207991
21
37.7174898
0
LINE
8
DEFAULT_255_1_388
10
4.4533274
20
37.0172274
11
4.1641868
21
37.0172274
0
LINE
8
DEFAULT_255_1_388
10
4.1641868
20
37.0172274
11
4.1641868
21
36.5437596
0
LINE
8
DEFAULT_255_1_388
10
4.1641868
20
36.5437596
11
4.4506167
21
36.5437596
0
LINE
8
DEFAULT_255_1_388
10
4.1641868
20
37.5747267
11
4.1641868
21
37.1563763
0
LINE
8
DEFAULT_255_1_388
10
4.1641868
20
37.1563763
11
4.4262205
21
37.1563763
0
LINE
8
DEFAULT_255_1_388
10
4.4207991
20
37.5747267
11
4.1641868
21
37.5747267
0
ARC
8
DEFAULT_255_1_388
10
4.4250411
20
36.8886824
40
0.8288183
50
82.1256322
51
90.2932506
0
ARC
8
DEFAULT_255_1_388
10
4.4687986
20
37.194459
40
0.5199321
50
69.9044202
51
82.2857574
0
ARC
8
DEFAULT_255_1_388
10
4.5329979
20
37.3679993
40
0.3348993
50
51.1840204
51
70.018125
0
ARC
8
DEFAULT_255_1_388
10
4.5616811
20
37.4096945
40
0.2844579
50
12.1018086
51
50.421322
0
ARC
8
DEFAULT_255_1_388
10
4.4059682
20
37.3705937
40
0.4449429
50
359.5252354
51
12.8212369
0
ARC
8
DEFAULT_255_1_388
10
4.5837112
20
37.3627943
40
0.2672162
50
323.4907456
51
0.8818258
0
ARC
8
DEFAULT_255_1_388
10
4.5366525
20
37.3991523
40
0.3266736
50
298.6824053
51
323.2758285
0
ARC
8
DEFAULT_255_1_388
10
4.4959816
20
37.4667509
40
0.4055105
50
293.1994739
51
299.139634
0
ARC
8
DEFAULT_255_1_388
10
4.5716766
20
36.7821651
40
0.3229926
50
54.0009997
51
74.9168635
0
ARC
8
DEFAULT_255_1_388
10
4.5847693
20
36.8043511
40
0.2973581
50
36.3578854
51
53.5293172
0
ARC
8
DEFAULT_255_1_388
10
4.5705061
20
36.794185
40
0.3148715
50
4.8189348
51
36.3090187
0
ARC
8
DEFAULT_255_1_388
10
4.4828085
20
36.7818383
40
0.4033265
50
359.9373213
51
5.5201284
0
ARC
8
DEFAULT_255_1_388
10
4.4463415
20
36.7772733
40
0.4398126
50
344.7479357
51
0.5372278
0
ARC
8
DEFAULT_255_1_388
10
4.5578314
20
36.7472205
40
0.3243441
50
311.1785587
51
344.6887681
0
ARC
8
DEFAULT_255_1_388
10
4.5249857
20
36.7881084
40
0.3767511
50
286.0417804
51
310.8440924
0
ARC
8
DEFAULT_255_1_388
10
4.4679266
20
36.9733885
40
0.5705957
50
274.1044074
51
286.4070149
0
ARC
8
DEFAULT_255_1_388
10
4.4480482
20
37.1851901
40
0.7832907
50
269.9235077
51
274.4458593
0
ARC
8
DEFAULT_255_1_388
10
4.45322
20
36.9220462
40
0.3782955
50
269.6057074
51
281.3740795
0
ARC
8
DEFAULT_255_1_388
10
4.4791698
20
36.7990569
40
0.2526069
50
281.105298
51
302.5134029
0
ARC
8
DEFAULT_255_1_388
10
4.4957086
20
36.7693944
40
0.2187131
50
303.0365425
51
311.8818034
0
ARC
8
DEFAULT_255_1_388
10
4.5037263
20
36.7598602
40
0.2062624
50
311.9916937
51
351.7143773
0
ARC
8
DEFAULT_255_1_388
10
4.4118288
20
36.7784271
40
0.2999202
50
350.7343295
51
0.2221526
0
ARC
8
DEFAULT_255_1_388
10
4.3997376
20
36.784787
40
0.3120525
50
359.045729
51
17.2295312
0
ARC
8
DEFAULT_255_1_388
10
4.5166406
20
36.8195155
40
0.1901144
50
17.6685208
51
78.9940245
0
ARC
8
DEFAULT_255_1_388
10
4.4584767
20
36.6107011
40
0.4065575
50
76.565218
51
90.7103392
0
LINE
8
DEFAULT_255_1_388
10
4.4534364
20
37.0172274
11
4.4533274
21
37.0172274
0
ARC
8
DEFAULT_255_1_388
10
4.4287593
20
37.5259949
40
0.3696273
50
269.6064514
51
281.4533785
0
ARC
8
DEFAULT_255_1_388
10
4.4538234
20
37.4077283
40
0.2487412
50
281.2044438
51
302.5143998
0
ARC
8
DEFAULT_255_1_388
10
4.4692488
20
37.3799576
40
0.2170405
50
303.0211308
51
309.8378766
0
ARC
8
DEFAULT_255_1_388
10
4.4898605
20
37.3568486
40
0.1860946
50
309.5229446
51
356.9509628
0
ARC
8
DEFAULT_255_1_388
10
4.4152731
20
37.3675831
40
0.2612347
50
355.4699226
51
0.0498632
0
ARC
8
DEFAULT_255_1_388
10
4.3838404
20
37.3700789
40
0.2926762
50
359.5558955
51
11.2092924
0
ARC
8
DEFAULT_255_1_388
10
4.4915372
20
37.3923667
40
0.1827036
50
10.9185717
51
31.322519
0
ARC
8
DEFAULT_255_1_388
10
4.523692
20
37.4102571
40
0.1459418
50
31.8850633
51
52.1415586
0
ARC
8
DEFAULT_255_1_388
10
4.4928349
20
37.3666674
40
0.1993088
50
52.8283418
51
71.9850132
0
ARC
8
DEFAULT_255_1_388
10
4.450551
20
37.2422158
40
0.3307407
50
71.686634
51
82.8453416
0
ARC
8
DEFAULT_255_1_388
10
4.4236157
20
37.0386892
40
0.536039
50
82.6981895
51
90.1730083
0
ARC
8
DEFAULT_255_1_388
10
4.4210989
20
37.1265836
40
0.4481429
50
89.8851568
51
90.0383283
0
LINE
8
DEFAULT_255_1_388
10
5.6487432
20
37.7238148
11
5.6487432
21
36.4019
0
LINE
8
DEFAULT_255_1_388
10
5.6487432
20
36.4019
11
5.4806802
21
36.4019
0
LINE
8
DEFAULT_255_1_388
10
5.4806802
20
36.4019
11
5.4806802
21
37.515995
0
LINE
8
DEFAULT_255_1_388
10
5.4806802
20
37.515995
11
5.1436506
21
37.3922066
0
LINE
8
DEFAULT_255_1_388
10
5.1436506
20
37.3922066
11
5.1436506
21
37.5440055
0
LINE
8
DEFAULT_255_1_388
10
5.1436506
20
37.5440055
11
5.6225398
21
37.7238148
0
LINE
8
DEFAULT_255_1_388
10
5.6225398
20
37.7238148
11
5.6487432
21
37.7238148
0
LINE
8
DEFAULT_255_1_388
10
4.9822637
20
44.3394
11
4.8566682
21
44.6827545
0
LINE
8
DEFAULT_255_1_388
10
4.8566682
20
44.6827545
11
4.3054939
21
44.6827545
0
LINE
8
DEFAULT_255_1_388
10
4.3054939
20
44.6827545
11
4.1817056
21
44.3394
0
LINE
8
DEFAULT_255_1_388
10
4.1817056
20
44.3394
11
4.0027998
21
44.3394
0
LINE
8
DEFAULT_255_1_388
10
4.0027998
20
44.3394
11
4.5051816
21
45.6549898
0
LINE
8
DEFAULT_255_1_388
10
4.5051816
20
45.6549898
11
4.6569805
21
45.6549898
0
LINE
8
DEFAULT_255_1_388
10
4.6569805
20
45.6549898
11
5.1602659
21
44.3394
0
LINE
8
DEFAULT_255_1_388
10
5.1602659
20
44.3394
11
4.9822637
21
44.3394
0
LINE
8
DEFAULT_255_1_388
10
4.5810811
20
45.4408451
11
4.3579006
21
44.8255177
0
LINE
8
DEFAULT_255_1_388
10
4.3579006
20
44.8255177
11
4.805165
21
44.8255177
0
LINE
8
DEFAULT_255_1_388
10
4.805165
20
44.8255177
11
4.5810811
21
45.4408451
0
LINE
8
DEFAULT_255_1_388
10
6.1559939
20
44.4758382
11
6.1559939
21
44.3394
0
LINE
8
DEFAULT_255_1_388
10
6.1559939
20
44.3394
11
5.2939934
21
44.3394
0
LINE
8
DEFAULT_255_1_388
10
5.2939934
20
44.3394
11
5.2939934
21
44.4595741
0
LINE
8
DEFAULT_255_1_388
10
5.2939934
20
44.4595741
11
5.7493899
21
44.9655702
0
LINE
8
DEFAULT_255_1_388
10
5.435853
20
45.2673607
11
5.2686936
21
45.2673607
0
LINE
8
DEFAULT_255_1_388
10
5.8478784
20
44.858046
11
5.4954883
21
44.4758382
0
LINE
8
DEFAULT_255_1_388
10
5.4954883
20
44.4758382
11
6.1559939
21
44.4758382
0
ARC
8
DEFAULT_255_1_388
10
4.2317958
20
46.3075983
40
2.0258655
50
318.5132526
51
320.7829045
0
ARC
8
DEFAULT_255_1_388
10
4.8265915
20
45.8234929
40
1.2589638
50
320.7372878
51
323.9739031
0
ARC
8
DEFAULT_255_1_388
10
5.2674847
20
45.5040554
40
0.7145141
50
323.8962701
51
328.64194
0
ARC
8
DEFAULT_255_1_388
10
5.4977105
20
45.3620545
40
0.4440242
50
328.8294576
51
331.7891185
0
ARC
8
DEFAULT_255_1_388
10
5.6099425
20
45.3041374
40
0.3177517
50
331.4254512
51
352.9365785
0
ARC
8
DEFAULT_255_1_388
10
5.6252425
20
45.300705
40
0.3021496
50
353.2257659
51
0.0166158
0
ARC
8
DEFAULT_255_1_388
10
5.6489185
20
45.3032894
40
0.2784847
50
359.486299
51
15.9343185
0
ARC
8
DEFAULT_255_1_388
10
5.7059452
20
45.3186269
40
0.2194403
50
16.1712913
51
43.5286088
0
ARC
8
DEFAULT_255_1_388
10
5.7146397
20
45.3273191
40
0.2071504
50
43.4417391
51
83.1661095
0
ARC
8
DEFAULT_255_1_388
10
5.6995558
20
45.2444316
40
0.2912888
50
82.160179
51
90.1505708
0
ARC
8
DEFAULT_255_1_388
10
5.6960039
20
45.1840279
40
0.3517025
50
89.5460741
51
102.5418361
0
ARC
8
DEFAULT_255_1_388
10
5.6686759
20
45.2999933
40
0.2325748
50
102.1738499
51
129.206123
0
ARC
8
DEFAULT_255_1_388
10
5.6598213
20
45.3139664
40
0.2161591
50
129.72865
51
135.753947
0
ARC
8
DEFAULT_255_1_388
10
5.6734695
20
45.3030728
40
0.2335433
50
136.1757367
51
166.3673339
0
ARC
8
DEFAULT_255_1_388
10
5.7867383
20
45.2727148
40
0.3507873
50
165.9090694
51
178.8684636
0
ARC
8
DEFAULT_255_1_388
10
5.8843155
20
45.2674263
40
0.4484624
50
178.4391136
51
180.0083808
0
ARC
8
DEFAULT_255_1_388
10
5.7263856
20
45.2718197
40
0.4577138
50
163.2878482
51
180.5581842
0
ARC
8
DEFAULT_255_1_388
10
5.6361898
20
45.2966393
40
0.3641968
50
133.4540601
51
162.947111
0
ARC
8
DEFAULT_255_1_388
10
5.6562779
20
45.2752789
40
0.3935189
50
100.7869829
51
133.4382499
0
ARC
8
DEFAULT_255_1_388
10
5.6954024
20
45.1010399
40
0.5720313
50
89.660664
51
101.3702276
0
ARC
8
DEFAULT_255_1_388
10
5.7028633
20
45.1079263
40
0.5651495
50
78.2172678
51
90.412935
0
ARC
8
DEFAULT_255_1_388
10
5.7428099
20
45.2906511
40
0.378122
50
55.9269121
51
78.4888449
0
ARC
8
DEFAULT_255_1_388
10
5.7648814
20
45.3287187
40
0.3342379
50
47.929771
51
55.4049217
0
ARC
8
DEFAULT_255_1_388
10
5.7763344
20
45.3403618
40
0.3179217
50
4.334829
51
48.0560205
0
ARC
8
DEFAULT_255_1_388
10
5.6531146
20
45.3212487
40
0.442341
50
359.9251713
51
5.5971671
0
ARC
8
DEFAULT_255_1_388
10
5.7013301
20
45.3275728
40
0.3941854
50
337.8914027
51
358.9967534
0
ARC
8
DEFAULT_255_1_388
10
5.3960871
20
45.4453295
40
0.7213271
50
326.9132501
51
338.3508308
0
ARC
8
DEFAULT_255_1_388
10
4.9476983
20
45.7327105
40
1.2538973
50
319.6471833
51
327.0959558
0
ARC
8
DEFAULT_255_1_388
10
4.5163641
20
46.088505
40
1.8129975
50
317.2588228
51
319.9045804
0
LINE
8
DEFAULT_255_1_388
10
4.9734637
20
52.2769
11
4.8478682
21
52.6202545
0
LINE
8
DEFAULT_255_1_388
10
4.8478682
20
52.6202545
11
4.2966939
21
52.6202545
0
LINE
8
DEFAULT_255_1_388
10
4.2966939
20
52.6202545
11
4.1729056
21
52.2769
0
LINE
8
DEFAULT_255_1_388
10
4.1729056
20
52.2769
11
3.9939998
21
52.2769
0
LINE
8
DEFAULT_255_1_388
10
3.9939998
20
52.2769
11
4.4963816
21
53.5924898
0
LINE
8
DEFAULT_255_1_388
10
4.4963816
20
53.5924898
11
4.6481805
21
53.5924898
0
LINE
8
DEFAULT_255_1_388
10
4.6481805
20
53.5924898
11
5.1514659
21
52.2769
0
LINE
8
DEFAULT_255_1_388
10
5.1514659
20
52.2769
11
4.9734637
21
52.2769
0
LINE
8
DEFAULT_255_1_388
10
4.5722811
20
53.3783451
11
4.3491006
21
52.7630177
0
LINE
8
DEFAULT_255_1_388
10
4.3491006
20
52.7630177
11
4.796365
21
52.7630177
0
LINE
8
DEFAULT_255_1_388
10
4.796365
20
52.7630177
11
4.5722811
21
53.3783451
0
LINE
8
DEFAULT_255_1_388
10
5.8345606
20
53.5988148
11
5.8345606
21
52.2769
0
LINE
8
DEFAULT_255_1_388
10
5.8345606
20
52.2769
11
5.6664976
21
52.2769
0
LINE
8
DEFAULT_255_1_388
10
5.6664976
20
52.2769
11
5.6664976
21
53.390995
0
LINE
8
DEFAULT_255_1_388
10
5.6664976
20
53.390995
11
5.3294681
21
53.2672066
0
LINE
8
DEFAULT_255_1_388
10
5.3294681
20
53.2672066
11
5.3294681
21
53.4190055
0
LINE
8
DEFAULT_255_1_388
10
5.3294681
20
53.4190055
11
5.8083572
21
53.5988148
0
LINE
8
DEFAULT_255_1_388
10
5.8083572
20
53.5988148
11
5.8345606
21
53.5988148
0
LINE
8
DEFAULT_255_1_388
10
4.828268
20
61.5299898
11
5.002656
21
61.5299898
0
LINE
8
DEFAULT_255_1_388
10
5.002656
20
61.5299898
11
5.002656
21
60.635461
0
LINE
8
DEFAULT_255_1_388
10
4.5707521
20
60.1981358
11
4.5246704
21
60.1963287
0
LINE
8
DEFAULT_255_1_388
10
4.050299
20
60.6336539
11
4.050299
21
61.5299898
0
LINE
8
DEFAULT_255_1_388
10
4.050299
20
61.5299898
11
4.2219763
21
61.5299898
0
LINE
8
DEFAULT_255_1_388
10
4.2219763
20
61.5299898
11
4.2219763
21
60.6390753
0
LINE
8
DEFAULT_255_1_388
10
4.828268
20
60.6381717
11
4.828268
21
61.5299898
0
ARC
8
DEFAULT_255_1_388
10
4.5129358
20
60.633227
40
0.4897252
50
343.0897723
51
0.2613727
0
ARC
8
DEFAULT_255_1_388
10
4.6061329
20
60.607227
40
0.3930016
50
315.3344451
51
342.7642569
0
ARC
8
DEFAULT_255_1_388
10
4.5809825
20
60.6333085
40
0.4292244
50
284.6605441
51
315.2183439
0
ARC
8
DEFAULT_255_1_388
10
4.5297605
20
60.8072508
40
0.6104926
50
273.8500371
51
285.1796441
0
ARC
8
DEFAULT_255_1_388
10
4.5198669
20
60.8456762
40
0.6493653
50
257.6315393
51
270.4238259
0
ARC
8
DEFAULT_255_1_388
10
4.4720753
20
60.6407915
40
0.4390079
50
230.6086859
51
257.9965362
0
ARC
8
DEFAULT_255_1_388
10
4.4574811
20
60.6178643
40
0.4120404
50
227.745033
51
230.1538266
0
ARC
8
DEFAULT_255_1_388
10
4.442134
20
60.5994253
40
0.3880742
50
189.2524335
51
227.5915299
0
ARC
8
DEFAULT_255_1_388
10
4.6133211
20
60.6362735
40
0.5630282
50
180.2665782
51
190.1525221
0
ARC
8
DEFAULT_255_1_388
10
4.6382939
20
60.6359254
40
0.4163296
50
179.566507
51
191.9954402
0
ARC
8
DEFAULT_255_1_388
10
4.5001628
20
60.6051151
40
0.274815
50
191.6974619
51
215.1403758
0
ARC
8
DEFAULT_255_1_388
10
4.473402
20
60.5891689
40
0.2437647
50
215.6958251
51
224.8509274
0
ARC
8
DEFAULT_255_1_388
10
4.4796496
20
60.5981016
40
0.2545012
50
225.2846515
51
255.0110023
0
ARC
8
DEFAULT_255_1_388
10
4.5160943
20
60.7234017
40
0.384974
50
254.5945979
51
267.9129427
0
ARC
8
DEFAULT_255_1_388
10
4.5244636
20
60.8451444
40
0.506956
50
267.4687563
51
270.0233681
0
ARC
8
DEFAULT_255_1_388
10
4.5278631
20
60.7791288
40
0.440952
50
269.5851384
51
281.1845308
0
ARC
8
DEFAULT_255_1_388
10
4.5592235
20
60.6269469
40
0.2855802
50
280.9345159
51
300.9740496
0
ARC
8
DEFAULT_255_1_388
10
4.5831415
20
60.5829128
40
0.2355257
50
301.4982546
51
315.1468616
0
ARC
8
DEFAULT_255_1_388
10
4.5668912
20
60.5962488
40
0.2564594
50
315.5952932
51
345.6679188
0
ARC
8
DEFAULT_255_1_388
10
4.4409469
20
60.6313235
40
0.3871766
50
345.2525685
51
358.6303941
0
ARC
8
DEFAULT_255_1_388
10
4.3265859
20
60.6380695
40
0.5016822
50
358.1723541
51
0.0116795
0
LINE
8
DEFAULT_255_1_388
10
6.1492792
20
61.1495892
11
5.9748913
21
61.1495892
0
LINE
8
DEFAULT_255_1_388
10
5.1960188
20
60.5957042
11
5.3704067
21
60.5957042
0
ARC
8
DEFAULT_255_1_388
10
6.048964
20
62.1559821
40
1.4087688
50
248.9196578
51
254.1442424
0
ARC
8
DEFAULT_255_1_388
10
5.859952
20
61.6693805
40
0.8867498
50
241.6337352
51
249.0064643
0
ARC
8
DEFAULT_255_1_388
10
5.6879833
20
61.3542764
40
0.5277799
50
230.4982261
51
241.8087583
0
ARC
8
DEFAULT_255_1_388
10
5.5997605
20
61.2418686
40
0.3849419
50
227.4062979
51
229.9877433
0
ARC
8
DEFAULT_255_1_388
10
5.5448951
20
61.1883155
40
0.3084129
50
200.6782127
51
228.1765252
0
ARC
8
DEFAULT_255_1_388
10
5.553032
20
61.1866277
40
0.315461
50
179.506278
51
199.8695278
0
ARC
8
DEFAULT_255_1_388
10
5.5519909
20
61.1949671
40
0.3144584
50
132.4834401
51
181.0242352
0
ARC
8
DEFAULT_255_1_388
10
5.6189113
20
61.1317788
40
0.4063094
50
129.2526113
51
133.4249077
0
ARC
8
DEFAULT_255_1_388
10
5.6354706
20
61.1069619
40
0.436014
50
101.9878945
51
128.8741833
0
ARC
8
DEFAULT_255_1_388
10
5.6803121
20
60.913336
40
0.6347415
50
89.5906376
51
102.3170567
0
ARC
8
DEFAULT_255_1_388
10
5.6882432
20
60.9491586
40
0.5989122
50
77.2359491
51
90.3248968
0
ARC
8
DEFAULT_255_1_388
10
5.7115363
20
61.0579554
40
0.4876594
50
63.8379856
51
77.0808925
0
ARC
8
DEFAULT_255_1_388
10
5.7427897
20
61.1161882
40
0.4216191
50
45.9863127
51
64.1608798
0
ARC
8
DEFAULT_255_1_388
10
5.7721291
20
61.149699
40
0.3771394
50
32.2747934
51
45.6544796
0
ARC
8
DEFAULT_255_1_388
10
5.7796097
20
61.1518426
40
0.3696765
50
359.6507495
51
32.6129943
0
ARC
8
DEFAULT_255_1_388
10
5.673528
20
61.1523788
40
0.3013762
50
359.469654
51
14.983205
0
ARC
8
DEFAULT_255_1_388
10
5.7528532
20
61.1736288
40
0.2192542
50
14.9781954
51
48.2004799
0
ARC
8
DEFAULT_255_1_388
10
5.7343643
20
61.1503937
40
0.2489048
50
48.5926661
51
74.1242559
0
ARC
8
DEFAULT_255_1_388
10
5.6968445
20
61.0265607
40
0.3782845
50
73.7889321
51
86.6653996
0
ARC
8
DEFAULT_255_1_388
10
5.685326
20
60.8907955
40
0.5145025
50
86.2642725
51
90.0533288
0
ARC
8
DEFAULT_255_1_388
10
5.6821353
20
60.9352376
40
0.4700681
50
89.669455
51
99.2313411
0
ARC
8
DEFAULT_255_1_388
10
5.6548512
20
61.0977401
40
0.3052945
50
99.0695987
51
113.7659242
0
ARC
8
DEFAULT_255_1_388
10
5.6240507
20
61.1703772
40
0.226407
50
114.0402885
51
127.9848946
0
ARC
8
DEFAULT_255_1_388
10
5.5969983
20
61.2036884
40
0.1835045
50
127.7287217
51
176.7106493
0
ARC
8
DEFAULT_255_1_388
10
5.6733648
20
61.192321
40
0.2604907
50
175.1780759
51
180.0581213
0
ARC
8
DEFAULT_255_1_388
10
5.5784992
20
61.1909411
40
0.1656287
50
179.6140658
51
228.124674
0
ARC
8
DEFAULT_255_1_388
10
5.6282349
20
61.236994
40
0.2332038
50
226.5785315
51
230.8792476
0
ARC
8
DEFAULT_255_1_388
10
5.6811836
20
61.3072908
40
0.3211664
50
231.4636401
51
241.9261664
0
ARC
8
DEFAULT_255_1_388
10
5.8158619
20
61.5551349
40
0.6032345
50
241.7177136
51
248.3259138
0
ARC
8
DEFAULT_255_1_388
10
5.9717214
20
61.9412771
40
1.0196417
50
248.2007377
51
252.4527713
0
ARC
8
DEFAULT_255_1_388
10
6.107074
20
62.3597092
40
1.4594143
50
252.3388938
51
254.347037
0
ARC
8
DEFAULT_255_1_388
10
5.2586041
20
59.3249095
40
1.6917621
50
71.0197462
51
74.4085467
0
ARC
8
DEFAULT_255_1_388
10
5.4493129
20
59.8754144
40
1.1091618
50
66.1845203
51
71.086519
0
ARC
8
DEFAULT_255_1_388
10
5.6243678
20
60.2695439
40
0.6779073
50
59.3537334
51
66.269255
0
ARC
8
DEFAULT_255_1_388
10
5.7243404
20
60.4386777
40
0.4814366
50
49.1021732
51
59.3294421
0
ARC
8
DEFAULT_255_1_388
10
5.8164392
20
60.5436575
40
0.3417875
50
32.7924183
51
49.2503526
0
ARC
8
DEFAULT_255_1_388
10
5.8514006
20
60.5686311
40
0.2988789
50
31.121225
51
32.3977355
0
ARC
8
DEFAULT_255_1_388
10
5.8426184
20
60.5653728
40
0.3080861
50
8.1116803
51
30.7958224
0
ARC
8
DEFAULT_255_1_388
10
5.751453
20
60.5498437
40
0.4005385
50
359.8390945
51
8.4707348
0
ARC
8
DEFAULT_255_1_388
10
5.8218578
20
60.5443751
40
0.3301608
50
337.4732479
51
0.7538283
0
ARC
8
DEFAULT_255_1_388
10
5.8419603
20
60.5421554
40
0.3107929
50
307.5917028
51
336.4313755
0
ARC
8
DEFAULT_255_1_388
10
5.790866
20
60.5989509
40
0.3870096
50
307.6560665
51
308.4561779
0
ARC
8
DEFAULT_255_1_388
10
5.7642877
20
60.6397832
40
0.435591
50
284.3733666
51
307.1426212
0
ARC
8
DEFAULT_255_1_388
10
5.7085771
20
60.8447391
40
0.6479685
50
272.4384566
51
284.6464689
0
ARC
8
DEFAULT_255_1_388
10
5.6943156
20
61.0471434
40
0.8508149
50
269.9708517
51
272.8180721
0
ARC
8
DEFAULT_255_1_388
10
5.6894839
20
60.8179283
40
0.6216151
50
248.2707343
51
270.4054609
0
ARC
8
DEFAULT_255_1_388
10
5.683371
20
60.7964673
40
0.5994203
50
246.1380358
51
248.054058
0
ARC
8
DEFAULT_255_1_388
10
5.6362853
20
60.6975705
40
0.4899388
50
233.1671897
51
246.4951656
0
ARC
8
DEFAULT_255_1_388
10
5.5739488
20
60.6134137
40
0.3852115
50
215.3403381
51
233.084328
0
ARC
8
DEFAULT_255_1_388
10
5.5432852
20
60.5911093
40
0.3472969
50
179.2419235
51
215.2648426
0
ARC
8
DEFAULT_255_1_388
10
5.6296403
20
60.5926979
40
0.259251
50
179.3355796
51
199.1045873
0
ARC
8
DEFAULT_255_1_388
10
5.5922545
20
60.5829223
40
0.2207454
50
199.8830064
51
232.7061328
0
ARC
8
DEFAULT_255_1_388
10
5.6453819
20
60.6497456
40
0.306101
50
232.3736206
51
255.5136621
0
ARC
8
DEFAULT_255_1_388
10
5.6837325
20
60.7897177
40
0.4512213
50
255.2447928
51
267.5318292
0
ARC
8
DEFAULT_255_1_388
10
5.6935792
20
60.9283709
40
0.5901825
50
267.1564563
51
270.0294721
0
ARC
8
DEFAULT_255_1_388
10
5.6967117
20
60.8784623
40
0.5402814
50
269.6999944
51
278.1662446
0
ARC
8
DEFAULT_255_1_388
10
5.7255145
20
60.6837974
40
0.3435003
50
278.0229022
51
290.6255326
0
ARC
8
DEFAULT_255_1_388
10
5.7646311
20
60.5794547
40
0.2320666
50
290.6616368
51
307.0374127
0
ARC
8
DEFAULT_255_1_388
10
5.7984211
20
60.538004
40
0.1786372
50
306.3942078
51
355.303191
0
ARC
8
DEFAULT_255_1_388
10
5.7408504
20
60.5466186
40
0.2367516
50
354.3662092
51
0.0709489
0
ARC
8
DEFAULT_255_1_388
10
5.7568373
20
60.5491561
40
0.2207761
50
359.4175379
51
16.1975911
0
ARC
8
DEFAULT_255_1_388
10
5.8080491
20
60.5631954
40
0.1676828
50
16.4721294
51
52.6261798
0
ARC
8
DEFAULT_255_1_388
10
5.7156998
20
60.4412606
40
0.3206412
50
52.7381828
51
62.4979144
0
ARC
8
DEFAULT_255_1_388
10
5.5598751
20
60.1480236
40
0.6527035
50
62.2517425
51
68.1219454
0
ARC
8
DEFAULT_255_1_388
10
5.3664239
20
59.6725951
40
1.1659797
50
68.006043
51
71.8055127
0
ARC
8
DEFAULT_255_1_388
10
5.1644147
20
59.0667723
40
1.8045908
50
71.718361
51
73.9260743
0
LINE
8
DEFAULT_255_1_388
10
6.8305668
20
60.2144
11
6.3742668
21
60.2144
0
LINE
8
DEFAULT_255_1_388
10
6.3742668
20
60.2144
11
6.3742668
21
61.5299898
0
LINE
8
DEFAULT_255_1_388
10
6.3742668
20
61.5299898
11
6.8043635
21
61.5299898
0
LINE
8
DEFAULT_255_1_388
10
6.8368918
20
60.8297274
11
6.5477512
21
60.8297274
0
LINE
8
DEFAULT_255_1_388
10
6.5477512
20
60.8297274
11
6.5477512
21
60.3562596
0
LINE
8
DEFAULT_255_1_388
10
6.5477512
20
60.3562596
11
6.8341811
21
60.3562596
0
LINE
8
DEFAULT_255_1_388
10
6.5477512
20
61.3872267
11
6.5477512
21
60.9688763
0
LINE
8
DEFAULT_255_1_388
10
6.5477512
20
60.9688763
11
6.8097849
21
60.9688763
0
LINE
8
DEFAULT_255_1_388
10
6.8043635
20
61.3872267
11
6.5477512
21
61.3872267
0
ARC
8
DEFAULT_255_1_388
10
6.8086055
20
60.7011824
40
0.8288183
50
82.1256322
51
90.2932506
0
ARC
8
DEFAULT_255_1_388
10
6.852363
20
61.006959
40
0.5199321
50
69.9044202
51
82.2857574
0
ARC
8
DEFAULT_255_1_388
10
6.9165623
20
61.1804993
40
0.3348993
50
51.1840204
51
70.018125
0
ARC
8
DEFAULT_255_1_388
10
6.9452455
20
61.2221945
40
0.2844579
50
12.1018086
51
50.421322
0
ARC
8
DEFAULT_255_1_388
10
6.7895326
20
61.1830937
40
0.4449429
50
359.5252354
51
12.8212369
0
ARC
8
DEFAULT_255_1_388
10
6.9672756
20
61.1752943
40
0.2672162
50
323.4907456
51
0.8818258
0
ARC
8
DEFAULT_255_1_388
10
6.9202169
20
61.2116523
40
0.3266736
50
298.6824053
51
323.2758285
0
ARC
8
DEFAULT_255_1_388
10
6.8795461
20
61.2792509
40
0.4055105
50
293.1994739
51
299.139634
0
ARC
8
DEFAULT_255_1_388
10
6.955241
20
60.5946651
40
0.3229926
50
54.0009997
51
74.9168635
0
ARC
8
DEFAULT_255_1_388
10
6.9683337
20
60.6168511
40
0.2973581
50
36.3578854
51
53.5293172
0
ARC
8
DEFAULT_255_1_388
10
6.9540705
20
60.606685
40
0.3148715
50
4.8189348
51
36.3090187
0
ARC
8
DEFAULT_255_1_388
10
6.8663729
20
60.5943383
40
0.4033265
50
359.9373213
51
5.5201284
0
ARC
8
DEFAULT_255_1_388
10
6.8299059
20
60.5897733
40
0.4398126
50
344.7479357
51
0.5372278
0
ARC
8
DEFAULT_255_1_388
10
6.9413958
20
60.5597205
40
0.3243441
50
311.1785587
51
344.6887681
0
ARC
8
DEFAULT_255_1_388
10
6.9085501
20
60.6006084
40
0.3767511
50
286.0417804
51
310.8440924
0
ARC
8
DEFAULT_255_1_388
10
6.851491
20
60.7858885
40
0.5705957
50
274.1044074
51
286.4070149
0
ARC
8
DEFAULT_255_1_388
10
6.8316126
20
60.9976901
40
0.7832907
50
269.9235077
51
274.4458593
0
ARC
8
DEFAULT_255_1_388
10
6.8367844
20
60.7345462
40
0.3782955
50
269.6057074
51
281.3740795
0
ARC
8
DEFAULT_255_1_388
10
6.8627342
20
60.6115569
40
0.2526069
50
281.105298
51
302.5134029
0
ARC
8
DEFAULT_255_1_388
10
6.879273
20
60.5818944
40
0.2187131
50
303.0365425
51
311.8818034
0
ARC
8
DEFAULT_255_1_388
10
6.8872907
20
60.5723602
40
0.2062624
50
311.9916937
51
351.7143773
0
ARC
8
DEFAULT_255_1_388
10
6.7953932
20
60.5909271
40
0.2999202
50
350.7343295
51
0.2221526
0
ARC
8
DEFAULT_255_1_388
10
6.783302
20
60.597287
40
0.3120525
50
359.045729
51
17.2295312
0
ARC
8
DEFAULT_255_1_388
10
6.900205
20
60.6320155
40
0.1901144
50
17.6685208
51
78.9940245
0
ARC
8
DEFAULT_255_1_388
10
6.8420411
20
60.4232011
40
0.4065575
50
76.565218
51
90.7103392
0
LINE
8
DEFAULT_255_1_388
10
6.8370008
20
60.8297274
11
6.8368918
21
60.8297274
0
ARC
8
DEFAULT_255_1_388
10
6.8123237
20
61.3384949
40
0.3696273
50
269.6064514
51
281.4533785
0
ARC
8
DEFAULT_255_1_388
10
6.8373878
20
61.2202283
40
0.2487412
50
281.2044438
51
302.5143998
0
ARC
8
DEFAULT_255_1_388
10
6.8528132
20
61.1924576
40
0.2170405
50
303.0211308
51
309.8378766
0
ARC
8
DEFAULT_255_1_388
10
6.8734249
20
61.1693486
40
0.1860946
50
309.5229446
51
356.9509628
0
ARC
8
DEFAULT_255_1_388
10
6.7988375
20
61.1800831
40
0.2612347
50
355.4699226
51
0.0498632
0
ARC
8
DEFAULT_255_1_388
10
6.7674049
20
61.1825789
40
0.2926762
50
359.5558955
51
11.2092924
0
ARC
8
DEFAULT_255_1_388
10
6.8751016
20
61.2048667
40
0.1827036
50
10.9185717
51
31.322519
0
ARC
8
DEFAULT_255_1_388
10
6.9072564
20
61.2227571
40
0.1459418
50
31.8850633
51
52.1415586
0
ARC
8
DEFAULT_255_1_388
10
6.8763993
20
61.1791674
40
0.1993088
50
52.8283418
51
71.9850132
0
ARC
8
DEFAULT_255_1_388
10
6.8341154
20
61.0547158
40
0.3307407
50
71.686634
51
82.8453416
0
ARC
8
DEFAULT_255_1_388
10
6.8071801
20
60.8511892
40
0.536039
50
82.6981895
51
90.1730083
0
ARC
8
DEFAULT_255_1_388
10
6.8046633
20
60.9390836
40
0.4481429
50
89.8851568
51
90.0383283
0
LINE
8
DEFAULT_255_1_388
10
4.8672457
20
69.0870892
11
4.6928577
21
69.0870892
0
LINE
8
DEFAULT_255_1_388
10
3.9139852
20
68.5332042
11
4.0883731
21
68.5332042
0
ARC
8
DEFAULT_255_1_388
10
4.7669304
20
70.0934821
40
1.4087688
50
248.9196578
51
254.1442424
0
ARC
8
DEFAULT_255_1_388
10
4.5779184
20
69.6068805
40
0.8867498
50
241.6337352
51
249.0064643
0
ARC
8
DEFAULT_255_1_388
10
4.4059498
20
69.2917764
40
0.5277799
50
230.4982261
51
241.8087583
0
ARC
8
DEFAULT_255_1_388
10
4.3177269
20
69.1793686
40
0.3849419
50
227.4062979
51
229.9877433
0
ARC
8
DEFAULT_255_1_388
10
4.2628615
20
69.1258155
40
0.3084129
50
200.6782127
51
228.1765252
0
ARC
8
DEFAULT_255_1_388
10
4.2709984
20
69.1241277
40
0.315461
50
179.506278
51
199.8695278
0
ARC
8
DEFAULT_255_1_388
10
4.2699573
20
69.1324671
40
0.3144584
50
132.4834401
51
181.0242352
0
ARC
8
DEFAULT_255_1_388
10
4.3368777
20
69.0692788
40
0.4063094
50
129.2526113
51
133.4249077
0
ARC
8
DEFAULT_255_1_388
10
4.353437
20
69.0444619
40
0.436014
50
101.9878945
51
128.8741833
0
ARC
8
DEFAULT_255_1_388
10
4.3982785
20
68.850836
40
0.6347415
50
89.5906376
51
102.3170567
0
ARC
8
DEFAULT_255_1_388
10
4.4062097
20
68.8866586
40
0.5989122
50
77.2359491
51
90.3248968
0
ARC
8
DEFAULT_255_1_388
10
4.4295028
20
68.9954554
40
0.4876594
50
63.8379856
51
77.0808925
0
ARC
8
DEFAULT_255_1_388
10
4.4607561
20
69.0536882
40
0.4216191
50
45.9863127
51
64.1608798
0
ARC
8
DEFAULT_255_1_388
10
4.4900955
20
69.087199
40
0.3771394
50
32.2747934
51
45.6544796
0
ARC
8
DEFAULT_255_1_388
10
4.4975761
20
69.0893426
40
0.3696765
50
359.6507495
51
32.6129943
0
ARC
8
DEFAULT_255_1_388
10
4.3914944
20
69.0898788
40
0.3013762
50
359.469654
51
14.983205
0
ARC
8
DEFAULT_255_1_388
10
4.4708196
20
69.1111288
40
0.2192542
50
14.9781954
51
48.2004799
0
ARC
8
DEFAULT_255_1_388
10
4.4523307
20
69.0878937
40
0.2489048
50
48.5926661
51
74.1242559
0
ARC
8
DEFAULT_255_1_388
10
4.4148109
20
68.9640607
40
0.3782845
50
73.7889321
51
86.6653996
0
ARC
8
DEFAULT_255_1_388
10
4.4032924
20
68.8282955
40
0.5145025
50
86.2642725
51
90.0533288
0
ARC
8
DEFAULT_255_1_388
10
4.4001017
20
68.8727376
40
0.4700681
50
89.669455
51
99.2313411
0
ARC
8
DEFAULT_255_1_388
10
4.3728176
20
69.0352401
40
0.3052945
50
99.0695987
51
113.7659242
0
ARC
8
DEFAULT_255_1_388
10
4.3420171
20
69.1078772
40
0.226407
50
114.0402885
51
127.9848946
0
ARC
8
DEFAULT_255_1_388
10
4.3149647
20
69.1411884
40
0.1835045
50
127.7287217
51
176.7106493
0
ARC
8
DEFAULT_255_1_388
10
4.3913312
20
69.129821
40
0.2604907
50
175.1780759
51
180.0581213
0
ARC
8
DEFAULT_255_1_388
10
4.2964656
20
69.1284411
40
0.1656287
50
179.6140658
51
228.124674
0
ARC
8
DEFAULT_255_1_388
10
4.3462013
20
69.174494
40
0.2332038
50
226.5785315
51
230.8792476
0
ARC
8
DEFAULT_255_1_388
10
4.39915
20
69.2447908
40
0.3211664
50
231.4636401
51
241.9261664
0
ARC
8
DEFAULT_255_1_388
10
4.5338283
20
69.4926349
40
0.6032345
50
241.7177136
51
248.3259138
0
ARC
8
DEFAULT_255_1_388
10
4.6896878
20
69.8787771
40
1.0196417
50
248.2007377
51
252.4527713
0
ARC
8
DEFAULT_255_1_388
10
4.8250405
20
70.2972092
40
1.4594143
50
252.3388938
51
254.347037
0
ARC
8
DEFAULT_255_1_388
10
3.9765705
20
67.2624095
40
1.6917621
50
71.0197462
51
74.4085467
0
ARC
8
DEFAULT_255_1_388
10
4.1672793
20
67.8129144
40
1.1091618
50
66.1845203
51
71.086519
0
ARC
8
DEFAULT_255_1_388
10
4.3423342
20
68.2070439
40
0.6779073
50
59.3537334
51
66.269255
0
ARC
8
DEFAULT_255_1_388
10
4.4423068
20
68.3761777
40
0.4814366
50
49.1021732
51
59.3294421
0
ARC
8
DEFAULT_255_1_388
10
4.5344056
20
68.4811575
40
0.3417875
50
32.7924183
51
49.2503526
0
ARC
8
DEFAULT_255_1_388
10
4.569367
20
68.5061311
40
0.2988789
50
31.121225
51
32.3977355
0
ARC
8
DEFAULT_255_1_388
10
4.5605848
20
68.5028728
40
0.3080861
50
8.1116803
51
30.7958224
0
ARC
8
DEFAULT_255_1_388
10
4.4694194
20
68.4873437
40
0.4005385
50
359.8390945
51
8.4707348
0
ARC
8
DEFAULT_255_1_388
10
4.5398242
20
68.4818751
40
0.3301608
50
337.4732479
51
0.7538283
0
ARC
8
DEFAULT_255_1_388
10
4.5599267
20
68.4796554
40
0.3107929
50
307.5917028
51
336.4313755
0
ARC
8
DEFAULT_255_1_388
10
4.5088324
20
68.5364509
40
0.3870096
50
307.6560665
51
308.4561779
0
ARC
8
DEFAULT_255_1_388
10
4.4822541
20
68.5772832
40
0.435591
50
284.3733666
51
307.1426212
0
ARC
8
DEFAULT_255_1_388
10
4.4265435
20
68.7822391
40
0.6479685
50
272.4384566
51
284.6464689
0
ARC
8
DEFAULT_255_1_388
10
4.412282
20
68.9846434
40
0.8508149
50
269.9708517
51
272.8180721
0
ARC
8
DEFAULT_255_1_388
10
4.4074503
20
68.7554283
40
0.6216151
50
248.2707343
51
270.4054609
0
ARC
8
DEFAULT_255_1_388
10
4.4013374
20
68.7339673
40
0.5994203
50
246.1380358
51
248.054058
0
ARC
8
DEFAULT_255_1_388
10
4.3542517
20
68.6350705
40
0.4899388
50
233.1671897
51
246.4951656
0
ARC
8
DEFAULT_255_1_388
10
4.2919152
20
68.5509137
40
0.3852115
50
215.3403381
51
233.084328
0
ARC
8
DEFAULT_255_1_388
10
4.2612516
20
68.5286093
40
0.3472969
50
179.2419235
51
215.2648426
0
ARC
8
DEFAULT_255_1_388
10
4.3476067
20
68.5301979
40
0.259251
50
179.3355796
51
199.1045873
0
ARC
8
DEFAULT_255_1_388
10
4.3102209
20
68.5204223
40
0.2207454
50
199.8830064
51
232.7061328
0
ARC
8
DEFAULT_255_1_388
10
4.3633483
20
68.5872456
40
0.306101
50
232.3736206
51
255.5136621
0
ARC
8
DEFAULT_255_1_388
10
4.4016989
20
68.7272177
40
0.4512213
50
255.2447928
51
267.5318292
0
ARC
8
DEFAULT_255_1_388
10
4.4115456
20
68.8658709
40
0.5901825
50
267.1564563
51
270.0294721
0
ARC
8
DEFAULT_255_1_388
10
4.4146781
20
68.8159623
40
0.5402814
50
269.6999944
51
278.1662446
0
ARC
8
DEFAULT_255_1_388
10
4.4434809
20
68.6212974
40
0.3435003
50
278.0229022
51
290.6255326
0
ARC
8
DEFAULT_255_1_388
10
4.4825975
20
68.5169547
40
0.2320666
50
290.6616368
51
307.0374127
0
ARC
8
DEFAULT_255_1_388
10
4.5163875
20
68.475504
40
0.1786372
50
306.3942078
51
355.303191
0
ARC
8
DEFAULT_255_1_388
10
4.4588168
20
68.4841186
40
0.2367516
50
354.3662092
51
0.0709489
0
ARC
8
DEFAULT_255_1_388
10
4.4748037
20
68.4866561
40
0.2207761
50
359.4175379
51
16.1975911
0
ARC
8
DEFAULT_255_1_388
10
4.5260155
20
68.5006954
40
0.1676828
50
16.4721294
51
52.6261798
0
ARC
8
DEFAULT_255_1_388
10
4.4336662
20
68.3787606
40
0.3206412
50
52.7381828
51
62.4979144
0
ARC
8
DEFAULT_255_1_388
10
4.2778415
20
68.0855236
40
0.6527035
50
62.2517425
51
68.1219454
0
ARC
8
DEFAULT_255_1_388
10
4.0843903
20
67.6100951
40
1.1659797
50
68.006043
51
71.8055127
0
ARC
8
DEFAULT_255_1_388
10
3.8823811
20
67.0042723
40
1.8045908
50
71.718361
51
73.9260743
0
LINE
8
DEFAULT_255_1_388
10
5.9442945
20
68.1519
11
5.818699
21
68.4952545
0
LINE
8
DEFAULT_255_1_388
10
5.818699
20
68.4952545
11
5.2675247
21
68.4952545
0
LINE
8
DEFAULT_255_1_388
10
5.2675247
20
68.4952545
11
5.1437364
21
68.1519
0
LINE
8
DEFAULT_255_1_388
10
5.1437364
20
68.1519
11
4.9648306
21
68.1519
0
LINE
8
DEFAULT_255_1_388
10
4.9648306
20
68.1519
11
5.4672125
21
69.4674898
0
LINE
8
DEFAULT_255_1_388
10
5.4672125
20
69.4674898
11
5.6190113
21
69.4674898
0
LINE
8
DEFAULT_255_1_388
10
5.6190113
20
69.4674898
11
6.1222967
21
68.1519
0
LINE
8
DEFAULT_255_1_388
10
6.1222967
20
68.1519
11
5.9442945
21
68.1519
0
LINE
8
DEFAULT_255_1_388
10
5.5431119
20
69.2533451
11
5.3199314
21
68.6380177
0
LINE
8
DEFAULT_255_1_388
10
5.3199314
20
68.6380177
11
5.7671958
21
68.6380177
0
LINE
8
DEFAULT_255_1_388
10
5.7671958
20
68.6380177
11
5.5431119
21
69.2533451
0
LINE
8
DEFAULT_255_1_388
10
6.7520811
20
69.2415987
11
6.7520811
21
68.8575838
0
LINE
8
DEFAULT_255_1_388
10
6.7520811
20
68.8575838
11
7.1189283
21
68.8575838
0
LINE
8
DEFAULT_255_1_388
10
7.1189283
20
68.8575838
11
7.1189283
21
68.6994601
0
LINE
8
DEFAULT_255_1_388
10
7.1189283
20
68.6994601
11
6.7520811
21
68.6994601
0
LINE
8
DEFAULT_255_1_388
10
6.7520811
20
68.6994601
11
6.7520811
21
68.2838204
0
LINE
8
DEFAULT_255_1_388
10
6.7520811
20
68.2838204
11
6.5840181
21
68.2838204
0
LINE
8
DEFAULT_255_1_388
10
6.5840181
20
68.2838204
11
6.5840181
21
68.6994601
0
LINE
8
DEFAULT_255_1_388
10
6.5840181
20
68.6994601
11
6.2171709
21
68.6994601
0
LINE
8
DEFAULT_255_1_388
10
6.2171709
20
68.6994601
11
6.2171709
21
68.8575838
0
LINE
8
DEFAULT_255_1_388
10
6.2171709
20
68.8575838
11
6.5840181
21
68.8575838
0
LINE
8
DEFAULT_255_1_388
10
6.5840181
20
68.8575838
11
6.5840181
21
69.2415987
0
LINE
8
DEFAULT_255_1_388
10
6.5840181
20
69.2415987
11
6.7520811
21
69.2415987
0
LINE
8
DEFAULT_255_1_388
10
4.8672457
20
77.0245892
11
4.6928577
21
77.0245892
0
LINE
8
DEFAULT_255_1_388
10
3.9139852
20
76.4707042
11
4.0883731
21
76.4707042
0
ARC
8
DEFAULT_255_1_388
10
4.7669304
20
78.0309821
40
1.4087688
50
248.9196578
51
254.1442424
0
ARC
8
DEFAULT_255_1_388
10
4.5779184
20
77.5443805
40
0.8867498
50
241.6337352
51
249.0064643
0
ARC
8
DEFAULT_255_1_388
10
4.4059498
20
77.2292764
40
0.5277799
50
230.4982261
51
241.8087583
0
ARC
8
DEFAULT_255_1_388
10
4.3177269
20
77.1168686
40
0.3849419
50
227.4062979
51
229.9877433
0
ARC
8
DEFAULT_255_1_388
10
4.2628615
20
77.0633155
40
0.3084129
50
200.6782127
51
228.1765252
0
ARC
8
DEFAULT_255_1_388
10
4.2709984
20
77.0616277
40
0.315461
50
179.506278
51
199.8695278
0
ARC
8
DEFAULT_255_1_388
10
4.2699573
20
77.0699671
40
0.3144584
50
132.4834401
51
181.0242352
0
ARC
8
DEFAULT_255_1_388
10
4.3368777
20
77.0067788
40
0.4063094
50
129.2526113
51
133.4249077
0
ARC
8
DEFAULT_255_1_388
10
4.353437
20
76.9819619
40
0.436014
50
101.9878945
51
128.8741833
0
ARC
8
DEFAULT_255_1_388
10
4.3982785
20
76.788336
40
0.6347415
50
89.5906376
51
102.3170567
0
ARC
8
DEFAULT_255_1_388
10
4.4062097
20
76.8241586
40
0.5989122
50
77.2359491
51
90.3248968
0
ARC
8
DEFAULT_255_1_388
10
4.4295028
20
76.9329554
40
0.4876594
50
63.8379856
51
77.0808925
0
ARC
8
DEFAULT_255_1_388
10
4.4607561
20
76.9911882
40
0.4216191
50
45.9863127
51
64.1608798
0
ARC
8
DEFAULT_255_1_388
10
4.4900955
20
77.024699
40
0.3771394
50
32.2747934
51
45.6544796
0
ARC
8
DEFAULT_255_1_388
10
4.4975761
20
77.0268426
40
0.3696765
50
359.6507495
51
32.6129943
0
ARC
8
DEFAULT_255_1_388
10
4.3914944
20
77.0273788
40
0.3013762
50
359.469654
51
14.983205
0
ARC
8
DEFAULT_255_1_388
10
4.4708196
20
77.0486288
40
0.2192542
50
14.9781954
51
48.2004799
0
ARC
8
DEFAULT_255_1_388
10
4.4523307
20
77.0253937
40
0.2489048
50
48.5926661
51
74.1242559
0
ARC
8
DEFAULT_255_1_388
10
4.4148109
20
76.9015607
40
0.3782845
50
73.7889321
51
86.6653996
0
ARC
8
DEFAULT_255_1_388
10
4.4032924
20
76.7657955
40
0.5145025
50
86.2642725
51
90.0533288
0
ARC
8
DEFAULT_255_1_388
10
4.4001017
20
76.8102376
40
0.4700681
50
89.669455
51
99.2313411
0
ARC
8
DEFAULT_255_1_388
10
4.3728176
20
76.9727401
40
0.3052945
50
99.0695987
51
113.7659242
0
ARC
8
DEFAULT_255_1_388
10
4.3420171
20
77.0453772
40
0.226407
50
114.0402885
51
127.9848946
0
ARC
8
DEFAULT_255_1_388
10
4.3149647
20
77.0786884
40
0.1835045
50
127.7287217
51
176.7106493
0
ARC
8
DEFAULT_255_1_388
10
4.3913312
20
77.067321
40
0.2604907
50
175.1780759
51
180.0581213
0
ARC
8
DEFAULT_255_1_388
10
4.2964656
20
77.0659411
40
0.1656287
50
179.6140658
51
228.124674
0
ARC
8
DEFAULT_255_1_388
10
4.3462013
20
77.111994
40
0.2332038
50
226.5785315
51
230.8792476
0
ARC
8
DEFAULT_255_1_388
10
4.39915
20
77.1822908
40
0.3211664
50
231.4636401
51
241.9261664
0
ARC
8
DEFAULT_255_1_388
10
4.5338283
20
77.4301349
40
0.6032345
50
241.7177136
51
248.3259138
0
ARC
8
DEFAULT_255_1_388
10
4.6896878
20
77.8162771
40
1.0196417
50
248.2007377
51
252.4527713
0
ARC
8
DEFAULT_255_1_388
10
4.8250405
20
78.2347092
40
1.4594143
50
252.3388938
51
254.347037
0
ARC
8
DEFAULT_255_1_388
10
3.9765705
20
75.1999095
40
1.6917621
50
71.0197462
51
74.4085467
0
ARC
8
DEFAULT_255_1_388
10
4.1672793
20
75.7504144
40
1.1091618
50
66.1845203
51
71.086519
0
ARC
8
DEFAULT_255_1_388
10
4.3423342
20
76.1445439
40
0.6779073
50
59.3537334
51
66.269255
0
ARC
8
DEFAULT_255_1_388
10
4.4423068
20
76.3136777
40
0.4814366
50
49.1021732
51
59.3294421
0
ARC
8
DEFAULT_255_1_388
10
4.5344056
20
76.4186575
40
0.3417875
50
32.7924183
51
49.2503526
0
ARC
8
DEFAULT_255_1_388
10
4.569367
20
76.4436311
40
0.2988789
50
31.121225
51
32.3977355
0
ARC
8
DEFAULT_255_1_388
10
4.5605848
20
76.4403728
40
0.3080861
50
8.1116803
51
30.7958224
0
ARC
8
DEFAULT_255_1_388
10
4.4694194
20
76.4248437
40
0.4005385
50
359.8390945
51
8.4707348
0
ARC
8
DEFAULT_255_1_388
10
4.5398242
20
76.4193751
40
0.3301608
50
337.4732479
51
0.7538283
0
ARC
8
DEFAULT_255_1_388
10
4.5599267
20
76.4171554
40
0.3107929
50
307.5917028
51
336.4313755
0
ARC
8
DEFAULT_255_1_388
10
4.5088324
20
76.4739509
40
0.3870096
50
307.6560665
51
308.4561779
0
ARC
8
DEFAULT_255_1_388
10
4.4822541
20
76.5147832
40
0.435591
50
284.3733666
51
307.1426212
0
ARC
8
DEFAULT_255_1_388
10
4.4265435
20
76.7197391
40
0.6479685
50
272.4384566
51
284.6464689
0
ARC
8
DEFAULT_255_1_388
10
4.412282
20
76.9221434
40
0.8508149
50
269.9708517
51
272.8180721
0
ARC
8
DEFAULT_255_1_388
10
4.4074503
20
76.6929283
40
0.6216151
50
248.2707343
51
270.4054609
0
ARC
8
DEFAULT_255_1_388
10
4.4013374
20
76.6714673
40
0.5994203
50
246.1380358
51
248.054058
0
ARC
8
DEFAULT_255_1_388
10
4.3542517
20
76.5725705
40
0.4899388
50
233.1671897
51
246.4951656
0
ARC
8
DEFAULT_255_1_388
10
4.2919152
20
76.4884137
40
0.3852115
50
215.3403381
51
233.084328
0
ARC
8
DEFAULT_255_1_388
10
4.2612516
20
76.4661093
40
0.3472969
50
179.2419235
51
215.2648426
0
ARC
8
DEFAULT_255_1_388
10
4.3476067
20
76.4676979
40
0.259251
50
179.3355796
51
199.1045873
0
ARC
8
DEFAULT_255_1_388
10
4.3102209
20
76.4579223
40
0.2207454
50
199.8830064
51
232.7061328
0
ARC
8
DEFAULT_255_1_388
10
4.3633483
20
76.5247456
40
0.306101
50
232.3736206
51
255.5136621
0
ARC
8
DEFAULT_255_1_388
10
4.4016989
20
76.6647177
40
0.4512213
50
255.2447928
51
267.5318292
0
ARC
8
DEFAULT_255_1_388
10
4.4115456
20
76.8033709
40
0.5901825
50
267.1564563
51
270.0294721
0
ARC
8
DEFAULT_255_1_388
10
4.4146781
20
76.7534623
40
0.5402814
50
269.6999944
51
278.1662446
0
ARC
8
DEFAULT_255_1_388
10
4.4434809
20
76.5587974
40
0.3435003
50
278.0229022
51
290.6255326
0
ARC
8
DEFAULT_255_1_388
10
4.4825975
20
76.4544547
40
0.2320666
50
290.6616368
51
307.0374127
0
ARC
8
DEFAULT_255_1_388
10
4.5163875
20
76.413004
40
0.1786372
50
306.3942078
51
355.303191
0
ARC
8
DEFAULT_255_1_388
10
4.4588168
20
76.4216186
40
0.2367516
50
354.3662092
51
0.0709489
0
ARC
8
DEFAULT_255_1_388
10
4.4748037
20
76.4241561
40
0.2207761
50
359.4175379
51
16.1975911
0
ARC
8
DEFAULT_255_1_388
10
4.5260155
20
76.4381954
40
0.1676828
50
16.4721294
51
52.6261798
0
ARC
8
DEFAULT_255_1_388
10
4.4336662
20
76.3162606
40
0.3206412
50
52.7381828
51
62.4979144
0
ARC
8
DEFAULT_255_1_388
10
4.2778415
20
76.0230236
40
0.6527035
50
62.2517425
51
68.1219454
0
ARC
8
DEFAULT_255_1_388
10
4.0843903
20
75.5475951
40
1.1659797
50
68.006043
51
71.8055127
0
ARC
8
DEFAULT_255_1_388
10
3.8823811
20
74.9417723
40
1.8045908
50
71.718361
51
73.9260743
0
LINE
8
DEFAULT_255_1_388
10
5.9442945
20
76.0894
11
5.818699
21
76.4327545
0
LINE
8
DEFAULT_255_1_388
10
5.818699
20
76.4327545
11
5.2675247
21
76.4327545
0
LINE
8
DEFAULT_255_1_388
10
5.2675247
20
76.4327545
11
5.1437364
21
76.0894
0
LINE
8
DEFAULT_255_1_388
10
5.1437364
20
76.0894
11
4.9648306
21
76.0894
0
LINE
8
DEFAULT_255_1_388
10
4.9648306
20
76.0894
11
5.4672125
21
77.4049898
0
LINE
8
DEFAULT_255_1_388
10
5.4672125
20
77.4049898
11
5.6190113
21
77.4049898
0
LINE
8
DEFAULT_255_1_388
10
5.6190113
20
77.4049898
11
6.1222967
21
76.0894
0
LINE
8
DEFAULT_255_1_388
10
6.1222967
20
76.0894
11
5.9442945
21
76.0894
0
LINE
8
DEFAULT_255_1_388
10
5.5431119
20
77.1908451
11
5.3199314
21
76.5755177
0
LINE
8
DEFAULT_255_1_388
10
5.3199314
20
76.5755177
11
5.7671958
21
76.5755177
0
LINE
8
DEFAULT_255_1_388
10
5.7671958
20
76.5755177
11
5.5431119
21
77.1908451
0
LINE
8
DEFAULT_255_1_388
10
6.7520811
20
77.1790987
11
6.7520811
21
76.7950838
0
LINE
8
DEFAULT_255_1_388
10
6.7520811
20
76.7950838
11
7.1189283
21
76.7950838
0
LINE
8
DEFAULT_255_1_388
10
7.1189283
20
76.7950838
11
7.1189283
21
76.6369601
0
LINE
8
DEFAULT_255_1_388
10
7.1189283
20
76.6369601
11
6.7520811
21
76.6369601
0
LINE
8
DEFAULT_255_1_388
10
6.7520811
20
76.6369601
11
6.7520811
21
76.2213204
0
LINE
8
DEFAULT_255_1_388
10
6.7520811
20
76.2213204
11
6.5840181
21
76.2213204
0
LINE
8
DEFAULT_255_1_388
10
6.5840181
20
76.2213204
11
6.5840181
21
76.6369601
0
LINE
8
DEFAULT_255_1_388
10
6.5840181
20
76.6369601
11
6.2171709
21
76.6369601
0
LINE
8
DEFAULT_255_1_388
10
6.2171709
20
76.6369601
11
6.2171709
21
76.7950838
0
LINE
8
DEFAULT_255_1_388
10
6.2171709
20
76.7950838
11
6.5840181
21
76.7950838
0
LINE
8
DEFAULT_255_1_388
10
6.5840181
20
76.7950838
11
6.5840181
21
77.1790987
0
LINE
8
DEFAULT_255_1_388
10
6.5840181
20
77.1790987
11
6.7520811
21
77.1790987
0
LINE
8
DEFAULT_255_1_388
10
3.9959024
20
85.3424898
11
4.2199864
21
85.3424898
0
LINE
8
DEFAULT_255_1_388
10
4.2199864
20
85.3424898
11
4.6500831
21
84.2690553
0
LINE
8
DEFAULT_255_1_388
10
4.6500831
20
84.2690553
11
5.0801797
21
85.3424898
0
LINE
8
DEFAULT_255_1_388
10
5.0801797
20
85.3424898
11
5.3051673
21
85.3424898
0
LINE
8
DEFAULT_255_1_388
10
5.3051673
20
85.3424898
11
5.3051673
21
84.0269
0
LINE
8
DEFAULT_255_1_388
10
5.3051673
20
84.0269
11
5.1316829
21
84.0269
0
LINE
8
DEFAULT_255_1_388
10
5.1316829
20
84.0269
11
5.1316829
21
84.539221
0
LINE
8
DEFAULT_255_1_388
10
5.1316829
20
84.539221
11
5.1479471
21
85.0922025
0
LINE
8
DEFAULT_255_1_388
10
5.1479471
20
85.0922025
11
4.7160433
21
84.0269
0
LINE
8
DEFAULT_255_1_388
10
4.7160433
20
84.0269
11
4.5832193
21
84.0269
0
LINE
8
DEFAULT_255_1_388
10
4.5832193
20
84.0269
11
4.152219
21
85.0894918
0
LINE
8
DEFAULT_255_1_388
10
4.152219
20
85.0894918
11
4.1693868
21
84.539221
0
LINE
8
DEFAULT_255_1_388
10
4.1693868
20
84.539221
11
4.1693868
21
84.0269
0
LINE
8
DEFAULT_255_1_388
10
4.1693868
20
84.0269
11
3.9959024
21
84.0269
0
LINE
8
DEFAULT_255_1_388
10
3.9959024
20
84.0269
11
3.9959024
21
85.3424898
0
LINE
8
DEFAULT_255_1_388
10
6.0948826
20
84.5419317
11
5.78496
21
84.5419317
0
LINE
8
DEFAULT_255_1_388
10
5.78496
20
84.5419317
11
5.78496
21
84.0269
0
LINE
8
DEFAULT_255_1_388
10
5.78496
20
84.0269
11
5.6114756
21
84.0269
0
LINE
8
DEFAULT_255_1_388
10
5.6114756
20
84.0269
11
5.6114756
21
85.3424898
0
LINE
8
DEFAULT_255_1_388
10
5.6114756
20
85.3424898
11
6.0966897
21
85.3424898
0
LINE
8
DEFAULT_255_1_388
10
5.78496
20
85.1997267
11
5.78496
21
84.6837914
0
LINE
8
DEFAULT_255_1_388
10
5.78496
20
84.6837914
11
6.0966897
21
84.6837914
0
LINE
8
DEFAULT_255_1_388
10
6.106629
20
85.1997267
11
5.78496
21
85.1997267
0
ARC
8
DEFAULT_255_1_388
10
6.1014271
20
84.6608334
40
0.6816729
50
78.8380084
51
90.398184
0
ARC
8
DEFAULT_255_1_388
10
6.1482301
20
84.8881796
40
0.449571
50
58.9633273
51
79.0810717
0
ARC
8
DEFAULT_255_1_388
10
6.1821686
20
84.9511823
40
0.3781049
50
48.0194715
51
58.4475592
0
ARC
8
DEFAULT_255_1_388
10
6.1921506
20
84.9607818
40
0.3642936
50
3.3374546
51
48.1766642
0
ARC
8
DEFAULT_255_1_388
10
6.0536312
20
84.9408581
40
0.5038766
50
359.9483251
51
4.6822857
0
ARC
8
DEFAULT_255_1_388
10
6.0676236
20
84.9360779
40
0.4899031
50
346.1879032
51
0.5059221
0
ARC
8
DEFAULT_255_1_388
10
6.2205027
20
84.8963763
40
0.3319729
50
310.8832219
51
346.5426612
0
ARC
8
DEFAULT_255_1_388
10
6.1857875
20
84.9432853
40
0.3901853
50
286.6925305
51
310.228778
0
ARC
8
DEFAULT_255_1_388
10
6.1217605
20
85.1446585
40
0.6014737
50
274.6848219
51
287.0247342
0
ARC
8
DEFAULT_255_1_388
10
6.0964154
20
85.3931088
40
0.8511785
50
269.8968222
51
275.0192639
0
ARC
8
DEFAULT_255_1_388
10
6.0995147
20
85.1593144
40
0.4755314
50
269.6596206
51
279.4150542
0
ARC
8
DEFAULT_255_1_388
10
6.1284605
20
84.9915945
40
0.3053379
50
279.2050006
51
294.9901776
0
ARC
8
DEFAULT_255_1_388
10
6.161124
20
84.9187353
40
0.2255036
50
295.2886769
51
311.2912669
0
ARC
8
DEFAULT_255_1_388
10
6.1690981
20
84.9068938
40
0.2113522
50
311.7853512
51
347.2860549
0
ARC
8
DEFAULT_255_1_388
10
6.0584143
20
84.935343
40
0.3256011
50
346.6891629
51
0.1057086
0
ARC
8
DEFAULT_255_1_388
10
5.9661602
20
84.9386247
40
0.417863
50
359.63239
51
359.9961329
0
ARC
8
DEFAULT_255_1_388
10
6.0826208
20
84.9413987
40
0.3014155
50
359.4673371
51
15.5931159
0
ARC
8
DEFAULT_255_1_388
10
6.152927
20
84.9603937
40
0.2285918
50
15.7441779
51
46.620186
0
ARC
8
DEFAULT_255_1_388
10
6.136303
20
84.9412361
40
0.2539359
50
46.8628482
51
75.6676625
0
ARC
8
DEFAULT_255_1_388
10
6.1032087
20
84.8221243
40
0.3775415
50
75.2763152
51
88.2916439
0
ARC
8
DEFAULT_255_1_388
10
6.0966086
20
84.7219097
40
0.4779221
50
87.8589087
51
88.7986197
0
LINE
8
DEFAULT_255_1_388
10
7.2315667
20
85.1165987
11
7.2315667
21
84.7325838
0
LINE
8
DEFAULT_255_1_388
10
7.2315667
20
84.7325838
11
7.5984139
21
84.7325838
0
LINE
8
DEFAULT_255_1_388
10
7.5984139
20
84.7325838
11
7.5984139
21
84.5744601
0
LINE
8
DEFAULT_255_1_388
10
7.5984139
20
84.5744601
11
7.2315667
21
84.5744601
0
LINE
8
DEFAULT_255_1_388
10
7.2315667
20
84.5744601
11
7.2315667
21
84.1588204
0
LINE
8
DEFAULT_255_1_388
10
7.2315667
20
84.1588204
11
7.0635037
21
84.1588204
0
LINE
8
DEFAULT_255_1_388
10
7.0635037
20
84.1588204
11
7.0635037
21
84.5744601
0
LINE
8
DEFAULT_255_1_388
10
7.0635037
20
84.5744601
11
6.6966565
21
84.5744601
0
LINE
8
DEFAULT_255_1_388
10
6.6966565
20
84.5744601
11
6.6966565
21
84.7325838
0
LINE
8
DEFAULT_255_1_388
10
6.6966565
20
84.7325838
11
7.0635037
21
84.7325838
0
LINE
8
DEFAULT_255_1_388
10
7.0635037
20
84.7325838
11
7.0635037
21
85.1165987
0
LINE
8
DEFAULT_255_1_388
10
7.0635037
20
85.1165987
11
7.2315667
21
85.1165987
0
LINE
8
DEFAULT_255_1_388
10
3.9959024
20
93.2799898
11
4.2199864
21
93.2799898
0
LINE
8
DEFAULT_255_1_388
10
4.2199864
20
93.2799898
11
4.6500831
21
92.2065553
0
LINE
8
DEFAULT_255_1_388
10
4.6500831
20
92.2065553
11
5.0801797
21
93.2799898
0
LINE
8
DEFAULT_255_1_388
10
5.0801797
20
93.2799898
11
5.3051673
21
93.2799898
0
LINE
8
DEFAULT_255_1_388
10
5.3051673
20
93.2799898
11
5.3051673
21
91.9644
0
LINE
8
DEFAULT_255_1_388
10
5.3051673
20
91.9644
11
5.1316829
21
91.9644
0
LINE
8
DEFAULT_255_1_388
10
5.1316829
20
91.9644
11
5.1316829
21
92.476721
0
LINE
8
DEFAULT_255_1_388
10
5.1316829
20
92.476721
11
5.1479471
21
93.0297025
0
LINE
8
DEFAULT_255_1_388
10
5.1479471
20
93.0297025
11
4.7160433
21
91.9644
0
LINE
8
DEFAULT_255_1_388
10
4.7160433
20
91.9644
11
4.5832193
21
91.9644
0
LINE
8
DEFAULT_255_1_388
10
4.5832193
20
91.9644
11
4.152219
21
93.0269918
0
LINE
8
DEFAULT_255_1_388
10
4.152219
20
93.0269918
11
4.1693868
21
92.476721
0
LINE
8
DEFAULT_255_1_388
10
4.1693868
20
92.476721
11
4.1693868
21
91.9644
0
LINE
8
DEFAULT_255_1_388
10
4.1693868
20
91.9644
11
3.9959024
21
91.9644
0
LINE
8
DEFAULT_255_1_388
10
3.9959024
20
91.9644
11
3.9959024
21
93.2799898
0
LINE
8
DEFAULT_255_1_388
10
6.0948826
20
92.4794317
11
5.78496
21
92.4794317
0
LINE
8
DEFAULT_255_1_388
10
5.78496
20
92.4794317
11
5.78496
21
91.9644
0
LINE
8
DEFAULT_255_1_388
10
5.78496
20
91.9644
11
5.6114756
21
91.9644
0
LINE
8
DEFAULT_255_1_388
10
5.6114756
20
91.9644
11
5.6114756
21
93.2799898
0
LINE
8
DEFAULT_255_1_388
10
5.6114756
20
93.2799898
11
6.0966897
21
93.2799898
0
LINE
8
DEFAULT_255_1_388
10
5.78496
20
93.1372267
11
5.78496
21
92.6212914
0
LINE
8
DEFAULT_255_1_388
10
5.78496
20
92.6212914
11
6.0966897
21
92.6212914
0
LINE
8
DEFAULT_255_1_388
10
6.106629
20
93.1372267
11
5.78496
21
93.1372267
0
ARC
8
DEFAULT_255_1_388
10
6.1014271
20
92.5983334
40
0.6816729
50
78.8380084
51
90.398184
0
ARC
8
DEFAULT_255_1_388
10
6.1482301
20
92.8256796
40
0.449571
50
58.9633273
51
79.0810717
0
ARC
8
DEFAULT_255_1_388
10
6.1821686
20
92.8886823
40
0.3781049
50
48.0194715
51
58.4475592
0
ARC
8
DEFAULT_255_1_388
10
6.1921506
20
92.8982818
40
0.3642936
50
3.3374546
51
48.1766642
0
ARC
8
DEFAULT_255_1_388
10
6.0536312
20
92.8783581
40
0.5038766
50
359.9483251
51
4.6822857
0
ARC
8
DEFAULT_255_1_388
10
6.0676236
20
92.8735779
40
0.4899031
50
346.1879032
51
0.5059221
0
ARC
8
DEFAULT_255_1_388
10
6.2205027
20
92.8338763
40
0.3319729
50
310.8832219
51
346.5426612
0
ARC
8
DEFAULT_255_1_388
10
6.1857875
20
92.8807853
40
0.3901853
50
286.6925305
51
310.228778
0
ARC
8
DEFAULT_255_1_388
10
6.1217605
20
93.0821585
40
0.6014737
50
274.6848219
51
287.0247342
0
ARC
8
DEFAULT_255_1_388
10
6.0964154
20
93.3306088
40
0.8511785
50
269.8968222
51
275.0192639
0
ARC
8
DEFAULT_255_1_388
10
6.0995147
20
93.0968144
40
0.4755314
50
269.6596206
51
279.4150542
0
ARC
8
DEFAULT_255_1_388
10
6.1284605
20
92.9290945
40
0.3053379
50
279.2050006
51
294.9901776
0
ARC
8
DEFAULT_255_1_388
10
6.161124
20
92.8562353
40
0.2255036
50
295.2886769
51
311.2912669
0
ARC
8
DEFAULT_255_1_388
10
6.1690981
20
92.8443938
40
0.2113522
50
311.7853512
51
347.2860549
0
ARC
8
DEFAULT_255_1_388
10
6.0584143
20
92.872843
40
0.3256011
50
346.6891629
51
0.1057086
0
ARC
8
DEFAULT_255_1_388
10
5.9661602
20
92.8761247
40
0.417863
50
359.63239
51
359.9961329
0
ARC
8
DEFAULT_255_1_388
10
6.0826208
20
92.8788987
40
0.3014155
50
359.4673371
51
15.5931159
0
ARC
8
DEFAULT_255_1_388
10
6.152927
20
92.8978937
40
0.2285918
50
15.7441779
51
46.620186
0
ARC
8
DEFAULT_255_1_388
10
6.136303
20
92.8787361
40
0.2539359
50
46.8628482
51
75.6676625
0
ARC
8
DEFAULT_255_1_388
10
6.1032087
20
92.7596243
40
0.3775415
50
75.2763152
51
88.2916439
0
ARC
8
DEFAULT_255_1_388
10
6.0966086
20
92.6594097
40
0.4779221
50
87.8589087
51
88.7986197
0
LINE
8
DEFAULT_255_1_388
10
7.2315667
20
93.0540987
11
7.2315667
21
92.6700838
0
LINE
8
DEFAULT_255_1_388
10
7.2315667
20
92.6700838
11
7.5984139
21
92.6700838
0
LINE
8
DEFAULT_255_1_388
10
7.5984139
20
92.6700838
11
7.5984139
21
92.5119601
0
LINE
8
DEFAULT_255_1_388
10
7.5984139
20
92.5119601
11
7.2315667
21
92.5119601
0
LINE
8
DEFAULT_255_1_388
10
7.2315667
20
92.5119601
11
7.2315667
21
92.0963204
0
LINE
8
DEFAULT_255_1_388
10
7.2315667
20
92.0963204
11
7.0635037
21
92.0963204
0
LINE
8
DEFAULT_255_1_388
10
7.0635037
20
92.0963204
11
7.0635037
21
92.5119601
0
LINE
8
DEFAULT_255_1_388
10
7.0635037
20
92.5119601
11
6.6966565
21
92.5119601
0
LINE
8
DEFAULT_255_1_388
10
6.6966565
20
92.5119601
11
6.6966565
21
92.6700838
0
LINE
8
DEFAULT_255_1_388
10
6.6966565
20
92.6700838
11
7.0635037
21
92.6700838
0
LINE
8
DEFAULT_255_1_388
10
7.0635037
20
92.6700838
11
7.0635037
21
93.0540987
0
LINE
8
DEFAULT_255_1_388
10
7.0635037
20
93.0540987
11
7.2315667
21
93.0540987
0
LINE
8
DEFAULT_255_1_388
10
21.5720318
20
100.0383382
11
21.5720318
21
99.9019
0
LINE
8
DEFAULT_255_1_388
10
21.5720318
20
99.9019
11
20.7100313
21
99.9019
0
LINE
8
DEFAULT_255_1_388
10
20.7100313
20
99.9019
11
20.7100313
21
100.0220741
0
LINE
8
DEFAULT_255_1_388
10
20.7100313
20
100.0220741
11
21.1654278
21
100.5280702
0
LINE
8
DEFAULT_255_1_388
10
20.8518909
20
100.8298607
11
20.6847315
21
100.8298607
0
LINE
8
DEFAULT_255_1_388
10
21.2639163
20
100.420546
11
20.9115262
21
100.0383382
0
LINE
8
DEFAULT_255_1_388
10
20.9115262
20
100.0383382
11
21.5720318
21
100.0383382
0
ARC
8
DEFAULT_255_1_388
10
19.6478337
20
101.8700983
40
2.0258655
50
318.5132526
51
320.7829045
0
ARC
8
DEFAULT_255_1_388
10
20.2426294
20
101.3859929
40
1.2589638
50
320.7372878
51
323.9739031
0
ARC
8
DEFAULT_255_1_388
10
20.6835226
20
101.0665554
40
0.7145141
50
323.8962701
51
328.64194
0
ARC
8
DEFAULT_255_1_388
10
20.9137484
20
100.9245545
40
0.4440242
50
328.8294576
51
331.7891185
0
ARC
8
DEFAULT_255_1_388
10
21.0259804
20
100.8666374
40
0.3177517
50
331.4254512
51
352.9365785
0
ARC
8
DEFAULT_255_1_388
10
21.0412804
20
100.863205
40
0.3021496
50
353.2257659
51
0.0166158
0
ARC
8
DEFAULT_255_1_388
10
21.0649564
20
100.8657894
40
0.2784847
50
359.486299
51
15.9343185
0
ARC
8
DEFAULT_255_1_388
10
21.1219831
20
100.8811269
40
0.2194403
50
16.1712913
51
43.5286088
0
ARC
8
DEFAULT_255_1_388
10
21.1306776
20
100.8898191
40
0.2071504
50
43.4417391
51
83.1661095
0
ARC
8
DEFAULT_255_1_388
10
21.1155937
20
100.8069316
40
0.2912888
50
82.160179
51
90.1505708
0
ARC
8
DEFAULT_255_1_388
10
21.1120418
20
100.7465279
40
0.3517025
50
89.5460741
51
102.5418361
0
ARC
8
DEFAULT_255_1_388
10
21.0847138
20
100.8624933
40
0.2325748
50
102.1738499
51
129.206123
0
ARC
8
DEFAULT_255_1_388
10
21.0758592
20
100.8764664
40
0.2161591
50
129.72865
51
135.753947
0
ARC
8
DEFAULT_255_1_388
10
21.0895074
20
100.8655728
40
0.2335433
50
136.1757367
51
166.3673339
0
ARC
8
DEFAULT_255_1_388
10
21.2027762
20
100.8352148
40
0.3507873
50
165.9090694
51
178.8684636
0
ARC
8
DEFAULT_255_1_388
10
21.3003534
20
100.8299263
40
0.4484624
50
178.4391136
51
180.0083808
0
ARC
8
DEFAULT_255_1_388
10
21.1424235
20
100.8343197
40
0.4577138
50
163.2878482
51
180.5581842
0
ARC
8
DEFAULT_255_1_388
10
21.0522276
20
100.8591393
40
0.3641968
50
133.4540601
51
162.947111
0
ARC
8
DEFAULT_255_1_388
10
21.0723158
20
100.8377789
40
0.3935189
50
100.7869829
51
133.4382499
0
ARC
8
DEFAULT_255_1_388
10
21.1114403
20
100.6635399
40
0.5720313
50
89.660664
51
101.3702276
0
ARC
8
DEFAULT_255_1_388
10
21.1189012
20
100.6704263
40
0.5651495
50
78.2172678
51
90.412935
0
ARC
8
DEFAULT_255_1_388
10
21.1588478
20
100.8531511
40
0.378122
50
55.9269121
51
78.4888449
0
ARC
8
DEFAULT_255_1_388
10
21.1809193
20
100.8912187
40
0.3342379
50
47.929771
51
55.4049217
0
ARC
8
DEFAULT_255_1_388
10
21.1923723
20
100.9028618
40
0.3179217
50
4.334829
51
48.0560205
0
ARC
8
DEFAULT_255_1_388
10
21.0691525
20
100.8837487
40
0.442341
50
359.9251713
51
5.5971671
0
ARC
8
DEFAULT_255_1_388
10
21.117368
20
100.8900728
40
0.3941854
50
337.8914027
51
358.9967534
0
ARC
8
DEFAULT_255_1_388
10
20.812125
20
101.0078295
40
0.7213271
50
326.9132501
51
338.3508308
0
ARC
8
DEFAULT_255_1_388
10
20.3637362
20
101.2952105
40
1.2538973
50
319.6471833
51
327.0959558
0
ARC
8
DEFAULT_255_1_388
10
19.932402
20
101.651005
40
1.8129975
50
317.2588228
51
319.9045804
0
LINE
8
DEFAULT_255_1_388
10
22.4548143
20
101.2174898
11
22.4548143
21
100.343743
0
LINE
8
DEFAULT_255_1_388
10
22.4548143
20
100.343743
11
22.6373343
21
100.343743
0
LINE
8
DEFAULT_255_1_388
10
22.6373343
20
100.343743
11
22.6373343
21
100.2073048
0
LINE
8
DEFAULT_255_1_388
10
22.6373343
20
100.2073048
11
22.4548143
21
100.2073048
0
LINE
8
DEFAULT_255_1_388
10
22.4548143
20
100.2073048
11
22.4548143
21
99.9019
0
LINE
8
DEFAULT_255_1_388
10
22.4548143
20
99.9019
11
22.2867513
21
99.9019
0
LINE
8
DEFAULT_255_1_388
10
22.2867513
20
99.9019
11
22.2867513
21
100.2073048
0
LINE
8
DEFAULT_255_1_388
10
22.2867513
20
100.2073048
11
21.687688
21
100.2073048
0
LINE
8
DEFAULT_255_1_388
10
21.687688
20
100.2073048
11
21.687688
21
100.3057933
0
LINE
8
DEFAULT_255_1_388
10
21.687688
20
100.3057933
11
22.2768121
21
101.2174898
0
LINE
8
DEFAULT_255_1_388
10
22.2768121
20
101.2174898
11
22.4548143
21
101.2174898
0
LINE
8
DEFAULT_255_1_388
10
22.2668729
20
100.9527455
11
21.8774366
21
100.343743
0
LINE
8
DEFAULT_255_1_388
10
21.8774366
20
100.343743
11
22.2867513
21
100.343743
0
LINE
8
DEFAULT_255_1_388
10
22.2867513
20
100.343743
11
22.2867513
21
100.988888
0
LINE
8
DEFAULT_255_1_388
10
22.2867513
20
100.988888
11
22.2668729
21
100.9527455
0
LINE
8
DEFAULT_255_1_388
10
22.893043
20
101.2174898
11
23.2671187
21
100.1323089
0
LINE
8
DEFAULT_255_1_388
10
23.2671187
20
100.1323089
11
23.6430015
21
101.2174898
0
LINE
8
DEFAULT_255_1_388
10
23.6430015
20
101.2174898
11
23.83275
21
101.2174898
0
LINE
8
DEFAULT_255_1_388
10
23.83275
20
101.2174898
11
23.3448252
21
99.9019
0
LINE
8
DEFAULT_255_1_388
10
23.3448252
20
99.9019
11
23.1912193
21
99.9019
0
LINE
8
DEFAULT_255_1_388
10
23.1912193
20
99.9019
11
22.704198
21
101.2174898
0
LINE
8
DEFAULT_255_1_388
10
22.704198
20
101.2174898
11
22.893043
21
101.2174898
0
LINE
8
DEFAULT_255_1_388
10
24.2971822
20
100.5289737
11
24.2971822
21
100.3925355
0
LINE
8
DEFAULT_255_1_388
10
24.2971822
20
100.3925355
11
23.8562427
21
100.3925355
0
LINE
8
DEFAULT_255_1_388
10
23.8562427
20
100.3925355
11
23.8562427
21
100.5289737
0
LINE
8
DEFAULT_255_1_388
10
23.8562427
20
100.5289737
11
24.2971822
21
100.5289737
0
LINE
8
DEFAULT_255_1_388
10
22.5425457
20
69.0870892
11
22.3681577
21
69.0870892
0
LINE
8
DEFAULT_255_1_388
10
21.5892852
20
68.5332042
11
21.7636731
21
68.5332042
0
ARC
8
DEFAULT_255_1_388
10
22.4422304
20
70.0934821
40
1.4087688
50
248.9196578
51
254.1442424
0
ARC
8
DEFAULT_255_1_388
10
22.2532184
20
69.6068805
40
0.8867498
50
241.6337352
51
249.0064643
0
ARC
8
DEFAULT_255_1_388
10
22.0812498
20
69.2917764
40
0.5277799
50
230.4982261
51
241.8087583
0
ARC
8
DEFAULT_255_1_388
10
21.9930269
20
69.1793686
40
0.3849419
50
227.4062979
51
229.9877433
0
ARC
8
DEFAULT_255_1_388
10
21.9381615
20
69.1258155
40
0.3084129
50
200.6782127
51
228.1765252
0
ARC
8
DEFAULT_255_1_388
10
21.9462984
20
69.1241277
40
0.315461
50
179.506278
51
199.8695278
0
ARC
8
DEFAULT_255_1_388
10
21.9452573
20
69.1324671
40
0.3144584
50
132.4834401
51
181.0242352
0
ARC
8
DEFAULT_255_1_388
10
22.0121777
20
69.0692788
40
0.4063094
50
129.2526113
51
133.4249077
0
ARC
8
DEFAULT_255_1_388
10
22.028737
20
69.0444619
40
0.436014
50
101.9878945
51
128.8741833
0
ARC
8
DEFAULT_255_1_388
10
22.0735785
20
68.850836
40
0.6347415
50
89.5906376
51
102.3170567
0
ARC
8
DEFAULT_255_1_388
10
22.0815097
20
68.8866586
40
0.5989122
50
77.2359491
51
90.3248968
0
ARC
8
DEFAULT_255_1_388
10
22.1048028
20
68.9954554
40
0.4876594
50
63.8379856
51
77.0808925
0
ARC
8
DEFAULT_255_1_388
10
22.1360561
20
69.0536882
40
0.4216191
50
45.9863127
51
64.1608798
0
ARC
8
DEFAULT_255_1_388
10
22.1653955
20
69.087199
40
0.3771394
50
32.2747934
51
45.6544796
0
ARC
8
DEFAULT_255_1_388
10
22.1728761
20
69.0893426
40
0.3696765
50
359.6507495
51
32.6129943
0
ARC
8
DEFAULT_255_1_388
10
22.0667944
20
69.0898788
40
0.3013762
50
359.469654
51
14.983205
0
ARC
8
DEFAULT_255_1_388
10
22.1461196
20
69.1111288
40
0.2192542
50
14.9781954
51
48.2004799
0
ARC
8
DEFAULT_255_1_388
10
22.1276307
20
69.0878937
40
0.2489048
50
48.5926661
51
74.1242559
0
ARC
8
DEFAULT_255_1_388
10
22.0901109
20
68.9640607
40
0.3782845
50
73.7889321
51
86.6653996
0
ARC
8
DEFAULT_255_1_388
10
22.0785924
20
68.8282955
40
0.5145025
50
86.2642725
51
90.0533288
0
ARC
8
DEFAULT_255_1_388
10
22.0754017
20
68.8727376
40
0.4700681
50
89.669455
51
99.2313411
0
ARC
8
DEFAULT_255_1_388
10
22.0481176
20
69.0352401
40
0.3052945
50
99.0695987
51
113.7659242
0
ARC
8
DEFAULT_255_1_388
10
22.0173171
20
69.1078772
40
0.226407
50
114.0402885
51
127.9848946
0
ARC
8
DEFAULT_255_1_388
10
21.9902647
20
69.1411884
40
0.1835045
50
127.7287217
51
176.7106493
0
ARC
8
DEFAULT_255_1_388
10
22.0666312
20
69.129821
40
0.2604907
50
175.1780759
51
180.0581213
0
ARC
8
DEFAULT_255_1_388
10
21.9717656
20
69.1284411
40
0.1656287
50
179.6140658
51
228.124674
0
ARC
8
DEFAULT_255_1_388
10
22.0215013
20
69.174494
40
0.2332038
50
226.5785315
51
230.8792476
0
ARC
8
DEFAULT_255_1_388
10
22.07445
20
69.2447908
40
0.3211664
50
231.4636401
51
241.9261664
0
ARC
8
DEFAULT_255_1_388
10
22.2091283
20
69.4926349
40
0.6032345
50
241.7177136
51
248.3259138
0
ARC
8
DEFAULT_255_1_388
10
22.3649878
20
69.8787771
40
1.0196417
50
248.2007377
51
252.4527713
0
ARC
8
DEFAULT_255_1_388
10
22.5003405
20
70.2972092
40
1.4594143
50
252.3388938
51
254.347037
0
ARC
8
DEFAULT_255_1_388
10
21.6518705
20
67.2624095
40
1.6917621
50
71.0197462
51
74.4085467
0
ARC
8
DEFAULT_255_1_388
10
21.8425793
20
67.8129144
40
1.1091618
50
66.1845203
51
71.086519
0
ARC
8
DEFAULT_255_1_388
10
22.0176342
20
68.2070439
40
0.6779073
50
59.3537334
51
66.269255
0
ARC
8
DEFAULT_255_1_388
10
22.1176068
20
68.3761777
40
0.4814366
50
49.1021732
51
59.3294421
0
ARC
8
DEFAULT_255_1_388
10
22.2097056
20
68.4811575
40
0.3417875
50
32.7924183
51
49.2503526
0
ARC
8
DEFAULT_255_1_388
10
22.244667
20
68.5061311
40
0.2988789
50
31.121225
51
32.3977355
0
ARC
8
DEFAULT_255_1_388
10
22.2358848
20
68.5028728
40
0.3080861
50
8.1116803
51
30.7958224
0
ARC
8
DEFAULT_255_1_388
10
22.1447194
20
68.4873437
40
0.4005385
50
359.8390945
51
8.4707348
0
ARC
8
DEFAULT_255_1_388
10
22.2151242
20
68.4818751
40
0.3301608
50
337.4732479
51
0.7538283
0
ARC
8
DEFAULT_255_1_388
10
22.2352267
20
68.4796554
40
0.3107929
50
307.5917028
51
336.4313755
0
ARC
8
DEFAULT_255_1_388
10
22.1841324
20
68.5364509
40
0.3870096
50
307.6560665
51
308.4561779
0
ARC
8
DEFAULT_255_1_388
10
22.1575541
20
68.5772832
40
0.435591
50
284.3733666
51
307.1426212
0
ARC
8
DEFAULT_255_1_388
10
22.1018435
20
68.7822391
40
0.6479685
50
272.4384566
51
284.6464689
0
ARC
8
DEFAULT_255_1_388
10
22.087582
20
68.9846434
40
0.8508149
50
269.9708517
51
272.8180721
0
ARC
8
DEFAULT_255_1_388
10
22.0827503
20
68.7554283
40
0.6216151
50
248.2707343
51
270.4054609
0
ARC
8
DEFAULT_255_1_388
10
22.0766374
20
68.7339673
40
0.5994203
50
246.1380358
51
248.054058
0
ARC
8
DEFAULT_255_1_388
10
22.0295517
20
68.6350705
40
0.4899388
50
233.1671897
51
246.4951656
0
ARC
8
DEFAULT_255_1_388
10
21.9672152
20
68.5509137
40
0.3852115
50
215.3403381
51
233.084328
0
ARC
8
DEFAULT_255_1_388
10
21.9365516
20
68.5286093
40
0.3472969
50
179.2419235
51
215.2648426
0
ARC
8
DEFAULT_255_1_388
10
22.0229067
20
68.5301979
40
0.259251
50
179.3355796
51
199.1045873
0
ARC
8
DEFAULT_255_1_388
10
21.9855209
20
68.5204223
40
0.2207454
50
199.8830064
51
232.7061328
0
ARC
8
DEFAULT_255_1_388
10
22.0386483
20
68.5872456
40
0.306101
50
232.3736206
51
255.5136621
0
ARC
8
DEFAULT_255_1_388
10
22.0769989
20
68.7272177
40
0.4512213
50
255.2447928
51
267.5318292
0
ARC
8
DEFAULT_255_1_388
10
22.0868456
20
68.8658709
40
0.5901825
50
267.1564563
51
270.0294721
0
ARC
8
DEFAULT_255_1_388
10
22.0899781
20
68.8159623
40
0.5402814
50
269.6999944
51
278.1662446
0
ARC
8
DEFAULT_255_1_388
10
22.1187809
20
68.6212974
40
0.3435003
50
278.0229022
51
290.6255326
0
ARC
8
DEFAULT_255_1_388
10
22.1578975
20
68.5169547
40
0.2320666
50
290.6616368
51
307.0374127
0
ARC
8
DEFAULT_255_1_388
10
22.1916875
20
68.475504
40
0.1786372
50
306.3942078
51
355.303191
0
ARC
8
DEFAULT_255_1_388
10
22.1341168
20
68.4841186
40
0.2367516
50
354.3662092
51
0.0709489
0
ARC
8
DEFAULT_255_1_388
10
22.1501037
20
68.4866561
40
0.2207761
50
359.4175379
51
16.1975911
0
ARC
8
DEFAULT_255_1_388
10
22.2013155
20
68.5006954
40
0.1676828
50
16.4721294
51
52.6261798
0
ARC
8
DEFAULT_255_1_388
10
22.1089662
20
68.3787606
40
0.3206412
50
52.7381828
51
62.4979144
0
ARC
8
DEFAULT_255_1_388
10
21.9531415
20
68.0855236
40
0.6527035
50
62.2517425
51
68.1219454
0
ARC
8
DEFAULT_255_1_388
10
21.7596903
20
67.6100951
40
1.1659797
50
68.006043
51
71.8055127
0
ARC
8
DEFAULT_255_1_388
10
21.5576811
20
67.0042723
40
1.8045908
50
71.718361
51
73.9260743
0
LINE
8
DEFAULT_255_1_388
10
23.6195945
20
68.1519
11
23.493999
21
68.4952545
0
LINE
8
DEFAULT_255_1_388
10
23.493999
20
68.4952545
11
22.9428247
21
68.4952545
0
LINE
8
DEFAULT_255_1_388
10
22.9428247
20
68.4952545
11
22.8190364
21
68.1519
0
LINE
8
DEFAULT_255_1_388
10
22.8190364
20
68.1519
11
22.6401306
21
68.1519
0
LINE
8
DEFAULT_255_1_388
10
22.6401306
20
68.1519
11
23.1425125
21
69.4674898
0
LINE
8
DEFAULT_255_1_388
10
23.1425125
20
69.4674898
11
23.2943113
21
69.4674898
0
LINE
8
DEFAULT_255_1_388
10
23.2943113
20
69.4674898
11
23.7975967
21
68.1519
0
LINE
8
DEFAULT_255_1_388
10
23.7975967
20
68.1519
11
23.6195945
21
68.1519
0
LINE
8
DEFAULT_255_1_388
10
23.2184119
20
69.2533451
11
22.9952314
21
68.6380177
0
LINE
8
DEFAULT_255_1_388
10
22.9952314
20
68.6380177
11
23.4424958
21
68.6380177
0
LINE
8
DEFAULT_255_1_388
10
23.4424958
20
68.6380177
11
23.2184119
21
69.2533451
0
LINE
8
DEFAULT_255_1_388
10
24.2963643
20
68.7789737
11
24.2963643
21
68.6425355
0
LINE
8
DEFAULT_255_1_388
10
24.2963643
20
68.6425355
11
23.8554248
21
68.6425355
0
LINE
8
DEFAULT_255_1_388
10
23.8554248
20
68.6425355
11
23.8554248
21
68.7789737
0
LINE
8
DEFAULT_255_1_388
10
23.8554248
20
68.7789737
11
24.2963643
21
68.7789737
0
LINE
8
DEFAULT_255_1_388
10
22.5425457
20
77.0245892
11
22.3681577
21
77.0245892
0
LINE
8
DEFAULT_255_1_388
10
21.5892852
20
76.4707042
11
21.7636731
21
76.4707042
0
ARC
8
DEFAULT_255_1_388
10
22.4422304
20
78.0309821
40
1.4087688
50
248.9196578
51
254.1442424
0
ARC
8
DEFAULT_255_1_388
10
22.2532184
20
77.5443805
40
0.8867498
50
241.6337352
51
249.0064643
0
ARC
8
DEFAULT_255_1_388
10
22.0812498
20
77.2292764
40
0.5277799
50
230.4982261
51
241.8087583
0
ARC
8
DEFAULT_255_1_388
10
21.9930269
20
77.1168686
40
0.3849419
50
227.4062979
51
229.9877433
0
ARC
8
DEFAULT_255_1_388
10
21.9381615
20
77.0633155
40
0.3084129
50
200.6782127
51
228.1765252
0
ARC
8
DEFAULT_255_1_388
10
21.9462984
20
77.0616277
40
0.315461
50
179.506278
51
199.8695278
0
ARC
8
DEFAULT_255_1_388
10
21.9452573
20
77.0699671
40
0.3144584
50
132.4834401
51
181.0242352
0
ARC
8
DEFAULT_255_1_388
10
22.0121777
20
77.0067788
40
0.4063094
50
129.2526113
51
133.4249077
0
ARC
8
DEFAULT_255_1_388
10
22.028737
20
76.9819619
40
0.436014
50
101.9878945
51
128.8741833
0
ARC
8
DEFAULT_255_1_388
10
22.0735785
20
76.788336
40
0.6347415
50
89.5906376
51
102.3170567
0
ARC
8
DEFAULT_255_1_388
10
22.0815097
20
76.8241586
40
0.5989122
50
77.2359491
51
90.3248968
0
ARC
8
DEFAULT_255_1_388
10
22.1048028
20
76.9329554
40
0.4876594
50
63.8379856
51
77.0808925
0
ARC
8
DEFAULT_255_1_388
10
22.1360561
20
76.9911882
40
0.4216191
50
45.9863127
51
64.1608798
0
ARC
8
DEFAULT_255_1_388
10
22.1653955
20
77.024699
40
0.3771394
50
32.2747934
51
45.6544796
0
ARC
8
DEFAULT_255_1_388
10
22.1728761
20
77.0268426
40
0.3696765
50
359.6507495
51
32.6129943
0
ARC
8
DEFAULT_255_1_388
10
22.0667944
20
77.0273788
40
0.3013762
50
359.469654
51
14.983205
0
ARC
8
DEFAULT_255_1_388
10
22.1461196
20
77.0486288
40
0.2192542
50
14.9781954
51
48.2004799
0
ARC
8
DEFAULT_255_1_388
10
22.1276307
20
77.0253937
40
0.2489048
50
48.5926661
51
74.1242559
0
ARC
8
DEFAULT_255_1_388
10
22.0901109
20
76.9015607
40
0.3782845
50
73.7889321
51
86.6653996
0
ARC
8
DEFAULT_255_1_388
10
22.0785924
20
76.7657955
40
0.5145025
50
86.2642725
51
90.0533288
0
ARC
8
DEFAULT_255_1_388
10
22.0754017
20
76.8102376
40
0.4700681
50
89.669455
51
99.2313411
0
ARC
8
DEFAULT_255_1_388
10
22.0481176
20
76.9727401
40
0.3052945
50
99.0695987
51
113.7659242
0
ARC
8
DEFAULT_255_1_388
10
22.0173171
20
77.0453772
40
0.226407
50
114.0402885
51
127.9848946
0
ARC
8
DEFAULT_255_1_388
10
21.9902647
20
77.0786884
40
0.1835045
50
127.7287217
51
176.7106493
0
ARC
8
DEFAULT_255_1_388
10
22.0666312
20
77.067321
40
0.2604907
50
175.1780759
51
180.0581213
0
ARC
8
DEFAULT_255_1_388
10
21.9717656
20
77.0659411
40
0.1656287
50
179.6140658
51
228.124674
0
ARC
8
DEFAULT_255_1_388
10
22.0215013
20
77.111994
40
0.2332038
50
226.5785315
51
230.8792476
0
ARC
8
DEFAULT_255_1_388
10
22.07445
20
77.1822908
40
0.3211664
50
231.4636401
51
241.9261664
0
ARC
8
DEFAULT_255_1_388
10
22.2091283
20
77.4301349
40
0.6032345
50
241.7177136
51
248.3259138
0
ARC
8
DEFAULT_255_1_388
10
22.3649878
20
77.8162771
40
1.0196417
50
248.2007377
51
252.4527713
0
ARC
8
DEFAULT_255_1_388
10
22.5003405
20
78.2347092
40
1.4594143
50
252.3388938
51
254.347037
0
ARC
8
DEFAULT_255_1_388
10
21.6518705
20
75.1999095
40
1.6917621
50
71.0197462
51
74.4085467
0
ARC
8
DEFAULT_255_1_388
10
21.8425793
20
75.7504144
40
1.1091618
50
66.1845203
51
71.086519
0
ARC
8
DEFAULT_255_1_388
10
22.0176342
20
76.1445439
40
0.6779073
50
59.3537334
51
66.269255
0
ARC
8
DEFAULT_255_1_388
10
22.1176068
20
76.3136777
40
0.4814366
50
49.1021732
51
59.3294421
0
ARC
8
DEFAULT_255_1_388
10
22.2097056
20
76.4186575
40
0.3417875
50
32.7924183
51
49.2503526
0
ARC
8
DEFAULT_255_1_388
10
22.244667
20
76.4436311
40
0.2988789
50
31.121225
51
32.3977355
0
ARC
8
DEFAULT_255_1_388
10
22.2358848
20
76.4403728
40
0.3080861
50
8.1116803
51
30.7958224
0
ARC
8
DEFAULT_255_1_388
10
22.1447194
20
76.4248437
40
0.4005385
50
359.8390945
51
8.4707348
0
ARC
8
DEFAULT_255_1_388
10
22.2151242
20
76.4193751
40
0.3301608
50
337.4732479
51
0.7538283
0
ARC
8
DEFAULT_255_1_388
10
22.2352267
20
76.4171554
40
0.3107929
50
307.5917028
51
336.4313755
0
ARC
8
DEFAULT_255_1_388
10
22.1841324
20
76.4739509
40
0.3870096
50
307.6560665
51
308.4561779
0
ARC
8
DEFAULT_255_1_388
10
22.1575541
20
76.5147832
40
0.435591
50
284.3733666
51
307.1426212
0
ARC
8
DEFAULT_255_1_388
10
22.1018435
20
76.7197391
40
0.6479685
50
272.4384566
51
284.6464689
0
ARC
8
DEFAULT_255_1_388
10
22.087582
20
76.9221434
40
0.8508149
50
269.9708517
51
272.8180721
0
ARC
8
DEFAULT_255_1_388
10
22.0827503
20
76.6929283
40
0.6216151
50
248.2707343
51
270.4054609
0
ARC
8
DEFAULT_255_1_388
10
22.0766374
20
76.6714673
40
0.5994203
50
246.1380358
51
248.054058
0
ARC
8
DEFAULT_255_1_388
10
22.0295517
20
76.5725705
40
0.4899388
50
233.1671897
51
246.4951656
0
ARC
8
DEFAULT_255_1_388
10
21.9672152
20
76.4884137
40
0.3852115
50
215.3403381
51
233.084328
0
ARC
8
DEFAULT_255_1_388
10
21.9365516
20
76.4661093
40
0.3472969
50
179.2419235
51
215.2648426
0
ARC
8
DEFAULT_255_1_388
10
22.0229067
20
76.4676979
40
0.259251
50
179.3355796
51
199.1045873
0
ARC
8
DEFAULT_255_1_388
10
21.9855209
20
76.4579223
40
0.2207454
50
199.8830064
51
232.7061328
0
ARC
8
DEFAULT_255_1_388
10
22.0386483
20
76.5247456
40
0.306101
50
232.3736206
51
255.5136621
0
ARC
8
DEFAULT_255_1_388
10
22.0769989
20
76.6647177
40
0.4512213
50
255.2447928
51
267.5318292
0
ARC
8
DEFAULT_255_1_388
10
22.0868456
20
76.8033709
40
0.5901825
50
267.1564563
51
270.0294721
0
ARC
8
DEFAULT_255_1_388
10
22.0899781
20
76.7534623
40
0.5402814
50
269.6999944
51
278.1662446
0
ARC
8
DEFAULT_255_1_388
10
22.1187809
20
76.5587974
40
0.3435003
50
278.0229022
51
290.6255326
0
ARC
8
DEFAULT_255_1_388
10
22.1578975
20
76.4544547
40
0.2320666
50
290.6616368
51
307.0374127
0
ARC
8
DEFAULT_255_1_388
10
22.1916875
20
76.413004
40
0.1786372
50
306.3942078
51
355.303191
0
ARC
8
DEFAULT_255_1_388
10
22.1341168
20
76.4216186
40
0.2367516
50
354.3662092
51
0.0709489
0
ARC
8
DEFAULT_255_1_388
10
22.1501037
20
76.4241561
40
0.2207761
50
359.4175379
51
16.1975911
0
ARC
8
DEFAULT_255_1_388
10
22.2013155
20
76.4381954
40
0.1676828
50
16.4721294
51
52.6261798
0
ARC
8
DEFAULT_255_1_388
10
22.1089662
20
76.3162606
40
0.3206412
50
52.7381828
51
62.4979144
0
ARC
8
DEFAULT_255_1_388
10
21.9531415
20
76.0230236
40
0.6527035
50
62.2517425
51
68.1219454
0
ARC
8
DEFAULT_255_1_388
10
21.7596903
20
75.5475951
40
1.1659797
50
68.006043
51
71.8055127
0
ARC
8
DEFAULT_255_1_388
10
21.5576811
20
74.9417723
40
1.8045908
50
71.718361
51
73.9260743
0
LINE
8
DEFAULT_255_1_388
10
23.6195945
20
76.0894
11
23.493999
21
76.4327545
0
LINE
8
DEFAULT_255_1_388
10
23.493999
20
76.4327545
11
22.9428247
21
76.4327545
0
LINE
8
DEFAULT_255_1_388
10
22.9428247
20
76.4327545
11
22.8190364
21
76.0894
0
LINE
8
DEFAULT_255_1_388
10
22.8190364
20
76.0894
11
22.6401306
21
76.0894
0
LINE
8
DEFAULT_255_1_388
10
22.6401306
20
76.0894
11
23.1425125
21
77.4049898
0
LINE
8
DEFAULT_255_1_388
10
23.1425125
20
77.4049898
11
23.2943113
21
77.4049898
0
LINE
8
DEFAULT_255_1_388
10
23.2943113
20
77.4049898
11
23.7975967
21
76.0894
0
LINE
8
DEFAULT_255_1_388
10
23.7975967
20
76.0894
11
23.6195945
21
76.0894
0
LINE
8
DEFAULT_255_1_388
10
23.2184119
20
77.1908451
11
22.9952314
21
76.5755177
0
LINE
8
DEFAULT_255_1_388
10
22.9952314
20
76.5755177
11
23.4424958
21
76.5755177
0
LINE
8
DEFAULT_255_1_388
10
23.4424958
20
76.5755177
11
23.2184119
21
77.1908451
0
LINE
8
DEFAULT_255_1_388
10
24.2963643
20
76.7164737
11
24.2963643
21
76.5800355
0
LINE
8
DEFAULT_255_1_388
10
24.2963643
20
76.5800355
11
23.8554248
21
76.5800355
0
LINE
8
DEFAULT_255_1_388
10
23.8554248
20
76.5800355
11
23.8554248
21
76.7164737
0
LINE
8
DEFAULT_255_1_388
10
23.8554248
20
76.7164737
11
24.2963643
21
76.7164737
0
LINE
8
DEFAULT_255_1_388
10
21.1928024
20
85.3424898
11
21.4168864
21
85.3424898
0
LINE
8
DEFAULT_255_1_388
10
21.4168864
20
85.3424898
11
21.8469831
21
84.2690553
0
LINE
8
DEFAULT_255_1_388
10
21.8469831
20
84.2690553
11
22.2770797
21
85.3424898
0
LINE
8
DEFAULT_255_1_388
10
22.2770797
20
85.3424898
11
22.5020673
21
85.3424898
0
LINE
8
DEFAULT_255_1_388
10
22.5020673
20
85.3424898
11
22.5020673
21
84.0269
0
LINE
8
DEFAULT_255_1_388
10
22.5020673
20
84.0269
11
22.3285829
21
84.0269
0
LINE
8
DEFAULT_255_1_388
10
22.3285829
20
84.0269
11
22.3285829
21
84.539221
0
LINE
8
DEFAULT_255_1_388
10
22.3285829
20
84.539221
11
22.3448471
21
85.0922025
0
LINE
8
DEFAULT_255_1_388
10
22.3448471
20
85.0922025
11
21.9129433
21
84.0269
0
LINE
8
DEFAULT_255_1_388
10
21.9129433
20
84.0269
11
21.7801193
21
84.0269
0
LINE
8
DEFAULT_255_1_388
10
21.7801193
20
84.0269
11
21.349119
21
85.0894918
0
LINE
8
DEFAULT_255_1_388
10
21.349119
20
85.0894918
11
21.3662868
21
84.539221
0
LINE
8
DEFAULT_255_1_388
10
21.3662868
20
84.539221
11
21.3662868
21
84.0269
0
LINE
8
DEFAULT_255_1_388
10
21.3662868
20
84.0269
11
21.1928024
21
84.0269
0
LINE
8
DEFAULT_255_1_388
10
21.1928024
20
84.0269
11
21.1928024
21
85.3424898
0
LINE
8
DEFAULT_255_1_388
10
23.2917826
20
84.5419317
11
22.98186
21
84.5419317
0
LINE
8
DEFAULT_255_1_388
10
22.98186
20
84.5419317
11
22.98186
21
84.0269
0
LINE
8
DEFAULT_255_1_388
10
22.98186
20
84.0269
11
22.8083756
21
84.0269
0
LINE
8
DEFAULT_255_1_388
10
22.8083756
20
84.0269
11
22.8083756
21
85.3424898
0
LINE
8
DEFAULT_255_1_388
10
22.8083756
20
85.3424898
11
23.2935897
21
85.3424898
0
LINE
8
DEFAULT_255_1_388
10
22.98186
20
85.1997267
11
22.98186
21
84.6837914
0
LINE
8
DEFAULT_255_1_388
10
22.98186
20
84.6837914
11
23.2935897
21
84.6837914
0
LINE
8
DEFAULT_255_1_388
10
23.303529
20
85.1997267
11
22.98186
21
85.1997267
0
ARC
8
DEFAULT_255_1_388
10
23.2983271
20
84.6608334
40
0.6816729
50
78.8380084
51
90.398184
0
ARC
8
DEFAULT_255_1_388
10
23.3451301
20
84.8881796
40
0.449571
50
58.9633273
51
79.0810717
0
ARC
8
DEFAULT_255_1_388
10
23.3790686
20
84.9511823
40
0.3781049
50
48.0194715
51
58.4475592
0
ARC
8
DEFAULT_255_1_388
10
23.3890506
20
84.9607818
40
0.3642936
50
3.3374546
51
48.1766642
0
ARC
8
DEFAULT_255_1_388
10
23.2505312
20
84.9408581
40
0.5038766
50
359.9483251
51
4.6822857
0
ARC
8
DEFAULT_255_1_388
10
23.2645236
20
84.9360779
40
0.4899031
50
346.1879032
51
0.5059221
0
ARC
8
DEFAULT_255_1_388
10
23.4174027
20
84.8963763
40
0.3319729
50
310.8832219
51
346.5426612
0
ARC
8
DEFAULT_255_1_388
10
23.3826875
20
84.9432853
40
0.3901853
50
286.6925305
51
310.228778
0
ARC
8
DEFAULT_255_1_388
10
23.3186605
20
85.1446585
40
0.6014737
50
274.6848219
51
287.0247342
0
ARC
8
DEFAULT_255_1_388
10
23.2933154
20
85.3931088
40
0.8511785
50
269.8968222
51
275.0192639
0
ARC
8
DEFAULT_255_1_388
10
23.2964147
20
85.1593144
40
0.4755314
50
269.6596206
51
279.4150542
0
ARC
8
DEFAULT_255_1_388
10
23.3253605
20
84.9915945
40
0.3053379
50
279.2050006
51
294.9901776
0
ARC
8
DEFAULT_255_1_388
10
23.358024
20
84.9187353
40
0.2255036
50
295.2886769
51
311.2912669
0
ARC
8
DEFAULT_255_1_388
10
23.3659981
20
84.9068938
40
0.2113522
50
311.7853512
51
347.2860549
0
ARC
8
DEFAULT_255_1_388
10
23.2553143
20
84.935343
40
0.3256011
50
346.6891629
51
0.1057086
0
ARC
8
DEFAULT_255_1_388
10
23.1630602
20
84.9386247
40
0.417863
50
359.63239
51
359.9961329
0
ARC
8
DEFAULT_255_1_388
10
23.2795208
20
84.9413987
40
0.3014155
50
359.4673371
51
15.5931159
0
ARC
8
DEFAULT_255_1_388
10
23.349827
20
84.9603937
40
0.2285918
50
15.7441779
51
46.620186
0
ARC
8
DEFAULT_255_1_388
10
23.333203
20
84.9412361
40
0.2539359
50
46.8628482
51
75.6676625
0
ARC
8
DEFAULT_255_1_388
10
23.3001087
20
84.8221243
40
0.3775415
50
75.2763152
51
88.2916439
0
ARC
8
DEFAULT_255_1_388
10
23.2935086
20
84.7219097
40
0.4779221
50
87.8589087
51
88.7986197
0
LINE
8
DEFAULT_255_1_388
10
24.2974499
20
84.6539737
11
24.2974499
21
84.5175355
0
LINE
8
DEFAULT_255_1_388
10
24.2974499
20
84.5175355
11
23.8565104
21
84.5175355
0
LINE
8
DEFAULT_255_1_388
10
23.8565104
20
84.5175355
11
23.8565104
21
84.6539737
0
LINE
8
DEFAULT_255_1_388
10
23.8565104
20
84.6539737
11
24.2974499
21
84.6539737
0
LINE
8
DEFAULT_255_1_388
10
21.1928024
20
93.2799898
11
21.4168864
21
93.2799898
0
LINE
8
DEFAULT_255_1_388
10
21.4168864
20
93.2799898
11
21.8469831
21
92.2065553
0
LINE
8
DEFAULT_255_1_388
10
21.8469831
20
92.2065553
11
22.2770797
21
93.2799898
0
LINE
8
DEFAULT_255_1_388
10
22.2770797
20
93.2799898
11
22.5020673
21
93.2799898
0
LINE
8
DEFAULT_255_1_388
10
22.5020673
20
93.2799898
11
22.5020673
21
91.9644
0
LINE
8
DEFAULT_255_1_388
10
22.5020673
20
91.9644
11
22.3285829
21
91.9644
0
LINE
8
DEFAULT_255_1_388
10
22.3285829
20
91.9644
11
22.3285829
21
92.476721
0
LINE
8
DEFAULT_255_1_388
10
22.3285829
20
92.476721
11
22.3448471
21
93.0297025
0
LINE
8
DEFAULT_255_1_388
10
22.3448471
20
93.0297025
11
21.9129433
21
91.9644
0
LINE
8
DEFAULT_255_1_388
10
21.9129433
20
91.9644
11
21.7801193
21
91.9644
0
LINE
8
DEFAULT_255_1_388
10
21.7801193
20
91.9644
11
21.349119
21
93.0269918
0
LINE
8
DEFAULT_255_1_388
10
21.349119
20
93.0269918
11
21.3662868
21
92.476721
0
LINE
8
DEFAULT_255_1_388
10
21.3662868
20
92.476721
11
21.3662868
21
91.9644
0
LINE
8
DEFAULT_255_1_388
10
21.3662868
20
91.9644
11
21.1928024
21
91.9644
0
LINE
8
DEFAULT_255_1_388
10
21.1928024
20
91.9644
11
21.1928024
21
93.2799898
0
LINE
8
DEFAULT_255_1_388
10
23.2917826
20
92.4794317
11
22.98186
21
92.4794317
0
LINE
8
DEFAULT_255_1_388
10
22.98186
20
92.4794317
11
22.98186
21
91.9644
0
LINE
8
DEFAULT_255_1_388
10
22.98186
20
91.9644
11
22.8083756
21
91.9644
0
LINE
8
DEFAULT_255_1_388
10
22.8083756
20
91.9644
11
22.8083756
21
93.2799898
0
LINE
8
DEFAULT_255_1_388
10
22.8083756
20
93.2799898
11
23.2935897
21
93.2799898
0
LINE
8
DEFAULT_255_1_388
10
22.98186
20
93.1372267
11
22.98186
21
92.6212914
0
LINE
8
DEFAULT_255_1_388
10
22.98186
20
92.6212914
11
23.2935897
21
92.6212914
0
LINE
8
DEFAULT_255_1_388
10
23.303529
20
93.1372267
11
22.98186
21
93.1372267
0
ARC
8
DEFAULT_255_1_388
10
23.2983271
20
92.5983334
40
0.6816729
50
78.8380084
51
90.398184
0
ARC
8
DEFAULT_255_1_388
10
23.3451301
20
92.8256796
40
0.449571
50
58.9633273
51
79.0810717
0
ARC
8
DEFAULT_255_1_388
10
23.3790686
20
92.8886823
40
0.3781049
50
48.0194715
51
58.4475592
0
ARC
8
DEFAULT_255_1_388
10
23.3890506
20
92.8982818
40
0.3642936
50
3.3374546
51
48.1766642
0
ARC
8
DEFAULT_255_1_388
10
23.2505312
20
92.8783581
40
0.5038766
50
359.9483251
51
4.6822857
0
ARC
8
DEFAULT_255_1_388
10
23.2645236
20
92.8735779
40
0.4899031
50
346.1879032
51
0.5059221
0
ARC
8
DEFAULT_255_1_388
10
23.4174027
20
92.8338763
40
0.3319729
50
310.8832219
51
346.5426612
0
ARC
8
DEFAULT_255_1_388
10
23.3826875
20
92.8807853
40
0.3901853
50
286.6925305
51
310.228778
0
ARC
8
DEFAULT_255_1_388
10
23.3186605
20
93.0821585
40
0.6014737
50
274.6848219
51
287.0247342
0
ARC
8
DEFAULT_255_1_388
10
23.2933154
20
93.3306088
40
0.8511785
50
269.8968222
51
275.0192639
0
ARC
8
DEFAULT_255_1_388
10
23.2964147
20
93.0968144
40
0.4755314
50
269.6596206
51
279.4150542
0
ARC
8
DEFAULT_255_1_388
10
23.3253605
20
92.9290945
40
0.3053379
50
279.2050006
51
294.9901776
0
ARC
8
DEFAULT_255_1_388
10
23.358024
20
92.8562353
40
0.2255036
50
295.2886769
51
311.2912669
0
ARC
8
DEFAULT_255_1_388
10
23.3659981
20
92.8443938
40
0.2113522
50
311.7853512
51
347.2860549
0
ARC
8
DEFAULT_255_1_388
10
23.2553143
20
92.872843
40
0.3256011
50
346.6891629
51
0.1057086
0
ARC
8
DEFAULT_255_1_388
10
23.1630602
20
92.8761247
40
0.417863
50
359.63239
51
359.9961329
0
ARC
8
DEFAULT_255_1_388
10
23.2795208
20
92.8788987
40
0.3014155
50
359.4673371
51
15.5931159
0
ARC
8
DEFAULT_255_1_388
10
23.349827
20
92.8978937
40
0.2285918
50
15.7441779
51
46.620186
0
ARC
8
DEFAULT_255_1_388
10
23.333203
20
92.8787361
40
0.2539359
50
46.8628482
51
75.6676625
0
ARC
8
DEFAULT_255_1_388
10
23.3001087
20
92.7596243
40
0.3775415
50
75.2763152
51
88.2916439
0
ARC
8
DEFAULT_255_1_388
10
23.2935086
20
92.6594097
40
0.4779221
50
87.8589087
51
88.7986197
0
LINE
8
DEFAULT_255_1_388
10
24.2974499
20
92.5914737
11
24.2974499
21
92.4550355
0
LINE
8
DEFAULT_255_1_388
10
24.2974499
20
92.4550355
11
23.8565104
21
92.4550355
0
LINE
8
DEFAULT_255_1_388
10
23.8565104
20
92.4550355
11
23.8565104
21
92.5914737
0
LINE
8
DEFAULT_255_1_388
10
23.8565104
20
92.5914737
11
24.2974499
21
92.5914737
0
ENDSEC
0
EOF