0
SECTION
2
HEADER
9
$MEASUREMENT
70
1
0
ENDSEC
0
SECTION
2
TABLES
0
TABLE
2
LTYPE
0
LTYPE
72
65
70
64
2
CONTINUOUS
3
______
73
0
40
0
0
ENDTAB
0
TABLE
2
LAYER
0
LAYER
2
DEFAULT_255_2_778
70
0
62
255
6
CONTINUOUS
0
ENDTAB
0
ENDSEC
0
SECTION
2
ENTITIES
0
LINE
8
DEFAULT_255_2_778
10
14.3801393
20
0.0396258
11
12.3957393
21
2.7649258
0
LINE
8
DEFAULT_255_2_778
10
12.3957393
20
2.7649258
11
11.6549393
21
1.9976258
0
LINE
8
DEFAULT_255_2_778
10
11.6549393
20
1.9976258
11
11.6549393
21
0.0661258
0
LINE
8
DEFAULT_255_2_778
10
11.6549393
20
0.0661258
11
10.2526393
21
0.0661258
0
LINE
8
DEFAULT_255_2_778
10
10.2526393
20
0.0661258
11
10.2526393
21
6.4161258
0
LINE
8
DEFAULT_255_2_778
10
10.2526393
20
6.4161258
11
11.6549393
21
6.4161258
0
LINE
8
DEFAULT_255_2_778
10
11.6549393
20
6.4161258
11
11.6549393
21
3.6380258
0
LINE
8
DEFAULT_255_2_778
10
11.6549393
20
3.6380258
11
14.2213393
21
6.4161258
0
LINE
8
DEFAULT_255_2_778
10
14.2213393
20
6.4161258
11
15.9147393
21
6.4161258
0
LINE
8
DEFAULT_255_2_778
10
15.9147393
20
6.4161258
11
13.3218393
21
3.7174258
0
LINE
8
DEFAULT_255_2_778
10
13.3218393
20
3.7174258
11
16.0205393
21
0.0661258
0
LINE
8
DEFAULT_255_2_778
10
16.0205393
20
0.0661258
11
14.3801393
21
0.0661258
0
LINE
8
DEFAULT_255_2_778
10
14.3801393
20
0.0661258
11
14.3801393
21
0.0396258
0
LINE
8
DEFAULT_255_2_778
10
17.4228518
20
0.0396999
11
17.4228518
21
6.3896999
0
LINE
8
DEFAULT_255_2_778
10
17.4228518
20
6.3896999
11
18.8251518
21
6.3896999
0
LINE
8
DEFAULT_255_2_778
10
18.8251518
20
6.3896999
11
18.8251518
21
0.0396999
0
LINE
8
DEFAULT_255_2_778
10
18.8251518
20
0.0396999
11
17.4228518
21
0.0396999
0
LINE
8
DEFAULT_255_2_778
10
23.7463008
20
5.1726999
11
23.7463008
21
0.0661999
0
LINE
8
DEFAULT_255_2_778
10
23.7463008
20
0.0661999
11
22.3441008
21
0.0661999
0
LINE
8
DEFAULT_255_2_778
10
22.3441008
20
0.0661999
11
22.3441008
21
5.1726999
0
LINE
8
DEFAULT_255_2_778
10
22.3441008
20
5.1726999
11
20.4126008
21
5.1726999
0
LINE
8
DEFAULT_255_2_778
10
20.4126008
20
5.1726999
11
20.4126008
21
6.4161999
0
LINE
8
DEFAULT_255_2_778
10
20.4126008
20
6.4161999
11
25.6778008
21
6.4161999
0
LINE
8
DEFAULT_255_2_778
10
25.6778008
20
6.4161999
11
25.6778008
21
5.1726999
0
LINE
8
DEFAULT_255_2_778
10
25.6778008
20
5.1726999
11
23.7463008
21
5.1726999
0
LINE
8
DEFAULT_255_2_778
10
27.2123982
20
0.0396999
11
27.2123982
21
6.3896999
0
LINE
8
DEFAULT_255_2_778
10
27.2123982
20
6.3896999
11
32.0013982
21
6.3896999
0
LINE
8
DEFAULT_255_2_778
10
32.0013982
20
6.3896999
11
32.0013982
21
5.1461999
0
LINE
8
DEFAULT_255_2_778
10
32.0013982
20
5.1461999
11
28.5881982
21
5.1461999
0
LINE
8
DEFAULT_255_2_778
10
28.5881982
20
5.1461999
11
28.5881982
21
3.8496999
0
LINE
8
DEFAULT_255_2_778
10
28.5881982
20
3.8496999
11
31.5779982
21
3.8496999
0
LINE
8
DEFAULT_255_2_778
10
31.5779982
20
3.8496999
11
31.5779982
21
2.6061999
0
LINE
8
DEFAULT_255_2_778
10
31.5779982
20
2.6061999
11
28.5881982
21
2.6061999
0
LINE
8
DEFAULT_255_2_778
10
28.5881982
20
2.6061999
11
28.5881982
21
1.2831999
0
LINE
8
DEFAULT_255_2_778
10
28.5881982
20
1.2831999
11
32.0277982
21
1.2831999
0
LINE
8
DEFAULT_255_2_778
10
32.0277982
20
1.2831999
11
32.0277982
21
0.0396999
0
LINE
8
DEFAULT_255_2_778
10
32.0277982
20
0.0396999
11
27.2123982
21
0.0396999
0
ARC
8
DEFAULT_255_2_778
10
36.0389199
20
4.1278533
40
4.1675779
50
229.3540797
51
269.7815789
0
ARC
8
DEFAULT_255_2_778
10
36.9498002
20
5.3281271
40
4.3951824
50
230.3361361
51
238.7091337
0
ARC
8
DEFAULT_255_2_778
10
36.0508588
20
3.7977944
40
2.62069
50
238.1265716
51
266.8085782
0
ARC
8
DEFAULT_255_2_778
10
36.0487638
20
3.9268399
40
2.7494344
50
267.0018805
51
270.013934
0
ARC
8
DEFAULT_255_2_778
10
36.059995
20
2.9172505
40
1.7398768
50
269.6521639
51
280.0112986
0
ARC
8
DEFAULT_255_2_778
10
36.1766621
20
2.2803544
40
1.0924049
50
279.7925246
51
294.819889
0
ARC
8
DEFAULT_255_2_778
10
36.3715493
20
1.8727761
40
0.6406928
50
294.3013999
51
321.1769672
0
ARC
8
DEFAULT_255_2_778
10
36.4725334
20
1.7783995
40
0.502955
50
322.3411479
51
0.8551207
0
ARC
8
DEFAULT_255_2_778
10
36.5258239
20
1.8366229
40
0.4502603
50
356.9168678
51
42.0737782
0
ARC
8
DEFAULT_255_2_778
10
36.374171
20
1.6881251
40
0.6623919
50
42.8182561
51
55.5754054
0
ARC
8
DEFAULT_255_2_778
10
36.0791667
20
1.2663526
40
1.177082
50
55.3367194
51
62.6524742
0
ARC
8
DEFAULT_255_2_778
10
35.8743627
20
0.8903898
40
1.6051363
50
62.3240013
51
62.7212167
0
ARC
8
DEFAULT_255_2_778
10
35.6931564
20
0.5284853
40
2.0098486
50
62.8584642
51
66.6061426
0
ARC
8
DEFAULT_255_2_778
10
35.2842764
20
-0.4120174
40
3.0353855
50
66.5713577
51
69.2730007
0
ARC
8
DEFAULT_255_2_778
10
34.7912324
20
-1.708352
40
4.4223145
50
69.2426856
51
71.1151143
0
ARC
8
DEFAULT_255_2_778
10
34.2744379
20
-3.2100444
40
6.0104425
50
71.0872186
51
72.2265075
0
ARC
8
DEFAULT_255_2_778
10
33.605753
20
-5.3037391
40
8.2083262
50
72.2428496
51
73.5358277
0
ARC
8
DEFAULT_255_2_778
10
32.6821208
20
-8.4185308
40
11.4571749
50
73.5209271
51
74.3916787
0
ARC
8
DEFAULT_255_2_778
10
31.9791187
20
-10.9175411
40
14.0531809
50
74.3725373
51
74.6236568
0
ARC
8
DEFAULT_255_2_778
10
38.1917404
20
12.7222859
40
10.3915049
50
253.2444174
51
256.1569237
0
ARC
8
DEFAULT_255_2_778
10
36.6214866
20
7.5353682
40
4.9721258
50
247.5530647
51
253.3395053
0
ARC
8
DEFAULT_255_2_778
10
35.7394429
20
5.4166559
40
2.6771593
50
237.5114618
51
247.6864308
0
ARC
8
DEFAULT_255_2_778
10
35.0545107
20
4.3970129
40
1.4495049
50
198.8500284
51
238.6996644
0
ARC
8
DEFAULT_255_2_778
10
35.363472
20
4.4850101
40
1.7704044
50
185.8593637
51
198.3145649
0
ARC
8
DEFAULT_255_2_778
10
35.9897588
20
4.5584423
40
2.4009328
50
179.8672343
51
186.0768303
0
ARC
8
DEFAULT_255_2_778
10
35.5495638
20
4.6002194
40
1.9607554
50
164.3874378
51
180.2838481
0
ARC
8
DEFAULT_255_2_778
10
35.3490092
20
4.6419639
40
1.7564196
50
116.8615948
51
163.9382068
0
ARC
8
DEFAULT_255_2_778
10
35.651057
20
4.1215986
40
2.3573642
50
102.8891595
51
117.696182
0
ARC
8
DEFAULT_255_2_778
10
35.7892279
20
3.5363134
40
2.9587262
50
91.5416657
51
102.9691826
0
ARC
8
DEFAULT_255_2_778
10
35.8110414
20
3.1494126
40
3.346093
50
89.9950153
51
91.7368098
0
ARC
8
DEFAULT_255_2_778
10
35.8217194
20
2.4401372
40
4.0553818
50
79.5010415
51
90.1467495
0
ARC
8
DEFAULT_255_2_778
10
35.9191152
20
2.955831
40
3.5305749
50
62.5717028
51
79.5301995
0
ARC
8
DEFAULT_255_2_778
10
35.9339134
20
3.0025455
40
3.482305
50
50.1322537
51
62.4337604
0
ARC
8
DEFAULT_255_2_778
10
34.8243576
20
0.9690597
40
4.495621
50
54.2372821
51
61.8598629
0
ARC
8
DEFAULT_255_2_778
10
35.4997548
20
2.2413399
40
3.0551945
50
61.7758082
51
72.3712306
0
ARC
8
DEFAULT_255_2_778
10
35.7931816
20
3.1868824
40
2.0652029
50
72.1850994
51
89.4964272
0
ARC
8
DEFAULT_255_2_778
10
35.8015376
20
3.8175819
40
1.4344572
50
89.6087673
51
101.1627613
0
ARC
8
DEFAULT_255_2_778
10
35.6960624
20
4.3325997
40
0.9087712
50
100.9248165
51
117.8333008
0
ARC
8
DEFAULT_255_2_778
10
35.5247326
20
4.6460309
40
0.5516311
50
117.296587
51
148.1411752
0
ARC
8
DEFAULT_255_2_778
10
35.4554872
20
4.700105
40
0.4643703
50
149.2983756
51
180.4687841
0
ARC
8
DEFAULT_255_2_778
10
35.6352108
20
4.6574569
40
0.6441987
50
178.8927187
51
195.7283576
0
ARC
8
DEFAULT_255_2_778
10
35.4317263
20
4.6092828
40
0.4353629
50
196.8851938
51
230.3007122
0
ARC
8
DEFAULT_255_2_778
10
35.668434
20
4.8808138
40
0.7955271
50
229.6754005
51
241.2536492
0
ARC
8
DEFAULT_255_2_778
10
36.0321125
20
5.5300446
40
1.5396642
50
241.0072452
51
247.3747482
0
ARC
8
DEFAULT_255_2_778
10
36.3425865
20
6.2418254
40
2.316142
50
247.0591799
51
248.1613562
0
ARC
8
DEFAULT_255_2_778
10
36.633727
20
6.9797378
40
3.1094036
50
248.2397091
51
250.6986788
0
ARC
8
DEFAULT_255_2_778
10
37.2076196
20
8.6145476
40
4.8420186
50
250.6836242
51
252.49464
0
ARC
8
DEFAULT_255_2_778
10
37.9645122
20
11.0014424
40
7.3460441
50
252.4644248
51
253.5491174
0
ARC
8
DEFAULT_255_2_778
10
39.0281497
20
14.6043565
40
11.1026801
50
253.5502831
51
254.4408421
0
ARC
8
DEFAULT_255_2_778
10
40.6085968
20
20.2651052
40
16.979914
50
254.4269082
51
254.9585131
0
ARC
8
DEFAULT_255_2_778
10
42.9174512
20
28.8520655
40
25.8718596
50
254.9556901
51
255.3335877
0
ARC
8
DEFAULT_255_2_778
10
34.3156657
20
-3.9915143
40
8.079452
50
71.901415
51
75.2923629
0
ARC
8
DEFAULT_255_2_778
10
35.3626551
20
-0.8073373
40
4.7275708
50
66.4337031
51
71.9743009
0
ARC
8
DEFAULT_255_2_778
10
36.1319825
20
0.9424883
40
2.8161049
50
57.5623887
51
66.546956
0
ARC
8
DEFAULT_255_2_778
10
36.7277967
20
1.8644781
40
1.7184044
50
40.5292529
51
57.8396354
0
ARC
8
DEFAULT_255_2_778
10
36.9550579
20
2.0794248
40
1.4060765
50
13.495901
51
39.8897759
0
ARC
8
DEFAULT_255_2_778
10
36.4471182
20
1.9518813
40
1.9297637
50
1.9467024
51
13.658627
0
ARC
8
DEFAULT_255_2_778
10
35.9121789
20
1.9190303
40
2.4655537
50
359.9808367
51
2.2873857
0
ARC
8
DEFAULT_255_2_778
10
36.280528
20
1.9271921
40
2.097503
50
344.9835637
51
359.0333312
0
ARC
8
DEFAULT_255_2_778
10
36.6047893
20
1.8433779
40
1.7626014
50
299.552585
51
344.8840068
0
ARC
8
DEFAULT_255_2_778
10
36.2906266
20
2.3486489
40
2.3572134
50
285.6935046
51
300.1379053
0
ARC
8
DEFAULT_255_2_778
10
36.0970044
20
3.0177991
40
3.0537972
50
275.3474648
51
285.7949174
0
ARC
8
DEFAULT_255_2_778
10
36.0272127
20
3.6650791
40
3.7047757
50
269.935351
51
275.4891958
0
LINE
8
DEFAULT_255_2_778
10
33.3242325
20
0.9657057
11
34.1444325
21
1.9447057
0
LINE
8
DEFAULT_255_2_778
10
36.9754325
20
1.7859057
11
36.9754325
21
1.8124057
0
LINE
8
DEFAULT_255_2_778
10
33.5888325
20
4.5640057
11
33.5888325
21
4.5905057
0
LINE
8
DEFAULT_255_2_778
10
38.1661325
20
5.6753057
11
37.4517325
21
4.6170057
0
LINE
8
DEFAULT_255_2_778
10
34.9911325
20
4.6963057
11
34.9911325
21
4.6699057
0
LINE
8
DEFAULT_255_2_778
10
38.3777325
20
1.9182057
11
38.3777325
21
1.8918057
0
LINE
8
DEFAULT_255_2_778
10
36.0230325
20
-0.0396943
11
36.0230325
21
-0.0396943
0
ARC
8
DEFAULT_255_2_778
10
5.7556979
20
3.3744284
40
3.0946232
50
354.7174052
51
359.9821769
0
ARC
8
DEFAULT_255_2_778
10
5.4565334
20
3.4152755
40
3.3963032
50
334.3600828
51
354.4958977
0
ARC
8
DEFAULT_255_2_778
10
5.1810267
20
3.5386388
40
3.6980709
50
316.8701112
51
334.4840262
0
ARC
8
DEFAULT_255_2_778
10
5.110108
20
3.6020918
40
3.7932083
50
301.6780536
51
316.902973
0
ARC
8
DEFAULT_255_2_778
10
5.0519425
20
3.6983136
40
3.9056398
50
288.9366196
51
301.6629299
0
ARC
8
DEFAULT_255_2_778
10
4.9719599
20
3.9338379
40
4.1543731
50
278.4183111
51
288.9258759
0
ARC
8
DEFAULT_255_2_778
10
4.9138776
20
4.3236826
40
4.5485207
50
269.926226
51
278.4231421
0
ARC
8
DEFAULT_255_2_778
10
4.898742
20
5.326303
40
5.551145
50
262.0059503
51
270.0957726
0
ARC
8
DEFAULT_255_2_778
10
4.8020083
20
4.643776
40
4.8617978
50
252.2104218
51
262.0162551
0
ARC
8
DEFAULT_255_2_778
10
4.6473782
20
4.1652101
40
4.3588717
50
238.8619736
51
252.2238821
0
ARC
8
DEFAULT_255_2_778
10
4.6210769
20
4.0782029
40
4.2708587
50
203.7774691
51
238.5603969
0
ARC
8
DEFAULT_255_2_778
10
5.3306652
20
4.4283391
40
5.0615022
50
192.2235171
51
204.1659762
0
ARC
8
DEFAULT_255_2_778
10
6.0179852
20
4.5808914
40
5.7655403
50
182.881308
51
192.258997
0
ARC
8
DEFAULT_255_2_778
10
6.5231675
20
4.6158136
40
6.2718465
50
179.989475
51
182.9679479
0
ARC
8
DEFAULT_255_2_778
10
5.6443676
20
4.6232961
40
5.3930504
50
168.2037998
51
180.0672541
0
ARC
8
DEFAULT_255_2_778
10
5.9080241
20
4.5216645
40
5.6720985
50
140.3190851
51
167.7433187
0
ARC
8
DEFAULT_255_2_778
10
7.1763631
20
3.5452243
40
7.2719304
50
130.5622229
51
140.7789792
0
ARC
8
DEFAULT_255_2_778
10
7.9817326
20
2.6289077
40
8.4917818
50
125.2369512
51
130.6700634
0
ARC
8
DEFAULT_255_2_778
10
7.1545908
20
3.8578563
40
7.0108628
50
118.106887
51
125.5104518
0
ARC
8
DEFAULT_255_2_778
10
8.0724366
20
2.1094791
40
8.985479
50
106.4858689
51
118.0170592
0
ARC
8
DEFAULT_255_2_778
10
8.145692
20
1.934926
40
9.173668
50
102.7817776
51
106.615213
0
ARC
8
DEFAULT_255_2_778
10
8.0041456
20
2.5593057
40
8.5334451
50
99.7353769
51
102.7824349
0
ARC
8
DEFAULT_255_2_778
10
7.9099057
20
3.0921809
40
7.9923084
50
98.6554856
51
99.715486
0
ARC
8
DEFAULT_255_2_778
10
8.9607849
20
3.1324487
40
7.7924471
50
105.9990392
51
113.0883899
0
ARC
8
DEFAULT_255_2_778
10
8.6074836
20
3.958008
40
6.894467
50
113.0779313
51
121.4850147
0
ARC
8
DEFAULT_255_2_778
10
8.2133265
20
4.5960462
40
6.1445048
50
121.4580074
51
132.9676832
0
ARC
8
DEFAULT_255_2_778
10
7.9117415
20
4.9263524
40
5.6972528
50
133.012443
51
145.0650014
0
ARC
8
DEFAULT_255_2_778
10
8.4299006
20
4.5798102
40
6.3204997
50
145.1794571
51
152.300611
0
ARC
8
DEFAULT_255_2_778
10
8.1243323
20
4.744494
40
5.9734007
50
152.3367985
51
161.6631259
0
ARC
8
DEFAULT_255_2_778
10
9.6298244
20
4.3558901
40
7.525434
50
162.4607623
51
180.2349288
0
ARC
8
DEFAULT_255_2_778
10
14.0154967
20
4.1681723
40
11.9120759
50
179.2454916
51
180.0048414
0
ARC
8
DEFAULT_255_2_778
10
7.0388539
20
4.164618
40
4.9354337
50
179.9704237
51
193.3502977
0
ARC
8
DEFAULT_255_2_778
10
6.651531
20
4.0674869
40
4.5361525
50
193.2862354
51
205.6537048
0
ARC
8
DEFAULT_255_2_778
10
6.0137024
20
3.756823
40
3.8267023
50
205.5952338
51
218.4809637
0
ARC
8
DEFAULT_255_2_778
10
5.3822925
20
3.2472501
40
3.0153471
50
218.3668872
51
234.7812599
0
ARC
8
DEFAULT_255_2_778
10
4.9728607
20
2.6417112
40
2.2845765
50
234.4119355
51
269.7005575
0
ARC
8
DEFAULT_255_2_778
10
4.9724015
20
2.5625067
40
2.2053709
50
269.701733
51
284.3514356
0
ARC
8
DEFAULT_255_2_778
10
5.0536978
20
2.2241367
40
1.8574164
50
284.5091256
51
328.4282097
0
ARC
8
DEFAULT_255_2_778
10
4.530426
20
2.5782327
40
2.4887833
50
327.7901112
51
340.6516901
0
ARC
8
DEFAULT_255_2_778
10
3.8377842
20
2.825963
40
3.2243844
50
340.575997
51
350.0255022
0
ARC
8
DEFAULT_255_2_778
10
2.9412367
20
2.9864825
40
4.135185
50
349.9866719
51
357.6423809
0
ARC
8
DEFAULT_255_2_778
10
2.2087716
20
3.027959
40
4.8687495
50
357.5092808
51
0.0177306
0
ARC
8
DEFAULT_255_2_778
10
3.9328254
20
3.0375047
40
3.1447059
50
359.853531
51
11.5911035
0
ARC
8
DEFAULT_255_2_778
10
4.3490715
20
3.1244549
40
2.7194783
50
11.5586082
51
26.1758216
0
ARC
8
DEFAULT_255_2_778
10
4.6657993
20
3.2836643
40
2.3650031
50
26.0991596
51
47.2404072
0
ARC
8
DEFAULT_255_2_778
10
4.7994845
20
3.4210267
40
2.1733939
50
47.369433
51
84.1174327
0
ARC
8
DEFAULT_255_2_778
10
4.7766447
20
3.2679536
40
2.3280123
50
83.9443854
51
90.0227339
0
ARC
8
DEFAULT_255_2_778
10
4.7654156
20
0.7233296
40
4.872647
50
89.8788228
51
93.0140551
0
ARC
8
DEFAULT_255_2_778
10
4.6622174
20
2.6124999
40
2.9806661
50
92.9425263
51
97.8810699
0
ARC
8
DEFAULT_255_2_778
10
4.506964
20
3.7167645
40
1.865545
50
97.8081796
51
105.5800038
0
ARC
8
DEFAULT_255_2_778
10
4.4326397
20
4.0270359
40
1.5467565
50
106.0149061
51
122.0053083
0
ARC
8
DEFAULT_255_2_778
10
5.0937821
20
2.8959056
40
2.8566222
50
121.2260923
51
122.5071145
0
ARC
8
DEFAULT_255_2_778
10
4.8850834
20
4.2859172
40
1.8543104
50
128.4827058
51
140.5695587
0
ARC
8
DEFAULT_255_2_778
10
5.4284559
20
3.6070904
40
2.7238239
50
117.9964313
51
128.5443521
0
ARC
8
DEFAULT_255_2_778
10
5.8104279
20
2.8951411
40
3.531764
50
102.7135002
51
118.0462624
0
ARC
8
DEFAULT_255_2_778
10
5.7379894
20
3.2340938
40
3.1851819
50
96.129118
51
102.7842451
0
ARC
8
DEFAULT_255_2_778
10
5.6802005
20
3.7701968
40
2.6459733
50
90.1056621
51
96.1243731
0
ARC
8
DEFAULT_255_2_778
10
5.6951894
20
2.6460924
40
3.7701256
50
71.1074248
51
90.3019485
0
ARC
8
DEFAULT_255_2_778
10
6.0355913
20
3.5406663
40
2.8137109
50
32.2771215
51
71.7673066
0
ARC
8
DEFAULT_255_2_778
10
6.0475448
20
3.5901717
40
2.7773944
50
17.4733352
51
31.5453329
0
ARC
8
DEFAULT_255_2_778
10
5.6324745
20
3.4589112
40
3.2127245
50
7.1941252
51
17.483572
0
ARC
8
DEFAULT_255_2_778
10
5.0354549
20
3.3804396
40
3.8148725
50
359.8952581
51
7.2405057
0
LINE
8
DEFAULT_255_2_778
10
6.707121
20
10.9934657
11
6.813021
21
10.6230657
0
LINE
8
DEFAULT_255_2_778
10
3.558621
20
5.3049657
11
3.452821
21
5.4636657
0
LINE
8
DEFAULT_255_2_778
10
8.850321
20
3.3734657
11
8.850321
21
3.3734657
0
ARC
8
DEFAULT_255_2_778
10
8.5728216
20
2.0261884
40
8.8016952
50
127.5000116
51
128.6607966
0
ARC
8
DEFAULT_255_2_778
10
8.3603538
20
2.2914196
40
8.4618568
50
128.6593411
51
130.0784351
0
ARC
8
DEFAULT_255_2_778
10
8.188624
20
2.4963616
40
8.1944769
50
130.0822634
51
130.7603869
0
ARC
8
DEFAULT_255_2_778
10
7.7501068
20
2.9919088
40
7.5328246
50
130.6948825
51
136.2009844
0
ARC
8
DEFAULT_255_2_778
10
6.9036581
20
3.7955302
40
6.3656732
50
136.148585
51
144.4456292
0
ARC
8
DEFAULT_255_2_778
10
6.085424
20
4.379218
40
5.3605875
50
144.4358442
51
155.0867851
0
ARC
8
DEFAULT_255_2_778
10
5.597367
20
4.6126547
40
4.8196156
50
155.1595778
51
165.5434274
0
ARC
8
DEFAULT_255_2_778
10
5.5213459
20
4.6366926
40
4.7400027
50
165.5953858
51
174.5650519
0
ARC
8
DEFAULT_255_2_778
10
5.7060209
20
4.6188884
40
4.9255338
50
174.5623464
51
180.0226468
0
ARC
8
DEFAULT_255_2_778
10
6.3173028
20
4.6073198
40
5.5368235
50
179.9004323
51
188.1045015
0
ARC
8
DEFAULT_255_2_778
10
5.5606809
20
4.4972663
40
4.7722438
50
188.0770493
51
198.2596247
0
ARC
8
DEFAULT_255_2_778
10
4.9428747
20
4.2904953
40
4.1207609
50
198.2208842
51
211.8723092
0
ARC
8
DEFAULT_255_2_778
10
4.5606733
20
4.0497179
40
3.6690489
50
211.8307451
51
242.1065692
0
ARC
8
DEFAULT_255_2_778
10
5.8203511
20
3.6648157
40
4.1261355
50
211.2604266
51
223.8384453
0
ARC
8
DEFAULT_255_2_778
10
6.3441861
20
3.988028
40
4.7416449
50
199.8127242
51
211.3142519
0
ARC
8
DEFAULT_255_2_778
10
6.7341689
20
4.1318063
40
5.1572771
50
188.363859
51
199.8469865
0
ARC
8
DEFAULT_255_2_778
10
6.9412893
20
4.1655353
40
5.3671019
50
179.9828527
51
188.3984765
0
ARC
8
DEFAULT_255_2_778
10
11.8811862
20
4.1813836
40
10.3070084
50
175.680133
51
180.0791703
0
ARC
8
DEFAULT_255_2_778
10
9.9774253
20
4.3273985
40
8.3976578
50
169.9284538
51
175.695145
0
ARC
8
DEFAULT_255_2_778
10
8.6823737
20
4.5601009
40
7.0818687
50
161.2641764
51
169.9498188
0
ARC
8
DEFAULT_255_2_778
10
8.50383
20
4.5941996
40
6.9018789
50
145.4710378
51
161.0561624
0
ARC
8
DEFAULT_255_2_778
10
8.3866884
20
4.4874067
40
6.867641
50
140.1485381
51
144.1829692
0
ARC
8
DEFAULT_255_2_778
10
26.5608091
20
-10.477662
40
30.4100786
50
140.1530794
51
140.4446457
0
LINE
8
DEFAULT_255_2_778
10
3.2131955
20
9.0072506
11
3.2146876
21
9.0090416
0
ARC
8
DEFAULT_255_2_778
10
4.7284889
20
3.3722242
40
2.8028466
50
32.2765593
51
63.7925835
0
ARC
8
DEFAULT_255_2_778
10
4.4348449
20
3.1734184
40
3.1573004
50
15.9173661
51
32.4812325
0
ARC
8
DEFAULT_255_2_778
10
4.1019288
20
3.0763813
40
3.5040648
50
2.8940908
51
15.9502993
0
ARC
8
DEFAULT_255_2_778
10
3.8503963
20
3.0564192
40
3.7562913
50
359.9927145
51
3.0044753
0
ARC
8
DEFAULT_255_2_778
10
2.7644557
20
3.0502608
40
4.8422352
50
352.4314396
51
0.0672178
0
ARC
8
DEFAULT_255_2_778
10
3.2911386
20
2.9787314
40
4.3107198
50
343.8978378
51
352.4518482
0
ARC
8
DEFAULT_255_2_778
10
3.8401759
20
2.818501
40
3.7387822
50
334.6040196
51
343.923405
0
ARC
8
DEFAULT_255_2_778
10
4.2063985
20
2.6518298
40
3.336475
50
331.2111865
51
334.4924411
0
ARC
8
DEFAULT_255_2_778
10
5.0762981
20
3.642086
40
3.3112436
50
308.3430108
51
323.072289
0
ARC
8
DEFAULT_255_2_778
10
5.2742773
20
3.4969283
40
3.0657698
50
323.0179216
51
340.3745526
0
ARC
8
DEFAULT_255_2_778
10
5.5530848
20
3.3958833
40
2.7692211
50
340.406251
51
354.7497998
0
ARC
8
DEFAULT_255_2_778
10
5.7364397
20
3.3741144
40
2.5846481
50
354.8584157
51
359.9850849
0
ARC
8
DEFAULT_255_2_778
10
5.0684934
20
3.3819956
40
3.2526054
50
359.8493168
51
7.9773783
0
ARC
8
DEFAULT_255_2_778
10
5.6715115
20
3.4672128
40
2.6435963
50
7.9621121
51
18.018994
0
ARC
8
DEFAULT_255_2_778
10
6.0473773
20
3.5896686
40
2.2482858
50
18.0143439
51
31.4863768
0
ARC
8
DEFAULT_255_2_778
10
6.1390763
20
3.6386484
40
2.144515
50
31.6500415
51
52.0606
0
ARC
8
DEFAULT_255_2_778
10
5.7913469
20
3.1199505
40
2.7677463
50
52.985346
51
82.0132785
0
ARC
8
DEFAULT_255_2_778
10
5.6535418
20
2.5191747
40
3.3822571
50
81.1155094
51
84.6944757
0
LINE
8
DEFAULT_255_2_778
10
3.2146876
20
9.0090416
11
3.2146876
21
9.0090416
0
LINE
8
DEFAULT_255_2_778
10
5.9662876
20
5.8869416
11
5.9662876
21
5.8869416
0
ARC
8
DEFAULT_255_2_778
10
6.2538132
20
9.3172744
40
1.8363429
50
330.0498371
51
343.2190944
0
ARC
8
DEFAULT_255_2_778
10
6.2554126
20
9.3161525
40
1.8344877
50
343.2382194
51
356.8869041
0
ARC
8
DEFAULT_255_2_778
10
6.2447521
20
9.3170461
40
1.8451811
50
356.8771764
51
0.0004909
0
ARC
8
DEFAULT_255_2_778
10
6.2580953
20
9.3205142
40
1.8318411
50
359.8920191
51
44.8118608
0
ARC
8
DEFAULT_255_2_778
10
6.2703268
20
9.3233514
40
1.8211759
50
45.0197472
51
60.8639294
0
ARC
8
DEFAULT_255_2_778
10
5.4933442
20
11.8940471
40
1.9308485
50
329.5006588
51
340.1601182
0
ARC
8
DEFAULT_255_2_778
10
5.5453972
20
11.8750484
40
1.8754371
50
340.166372
51
353.3342962
0
ARC
8
DEFAULT_255_2_778
10
5.5613499
20
11.8725478
40
1.8593021
50
353.3537685
51
354.2256279
0
ARC
8
DEFAULT_255_2_778
10
5.566718
20
11.8720759
40
1.8539138
50
354.223448
51
359.9978259
0
ARC
8
DEFAULT_255_2_778
10
5.6147854
20
11.8785005
40
1.8058583
50
359.7939296
51
48.3966048
0
ARC
8
DEFAULT_255_2_778
10
5.6074149
20
11.861559
40
1.8234293
50
48.5768831
51
60.8525994
0
LINE
8
DEFAULT_255_2_778
10
6.4955308
20
13.4540866
11
6.6013308
21
13.8773866
0
LINE
8
DEFAULT_255_2_778
10
6.6013308
20
13.8773866
11
10.2790308
21
11.7606866
0
LINE
8
DEFAULT_255_2_778
10
10.2790308
20
11.7606866
11
8.1624308
21
8.0829866
0
LINE
8
DEFAULT_255_2_778
10
8.1624308
20
8.0829866
11
7.8449308
21
8.4004866
0
LINE
8
DEFAULT_255_2_778
10
6.4955308
20
13.4540866
11
6.4955308
21
13.4540866
0
ENDSEC
0
EOF