0
SECTION
2
HEADER
9
$MEASUREMENT
70
1
0
ENDSEC
0
SECTION
2
TABLES
0
TABLE
2
LTYPE
0
LTYPE
72
65
70
64
2
CONTINUOUS
3
______
73
0
40
0
0
ENDTAB
0
TABLE
2
LAYER
0
LAYER
2
DEFAULT_255_2_778
70
0
62
255
6
CONTINUOUS
0
ENDTAB
0
ENDSEC
0
SECTION
2
ENTITIES
0
ARC
8
DEFAULT_255_2_778
10
115.6230051
20
63.1151681
40
0.4211507
50
270.5216687
51
309.3150549
0
ARC
8
DEFAULT_255_2_778
10
115.5849275
20
63.1892911
40
0.2115712
50
270.6803059
51
312.7121671
0
ARC
8
DEFAULT_255_2_778
10
115.1739004
20
61.4728663
40
1.0184525
50
10.8818871
51
43.8275726
0
ARC
8
DEFAULT_255_2_778
10
115.6242726
20
61.8877091
40
0.2109364
50
47.1821972
51
83.5625333
0
ARC
8
DEFAULT_255_2_778
10
115.6263729
20
61.9075215
40
0.1910134
50
83.5222676
51
89.9500239
0
ARC
8
DEFAULT_255_2_778
10
42.7247457
20
61.838465
40
0.2600708
50
90.1555662
51
106.6475819
0
ARC
8
DEFAULT_255_2_778
10
129.4636055
20
20.6947136
40
1.3328409
50
180.0060732
51
195.8657967
0
ARC
8
DEFAULT_255_2_778
10
129.4436336
20
20.6946345
40
1.3128691
50
179.8183069
51
180.0027116
0
ARC
8
DEFAULT_255_2_778
10
129.4660771
20
20.6943083
40
1.3353134
50
164.1488441
51
179.8073665
0
ARC
8
DEFAULT_255_2_778
10
129.6644972
20
20.6949268
40
1.3322174
50
344.1304643
51
359.9955082
0
ARC
8
DEFAULT_255_2_778
10
129.6436436
20
20.6948223
40
1.353071
50
2e-7
51
0.1762267
0
ARC
8
DEFAULT_255_2_778
10
129.6620416
20
20.6945987
40
1.3346737
50
0.1882576
51
15.854924
0
ARC
8
DEFAULT_255_2_778
10
129.5638208
20
20.5943935
40
1.4811911
50
75.2138115
51
89.8983204
0
ARC
8
DEFAULT_255_2_778
10
129.563764
20
20.6907265
40
1.3848583
50
89.8888979
51
90.0041148
0
ARC
8
DEFAULT_255_2_778
10
129.5634379
20
20.596097
40
1.4794878
50
89.9912239
51
104.7947734
0
ARC
8
DEFAULT_255_2_778
10
129.5639793
20
20.6240282
40
0.9675068
50
77.2115053
51
89.8794186
0
ARC
8
DEFAULT_255_2_778
10
129.5639014
20
20.5779682
40
1.0135667
50
89.8804916
51
89.9943091
0
ARC
8
DEFAULT_255_2_778
10
129.563987
20
20.6250279
40
0.966507
50
89.9991071
51
102.7950925
0
ARC
8
DEFAULT_255_2_778
10
129.563987
20
20.7650418
40
0.966507
50
257.2049075
51
270.0008929
0
ARC
8
DEFAULT_255_2_778
10
129.5639014
20
20.8121014
40
1.0135666
50
270.0056909
51
270.1195084
0
ARC
8
DEFAULT_255_2_778
10
129.5639793
20
20.7660415
40
0.9675067
50
270.1205814
51
282.7884947
0
ARC
8
DEFAULT_255_2_778
10
129.5640395
20
20.7963035
40
1.4818184
50
270.1589456
51
284.7830387
0
ARC
8
DEFAULT_255_2_778
10
129.5638567
20
20.8007582
40
1.4862735
50
270.0027135
51
270.1655161
0
ARC
8
DEFAULT_255_2_778
10
129.5637109
20
20.7937586
40
1.4792738
50
255.2041238
51
270.0083735
0
ARC
8
DEFAULT_255_2_778
10
129.4978401
20
20.6950916
40
0.8641756
50
180.0004497
51
193.8083291
0
ARC
8
DEFAULT_255_2_778
10
129.4978401
20
20.695078
40
0.8641755
50
166.1916709
51
179.9995503
0
ARC
8
DEFAULT_255_2_778
10
129.6287987
20
20.6950841
40
0.8666409
50
346.2322401
51
0.0000508
0
ARC
8
DEFAULT_255_2_778
10
129.6287987
20
20.6950856
40
0.8666408
50
359.9999492
51
13.7677599
0
ARC
8
DEFAULT_255_2_778
10
129.3438908
20
20.6982632
40
3.2353529
50
161.5620685
51
180.0589437
0
ARC
8
DEFAULT_255_2_778
10
129.462065
20
20.6339498
40
3.3678846
50
114.2101029
51
161.1599568
0
ARC
8
DEFAULT_255_2_778
10
129.548386
20
20.4846504
40
3.5394949
50
96.8903463
51
114.4934449
0
ARC
8
DEFAULT_255_2_778
10
129.5641235
20
20.3739971
40
3.6512378
50
89.9840557
51
96.9272036
0
ARC
8
DEFAULT_255_2_778
10
129.5693185
20
20.4230538
40
3.6021835
50
74.4661306
51
90.0664703
0
ARC
8
DEFAULT_255_2_778
10
129.6005119
20
20.5351173
40
3.4858595
50
52.2240507
51
74.4668291
0
ARC
8
DEFAULT_255_2_778
10
129.7281581
20
20.6763568
40
3.2960606
50
9.8004897
51
52.4739027
0
ARC
8
DEFAULT_255_2_778
10
129.7611323
20
20.6962731
40
3.2602076
50
359.9764814
51
9.5542238
0
ARC
8
DEFAULT_255_2_778
10
129.7855857
20
20.6916187
40
3.2357555
50
341.6544369
51
0.0587192
0
ARC
8
DEFAULT_255_2_778
10
129.66794
20
20.755619
40
3.3676493
50
294.171538
51
341.2508911
0
ARC
8
DEFAULT_255_2_778
10
129.5813739
20
20.9058645
40
3.5402109
50
276.4924003
51
294.4540399
0
ARC
8
DEFAULT_255_2_778
10
129.5660524
20
21.0172771
40
3.6526424
50
269.9856801
51
276.5335863
0
ARC
8
DEFAULT_255_2_778
10
129.5609901
20
20.9669493
40
3.6023169
50
254.4668752
51
270.065998
0
ARC
8
DEFAULT_255_2_778
10
129.5300064
20
20.8556556
40
3.4867907
50
232.2293847
51
254.4676647
0
ARC
8
DEFAULT_255_2_778
10
129.4017511
20
20.7137891
40
3.2961249
50
189.8055984
51
232.4812343
0
ARC
8
DEFAULT_255_2_778
10
129.3678908
20
20.6935994
40
3.2593515
50
179.9765252
51
189.5572411
0
ARC
8
DEFAULT_255_2_778
10
129.3130259
20
20.6983659
40
3.7394879
50
163.3015946
51
180.0525697
0
ARC
8
DEFAULT_255_2_778
10
129.4376299
20
20.6323689
40
3.8778975
50
115.5305174
51
162.8965952
0
ARC
8
DEFAULT_255_2_778
10
129.5421733
20
20.4635754
40
4.0753236
50
98.9058291
51
115.8340109
0
ARC
8
DEFAULT_255_2_778
10
129.5629864
20
20.3403037
40
4.2003315
50
89.9747218
51
98.925996
0
ARC
8
DEFAULT_255_2_778
10
129.5690431
20
20.3747487
40
4.1658882
50
75.6656551
51
90.0578135
0
ARC
8
DEFAULT_255_2_778
10
129.6002976
20
20.4982494
40
4.0384945
50
56.1747297
51
75.6614724
0
ARC
8
DEFAULT_255_2_778
10
129.7365601
20
20.6648675
40
3.8242808
50
10.6253228
51
56.4810952
0
ARC
8
DEFAULT_255_2_778
10
129.7953888
20
20.6966769
40
3.7606509
50
359.9734586
51
10.3142585
0
ARC
8
DEFAULT_255_2_778
10
129.8163824
20
20.6915015
40
3.7396587
50
343.3024158
51
0.052602
0
ARC
8
DEFAULT_255_2_778
10
129.6920204
20
20.7573961
40
3.8778065
50
295.5312911
51
342.897799
0
ARC
8
DEFAULT_255_2_778
10
129.5875261
20
20.926132
40
4.0751597
50
278.9058614
51
295.8344865
0
ARC
8
DEFAULT_255_2_778
10
129.5666941
20
21.0495131
40
4.2002786
50
269.9747025
51
278.9260508
0
ARC
8
DEFAULT_255_2_778
10
129.5606394
20
21.015204
40
4.1659712
50
255.6657989
51
270.0577658
0
ARC
8
DEFAULT_255_2_778
10
129.5294112
20
20.8918078
40
4.0386853
50
236.1754718
51
255.6616266
0
ARC
8
DEFAULT_255_2_778
10
129.3930444
20
20.7250712
40
3.8243154
50
190.6262777
51
236.4821852
0
ARC
8
DEFAULT_255_2_778
10
129.3340193
20
20.693196
40
3.7604801
50
179.9735069
51
190.3147826
0
ARC
8
DEFAULT_255_2_778
10
129.3423023
20
20.6982462
40
3.2689645
50
161.8377424
51
180.05804
0
ARC
8
DEFAULT_255_2_778
10
129.4602924
20
20.6342232
40
3.4011175
50
114.2276219
51
161.4325105
0
ARC
8
DEFAULT_255_2_778
10
129.5479177
20
20.4831048
40
3.5749288
50
96.8964364
51
114.5144128
0
ARC
8
DEFAULT_255_2_778
10
129.5638126
20
20.3714435
40
3.6876915
50
89.9840445
51
96.9332936
0
ARC
8
DEFAULT_255_2_778
10
129.5688997
20
20.4187516
40
3.6403855
50
74.808814
51
90.0639024
0
ARC
8
DEFAULT_255_2_778
10
129.5994455
20
20.5311229
40
3.5239365
50
53.021983
51
74.8093437
0
ARC
8
DEFAULT_255_2_778
10
129.7270711
20
20.6750678
40
3.3322112
50
9.751503
51
53.2862932
0
ARC
8
DEFAULT_255_2_778
10
129.7627364
20
20.6962704
40
3.2935035
50
359.9767654
51
9.4930681
0
ARC
8
DEFAULT_255_2_778
10
129.7871039
20
20.6916224
40
3.2691373
50
341.8387557
51
0.0580545
0
ARC
8
DEFAULT_255_2_778
10
129.6693656
20
20.755534
40
3.401016
50
294.2284323
51
341.4339329
0
ARC
8
DEFAULT_255_2_778
10
129.5817782
20
20.9066137
40
3.5747765
50
276.8964326
51
294.5148979
0
ARC
8
DEFAULT_255_2_778
10
129.5658673
20
21.0183853
40
3.6876507
50
269.9840316
51
276.9333308
0
ARC
8
DEFAULT_255_2_778
10
129.560783
20
20.9712047
40
3.6404721
50
254.8089969
51
270.0638438
0
ARC
8
DEFAULT_255_2_778
10
129.5302643
20
20.8589351
40
3.5241284
50
233.0229289
51
254.8095404
0
ARC
8
DEFAULT_255_2_778
10
129.4025184
20
20.7148623
40
3.332229
50
189.7525055
51
233.2876229
0
ARC
8
DEFAULT_255_2_778
10
129.3666408
20
20.693598
40
3.2933014
50
179.9767426
51
189.4936344
0
ARC
8
DEFAULT_255_2_778
10
129.3714867
20
20.6980806
40
2.806549
50
160.0099961
51
180.064221
0
ARC
8
DEFAULT_255_2_778
10
129.4806306
20
20.6370511
40
2.9300491
50
113.2507005
51
159.6180987
0
ARC
8
DEFAULT_255_2_778
10
129.5531522
20
20.5035976
40
3.0813243
50
94.7480804
51
113.5101022
0
ARC
8
DEFAULT_255_2_778
10
129.5646905
20
20.4034949
40
3.1820399
50
89.9919141
51
94.8059287
0
ARC
8
DEFAULT_255_2_778
10
129.5692805
20
20.4645778
40
3.1209597
50
73.0948807
51
90.0760205
0
ARC
8
DEFAULT_255_2_778
10
129.6005961
20
20.56589
40
3.0149194
50
47.7149445
51
73.1044222
0
ARC
8
DEFAULT_255_2_778
10
129.720418
20
20.6847088
40
2.8464113
50
9.064642
51
47.8900965
0
ARC
8
DEFAULT_255_2_778
10
129.7339735
20
20.6959621
40
2.8312662
50
359.9792104
51
8.8829729
0
ARC
8
DEFAULT_255_2_778
10
129.7589937
20
20.6918118
40
2.8062476
50
340.0089754
51
0.0637638
0
ARC
8
DEFAULT_255_2_778
10
129.6492969
20
20.7530341
40
2.9303334
50
293.2545059
51
339.6173118
0
ARC
8
DEFAULT_255_2_778
10
129.577081
20
20.8858307
40
3.080885
50
274.7493286
51
293.5133593
0
ARC
8
DEFAULT_255_2_778
10
129.5655883
20
20.9855636
40
3.1812288
50
269.9919172
51
274.8068842
0
ARC
8
DEFAULT_255_2_778
10
129.560991
20
20.9257518
40
3.1214197
50
253.0966893
51
270.0761492
0
ARC
8
DEFAULT_255_2_778
10
129.5295412
20
20.8240171
40
3.0149362
50
227.7166684
51
253.1064003
0
ARC
8
DEFAULT_255_2_778
10
129.4096458
20
20.7050746
40
2.8462874
50
189.0637491
51
227.8913492
0
ARC
8
DEFAULT_255_2_778
10
129.3964704
20
20.6939052
40
2.8315311
50
179.9791656
51
188.8825585
0
ARC
8
DEFAULT_255_2_778
10
129.3800842
20
20.6980211
40
2.6690464
50
159.2798039
51
180.0662519
0
ARC
8
DEFAULT_255_2_778
10
129.4868083
20
20.6376216
40
2.7903
50
112.8936251
51
158.8951319
0
ARC
8
DEFAULT_255_2_778
10
129.5543447
20
20.5106232
40
2.9335957
50
94.3063423
51
113.1438435
0
ARC
8
DEFAULT_255_2_778
10
129.5647881
20
20.4150057
40
3.0297291
50
89.9933543
51
94.3675039
0
ARC
8
DEFAULT_255_2_778
10
129.5692132
20
20.4766008
40
2.9681368
50
72.7557021
51
90.0786361
0
ARC
8
DEFAULT_255_2_778
10
129.6007359
20
20.5755243
40
2.8643153
50
46.1317528
51
72.7713079
0
ARC
8
DEFAULT_255_2_778
10
129.7176884
20
20.6873448
40
2.7026601
50
8.7294948
51
46.2764065
0
ARC
8
DEFAULT_255_2_778
10
129.7240242
20
20.6958594
40
2.6951155
50
359.9803448
51
8.5710212
0
ARC
8
DEFAULT_255_2_778
10
129.7500719
20
20.6918496
40
2.6690694
50
339.2799663
51
0.0662295
0
ARC
8
DEFAULT_255_2_778
10
129.6433541
20
20.7522384
40
2.7903131
50
292.8947787
51
338.8954497
0
ARC
8
DEFAULT_255_2_778
10
129.5759188
20
20.8790211
40
2.933371
50
274.3067035
51
293.1447788
0
ARC
8
DEFAULT_255_2_778
10
129.5654908
20
20.9744978
40
3.029363
50
269.9933573
51
274.3677701
0
ARC
8
DEFAULT_255_2_778
10
129.5610611
20
20.9135529
40
2.9684209
50
252.756533
51
270.0787211
0
ARC
8
DEFAULT_255_2_778
10
129.5297088
20
20.8149095
40
2.8649174
50
226.4061355
51
252.7705721
0
ARC
8
DEFAULT_255_2_778
10
129.4132349
20
20.7028447
40
2.7034505
50
188.7869175
51
226.5562368
0
ARC
8
DEFAULT_255_2_778
10
129.4059254
20
20.6939979
40
2.694886
50
179.9800792
51
188.6247725
0
LINE
8
DEFAULT_255_2_778
10
17.3494395
20
114.4272348
11
17.349052
21
114.4272345
0
ARC
8
DEFAULT_255_2_778
10
17.3490563
20
114.6311916
40
0.2039571
50
226.2197462
51
269.9987813
0
ARC
8
DEFAULT_255_2_778
10
17.3377155
20
114.6206155
40
0.1884765
50
180.1461299
51
226.4843935
0
ARC
8
DEFAULT_255_2_778
10
17.3373408
20
119.0524917
40
0.1879012
50
133.5246168
51
180.0173355
0
ARC
8
DEFAULT_255_2_778
10
17.3489125
20
119.0414767
40
0.2038586
50
89.9613398
51
133.7508065
0
LINE
8
DEFAULT_255_2_778
10
17.3490501
20
119.2453352
11
17.3494395
21
119.2453348
0
ARC
8
DEFAULT_255_2_778
10
21.0505899
20
119.0505899
40
0.1944483
50
89.9903159
51
90.3389686
0
ARC
8
DEFAULT_255_2_778
10
21.0505482
20
119.0423539
40
0.2026845
50
46.2373378
51
89.9529862
0
ARC
8
DEFAULT_255_2_778
10
21.0615138
20
119.0522914
40
0.1879258
50
0.0437335
51
46.5562172
0
ARC
8
DEFAULT_255_2_778
10
21.0846349
20
114.6198628
40
0.1645049
50
359.9684163
51
0.0947576
0
ARC
8
DEFAULT_255_2_778
10
21.0617224
20
114.6198757
40
0.1874175
50
313.5031106
51
359.9683205
0
ARC
8
DEFAULT_255_2_778
10
21.049815
20
114.6307134
40
0.2034789
50
270.0031983
51
313.8343369
0
LINE
8
DEFAULT_255_2_778
10
21.0498264
20
114.4272345
11
21.0494395
21
114.4272348
0
ARC
8
DEFAULT_255_2_778
10
21.0655516
20
114.6986852
40
0.7784184
50
270.7572667
51
290.9312416
0
ARC
8
DEFAULT_255_2_778
10
21.0884137
20
114.617585
40
0.6945443
50
291.5598123
51
313.9718791
0
ARC
8
DEFAULT_255_2_778
10
21.1094277
20
114.5992143
40
0.6667375
50
313.7683424
51
336.7977879
0
ARC
8
DEFAULT_255_2_778
10
21.090645
20
114.6005483
40
0.6845544
50
337.3145356
51
356.2661458
0
ARC
8
DEFAULT_255_2_778
10
21.0283236
20
114.6080551
40
0.7472403
50
356.0029648
51
358.95559
0
ARC
8
DEFAULT_255_2_778
10
21.0762212
20
119.1449695
40
0.1252667
50
89.9114531
51
90.2660414
0
ARC
8
DEFAULT_255_2_778
10
21.0764511
20
119.0665681
40
0.2036682
50
46.3086982
51
90.0102293
0
ARC
8
DEFAULT_255_2_778
10
21.0866757
20
119.0771356
40
0.1889643
50
0.1210413
51
46.3369807
0
ARC
8
DEFAULT_255_2_778
10
17.3241318
20
114.6048368
40
0.701265
50
180.8253987
51
202.4769649
0
ARC
8
DEFAULT_255_2_778
10
17.2898273
20
114.6000212
40
0.6677817
50
203.2204598
51
226.213403
0
ARC
8
DEFAULT_255_2_778
10
17.3105304
20
114.6191065
40
0.695888
50
226.0701801
51
248.4338736
0
ARC
8
DEFAULT_255_2_778
10
17.3285725
20
114.6797689
40
0.7589556
50
248.8505189
51
267.2773788
0
ARC
8
DEFAULT_255_2_778
10
17.336237
20
114.7535617
40
0.8330396
50
266.9919024
51
269.0578568
0
ARC
8
DEFAULT_255_2_778
10
17.3328288
20
118.9741773
40
0.7784255
50
90.7573627
51
110.9311516
0
ARC
8
DEFAULT_255_2_778
10
17.3099632
20
119.0552878
40
0.6945406
50
111.5597434
51
133.9719335
0
ARC
8
DEFAULT_255_2_778
10
17.2889514
20
119.0736553
40
0.6667375
50
133.7683424
51
156.7977879
0
ARC
8
DEFAULT_255_2_778
10
17.3231445
20
119.0684437
40
0.7002721
50
157.5080998
51
179.2070569
0
ARC
8
DEFAULT_255_2_778
10
21.0874037
20
114.5949217
40
0.188236
50
313.5683483
51
359.9431142
0
ARC
8
DEFAULT_255_2_778
10
21.0764511
20
114.6058016
40
0.2036682
50
269.9897707
51
313.6913018
0
ARC
8
DEFAULT_255_2_778
10
21.0762212
20
114.5274001
40
0.1252669
50
269.7339586
51
270.0885469
0
ARC
8
DEFAULT_255_2_778
10
17.321882
20
119.0610556
40
0.2093824
50
89.6832341
51
89.9999468
0
ARC
8
DEFAULT_255_2_778
10
17.3219791
20
119.0668847
40
0.2035535
50
90.0272891
51
133.6642362
0
ARC
8
DEFAULT_255_2_778
10
17.3124695
20
119.0773315
40
0.1894308
50
133.7651351
51
179.8477509
0
ARC
8
DEFAULT_255_2_778
10
17.3115714
20
114.5949533
40
0.188532
50
180.0664102
51
226.3510887
0
ARC
8
DEFAULT_255_2_778
10
17.3222964
20
114.6062221
40
0.2040887
50
226.3560571
51
269.990993
0
ARC
8
DEFAULT_255_2_778
10
17.3224583
20
114.5272709
40
0.1251377
50
269.9111786
51
270.2661329
0
ARC
8
DEFAULT_255_2_778
10
21.0725199
20
119.0673148
40
0.7032983
50
0.8570717
51
22.4452891
0
ARC
8
DEFAULT_255_2_778
10
21.1097277
20
119.0731553
40
0.6667375
50
23.2022121
51
46.2316576
0
ARC
8
DEFAULT_255_2_778
10
21.0875689
20
119.052562
40
0.6969393
50
46.0872558
51
68.4167815
0
ARC
8
DEFAULT_255_2_778
10
21.0698115
20
118.9920181
40
0.759792
50
68.8510576
51
86.8542563
0
ARC
8
DEFAULT_255_2_778
10
21.0614793
20
118.9160476
40
0.8361156
50
86.5698256
51
88.9953369
0
ARC
8
DEFAULT_255_2_778
10
42.8732492
20
5.174882
40
2.3018114
50
157.0985662
51
180.07087
0
ARC
8
DEFAULT_255_2_778
10
42.9720549
20
5.1167563
40
2.4154954
50
111.7134895
51
156.7405312
0
ARC
8
DEFAULT_255_2_778
10
43.0270548
20
5.0044212
40
2.5402258
50
91.9869938
51
111.9286083
0
ARC
8
DEFAULT_255_2_778
10
43.0338593
20
4.9196863
40
2.6251485
50
89.9982493
51
92.0712951
0
ARC
8
DEFAULT_255_2_778
10
43.0380184
20
4.9896305
40
2.5552076
50
71.042451
51
90.0914617
0
ARC
8
DEFAULT_255_2_778
10
43.0719264
20
5.0824581
40
2.4564003
50
39.4302634
51
71.08705
0
ARC
8
DEFAULT_255_2_778
10
43.1813309
20
5.1717116
40
2.3152081
50
6.4060125
51
39.4438197
0
ARC
8
DEFAULT_255_2_778
10
43.1633921
20
5.17251
40
2.3329474
50
359.9883298
51
6.3373709
0
ARC
8
DEFAULT_255_2_778
10
43.1946275
20
5.1691893
40
2.3017138
50
337.0990209
51
0.0708322
0
ARC
8
DEFAULT_255_2_778
10
43.0958326
20
5.2272984
40
2.4153812
50
291.7139606
51
336.7412123
0
ARC
8
DEFAULT_255_2_778
10
43.0408309
20
5.3396547
40
2.540132
50
271.9869146
51
291.9289227
0
ARC
8
DEFAULT_255_2_778
10
43.0340199
20
5.4244623
40
2.6251275
50
269.9982456
51
272.0713045
0
ARC
8
DEFAULT_255_2_778
10
43.029867
20
5.3546698
40
2.5553382
50
251.0430226
51
270.0913137
0
ARC
8
DEFAULT_255_2_778
10
42.9959841
20
5.2619332
40
2.4566249
50
219.4332284
51
251.0877799
0
ARC
8
DEFAULT_255_2_778
10
42.8862333
20
5.1724144
40
2.3149968
50
186.3878232
51
219.4473388
0
ARC
8
DEFAULT_255_2_778
10
42.9039328
20
5.1715622
40
2.3324932
50
179.9883895
51
186.3186459
0
ARC
8
DEFAULT_255_2_778
10
42.8863975
20
5.1747465
40
2.1114597
50
155.6507664
51
180.0735838
0
ARC
8
DEFAULT_255_2_778
10
42.9802187
20
5.1179274
40
2.2204004
50
110.8961848
51
155.3131726
0
ARC
8
DEFAULT_255_2_778
10
43.0288653
20
5.012726
40
2.336047
50
90.7343433
51
111.0905405
0
ARC
8
DEFAULT_255_2_778
10
43.0339079
20
4.9359352
40
2.4128996
50
89.9992479
51
90.8307031
0
ARC
8
DEFAULT_255_2_778
10
43.0379922
20
5.0074912
40
2.3413471
50
70.0183689
51
90.0991731
0
ARC
8
DEFAULT_255_2_778
10
43.0758914
20
5.1011998
40
2.2403316
50
33.2723026
51
70.1103313
0
ARC
8
DEFAULT_255_2_778
10
43.1792548
20
5.1746922
40
2.1135983
50
3.7260659
51
33.1438647
0
ARC
8
DEFAULT_255_2_778
10
43.1435597
20
5.1722019
40
2.1493799
50
359.9955461
51
3.7304739
0
ARC
8
DEFAULT_255_2_778
10
43.1821718
20
5.1693155
40
2.1107695
50
335.6457518
51
0.0738144
0
ARC
8
DEFAULT_255_2_778
10
43.0881213
20
5.2262527
40
2.2199689
50
291.017613
51
335.3080025
0
ARC
8
DEFAULT_255_2_778
10
43.039058
20
5.3318282
40
2.3361307
50
270.7383598
51
291.2122009
0
ARC
8
DEFAULT_255_2_778
10
43.0339579
20
5.4107202
40
2.4150853
50
269.9995643
51
270.8352268
0
ARC
8
DEFAULT_255_2_778
10
43.0298753
20
5.3374015
40
2.3417702
50
250.0213765
51
270.0994391
0
ARC
8
DEFAULT_255_2_778
10
42.9920585
20
5.2436483
40
2.2407409
50
213.5443654
51
250.1110854
0
ARC
8
DEFAULT_255_2_778
10
42.8883361
20
5.1694844
40
2.1133157
50
183.8617356
51
213.4224358
0
ARC
8
DEFAULT_255_2_778
10
42.923144
20
5.1718618
40
2.1482045
50
179.9953853
51
183.862474
0
ARC
8
DEFAULT_255_2_778
10
42.933654
20
5.1737321
40
1.4642155
50
147.0351842
51
180.0664151
0
ARC
8
DEFAULT_255_2_778
10
43.0081017
20
5.1197281
40
1.5560697
50
105.5189212
51
146.8584128
0
ARC
8
DEFAULT_255_2_778
10
43.0320211
20
5.0493163
40
1.6303197
50
89.9325793
51
105.6668157
0
ARC
8
DEFAULT_255_2_778
10
43.0378246
20
5.0659956
40
1.6136439
50
65.2508613
51
90.1379474
0
ARC
8
DEFAULT_255_2_778
10
43.0963745
20
5.1615719
40
1.5023923
50
2.003917
51
65.7527186
0
ARC
8
DEFAULT_255_2_778
10
43.1039342
20
5.1720603
40
1.4945054
50
359.9990249
51
1.612195
0
ARC
8
DEFAULT_255_2_778
10
43.1347675
20
5.1703436
40
1.463673
50
327.0271734
51
0.0662043
0
ARC
8
DEFAULT_255_2_778
10
43.0602062
20
5.2243203
40
1.5556081
50
285.96463
51
326.8539434
0
ARC
8
DEFAULT_255_2_778
10
43.0359413
20
5.2943364
40
1.6296028
50
269.9296208
51
286.1077852
0
ARC
8
DEFAULT_255_2_778
10
43.0300435
20
5.2785896
40
1.6138595
50
245.2531132
51
270.1383186
0
ARC
8
DEFAULT_255_2_778
10
42.9712554
20
5.1826145
40
1.5021468
50
182.0081308
51
245.7571058
0
ARC
8
DEFAULT_255_2_778
10
42.9638988
20
5.1720165
40
1.4944592
50
179.9992981
51
181.6119464
0
ARC
8
DEFAULT_255_2_778
10
42.9505467
20
5.1728355
40
1.2668074
50
141.3589604
51
180.0362134
0
ARC
8
DEFAULT_255_2_778
10
43.0167018
20
5.1186618
40
1.3523079
50
102.0146009
51
141.3164336
0
ARC
8
DEFAULT_255_2_778
10
43.0328636
20
5.0591851
40
1.4138502
50
89.9563986
51
102.1534795
0
ARC
8
DEFAULT_255_2_778
10
43.0378522
20
5.083974
40
1.3890663
50
62.5338681
51
90.1613893
0
ARC
8
DEFAULT_255_2_778
10
43.0920562
20
5.1652431
40
1.2920011
50
0.301192
51
63.0044362
0
ARC
8
DEFAULT_255_2_778
10
43.117312
20
5.1712397
40
1.2667278
50
321.3603917
51
0.0359656
0
ARC
8
DEFAULT_255_2_778
10
43.0511973
20
5.2253749
40
1.3521728
50
282.0147285
51
321.3179722
0
ARC
8
DEFAULT_255_2_778
10
43.0350197
20
5.2849135
40
1.413779
50
269.9562235
51
282.1537114
0
ARC
8
DEFAULT_255_2_778
10
43.0300396
20
5.2603681
40
1.3892387
50
242.5358925
51
270.160845
0
ARC
8
DEFAULT_255_2_778
10
42.9756617
20
5.1789259
40
1.2919406
50
180.3056124
51
243.0099365
0
ARC
8
DEFAULT_255_2_778
10
42.9912439
20
5.1620292
40
1.1575476
50
107.9610867
51
179.5047405
0
ARC
8
DEFAULT_255_2_778
10
43.0320083
20
5.0821793
40
1.246157
50
89.9112035
51
108.6118915
0
ARC
8
DEFAULT_255_2_778
10
43.0378142
20
5.0959532
40
1.2323877
50
60.4986229
51
90.1801398
0
ARC
8
DEFAULT_255_2_778
10
43.0877023
20
5.1668486
40
1.1461489
50
0.259261
51
60.9239294
0
ARC
8
DEFAULT_255_2_778
10
43.0763305
20
5.1820956
40
1.1575527
50
287.9689176
51
359.5020135
0
ARC
8
DEFAULT_255_2_778
10
43.0358532
20
5.2611852
40
1.2453518
50
269.9119565
51
288.6178143
0
ARC
8
DEFAULT_255_2_778
10
43.0301502
20
5.2485306
40
1.2327015
50
240.5028568
51
270.1761301
0
ARC
8
DEFAULT_255_2_778
10
42.9798959
20
5.1775027
40
1.1461696
50
180.2733346
51
240.9411434
0
ARC
8
DEFAULT_255_2_778
10
44.2558831
20
7.6046352
40
0.0848564
50
358.4462889
51
359.999763
0
ARC
8
DEFAULT_255_2_778
10
44.2435504
20
7.6058843
40
0.0972228
50
330.5848047
51
357.9074843
0
ARC
8
DEFAULT_255_2_778
10
44.2435446
20
7.6069727
40
0.0977669
50
300.9598381
51
330.0308423
0
ARC
8
DEFAULT_255_2_778
10
44.2408759
20
7.6115092
40
0.10303
50
273.1511901
51
300.9346893
0
ARC
8
DEFAULT_255_2_778
10
46.6226999
20
5.3558352
40
1.1011606
50
180.0364429
51
180.2609739
0
LINE
8
DEFAULT_255_2_778
10
45.5215509
20
5.3508196
11
45.5215528
21
5.3503465
0
ARC
8
DEFAULT_255_2_778
10
44.2848735
20
5.3445274
40
1.236693
50
0.0510165
51
0.2695997
0
ARC
8
DEFAULT_255_2_778
10
45.484647
20
5.3435906
40
0.0369752
50
352.6987633
51
3.1595793
0
ARC
8
DEFAULT_255_2_778
10
45.5238675
20
5.3401246
40
0.002828
50
179.7936439
51
205.8497051
0
ARC
8
DEFAULT_255_2_778
10
44.3712849
20
5.1746767
40
1.1618576
50
359.8697198
51
359.9955062
0
ARC
8
DEFAULT_255_2_778
10
44.3896124
20
5.1742256
40
1.1435301
50
0.0180362
51
6.5230947
0
ARC
8
DEFAULT_255_2_778
10
43.1585767
20
5.1592343
40
2.3693787
50
4.3787556
51
49.4594593
0
ARC
8
DEFAULT_255_2_778
10
42.4282733
20
7.8101657
40
0.1017768
50
221.4936851
51
270.1126852
0
ARC
8
DEFAULT_255_2_778
10
42.428473
20
7.8106675
40
0.1022782
50
270.0002371
51
275.5066047
0
ARC
8
DEFAULT_255_2_778
10
42.4285032
20
7.8103346
40
0.101944
50
275.5076747
51
282.311039
0
ARC
8
DEFAULT_255_2_778
10
42.4195848
20
7.8193228
40
0.307815
50
276.141566
51
282.3535075
0
ARC
8
DEFAULT_255_2_778
10
42.4196879
20
7.8184575
40
0.3069436
50
270.0006028
51
276.1396997
0
ARC
8
DEFAULT_255_2_778
10
42.4196715
20
7.8186015
40
0.3070877
50
221.5459104
51
270.0036586
0
ARC
8
DEFAULT_255_2_778
10
43.0113832
20
5.0534178
40
2.514599
50
113.9542168
51
121.6623306
0
ARC
8
DEFAULT_255_2_778
10
41.7733371
20
6.8295609
40
0.6626154
50
114.3495166
51
124.835169
0
ARC
8
DEFAULT_255_2_778
10
41.0402519
20
7.0434381
40
0.2823652
50
0.7106629
51
41.2825201
0
ARC
8
DEFAULT_255_2_778
10
41.0411953
20
7.0439395
40
0.2814161
50
0.0000387
51
0.6109713
0
ARC
8
DEFAULT_255_2_778
10
41.0399363
20
7.044486
40
0.2826757
50
314.6061472
51
359.8892519
0
ARC
8
DEFAULT_255_2_778
10
41.030314
20
7.0418165
40
0.2832737
50
314.8060532
51
359.8705506
0
ARC
8
DEFAULT_255_2_778
10
41.0316179
20
7.0411764
40
0.281969
50
0.0000038
51
0.4727813
0
ARC
8
DEFAULT_255_2_778
10
41.031586
20
7.0407032
40
0.2820051
50
0.5688847
51
41.3021066
0
ARC
8
DEFAULT_255_2_778
10
43.0459109
20
5.049396
40
2.5267263
50
49.1486474
51
54.4177555
0
ARC
8
DEFAULT_255_2_778
10
44.240478
20
7.6299471
40
0.3133919
50
245.6050377
51
269.9783781
0
ARC
8
DEFAULT_255_2_778
10
44.240366
20
7.6279884
40
0.3114331
50
269.9988525
51
273.1795247
0
ARC
8
DEFAULT_255_2_778
10
44.2393075
20
7.626491
40
0.3099987
50
273.3902207
51
301.1663639
0
ARC
8
DEFAULT_255_2_778
10
44.2464248
20
7.6143791
40
0.2959518
50
301.2008411
51
329.8504673
0
ARC
8
DEFAULT_255_2_778
10
44.2576291
20
7.6069187
40
0.2825174
50
330.0175112
51
359.5976498
0
ARC
8
DEFAULT_255_2_778
10
42.9376574
20
5.1363827
40
2.4127688
50
135.0279713
51
150.9128333
0
ARC
8
DEFAULT_255_2_778
10
42.8756588
20
5.1706564
40
2.3419276
50
150.9082118
51
179.9627766
0
ARC
8
DEFAULT_255_2_778
10
42.8588792
20
5.1721789
40
2.3251475
50
180.0000252
51
181.8195701
0
ARC
8
DEFAULT_255_2_778
10
42.8599454
20
5.17243
40
2.3262213
50
181.8249171
51
200.4344456
0
ARC
8
DEFAULT_255_2_778
10
42.9038464
20
5.1891041
40
2.3731811
50
200.4416271
51
211.7377447
0
ARC
8
DEFAULT_255_2_778
10
42.9774869
20
5.2403745
40
2.4627844
50
211.8509593
51
245.1970388
0
ARC
8
DEFAULT_255_2_778
10
43.0331467
20
5.3446139
40
2.5807665
50
245.0461351
51
270.0132287
0
ARC
8
DEFAULT_255_2_778
10
43.0337483
20
5.3485112
40
2.5846639
50
269.9998726
51
277.2673819
0
ARC
8
DEFAULT_255_2_778
10
43.0329463
20
5.3541402
40
2.5903493
50
277.2692295
51
283.8961954
0
ARC
8
DEFAULT_255_2_778
10
43.0306571
20
5.3639394
40
2.6004115
50
283.8933026
51
284.846001
0
ARC
8
DEFAULT_255_2_778
10
43.0515094
20
5.3004401
40
2.5336922
50
284.7581194
51
306.0970889
0
ARC
8
DEFAULT_255_2_778
10
43.1537404
20
5.1847533
40
2.3800288
50
305.7492906
51
359.7130789
0
ARC
8
DEFAULT_255_2_778
10
45.8999299
20
10.5736417
40
0.9589069
50
265.3096285
51
269.9826492
0
ARC
8
DEFAULT_255_2_778
10
45.9052291
20
10.6320793
40
1.0175822
50
230.9851983
51
265.2813132
0
ARC
8
DEFAULT_255_2_778
10
45.8873527
20
10.5911088
40
0.974568
50
188.6381514
51
230.2854434
0
ARC
8
DEFAULT_255_2_778
10
43.1074992
20
5.1250785
40
2.7005725
50
26.3949497
51
49.2271614
0
ARC
8
DEFAULT_255_2_778
10
42.9796492
20
5.0391669
40
2.8146055
50
113.9600411
51
121.6740263
0
ARC
8
DEFAULT_255_2_778
10
43.0341687
20
4.980646
40
2.792642
50
92.0576722
51
102.0420835
0
ARC
8
DEFAULT_255_2_778
10
43.0341188
20
4.9813825
40
2.7919042
50
89.9999238
51
92.0571919
0
ARC
8
DEFAULT_255_2_778
10
43.0342206
20
4.9821397
40
2.7911471
50
65.3499151
51
90.002014
0
ARC
8
DEFAULT_255_2_778
10
43.0341747
20
4.9961398
40
2.5844864
50
65.351403
51
90.0022995
0
ARC
8
DEFAULT_255_2_778
10
43.034061
20
4.9956081
40
2.5850181
50
89.9997782
51
92.0802413
0
ARC
8
DEFAULT_255_2_778
10
43.0341269
20
4.9943368
40
2.5862909
50
92.0806772
51
102.0400274
0
ARC
8
DEFAULT_255_2_778
10
42.4297472
20
7.8242828
40
0.3074737
50
276.3266647
51
282.1838944
0
ARC
8
DEFAULT_255_2_778
10
42.4298801
20
7.8231553
40
0.3063385
50
270.0003628
51
276.3251904
0
ARC
8
DEFAULT_255_2_778
10
42.4299168
20
7.8235668
40
0.3067499
50
221.5182876
51
269.9935104
0
LINE
8
DEFAULT_255_2_778
10
115.8898395
20
62.7893348
11
115.9088395
21
62.8065348
0
LINE
8
DEFAULT_255_2_778
10
115.9088395
20
62.8065348
11
115.7678395
21
62.9422348
0
LINE
8
DEFAULT_255_2_778
10
115.7678395
20
62.9422348
11
115.7284395
21
63.0338348
0
LINE
8
DEFAULT_255_2_778
10
115.7284395
20
63.0338348
11
115.5874395
21
63.1695348
0
LINE
8
DEFAULT_255_2_778
10
115.5874395
20
63.1695348
11
42.6156395
21
63.1695348
0
LINE
8
DEFAULT_255_2_778
10
42.6156395
20
63.1695348
11
39.4292395
21
64.0442348
0
LINE
8
DEFAULT_255_2_778
10
39.4292395
20
64.0442348
11
39.1675395
21
65.8421348
0
LINE
8
DEFAULT_255_2_778
10
39.1675395
20
65.8421348
11
42.0210395
21
66.6932348
0
LINE
8
DEFAULT_255_2_778
10
42.0210395
20
66.6932348
11
115.5874395
21
66.6932348
0
LINE
8
DEFAULT_255_2_778
10
115.5874395
20
66.6932348
11
116.2123395
21
66.0918348
0
LINE
8
DEFAULT_255_2_778
10
116.2123395
20
66.0918348
11
116.2123395
21
63.7709348
0
LINE
8
DEFAULT_255_2_778
10
116.2123395
20
63.7709348
11
115.5874395
21
63.1695348
0
LINE
8
DEFAULT_255_2_778
10
115.5874395
20
63.1695348
11
115.5874395
21
62.9777348
0
LINE
8
DEFAULT_255_2_778
10
115.7284395
20
63.0338348
11
116.2091395
21
63.4965348
0
LINE
8
DEFAULT_255_2_778
10
116.2091395
20
63.4965348
11
116.1742395
21
63.3198348
0
LINE
8
DEFAULT_255_2_778
10
116.1742395
20
63.3198348
11
116.1742395
21
61.6651348
0
LINE
8
DEFAULT_255_2_778
10
116.1742395
20
61.6651348
11
116.2091395
21
61.4883348
0
LINE
8
DEFAULT_255_2_778
10
116.2091395
20
61.4883348
11
115.7284395
21
61.9511348
0
LINE
8
DEFAULT_255_2_778
10
115.7284395
20
61.9511348
11
115.7678395
21
62.0426348
0
LINE
8
DEFAULT_255_2_778
10
115.7678395
20
62.0426348
11
115.9348395
21
61.8842348
0
LINE
8
DEFAULT_255_2_778
10
115.9348395
20
61.8842348
11
116.1740395
21
61.6651348
0
LINE
8
DEFAULT_255_2_778
10
115.9086395
20
62.1781348
11
115.7676395
21
62.0424348
0
LINE
8
DEFAULT_255_2_778
10
115.6265395
20
62.0985348
11
42.7240395
21
62.0985348
0
LINE
8
DEFAULT_255_2_778
10
42.6502395
20
62.0876348
11
38.0438395
21
60.7134348
0
LINE
8
DEFAULT_255_2_778
10
38.0438395
20
60.7134348
11
38.0475395
21
60.7062348
0
LINE
8
DEFAULT_255_2_778
10
38.0475395
20
60.7062348
11
41.7856395
21
35.0125348
0
LINE
8
DEFAULT_255_2_778
10
41.7856395
20
35.0125348
11
43.5181395
21
34.6241348
0
LINE
8
DEFAULT_255_2_778
10
43.5181395
20
34.6241348
11
46.8119395
21
33.7201348
0
LINE
8
DEFAULT_255_2_778
10
46.8119395
20
33.7201348
11
46.7986395
21
33.6285348
0
LINE
8
DEFAULT_255_2_778
10
46.7986395
20
33.6285348
11
41.7840395
21
35.0049348
0
LINE
8
DEFAULT_255_2_778
10
41.7840395
20
35.0049348
11
41.7856395
21
35.0125348
0
LINE
8
DEFAULT_255_2_778
10
128.8507395
20
20.4882348
11
128.8152395
21
20.3163348
0
LINE
8
DEFAULT_255_2_778
10
128.8152395
20
20.3163348
11
128.1815395
21
20.3303348
0
LINE
8
DEFAULT_255_2_778
10
128.1815395
20
21.0590348
11
128.8152395
21
21.0730348
0
LINE
8
DEFAULT_255_2_778
10
130.3122395
20
20.3165348
11
130.9459395
21
20.3306348
0
LINE
8
DEFAULT_255_2_778
10
130.9459395
20
21.0592348
11
130.3122395
21
21.0732348
0
LINE
8
DEFAULT_255_2_778
10
129.9561395
20
21.4161348
11
129.9418395
21
22.0265348
0
LINE
8
DEFAULT_255_2_778
10
129.1856395
20
22.0265348
11
129.1714395
21
21.4161348
0
LINE
8
DEFAULT_255_2_778
10
129.0653395
20
20.2147348
11
129.1714395
21
19.9739348
0
LINE
8
DEFAULT_255_2_778
10
129.9421395
20
22.0268348
11
129.7781395
21
21.5677348
0
LINE
8
DEFAULT_255_2_778
10
129.3499395
20
21.5677348
11
129.1859395
21
22.0268348
0
LINE
8
DEFAULT_255_2_778
10
128.1818395
20
21.0595348
11
128.6583395
21
20.9015348
0
LINE
8
DEFAULT_255_2_778
10
128.6583395
20
20.4890348
11
128.1818395
21
20.3311348
0
LINE
8
DEFAULT_255_2_778
10
129.1859395
20
19.3638348
11
129.3499395
21
19.8228348
0
LINE
8
DEFAULT_255_2_778
10
129.7781395
20
19.8228348
11
129.9421395
21
19.3638348
0
LINE
8
DEFAULT_255_2_778
10
130.9462395
20
20.3311348
11
130.4697395
21
20.4890348
0
LINE
8
DEFAULT_255_2_778
10
130.4697395
20
20.9015348
11
130.9462395
21
21.0595348
0
LINE
8
DEFAULT_255_2_778
10
129.2039395
20
20.3480348
11
129.0655395
21
20.2147348
0
LINE
8
DEFAULT_255_2_778
10
129.0655395
20
20.2147348
11
128.8155395
21
20.3168348
0
LINE
8
DEFAULT_255_2_778
10
129.9244395
20
20.3480348
11
129.7783395
21
20.0080348
0
LINE
8
DEFAULT_255_2_778
10
129.2039395
20
21.0420348
11
129.3499395
21
21.3820348
0
LINE
8
DEFAULT_255_2_778
10
130.2771395
20
20.9013348
11
130.3125395
21
21.0732348
0
LINE
8
DEFAULT_255_2_778
10
130.3125395
20
21.0732348
11
130.0625395
21
21.1754348
0
LINE
8
DEFAULT_255_2_778
10
129.7781395
20
21.3820348
11
129.7781395
21
21.5675348
0
LINE
8
DEFAULT_255_2_778
10
129.3499395
20
21.5675348
11
129.3499395
21
21.3820348
0
LINE
8
DEFAULT_255_2_778
10
129.3499395
20
21.3820348
11
129.1716395
21
21.4161348
0
LINE
8
DEFAULT_255_2_778
10
129.1716395
20
21.4161348
11
129.0655395
21
21.1754348
0
LINE
8
DEFAULT_255_2_778
10
129.3499395
20
20.0080348
11
129.3499395
21
19.8225348
0
LINE
8
DEFAULT_255_2_778
10
129.7781395
20
19.8225348
11
129.7781395
21
20.0080348
0
LINE
8
DEFAULT_255_2_778
10
129.7781395
20
20.0080348
11
129.9564395
21
19.9739348
0
LINE
8
DEFAULT_255_2_778
10
129.9564395
20
19.9739348
11
129.9421395
21
19.3635348
0
LINE
8
DEFAULT_255_2_778
10
129.1859395
20
19.3635348
11
129.1716395
21
19.9739348
0
LINE
8
DEFAULT_255_2_778
10
129.1716395
20
19.9739348
11
129.3499395
21
20.0080348
0
LINE
8
DEFAULT_255_2_778
10
129.3499395
20
20.0080348
11
129.2039395
21
20.3480348
0
LINE
8
DEFAULT_255_2_778
10
129.2039395
20
20.3480348
11
128.8512395
21
20.4888348
0
LINE
8
DEFAULT_255_2_778
10
128.8512395
20
20.4888348
11
128.6586395
21
20.4888348
0
LINE
8
DEFAULT_255_2_778
10
128.6586395
20
20.9013348
11
128.8512395
21
20.9013348
0
LINE
8
DEFAULT_255_2_778
10
128.8512395
20
20.9013348
11
128.8158395
21
21.0732348
0
LINE
8
DEFAULT_255_2_778
10
128.8158395
20
21.0732348
11
129.0658395
21
21.1754348
0
LINE
8
DEFAULT_255_2_778
10
129.0658395
20
21.1754348
11
129.2042395
21
21.0420348
0
LINE
8
DEFAULT_255_2_778
10
129.2042395
20
21.0420348
11
128.8515395
21
20.9013348
0
LINE
8
DEFAULT_255_2_778
10
130.2776395
20
20.4888348
11
129.9249395
21
20.3480348
0
LINE
8
DEFAULT_255_2_778
10
129.9249395
20
20.3480348
11
130.0633395
21
20.2147348
0
LINE
8
DEFAULT_255_2_778
10
130.0633395
20
20.2147348
11
129.9572395
21
19.9739348
0
LINE
8
DEFAULT_255_2_778
10
130.0633395
20
20.2147348
11
130.3133395
21
20.3168348
0
LINE
8
DEFAULT_255_2_778
10
130.3133395
20
20.3168348
11
130.2778395
21
20.4888348
0
LINE
8
DEFAULT_255_2_778
10
130.2778395
20
20.4888348
11
130.4705395
21
20.4888348
0
LINE
8
DEFAULT_255_2_778
10
130.4705395
20
20.9013348
11
130.2778395
21
20.9013348
0
LINE
8
DEFAULT_255_2_778
10
130.2778395
20
20.9013348
11
129.9252395
21
21.0420348
0
LINE
8
DEFAULT_255_2_778
10
129.9252395
20
21.0420348
11
129.7791395
21
21.3820348
0
LINE
8
DEFAULT_255_2_778
10
129.7791395
20
21.3820348
11
129.9574395
21
21.4161348
0
LINE
8
DEFAULT_255_2_778
10
129.9574395
20
21.4161348
11
130.0635395
21
21.1754348
0
LINE
8
DEFAULT_255_2_778
10
130.0635395
20
21.1754348
11
129.9252395
21
21.0420348
0
LINE
8
DEFAULT_255_2_778
10
126.1085395
20
20.6949348
11
126.1085395
21
20.6949348
0
LINE
8
DEFAULT_255_2_778
10
125.5735395
20
20.6949348
11
125.5735395
21
20.6949348
0
LINE
8
DEFAULT_255_2_778
10
126.0733395
20
20.6949348
11
126.0733395
21
20.6949348
0
LINE
8
DEFAULT_255_2_778
10
126.5649395
20
20.6949348
11
126.5649395
21
20.6949348
0
LINE
8
DEFAULT_255_2_778
10
126.7110395
20
20.6949348
11
126.7110395
21
20.6949348
0
LINE
8
DEFAULT_255_2_778
10
17.2494395
20
118.9402348
11
17.2494395
21
114.7326348
0
LINE
8
DEFAULT_255_2_778
10
17.1492395
20
114.6201348
11
17.1494395
21
119.0524348
0
LINE
8
DEFAULT_255_2_778
10
17.3494395
20
119.2453348
11
21.0494395
21
119.2450348
0
LINE
8
DEFAULT_255_2_778
10
21.2494395
20
119.0524348
11
21.2491395
21
114.6201348
0
LINE
8
DEFAULT_255_2_778
10
21.0494395
20
114.4272348
11
17.3494395
21
114.4272348
0
LINE
8
DEFAULT_255_2_778
10
18.2496395
20
114.7828348
11
18.2496395
21
118.8897348
0
LINE
8
DEFAULT_255_2_778
10
18.2496395
20
115.8729348
11
20.2495395
21
115.8729348
0
LINE
8
DEFAULT_255_2_778
10
20.2495395
20
115.8729348
11
20.2495395
21
117.7999348
0
LINE
8
DEFAULT_255_2_778
10
20.2495395
20
117.7999348
11
18.2496395
21
117.7999348
0
LINE
8
DEFAULT_255_2_778
10
17.1439395
20
118.9455348
11
20.7496395
21
118.7635348
0
LINE
8
DEFAULT_255_2_778
10
20.7496395
20
118.7635348
11
20.7496395
21
114.9093348
0
LINE
8
DEFAULT_255_2_778
10
20.7496395
20
114.9093348
11
17.1439395
21
114.7273348
0
LINE
8
DEFAULT_255_2_778
10
20.5647395
20
114.4275348
11
20.5647395
21
114.9093348
0
LINE
8
DEFAULT_255_2_778
10
20.5647395
20
118.7635348
11
20.5647395
21
119.2450348
0
LINE
8
DEFAULT_255_2_778
10
21.2756395
20
119.0775348
11
21.7754395
21
119.0775348
0
LINE
8
DEFAULT_255_2_778
10
21.7754395
20
119.0775348
11
21.7754395
21
114.5944348
0
LINE
8
DEFAULT_255_2_778
10
21.7754395
20
114.5944348
11
21.2756395
21
114.5944348
0
LINE
8
DEFAULT_255_2_778
10
21.2756395
20
114.5944348
11
21.2756395
21
119.0778348
0
LINE
8
DEFAULT_255_2_778
10
16.6229395
20
119.0781348
11
17.1227395
21
119.0781348
0
LINE
8
DEFAULT_255_2_778
10
17.1227395
20
119.0781348
11
17.1227395
21
114.5950348
0
LINE
8
DEFAULT_255_2_778
10
17.1227395
20
114.5950348
11
16.6229395
21
114.5950348
0
LINE
8
DEFAULT_255_2_778
10
16.6229395
20
114.5950348
11
16.6229395
21
119.0778348
0
LINE
8
DEFAULT_255_2_778
10
21.0756395
20
114.4021348
11
17.3230395
21
114.4021348
0
LINE
8
DEFAULT_255_2_778
10
17.3230395
20
114.4021348
11
17.3230395
21
113.9203348
0
LINE
8
DEFAULT_255_2_778
10
17.3230395
20
113.9203348
11
21.0756395
21
113.9203348
0
LINE
8
DEFAULT_255_2_778
10
21.0756395
20
113.9203348
11
21.0756395
21
114.4021348
0
LINE
8
DEFAULT_255_2_778
10
20.7493395
20
118.4082348
11
21.2494395
21
118.3997348
0
LINE
8
DEFAULT_255_2_778
10
21.0761395
20
119.7520348
11
17.3230395
21
119.7520348
0
LINE
8
DEFAULT_255_2_778
10
17.3230395
20
119.7520348
11
17.3230395
21
119.2702348
0
LINE
8
DEFAULT_255_2_778
10
17.3230395
20
119.2702348
11
21.0756395
21
119.2702348
0
LINE
8
DEFAULT_255_2_778
10
21.0756395
20
119.2702348
11
21.0756395
21
119.7520348
0
LINE
8
DEFAULT_255_2_778
10
40.5714395
20
5.1720348
11
40.5714395
21
5.1720348
0
LINE
8
DEFAULT_255_2_778
10
40.7749395
20
5.1720348
11
40.7749395
21
5.1720348
0
LINE
8
DEFAULT_255_2_778
10
41.4694395
20
5.1720348
11
41.4694395
21
5.1720348
0
LINE
8
DEFAULT_255_2_778
10
41.6837395
20
5.1720348
11
41.6837395
21
5.1720348
0
LINE
8
DEFAULT_255_2_778
10
41.8337395
20
5.1720348
11
41.8337395
21
5.1720348
0
LINE
8
DEFAULT_255_2_778
10
41.2392395
20
6.8432348
11
41.2418395
21
6.8453348
0
LINE
8
DEFAULT_255_2_778
10
41.2418395
20
6.8453348
11
41.2482395
21
6.8508348
0
LINE
8
DEFAULT_255_2_778
10
41.2482395
20
6.8508348
11
41.2582395
21
6.8598348
0
LINE
8
DEFAULT_255_2_778
10
41.2582395
20
6.8598348
11
41.2718395
21
6.8723348
0
LINE
8
DEFAULT_255_2_778
10
41.2718395
20
6.8723348
11
41.3098395
21
6.9069348
0
LINE
8
DEFAULT_255_2_778
10
41.3098395
20
6.9069348
11
41.3622395
21
6.9530348
0
LINE
8
DEFAULT_255_2_778
10
41.3622395
20
6.9530348
11
41.4289395
21
7.0082348
0
LINE
8
DEFAULT_255_2_778
10
41.4289395
20
7.0082348
11
41.5083395
21
7.0694348
0
LINE
8
DEFAULT_255_2_778
10
41.5083395
20
7.0694348
11
41.6922395
21
7.1940348
0
LINE
8
DEFAULT_255_2_778
10
41.9912395
20
7.3519348
11
42.1753395
21
7.4258348
0
LINE
8
DEFAULT_255_2_778
10
42.1753395
20
7.4258348
11
42.2581395
21
7.4541348
0
LINE
8
DEFAULT_255_2_778
10
42.2581395
20
7.4541348
11
42.3317395
21
7.4766348
0
LINE
8
DEFAULT_255_2_778
10
42.3317395
20
7.4766348
11
42.3936395
21
7.4940348
0
LINE
8
DEFAULT_255_2_778
10
42.3936395
20
7.4940348
11
42.4415395
21
7.5067348
0
LINE
8
DEFAULT_255_2_778
10
42.4415395
20
7.5067348
11
42.4730395
21
7.5149348
0
LINE
8
DEFAULT_255_2_778
10
42.4730395
20
7.5149348
11
42.4859395
21
7.5186348
0
LINE
8
DEFAULT_255_2_778
10
44.2465395
20
7.5086348
11
44.1975395
21
7.5178348
0
LINE
8
DEFAULT_255_2_778
10
45.5262395
20
6.3251348
11
45.5257395
21
6.0658348
0
LINE
8
DEFAULT_255_2_778
10
45.5257395
20
6.0658348
11
45.5247395
21
5.8110348
0
LINE
8
DEFAULT_255_2_778
10
45.5247395
20
5.8110348
11
45.5241395
21
5.6856348
0
LINE
8
DEFAULT_255_2_778
10
45.5241395
20
5.6856348
11
45.5233395
21
5.5618348
0
LINE
8
DEFAULT_255_2_778
10
45.5233395
20
5.5618348
11
45.5228395
21
5.5007348
0
LINE
8
DEFAULT_255_2_778
10
45.5228395
20
5.5007348
11
45.5223395
21
5.4403348
0
LINE
8
DEFAULT_255_2_778
10
45.5223395
20
5.4403348
11
45.5217395
21
5.3819348
0
LINE
8
DEFAULT_255_2_778
10
45.5217395
20
5.3819348
11
45.5215395
21
5.3551348
0
LINE
8
DEFAULT_255_2_778
10
45.5257395
20
5.3041348
11
45.5210395
21
5.3401348
0
LINE
8
DEFAULT_255_2_778
10
42.4502395
20
7.7107348
11
42.4933395
21
7.5226348
0
LINE
8
DEFAULT_255_2_778
10
42.4933395
20
7.5226348
11
42.4854395
21
7.5186348
0
LINE
8
DEFAULT_255_2_778
10
42.1898395
20
7.6149348
11
42.1766395
21
7.6173348
0
LINE
8
DEFAULT_255_2_778
10
42.1766395
20
7.6173348
11
42.1486395
21
7.6210348
0
LINE
8
DEFAULT_255_2_778
10
42.1486395
20
7.6210348
11
42.1097395
21
7.6245348
0
LINE
8
DEFAULT_255_2_778
10
42.1097395
20
7.6245348
11
42.0634395
21
7.6266348
0
LINE
8
DEFAULT_255_2_778
10
42.0634395
20
7.6266348
11
41.9552395
21
7.6247348
0
LINE
8
DEFAULT_255_2_778
10
41.9552395
20
7.6247348
11
41.8350395
21
7.6099348
0
LINE
8
DEFAULT_255_2_778
10
41.8350395
20
7.6099348
11
41.8858395
21
7.5086348
0
LINE
8
DEFAULT_255_2_778
10
41.8858395
20
7.5086348
11
41.9105395
21
7.4631348
0
LINE
8
DEFAULT_255_2_778
10
41.9105395
20
7.4631348
11
41.9332395
21
7.4236348
0
LINE
8
DEFAULT_255_2_778
10
41.9332395
20
7.4236348
11
41.9533395
21
7.3916348
0
LINE
8
DEFAULT_255_2_778
10
41.9533395
20
7.3916348
11
41.9700395
21
7.3684348
0
LINE
8
DEFAULT_255_2_778
10
41.9700395
20
7.3684348
11
41.9824395
21
7.3548348
0
LINE
8
DEFAULT_255_2_778
10
41.9824395
20
7.3548348
11
41.9904395
21
7.3514348
0
LINE
8
DEFAULT_255_2_778
10
41.6914395
20
7.1937348
11
41.6832395
21
7.1961348
0
LINE
8
DEFAULT_255_2_778
10
41.6832395
20
7.1961348
11
41.6689395
21
7.2083348
0
LINE
8
DEFAULT_255_2_778
10
41.6689395
20
7.2083348
11
41.6490395
21
7.2297348
0
LINE
8
DEFAULT_255_2_778
10
41.6490395
20
7.2297348
11
41.6244395
21
7.2593348
0
LINE
8
DEFAULT_255_2_778
10
41.6244395
20
7.2593348
11
41.5961395
21
7.2961348
0
LINE
8
DEFAULT_255_2_778
10
41.5961395
20
7.2961348
11
41.5652395
21
7.3385348
0
LINE
8
DEFAULT_255_2_778
10
41.5652395
20
7.3385348
11
41.5001395
21
7.4332348
0
LINE
8
DEFAULT_255_2_778
10
41.3948395
20
7.3734348
11
41.3506395
21
7.3398348
0
LINE
8
DEFAULT_255_2_778
10
41.3506395
20
7.3398348
11
41.3143395
21
7.3070348
0
LINE
8
DEFAULT_255_2_778
10
41.3143395
20
7.3070348
11
41.2863395
21
7.2776348
0
LINE
8
DEFAULT_255_2_778
10
41.2863395
20
7.2776348
11
41.2667395
21
7.2538348
0
LINE
8
DEFAULT_255_2_778
10
41.2667395
20
7.2538348
11
41.2553395
21
7.2376348
0
LINE
8
DEFAULT_255_2_778
10
41.2553395
20
7.2376348
11
41.2527395
21
7.2326348
0
LINE
8
DEFAULT_255_2_778
10
41.2527395
20
7.2326348
11
41.2524395
21
7.2297348
0
LINE
8
DEFAULT_255_2_778
10
41.2384395
20
6.8432348
11
41.2299395
21
6.8408348
0
LINE
8
DEFAULT_255_2_778
10
45.5852395
20
5.1744348
11
45.6511395
21
5.0646348
0
LINE
8
DEFAULT_255_2_778
10
44.5404395
20
9.6144348
11
44.5396395
21
7.6046348
0
LINE
8
DEFAULT_255_2_778
10
44.5396395
20
7.6046348
11
44.5420395
21
7.6036348
0
LINE
8
DEFAULT_255_2_778
10
44.5420395
20
7.6036348
11
44.5457395
21
7.5996348
0
LINE
8
DEFAULT_255_2_778
10
44.5457395
20
7.5996348
11
44.5507395
21
7.5935348
0
LINE
8
DEFAULT_255_2_778
10
44.5507395
20
7.5935348
11
44.5571395
21
7.5861348
0
LINE
8
DEFAULT_255_2_778
10
44.5571395
20
7.5861348
11
44.5727395
21
7.5692348
0
LINE
8
DEFAULT_255_2_778
10
44.5727395
20
7.5692348
11
44.5917395
21
7.5491348
0
LINE
8
DEFAULT_255_2_778
10
44.5917395
20
7.5491348
11
44.6134395
21
7.5260348
0
LINE
8
DEFAULT_255_2_778
10
44.6134395
20
7.5260348
11
44.6365395
21
7.5001348
0
LINE
8
DEFAULT_255_2_778
10
44.6365395
20
7.5001348
11
44.6846395
21
7.4422348
0
LINE
8
DEFAULT_255_2_778
10
44.6846395
20
7.4422348
11
44.7336395
21
7.3789348
0
LINE
8
DEFAULT_255_2_778
10
44.7336395
20
7.3789348
11
44.7812395
21
7.3120348
0
LINE
8
DEFAULT_255_2_778
10
44.7812395
20
7.3120348
11
44.8264395
21
7.2424348
0
LINE
8
DEFAULT_255_2_778
10
44.8264395
20
7.2424348
11
44.8696395
21
7.1712348
0
LINE
8
DEFAULT_255_2_778
10
44.8696395
20
7.1712348
11
44.7992395
21
7.0937348
0
LINE
8
DEFAULT_255_2_778
10
44.7992395
20
7.0937348
11
44.7687395
21
7.0583348
0
LINE
8
DEFAULT_255_2_778
10
44.7687395
20
7.0583348
11
44.7428395
21
7.0270348
0
LINE
8
DEFAULT_255_2_778
10
44.7428395
20
7.0270348
11
44.7222395
21
7.0009348
0
LINE
8
DEFAULT_255_2_778
10
44.7222395
20
7.0009348
11
44.7076395
21
6.9805348
0
LINE
8
DEFAULT_255_2_778
10
44.7076395
20
6.9805348
11
44.6997395
21
6.9670348
0
LINE
8
DEFAULT_255_2_778
10
44.6997395
20
6.9670348
11
44.6986395
21
6.9606348
0
LINE
8
DEFAULT_255_2_778
10
44.5161395
20
7.1043348
11
44.3301395
21
7.2257348
0
LINE
8
DEFAULT_255_2_778
10
44.3301395
20
7.2257348
11
44.2470395
21
7.2734348
0
LINE
8
DEFAULT_255_2_778
10
44.2470395
20
7.2734348
11
44.1790395
21
7.3096348
0
LINE
8
DEFAULT_255_2_778
10
44.1790395
20
7.3096348
11
44.1322395
21
7.3334348
0
LINE
8
DEFAULT_255_2_778
10
44.1322395
20
7.3334348
11
44.1110395
21
7.3445348
0
LINE
8
DEFAULT_255_2_778
10
44.5401395
20
7.6049348
11
44.3407395
21
7.6049348
0
LINE
8
DEFAULT_255_2_778
10
44.3407395
20
7.6049348
11
44.3430395
21
9.6147348
0
LINE
8
DEFAULT_255_2_778
10
45.5337395
20
5.1728348
11
45.5337395
21
9.6147348
0
LINE
8
DEFAULT_255_2_778
10
44.8677395
20
9.6147348
11
44.8711395
21
7.1702348
0
LINE
8
DEFAULT_255_2_778
10
45.5265395
20
6.3256348
11
45.5273395
21
9.6147348
0
LINE
8
DEFAULT_255_2_778
10
39.1810395
20
9.6147348
11
41.2535395
21
7.2305348
0
LINE
8
DEFAULT_255_2_778
10
41.2535395
20
7.2305348
11
41.2445395
21
7.2276348
0
LINE
8
DEFAULT_255_2_778
10
41.2445395
20
7.2276348
11
39.1657395
21
9.6147348
0
LINE
8
DEFAULT_255_2_778
10
40.4624395
20
9.6147348
11
42.1999395
21
7.6197348
0
LINE
8
DEFAULT_255_2_778
10
42.1999395
20
7.6197348
11
42.3531395
21
7.7435348
0
LINE
8
DEFAULT_255_2_778
10
42.3531395
20
7.7435348
11
40.7235395
21
9.6149348
0
LINE
8
DEFAULT_255_2_778
10
40.0851395
20
9.6149348
11
41.8366395
21
7.6112348
0
LINE
8
DEFAULT_255_2_778
10
41.5017395
20
7.4345348
11
39.6062395
21
9.6152348
0
LINE
8
DEFAULT_255_2_778
10
44.1983395
20
7.5189348
11
44.1120395
21
7.3451348
0
LINE
8
DEFAULT_255_2_778
10
42.2002395
20
7.6202348
11
42.1914395
21
7.6160348
0
LINE
8
DEFAULT_255_2_778
10
42.1914395
20
7.6160348
11
40.4436395
21
9.6152348
0
LINE
8
DEFAULT_255_2_778
10
45.5842395
20
9.6152348
11
45.5842395
21
5.1734348
0
LINE
8
DEFAULT_255_2_778
10
45.5842395
20
5.1734348
11
45.6551395
21
5.1734348
0
LINE
8
DEFAULT_255_2_778
10
45.6551395
20
5.1734348
11
45.6559395
21
9.6152348
0
ARC
8
DEFAULT_255_2_778
10
37.8118339
20
4.5788332
40
0.483159
50
90.0552822
51
96.7384794
0
ARC
8
DEFAULT_255_2_778
10
37.8164405
20
4.5343349
40
0.527891
50
96.6683015
51
129.5130572
0
ARC
8
DEFAULT_255_2_778
10
37.7854581
20
4.5785008
40
0.4741239
50
130.0204283
51
179.8088109
0
ARC
8
DEFAULT_255_2_778
10
37.7756556
20
4.5800789
40
0.4643186
50
179.9995154
51
183.6230656
0
ARC
8
DEFAULT_255_2_778
10
37.778596
20
4.5805359
40
0.4672822
50
183.656204
51
205.2521545
0
ARC
8
DEFAULT_255_2_778
10
42.9138114
20
5.3158548
40
5.4270419
50
205.5030525
51
249.0447735
0
ARC
8
DEFAULT_255_2_778
10
43.025581
20
5.53441
40
5.6711756
50
248.7799382
51
261.9373713
0
ARC
8
DEFAULT_255_2_778
10
43.0354754
20
5.5879193
40
5.7255442
50
261.9144398
51
262.9265372
0
ARC
8
DEFAULT_255_2_778
10
43.0346314
20
5.5802365
40
5.7178159
50
262.9254491
51
268.6788402
0
ARC
8
DEFAULT_255_2_778
10
43.0344304
20
5.5741242
40
5.7117007
50
268.6794425
51
270.000088
0
ARC
8
DEFAULT_255_2_778
10
43.0363755
20
5.550775
40
5.6883518
50
269.9804961
51
292.7614336
0
ARC
8
DEFAULT_255_2_778
10
43.1142303
20
5.3798307
40
5.5006013
50
292.7025376
51
317.6864069
0
ARC
8
DEFAULT_255_2_778
10
42.78304
20
5.1561357
40
2.3684937
50
189.8933866
51
194.4980063
0
ARC
8
DEFAULT_255_2_778
10
42.0672427
20
5.0664229
40
1.6469878
50
185.4012463
51
188.0707762
0
ARC
8
DEFAULT_255_2_778
10
42.8564294
20
5.1693959
40
2.3722627
50
179.9493733
51
203.3563144
0
ARC
8
DEFAULT_255_2_778
10
42.9792976
20
5.2388193
40
2.5126304
50
203.6989057
51
247.793634
0
ARC
8
DEFAULT_255_2_778
10
43.028031
20
5.333466
40
2.618692
50
247.5891115
51
267.7678715
0
ARC
8
DEFAULT_255_2_778
10
43.0340876
20
5.4071946
40
2.6926025
50
267.7001959
51
270.0017058
0
ARC
8
DEFAULT_255_2_778
10
43.0376922
20
5.3469021
40
2.6323124
50
269.9232851
51
289.0374865
0
ARC
8
DEFAULT_255_2_778
10
43.0650256
20
5.273163
40
2.5536913
50
288.9974222
51
320.9483555
0
ARC
8
DEFAULT_255_2_778
10
43.188964
20
5.1751866
40
2.3957173
50
320.900585
51
354.1607823
0
ARC
8
DEFAULT_255_2_778
10
43.1879406
20
5.1711402
40
2.3963272
50
354.2595197
51
0.0084128
0
ARC
8
DEFAULT_255_2_778
10
43.1817748
20
5.1793719
40
2.4738948
50
338.6991446
51
359.9286708
0
ARC
8
DEFAULT_255_2_778
10
43.1500383
20
5.1982285
40
2.5103208
50
317.4570047
51
338.5612933
0
ARC
8
DEFAULT_255_2_778
10
43.0702662
20
5.2758612
40
2.6215872
50
296.9123617
51
317.3857547
0
ARC
8
DEFAULT_255_2_778
10
43.0367346
20
5.3465087
40
2.6997619
50
276.7737257
51
296.8682865
0
ARC
8
DEFAULT_255_2_778
10
43.0354936
20
5.3742185
40
2.7274253
50
271.045717
51
276.7309538
0
ARC
8
DEFAULT_255_2_778
10
43.0354799
20
5.3760102
40
2.7292168
50
270.0002931
51
271.0453179
0
ARC
8
DEFAULT_255_2_778
10
43.0354882
20
5.3742178
40
2.7274245
50
256.7781899
51
270.000119
0
ARC
8
DEFAULT_255_2_778
10
43.02685
20
5.3298864
40
2.6822932
50
236.5684863
51
256.7412302
0
ARC
8
DEFAULT_255_2_778
10
42.9698811
20
5.2418895
40
2.5774697
50
215.8106011
51
236.5476359
0
ARC
8
DEFAULT_255_2_778
10
42.9092005
20
5.1921772
40
2.499178
50
194.57676
51
215.7003336
0
ARC
8
DEFAULT_255_2_778
10
42.8246685
20
5.2138162
40
4.8130296
50
205.2267872
51
219.7250037
0
ARC
8
DEFAULT_255_2_778
10
42.9182712
20
5.2951554
40
4.9370062
50
219.7567775
51
234.0185895
0
ARC
8
DEFAULT_255_2_778
10
42.9950606
20
5.4061156
40
5.0719126
50
234.0530788
51
248.0582149
0
ARC
8
DEFAULT_255_2_778
10
43.0271781
20
5.4888785
40
5.1606818
50
248.070811
51
261.9228321
0
ARC
8
DEFAULT_255_2_778
10
43.0334009
20
5.5182996
40
5.1906858
50
261.9004552
51
270.0082623
0
ARC
8
DEFAULT_255_2_778
10
43.0348947
20
4.0294657
40
3.7018521
50
269.9884647
51
270.0345997
0
ARC
8
DEFAULT_255_2_778
10
43.0343418
20
5.5355978
40
5.207984
50
270.0306769
51
275.6808761
0
ARC
8
DEFAULT_255_2_778
10
43.0380468
20
5.4995563
40
5.1717527
50
275.6795564
51
289.5147435
0
ARC
8
DEFAULT_255_2_778
10
43.068099
20
5.414972
40
5.0819884
50
289.5139484
51
303.5085377
0
ARC
8
DEFAULT_255_2_778
10
43.1286323
20
5.3209148
40
4.9701452
50
303.5252814
51
317.7147597
0
ARC
8
DEFAULT_255_2_778
10
115.7195133
20
29.019729
40
0.1907573
50
329.3184527
51
359.68854
0
ARC
8
DEFAULT_255_2_778
10
115.5460408
20
28.5761184
40
0.1180898
50
211.5139936
51
213.3747326
0
ARC
8
DEFAULT_255_2_778
10
115.4288078
20
28.4962459
40
0.0238516
50
6.153661
51
38.6898112
0
ARC
8
DEFAULT_255_2_778
10
115.4412183
20
28.4987997
40
0.0113037
50
354.3762997
51
0.0148358
0
ARC
8
DEFAULT_255_2_778
10
44.4866377
20
31.3320644
40
2.5910796
50
185.4379613
51
187.8384461
0
ARC
8
DEFAULT_255_2_778
10
42.5469493
20
31.1520108
40
0.643074
50
181.1861128
51
185.8457571
0
ARC
8
DEFAULT_255_2_778
10
41.949077
20
31.1410929
40
0.0451275
50
167.4192103
51
183.0406679
0
ARC
8
DEFAULT_255_2_778
10
41.9068101
20
31.1504889
40
0.0018292
50
124.7394801
51
166.292393
0
ARC
8
DEFAULT_255_2_778
10
42.136926
20
29.9236002
40
0.0551133
50
186.5061807
51
212.8667793
0
ARC
8
DEFAULT_255_2_778
10
43.5435554
20
30.2662779
40
1.5024651
50
190.162999
51
193.4285956
0
ARC
8
DEFAULT_255_2_778
10
45.4997922
20
30.6395359
40
3.4939398
50
189.8989004
51
190.5274658
0
ARC
8
DEFAULT_255_2_778
10
44.2967713
20
29.4358444
40
0.1504478
50
184.403871
51
194.7295384
0
ARC
8
DEFAULT_255_2_778
10
44.2695379
20
29.4290511
40
0.1223826
50
194.8953896
51
198.3288956
0
ARC
8
DEFAULT_255_2_778
10
44.2063168
20
29.4026881
40
0.0543227
50
192.8948463
51
244.6604433
0
ARC
8
DEFAULT_255_2_778
10
44.5334677
20
30.8762718
40
1.0109728
50
135.2276134
51
143.1983263
0
ARC
8
DEFAULT_255_2_778
10
44.0007567
20
31.6249522
40
0.1486558
50
164.3471842
51
168.3415795
0
ARC
8
DEFAULT_255_2_778
10
43.9165181
20
31.6550717
40
0.0597452
50
116.1706874
51
170.3753485
0
ARC
8
DEFAULT_255_2_778
10
115.7156607
20
32.0214351
40
0.1959438
50
23.635437
51
46.002842
0
ARC
8
DEFAULT_255_2_778
10
115.7232381
20
32.0263693
40
0.1870296
50
359.9456883
51
23.1813018
0
ARC
8
DEFAULT_255_2_778
10
114.675495
20
32.7607938
40
0.7992865
50
339.9977321
51
340.4991048
0
ARC
8
DEFAULT_255_2_778
10
116.6597709
20
32.0574212
40
1.3059652
50
160.2233541
51
160.4714482
0
ARC
8
DEFAULT_255_2_778
10
115.5743374
20
32.4519167
40
0.1511248
50
148.583207
51
161.7273259
0
ARC
8
DEFAULT_255_2_778
10
115.6652953
20
32.3890633
40
0.2615852
50
146.7303756
51
147.2193113
0
ARC
8
DEFAULT_255_2_778
10
115.4260733
20
32.5492008
40
0.0264102
50
320.953334
51
353.4352672
0
ARC
8
DEFAULT_255_2_778
10
115.4402712
20
32.5461802
40
0.0120391
50
0.0060277
51
4.821245
0
LINE
8
DEFAULT_255_2_778
10
38.0158677
20
2.979392
11
38.0253677
21
2.980492
0
LINE
8
DEFAULT_255_2_778
10
38.0253677
20
2.980492
11
38.0510677
21
2.988692
0
LINE
8
DEFAULT_255_2_778
10
38.0510677
20
2.988692
11
38.0920677
21
3.003792
0
LINE
8
DEFAULT_255_2_778
10
38.0920677
20
3.003792
11
38.1465677
21
3.025192
0
LINE
8
DEFAULT_255_2_778
10
38.1465677
20
3.025192
11
38.2158677
21
3.053292
0
LINE
8
DEFAULT_255_2_778
10
38.2158677
20
3.053292
11
38.4711677
21
3.161692
0
LINE
8
DEFAULT_255_2_778
10
46.8055677
20
1.977692
11
46.9476677
21
1.859492
0
LINE
8
DEFAULT_255_2_778
10
46.9476677
20
1.859492
11
47.0119677
21
1.806792
0
LINE
8
DEFAULT_255_2_778
10
47.0119677
20
1.806792
11
47.0685677
21
1.761292
0
LINE
8
DEFAULT_255_2_778
10
47.0685677
20
1.761292
11
47.1153677
21
1.724292
0
LINE
8
DEFAULT_255_2_778
10
47.1153677
20
1.724292
11
47.1508677
21
1.697292
0
LINE
8
DEFAULT_255_2_778
10
47.1508677
20
1.697292
11
47.1733677
21
1.681392
0
LINE
8
DEFAULT_255_2_778
10
47.1733677
20
1.681392
11
47.1820677
21
1.677192
0
LINE
8
DEFAULT_255_2_778
10
37.3559677
20
4.381192
11
37.3657677
21
4.382292
0
LINE
8
DEFAULT_255_2_778
10
37.3657677
20
4.382292
11
37.3924677
21
4.390692
0
LINE
8
DEFAULT_255_2_778
10
37.3924677
20
4.390692
11
37.4350677
21
4.406292
0
LINE
8
DEFAULT_255_2_778
10
37.4350677
20
4.406292
11
37.4916677
21
4.428592
0
LINE
8
DEFAULT_255_2_778
10
37.4916677
20
4.428592
11
37.5604677
21
4.456592
0
LINE
8
DEFAULT_255_2_778
10
37.5604677
20
4.456592
11
37.6387677
21
4.489092
0
LINE
8
DEFAULT_255_2_778
10
37.6387677
20
4.489092
11
37.8115677
21
4.563192
0
LINE
8
DEFAULT_255_2_778
10
37.8115677
20
4.563192
11
37.8113677
21
5.061992
0
LINE
8
DEFAULT_255_2_778
10
34.8934677
20
9.613592
11
38.0155677
21
2.979192
0
LINE
8
DEFAULT_255_2_778
10
47.1817677
20
1.676892
11
54.3837677
21
9.613292
0
LINE
8
DEFAULT_255_2_778
10
35.1474677
20
9.073292
11
33.7573677
21
9.613292
0
LINE
8
DEFAULT_255_2_778
10
32.4635677
20
9.613292
11
35.4369677
21
8.458192
0
LINE
8
DEFAULT_255_2_778
10
40.4497677
20
4.749192
11
40.4365677
21
4.835192
0
LINE
8
DEFAULT_255_2_778
10
40.4275677
20
4.911392
11
40.4219677
21
4.974392
0
LINE
8
DEFAULT_255_2_778
10
40.4219677
20
4.974392
11
40.4190677
21
5.021792
0
LINE
8
DEFAULT_255_2_778
10
40.4190677
20
5.021792
11
40.4179677
21
5.051092
0
LINE
8
DEFAULT_255_2_778
10
40.4179677
20
5.051092
11
40.4179677
21
5.061692
0
LINE
8
DEFAULT_255_2_778
10
40.4179677
20
5.061692
11
37.8113677
21
5.061692
0
LINE
8
DEFAULT_255_2_778
10
37.8113677
20
5.061692
11
37.7597677
21
5.171492
0
LINE
8
DEFAULT_255_2_778
10
37.7597677
20
5.171492
11
40.4841677
21
5.171492
0
LINE
8
DEFAULT_255_2_778
10
40.4904677
20
4.563192
11
37.8115677
21
4.563192
0
LINE
8
DEFAULT_255_2_778
10
37.8115677
20
4.563192
11
38.4706677
21
3.162492
0
LINE
8
DEFAULT_255_2_778
10
46.8055677
20
1.976892
11
53.7352677
21
9.613292
0
LINE
8
DEFAULT_255_2_778
10
115.8517677
20
28.882392
11
115.8689677
21
28.901492
0
LINE
8
DEFAULT_255_2_778
10
115.8689677
20
28.901492
11
115.8835677
21
28.922392
0
LINE
8
DEFAULT_255_2_778
10
115.3694677
20
28.690292
11
115.3998677
21
28.619692
0
LINE
8
DEFAULT_255_2_778
10
115.3998677
20
28.619692
11
115.4265677
21
28.557792
0
LINE
8
DEFAULT_255_2_778
10
115.4265677
20
28.557792
11
115.4371677
21
28.533192
0
LINE
8
DEFAULT_255_2_778
10
115.4371677
20
28.533192
11
115.4453677
21
28.514392
0
LINE
8
DEFAULT_255_2_778
10
47.2915677
20
28.460692
11
47.2968677
21
28.497692
0
LINE
8
DEFAULT_255_2_778
10
47.2968677
20
28.497692
11
44.1832677
21
29.353392
0
LINE
8
DEFAULT_255_2_778
10
44.1832677
20
29.353392
11
42.0906677
21
29.893692
0
LINE
8
DEFAULT_255_2_778
10
44.0057677
20
29.543592
11
44.0380677
21
29.512892
0
LINE
8
DEFAULT_255_2_778
10
44.0380677
20
29.512892
11
44.1467677
21
29.424292
0
LINE
8
DEFAULT_255_2_778
10
44.1467677
20
29.424292
11
44.2002677
21
29.440692
0
LINE
8
DEFAULT_255_2_778
10
44.2002677
20
29.440692
11
44.3684677
21
29.502892
0
LINE
8
DEFAULT_255_2_778
10
47.3246677
20
28.690292
11
47.3140677
21
28.617792
0
LINE
8
DEFAULT_255_2_778
10
47.3140677
20
28.617792
11
47.3050677
21
28.555692
0
LINE
8
DEFAULT_255_2_778
10
47.3050677
20
28.555692
11
47.3016677
21
28.531592
0
LINE
8
DEFAULT_255_2_778
10
47.3016677
20
28.531592
11
47.2992677
21
28.513292
0
LINE
8
DEFAULT_255_2_778
10
47.2992677
20
28.513292
11
47.2976677
21
28.501892
0
LINE
8
DEFAULT_255_2_778
10
47.2976677
20
28.501892
11
47.2968677
21
28.497692
0
LINE
8
DEFAULT_255_2_778
10
46.7282677
20
32.355092
11
46.7169677
21
32.427792
0
LINE
8
DEFAULT_255_2_778
10
46.7169677
20
32.427792
11
46.7071677
21
32.489992
0
LINE
8
DEFAULT_255_2_778
10
46.7071677
20
32.489992
11
46.7034677
21
32.514092
0
LINE
8
DEFAULT_255_2_778
10
46.7034677
20
32.514092
11
46.7007677
21
32.532092
0
LINE
8
DEFAULT_255_2_778
10
46.7007677
20
32.532092
11
46.6991677
21
32.543392
0
LINE
8
DEFAULT_255_2_778
10
46.6991677
20
32.543392
11
46.6981677
21
32.547692
0
LINE
8
DEFAULT_255_2_778
10
44.0697677
20
31.560792
11
44.0142677
21
31.577692
0
LINE
8
DEFAULT_255_2_778
10
44.0142677
20
31.577692
11
43.8520677
21
31.622992
0
LINE
8
DEFAULT_255_2_778
10
43.8520677
20
31.622992
11
43.8157677
21
31.588292
0
LINE
8
DEFAULT_255_2_778
10
43.8517677
20
31.622692
11
43.8551677
21
31.654992
0
LINE
8
DEFAULT_255_2_778
10
115.3694677
20
32.354492
11
115.3998677
21
32.425192
0
LINE
8
DEFAULT_255_2_778
10
115.3998677
20
32.425192
11
115.4265677
21
32.487392
0
LINE
8
DEFAULT_255_2_778
10
115.4522677
20
32.547192
11
46.6949677
21
32.547192
0
LINE
8
DEFAULT_255_2_778
10
46.6920677
20
32.584192
11
41.8999677
21
31.152792
0
LINE
8
DEFAULT_255_2_778
10
115.4136677
20
28.460092
11
115.8514677
21
28.882092
0
LINE
8
DEFAULT_255_2_778
10
115.8514677
20
28.882092
11
115.7099677
21
29.018392
0
LINE
8
DEFAULT_255_2_778
10
115.7099677
20
29.018392
11
115.9099677
21
29.018392
0
LINE
8
DEFAULT_255_2_778
10
115.9099677
20
29.018392
11
115.9099677
21
32.025892
0
LINE
8
DEFAULT_255_2_778
10
115.9099677
20
32.025892
11
115.7099677
21
32.025892
0
LINE
8
DEFAULT_255_2_778
10
115.7099677
20
32.025892
11
115.3691677
21
32.354292
0
LINE
8
DEFAULT_255_2_778
10
115.3691677
20
32.354292
11
46.7282677
21
32.354292
0
LINE
8
DEFAULT_255_2_778
10
46.7282677
20
32.354292
11
44.0694677
21
31.560292
0
LINE
8
DEFAULT_255_2_778
10
44.0694677
20
31.560292
11
44.3684677
21
29.502292
0
LINE
8
DEFAULT_255_2_778
10
44.3684677
20
29.502292
11
47.3246677
21
28.689792
0
LINE
8
DEFAULT_255_2_778
10
47.3246677
20
28.689792
11
115.3694677
21
28.689792
0
LINE
8
DEFAULT_255_2_778
10
115.3694677
20
28.689792
11
115.7101677
21
29.018092
0
LINE
8
DEFAULT_255_2_778
10
115.7101677
20
29.018092
11
115.7101677
21
32.025692
0
LINE
8
DEFAULT_255_2_778
10
115.7101677
20
32.025692
11
115.8517677
21
32.161892
0
LINE
8
DEFAULT_255_2_778
10
115.8517677
20
32.161892
11
115.4138677
21
32.583892
0
LINE
8
DEFAULT_255_2_778
10
115.4138677
20
32.583892
11
46.6923677
21
32.583892
0
LINE
8
DEFAULT_255_2_778
10
46.6923677
20
32.583892
11
46.6981677
21
32.546892
0
LINE
8
DEFAULT_255_2_778
10
46.6981677
20
32.546892
11
43.8901677
21
31.708192
0
LINE
8
DEFAULT_255_2_778
10
43.8901677
20
31.708192
11
41.9001677
21
31.152492
0
LINE
8
DEFAULT_255_2_778
10
41.9001677
20
31.152492
11
42.0835677
21
29.891292
0
LINE
8
DEFAULT_255_2_778
10
42.0835677
20
29.891292
11
47.2915677
21
28.459892
0
LINE
8
DEFAULT_255_2_778
10
47.2915677
20
28.459892
11
115.4136677
21
28.460092
0
LINE
8
DEFAULT_255_2_778
10
41.9396677
20
30.980792
11
43.7239677
21
31.481392
0
LINE
8
DEFAULT_255_2_778
10
43.7239677
20
31.481392
11
44.0054677
21
29.543092
0
LINE
8
DEFAULT_255_2_778
10
44.0054677
20
29.543092
11
42.0761677
21
30.041292
0
LINE
8
DEFAULT_255_2_778
10
42.0761677
20
30.041292
11
41.9396677
21
30.980792
0
ARC
8
DEFAULT_255_2_778
10
125.2053014
20
27.0793206
40
0.1878717
50
156.8714419
51
180.0319759
0
ARC
8
DEFAULT_255_2_778
10
136.4902999
20
27.580399
40
0.0942361
50
0.1295265
51
40.4323888
0
ARC
8
DEFAULT_255_2_778
10
136.3603504
20
27.5651853
40
0.2247155
50
1.0277183
51
3.9364555
0
ARC
8
DEFAULT_255_2_778
10
136.2689808
20
27.5697952
40
0.3160495
50
340.1380507
51
359.8949635
0
ARC
8
DEFAULT_255_2_778
10
136.8744243
20
27.0949084
40
0.1892061
50
0.1536418
51
46.2638717
0
ARC
8
DEFAULT_255_2_778
10
115.7174346
20
27.1291425
40
0.1936902
50
23.4482543
51
46.1040969
0
ARC
8
DEFAULT_255_2_778
10
115.7232008
20
27.1325931
40
0.1870291
50
359.9456726
51
23.1813604
0
ARC
8
DEFAULT_255_2_778
10
45.227066
20
25.9969758
40
0.988097
50
135.1351553
51
143.2907106
0
ARC
8
DEFAULT_255_2_778
10
42.3653437
20
26.1503605
40
0.2718033
50
15.0452794
51
16.2332591
0
ARC
8
DEFAULT_255_2_778
10
3.1442704
20
14.7801134
40
41.1077568
50
16.1673902
51
16.1723551
0
ARC
8
DEFAULT_255_2_778
10
42.7764779
20
26.2756858
40
0.1579808
50
189.4248747
51
196.8986734
0
ARC
8
DEFAULT_255_2_778
10
44.7113707
20
26.7308888
40
0.1486061
50
164.327393
51
168.3426961
0
ARC
8
DEFAULT_255_2_778
10
44.6274687
20
26.7609104
40
0.0600387
50
116.3399351
51
170.2932053
0
ARC
8
DEFAULT_255_2_778
10
136.0660298
20
10.6346171
40
1.0202052
50
269.8427462
51
313.6734517
0
ARC
8
DEFAULT_255_2_778
10
136.1177577
20
10.580962
40
0.9456766
50
313.6514749
51
359.8214959
0
ARC
8
DEFAULT_255_2_778
10
124.8173045
20
25.2290269
40
0.413211
50
275.3496747
51
291.7062404
0
ARC
8
DEFAULT_255_2_778
10
124.8155726
20
25.2218368
40
0.4071936
50
292.3068466
51
335.6451831
0
ARC
8
DEFAULT_255_2_778
10
124.8402189
20
25.2021751
40
0.3767122
50
336.8237327
51
359.8540989
0
ARC
8
DEFAULT_255_2_778
10
116.0871635
20
25.202469
40
0.3773086
50
185.8646896
51
203.1860529
0
ARC
8
DEFAULT_255_2_778
10
116.1114041
20
25.2220324
40
0.4073811
50
204.3730871
51
247.7013603
0
ARC
8
DEFAULT_255_2_778
10
116.111021
20
25.2347263
40
0.4190123
50
248.408448
51
269.8234317
0
ARC
8
DEFAULT_255_2_778
10
124.8279659
20
25.201415
40
0.1889643
50
313.6630193
51
359.8789587
0
ARC
8
DEFAULT_255_2_778
10
124.8177414
20
25.2119825
40
0.2036682
50
269.9897707
51
313.6913018
0
ARC
8
DEFAULT_255_2_778
10
124.8175114
20
25.1335811
40
0.1252669
50
269.7339586
51
270.0885469
0
ARC
8
DEFAULT_255_2_778
10
116.0989913
20
25.2014467
40
0.189262
50
180.1304426
51
226.2565222
0
ARC
8
DEFAULT_255_2_778
10
116.1089866
20
25.2124031
40
0.2040887
50
226.3560571
51
269.990993
0
ARC
8
DEFAULT_255_2_778
10
116.1091485
20
25.1334519
40
0.1251377
50
269.9111786
51
270.2661329
0
ARC
8
DEFAULT_255_2_778
10
45.8689968
20
10.5800623
40
0.9697284
50
188.1364442
51
211.6987337
0
ARC
8
DEFAULT_255_2_778
10
45.8635625
20
10.578668
40
0.9643736
50
211.7978982
51
232.8392865
0
ARC
8
DEFAULT_255_2_778
10
45.86696
20
10.5836509
40
0.9703972
50
232.8571324
51
251.8160727
0
ARC
8
DEFAULT_255_2_778
10
45.8663502
20
10.5863969
40
0.9728167
50
251.9006662
51
267.8547156
0
ARC
8
DEFAULT_255_2_778
10
45.8649684
20
10.5636332
40
0.9500173
50
267.8866059
51
269.9976714
0
ARC
8
DEFAULT_255_2_778
10
48.2944096
20
10.5668752
40
1.5240054
50
183.1656281
51
196.2421098
0
ARC
8
DEFAULT_255_2_778
10
47.8729583
20
10.4333488
40
1.0820771
50
195.695737
51
212.0324467
0
ARC
8
DEFAULT_255_2_778
10
47.4611307
20
10.1664281
40
0.5914286
50
211.2721035
51
235.7919488
0
ARC
8
DEFAULT_255_2_778
10
47.3386118
20
9.9900077
40
0.3766546
50
236.1174494
51
267.7642695
0
ARC
8
DEFAULT_255_2_778
10
47.3276298
20
9.9006383
40
0.2870225
50
269.2590461
51
269.999986
0
ARC
8
DEFAULT_255_2_778
10
47.3443823
20
9.705089
40
0.0929946
50
201.7379217
51
259.6217798
0
ARC
8
DEFAULT_255_2_778
10
47.5609009
20
9.8468276
40
0.3504112
50
208.96807
51
210.1842059
0
ARC
8
DEFAULT_255_2_778
10
47.6503948
20
9.8965265
40
0.4527787
50
198.2655707
51
208.985428
0
ARC
8
DEFAULT_255_2_778
10
48.266709
20
10.1109542
40
1.1052951
50
193.1118043
51
198.8076483
0
ARC
8
DEFAULT_255_2_778
10
49.2751271
20
10.3459999
40
2.1407436
50
185.4973892
51
193.1159868
0
ARC
8
DEFAULT_255_2_778
10
37.158311
20
64.1867883
40
0.0551132
50
186.4414725
51
212.8227304
0
ARC
8
DEFAULT_255_2_778
10
38.5295491
20
64.5192858
40
1.4656706
50
190.0138395
51
193.3603976
0
ARC
8
DEFAULT_255_2_778
10
40.3256626
20
64.8577536
40
3.2933435
50
189.7131397
51
190.3790573
0
ARC
8
DEFAULT_255_2_778
10
39.5947546
20
65.6041371
40
2.6780343
50
185.445697
51
187.7734486
0
ARC
8
DEFAULT_255_2_778
10
37.568999
20
65.4156848
40
0.6435539
50
181.2067927
51
185.8594321
0
ARC
8
DEFAULT_255_2_778
10
36.9695115
20
65.4045009
40
0.0439875
50
167.2934191
51
183.0885253
0
ARC
8
DEFAULT_255_2_778
10
36.9283099
20
65.413754
40
0.0017601
50
123.8409126
51
166.1140224
0
ARC
8
DEFAULT_255_2_778
10
115.715923
20
66.232359
40
0.1959435
50
23.6354275
51
46.0028702
0
ARC
8
DEFAULT_255_2_778
10
115.7252423
20
63.3343789
40
0.1854874
50
344.43789
51
356.878919
0
ARC
8
DEFAULT_255_2_778
10
115.7268702
20
63.3343375
40
0.1838597
50
356.8641766
51
359.9932379
0
ARC
8
DEFAULT_255_2_778
10
38.9427344
20
65.9132947
40
0.0661385
50
117.9553621
51
176.7390155
0
ARC
8
DEFAULT_255_2_778
10
39.0810252
20
65.8770348
40
0.2082051
50
168.9173644
51
170.746231
0
ARC
8
DEFAULT_255_2_778
10
39.1603884
20
65.8714656
40
0.2875228
50
172.1941894
51
178.7653498
0
ARC
8
DEFAULT_255_2_778
10
39.1613938
20
65.8714432
40
0.2885285
50
178.7652119
51
179.9980572
0
ARC
8
DEFAULT_255_2_778
10
39.1619148
20
65.871508
40
0.2890494
50
180.010895
51
197.5568182
0
ARC
8
DEFAULT_255_2_778
10
39.4206461
20
63.7158496
40
0.2540071
50
167.848882
51
179.7031136
0
ARC
8
DEFAULT_255_2_778
10
39.416781
20
63.7159005
40
0.2501419
50
179.7101711
51
179.9999991
0
ARC
8
DEFAULT_255_2_778
10
39.4183451
20
63.7158691
40
0.251706
50
179.9928697
51
191.6559733
0
ARC
8
DEFAULT_255_2_778
10
39.3530616
20
63.7089512
40
0.1864814
50
193.627107
51
194.944493
0
ARC
8
DEFAULT_255_2_778
10
39.2309198
20
63.6686315
40
0.05855
50
187.6268326
51
243.3192586
0
ARC
8
DEFAULT_255_2_778
10
115.7165264
20
61.3386118
40
0.1947745
50
23.5121302
51
46.0401973
0
ARC
8
DEFAULT_255_2_778
10
43.5858385
20
34.3308688
40
0.150453
50
184.4039601
51
194.729272
0
ARC
8
DEFAULT_255_2_778
10
43.5587101
20
34.324107
40
0.1224973
50
194.8967044
51
198.3056819
0
ARC
8
DEFAULT_255_2_778
10
43.4950638
20
34.2975975
40
0.0539944
50
192.8031177
51
244.8652833
0
ARC
8
DEFAULT_255_2_778
10
115.7203088
20
33.9149735
40
0.1902233
50
329.2157138
51
359.7115422
0
ARC
8
DEFAULT_255_2_778
10
115.5463028
20
33.4714421
40
0.1180898
50
211.5139936
51
213.3747326
0
ARC
8
DEFAULT_255_2_778
10
115.4290698
20
33.3915696
40
0.0238516
50
6.153661
51
38.6898112
0
ARC
8
DEFAULT_255_2_778
10
115.4414804
20
33.3941235
40
0.0113037
50
354.3762997
51
0.0148358
0
ARC
8
DEFAULT_255_2_778
10
40.2578764
20
60.2518354
40
1.0003666
50
135.1525319
51
143.2116436
0
ARC
8
DEFAULT_255_2_778
10
39.7334774
20
60.9939954
40
0.1485135
50
164.4118128
51
168.3379163
0
ARC
8
DEFAULT_255_2_778
10
39.6497522
20
61.0238539
40
0.0601708
50
116.4726246
51
170.3849833
0
ARC
8
DEFAULT_255_2_778
10
37.3862709
20
60.4127533
40
0.2730415
50
15.0639003
51
16.3109157
0
ARC
8
DEFAULT_255_2_778
10
-110.1871592
20
17.5281979
40
153.9512841
50
16.2039531
51
16.2049413
0
ARC
8
DEFAULT_255_2_778
10
37.7906173
20
60.5359135
40
0.1496283
50
188.9963958
51
197.0719919
0
LINE
8
DEFAULT_255_2_778
10
125.0852298
20
27.2364158
11
125.1145298
21
27.3047158
0
LINE
8
DEFAULT_255_2_778
10
125.1145298
20
27.3047158
11
125.5141298
21
27.6896158
0
LINE
8
DEFAULT_255_2_778
10
125.0762298
20
27.2152158
11
125.0590298
21
27.1964158
0
LINE
8
DEFAULT_255_2_778
10
125.0590298
20
27.1964158
11
125.0444298
21
27.1753158
0
LINE
8
DEFAULT_255_2_778
10
125.0444298
20
27.1753158
11
125.0328298
21
27.1528158
0
LINE
8
DEFAULT_255_2_778
10
125.0328298
20
27.1528158
11
125.0711298
21
27.2422158
0
LINE
8
DEFAULT_255_2_778
10
125.6125298
20
27.4602158
11
125.2172298
21
27.0795158
0
LINE
8
DEFAULT_255_2_778
10
125.2172298
20
27.0795158
11
125.2172298
21
25.2007158
0
LINE
8
DEFAULT_255_2_778
10
125.2172298
20
25.2007158
11
125.0172298
21
25.2007158
0
LINE
8
DEFAULT_255_2_778
10
125.0172298
20
25.2007158
11
125.0172298
21
27.0795158
0
LINE
8
DEFAULT_255_2_778
10
125.0172298
20
27.0795158
11
125.2172298
21
27.0795158
0
LINE
8
DEFAULT_255_2_778
10
125.2172298
20
27.0795158
11
125.0759298
21
27.2158158
0
LINE
8
DEFAULT_255_2_778
10
125.0759298
20
27.2158158
11
125.5297298
21
27.6531158
0
LINE
8
DEFAULT_255_2_778
10
125.5297298
20
27.6531158
11
136.0638298
21
27.6531158
0
LINE
8
DEFAULT_255_2_778
10
136.5662298
20
27.4624158
11
136.0638298
21
27.4605158
0
LINE
8
DEFAULT_255_2_778
10
136.0638298
20
27.4605158
11
125.6125298
21
27.4605158
0
LINE
8
DEFAULT_255_2_778
10
125.6125298
20
27.4605158
11
125.5138298
21
27.6902158
0
LINE
8
DEFAULT_255_2_778
10
125.5138298
20
27.6902158
11
136.5638298
21
27.6902158
0
LINE
8
DEFAULT_255_2_778
10
136.5638298
20
27.6902158
11
137.0052298
21
27.2650158
0
LINE
8
DEFAULT_255_2_778
10
137.0052298
20
27.2650158
11
137.0052298
21
27.2316158
0
LINE
8
DEFAULT_255_2_778
10
137.0636298
20
27.0954158
11
137.0568298
21
27.0986158
0
LINE
8
DEFAULT_255_2_778
10
137.0568298
20
27.0986158
11
137.0515298
21
27.1020158
0
LINE
8
DEFAULT_255_2_778
10
137.0515298
20
27.1020158
11
136.8758298
21
27.2293158
0
LINE
8
DEFAULT_255_2_778
10
136.8758298
20
27.2293158
11
136.5665298
21
27.4624158
0
LINE
8
DEFAULT_255_2_778
10
124.7137298
20
26.3445158
11
125.0174298
21
26.3445158
0
LINE
8
DEFAULT_255_2_778
10
47.4395298
20
27.4608158
11
47.4281298
21
27.5335158
0
LINE
8
DEFAULT_255_2_778
10
47.4281298
20
27.5335158
11
47.4183298
21
27.5957158
0
LINE
8
DEFAULT_255_2_778
10
47.4183298
20
27.5957158
11
47.4146298
21
27.6198158
0
LINE
8
DEFAULT_255_2_778
10
47.4146298
20
27.6198158
11
47.4120298
21
27.6378158
0
LINE
8
DEFAULT_255_2_778
10
47.4120298
20
27.6378158
11
47.4104298
21
27.6492158
0
LINE
8
DEFAULT_255_2_778
10
47.4104298
20
27.6492158
11
47.4093298
21
27.6534158
0
LINE
8
DEFAULT_255_2_778
10
115.8721298
20
27.6502158
11
116.2137298
21
27.6502158
0
LINE
8
DEFAULT_255_2_778
10
118.4637298
20
27.4880158
11
117.9557298
21
27.7706158
0
LINE
8
DEFAULT_255_2_778
10
117.9557298
20
27.7706158
11
116.9757298
21
27.7706158
0
LINE
8
DEFAULT_255_2_778
10
116.9757298
20
27.7706158
11
116.2137298
21
27.3467158
0
LINE
8
DEFAULT_255_2_778
10
117.4834298
20
25.3811158
11
117.4834298
21
27.7706158
0
LINE
8
DEFAULT_255_2_778
10
123.4434298
20
27.7706158
11
123.4434298
21
25.3811158
0
LINE
8
DEFAULT_255_2_778
10
124.7134298
20
27.3467158
11
123.9514298
21
27.7706158
0
LINE
8
DEFAULT_255_2_778
10
123.9514298
20
27.7706158
11
122.9714298
21
27.7706158
0
LINE
8
DEFAULT_255_2_778
10
122.9714298
20
27.7706158
11
122.4634298
21
27.4880158
0
LINE
8
DEFAULT_255_2_778
10
44.5629298
20
26.7287158
11
44.5267298
21
26.6940158
0
LINE
8
DEFAULT_255_2_778
10
42.6505298
20
26.0871158
11
42.6381298
21
26.1662158
0
LINE
8
DEFAULT_255_2_778
10
42.6381298
20
26.1662158
11
42.6278298
21
26.2209158
0
LINE
8
DEFAULT_255_2_778
10
42.6206298
20
26.2498158
11
42.6161298
21
26.2588158
0
LINE
8
DEFAULT_255_2_778
10
44.7802298
20
26.6665158
11
44.7246298
21
26.6834158
0
LINE
8
DEFAULT_255_2_778
10
44.7246298
20
26.6834158
11
44.5624298
21
26.7287158
0
LINE
8
DEFAULT_255_2_778
10
44.5624298
20
26.7287158
11
44.5658298
21
26.7609158
0
LINE
8
DEFAULT_255_2_778
10
124.8169298
20
24.8157158
11
124.8558298
21
24.8176158
0
LINE
8
DEFAULT_255_2_778
10
115.7099298
20
25.2012158
11
115.7118298
21
25.1639158
0
LINE
8
DEFAULT_255_2_778
10
124.8169298
20
25.0083158
11
124.8169298
21
24.8157158
0
LINE
8
DEFAULT_255_2_778
10
124.8169298
20
24.8157158
11
116.1097298
21
24.8157158
0
LINE
8
DEFAULT_255_2_778
10
116.1097298
20
24.8157158
11
116.1097298
21
25.0083158
0
LINE
8
DEFAULT_255_2_778
10
116.1097298
20
25.0083158
11
124.8169298
21
25.0083158
0
LINE
8
DEFAULT_255_2_778
10
44.9236298
20
10.4446158
11
44.9180298
21
10.4827158
0
LINE
8
DEFAULT_255_2_778
10
44.8897298
20
10.5772158
11
44.9090298
21
10.4428158
0
LINE
8
DEFAULT_255_2_778
10
47.1228298
20
10.4827158
11
47.0275298
21
10.4801158
0
LINE
8
DEFAULT_255_2_778
10
47.0275298
20
10.4801158
11
46.7727298
21
10.4827158
0
LINE
8
DEFAULT_255_2_778
10
47.1442298
20
10.1409158
11
47.1230298
21
10.4827158
0
LINE
8
DEFAULT_255_2_778
10
47.1230298
20
10.4827158
11
47.1185298
21
10.5772158
0
LINE
8
DEFAULT_255_2_778
10
47.1185298
20
10.5772158
11
44.7810298
21
26.6657158
0
LINE
8
DEFAULT_255_2_778
10
44.7810298
20
26.6657158
11
47.4397298
21
27.4597158
0
LINE
8
DEFAULT_255_2_778
10
47.4397298
20
27.4597158
11
115.3697298
21
27.4597158
0
LINE
8
DEFAULT_255_2_778
10
115.3697298
20
27.4597158
11
115.7104298
21
27.1314158
0
LINE
8
DEFAULT_255_2_778
10
115.7104298
20
27.1314158
11
115.9105298
21
27.1314158
0
LINE
8
DEFAULT_255_2_778
10
115.9105298
20
27.1314158
11
115.9105298
21
25.2002158
0
LINE
8
DEFAULT_255_2_778
10
115.9105298
20
25.2002158
11
115.7104298
21
25.2002158
0
LINE
8
DEFAULT_255_2_778
10
115.7104298
20
25.2002158
11
115.7104298
21
27.1314158
0
LINE
8
DEFAULT_255_2_778
10
115.7104298
20
27.1314158
11
115.8520298
21
27.2676158
0
LINE
8
DEFAULT_255_2_778
10
115.8520298
20
27.2676158
11
115.4141298
21
27.6896158
0
LINE
8
DEFAULT_255_2_778
10
115.4141298
20
27.6896158
11
47.4032298
21
27.6896158
0
LINE
8
DEFAULT_255_2_778
10
47.4032298
20
27.6896158
11
47.4091298
21
27.6526158
0
LINE
8
DEFAULT_255_2_778
10
47.4091298
20
27.6526158
11
44.6010298
21
26.8139158
0
LINE
8
DEFAULT_255_2_778
10
44.6010298
20
26.8139158
11
42.6169298
21
26.2572158
0
LINE
8
DEFAULT_255_2_778
10
136.0638298
20
27.6526158
11
136.0638298
21
9.6136158
0
LINE
8
DEFAULT_255_2_778
10
136.0638298
20
9.6136158
11
122.4412298
21
9.6136158
0
LINE
8
DEFAULT_255_2_778
10
42.3156298
20
62.7609158
11
115.3980298
21
62.7609158
0
LINE
8
DEFAULT_255_2_778
10
115.3980298
20
62.7609158
11
115.8517298
21
63.1983158
0
LINE
8
DEFAULT_255_2_778
10
115.8517298
20
63.1983158
11
115.7104298
21
63.3346158
0
LINE
8
DEFAULT_255_2_778
10
115.7104298
20
63.3346158
11
115.9105298
21
63.3346158
0
LINE
8
DEFAULT_255_2_778
10
115.9105298
20
63.3346158
11
115.9105298
21
66.2373158
0
LINE
8
DEFAULT_255_2_778
10
115.9105298
20
66.2373158
11
115.7104298
21
66.2373158
0
LINE
8
DEFAULT_255_2_778
10
115.7104298
20
66.2373158
11
115.3152298
21
66.6180158
0
LINE
8
DEFAULT_255_2_778
10
115.3152298
20
66.6180158
11
41.7499298
21
66.6180158
0
LINE
8
DEFAULT_255_2_778
10
115.8570298
20
66.4003158
11
115.8954298
21
66.3109158
0
LINE
8
DEFAULT_255_2_778
10
115.8954298
20
66.3109158
11
115.9039298
21
66.2870158
0
LINE
8
DEFAULT_255_2_778
10
115.9039298
20
66.2870158
11
115.9089298
21
66.2622158
0
LINE
8
DEFAULT_255_2_778
10
115.9089298
20
66.2622158
11
115.9105298
21
66.2370158
0
LINE
8
DEFAULT_255_2_778
10
115.8570298
20
63.1713158
11
115.8954298
21
63.2607158
0
LINE
8
DEFAULT_255_2_778
10
115.8954298
20
63.2607158
11
115.9039298
21
63.2846158
0
LINE
8
DEFAULT_255_2_778
10
41.7168298
20
66.8480158
11
115.4138298
21
66.8480158
0
LINE
8
DEFAULT_255_2_778
10
115.4138298
20
66.8480158
11
115.8134298
21
66.4630158
0
LINE
8
DEFAULT_255_2_778
10
115.8134298
20
66.4630158
11
115.8427298
21
66.3947158
0
LINE
8
DEFAULT_255_2_778
10
41.7168298
20
66.8522158
11
115.3980298
21
66.8522158
0
LINE
8
DEFAULT_255_2_778
10
115.3980298
20
66.8522158
11
115.8517298
21
66.4103158
0
LINE
8
DEFAULT_255_2_778
10
115.8517298
20
66.4103158
11
115.7104298
21
66.2728158
0
LINE
8
DEFAULT_255_2_778
10
115.7104298
20
66.2728158
11
115.7104298
21
63.3388158
0
LINE
8
DEFAULT_255_2_778
10
115.7104298
20
63.3388158
11
115.3152298
21
62.9538158
0
LINE
8
DEFAULT_255_2_778
10
115.3152298
20
62.9538158
11
42.3462298
21
62.9538158
0
LINE
8
DEFAULT_255_2_778
10
115.8425298
20
63.1771158
11
115.8131298
21
63.1089158
0
LINE
8
DEFAULT_255_2_778
10
115.8131298
20
63.1089158
11
115.4136298
21
62.7239158
0
LINE
8
DEFAULT_255_2_778
10
115.4136298
20
62.7239158
11
42.3156298
21
62.7239158
0
LINE
8
DEFAULT_255_2_778
10
41.7195298
20
66.8107158
11
38.9114298
21
65.9719158
0
LINE
8
DEFAULT_255_2_778
10
38.9114298
20
65.9719158
11
36.9215298
21
65.4163158
0
LINE
8
DEFAULT_255_2_778
10
36.9215298
20
65.4163158
11
37.1049298
21
64.1550158
0
LINE
8
DEFAULT_255_2_778
10
37.1049298
20
64.1550158
11
42.3129298
21
62.7236158
0
LINE
8
DEFAULT_255_2_778
10
42.3129298
20
62.7236158
11
42.3462298
21
62.9533158
0
LINE
8
DEFAULT_255_2_778
10
42.3462298
20
62.9533158
11
39.1723298
21
63.8256158
0
LINE
8
DEFAULT_255_2_778
10
39.1723298
20
63.8256158
11
38.8908298
21
65.7637158
0
LINE
8
DEFAULT_255_2_778
10
38.8908298
20
65.7637158
11
41.7499298
21
66.6178158
0
LINE
8
DEFAULT_255_2_778
10
41.7499298
20
66.6178158
11
41.7139298
21
66.8474158
0
LINE
8
DEFAULT_255_2_778
10
41.7139298
20
66.8474158
11
36.9218298
21
65.4160158
0
LINE
8
DEFAULT_255_2_778
10
38.8863298
20
65.7843158
11
36.9612298
21
65.2443158
0
LINE
8
DEFAULT_255_2_778
10
36.9612298
20
65.2443158
11
37.0977298
21
64.3048158
0
LINE
8
DEFAULT_255_2_778
10
37.0977298
20
64.3048158
11
39.1723298
21
63.7693158
0
LINE
8
DEFAULT_255_2_778
10
115.8568298
20
61.5058158
11
115.8951298
21
61.4163158
0
LINE
8
DEFAULT_255_2_778
10
115.8951298
20
61.4163158
11
115.9036298
21
61.3925158
0
LINE
8
DEFAULT_255_2_778
10
115.9036298
20
61.3925158
11
115.9086298
21
61.3677158
0
LINE
8
DEFAULT_255_2_778
10
115.9086298
20
61.3677158
11
115.9102298
21
61.3425158
0
LINE
8
DEFAULT_255_2_778
10
41.3652298
20
34.9366158
11
41.3742298
21
34.8709158
0
LINE
8
DEFAULT_255_2_778
10
41.3742298
20
34.8709158
11
41.3795298
21
34.8225158
0
LINE
8
DEFAULT_255_2_778
10
41.3795298
20
34.8225158
11
41.3810298
21
34.7966158
0
LINE
8
DEFAULT_255_2_778
10
41.3810298
20
34.7966158
11
41.3797298
21
34.7884158
0
LINE
8
DEFAULT_255_2_778
10
41.3797298
20
34.7884158
11
43.4723298
21
34.2484158
0
LINE
8
DEFAULT_255_2_778
10
43.4723298
20
34.2484158
11
46.5859298
21
33.3927158
0
LINE
8
DEFAULT_255_2_778
10
46.5859298
20
33.3927158
11
46.5806298
21
33.3557158
0
LINE
8
DEFAULT_255_2_778
10
43.2948298
20
34.4386158
11
43.3271298
21
34.4079158
0
LINE
8
DEFAULT_255_2_778
10
43.3271298
20
34.4079158
11
43.4358298
21
34.3193158
0
LINE
8
DEFAULT_255_2_778
10
43.4358298
20
34.3193158
11
43.4893298
21
34.3357158
0
LINE
8
DEFAULT_255_2_778
10
43.4893298
20
34.3357158
11
43.6575298
21
34.3979158
0
LINE
8
DEFAULT_255_2_778
10
46.6137298
20
33.5853158
11
46.6031298
21
33.5128158
0
LINE
8
DEFAULT_255_2_778
10
46.6031298
20
33.5128158
11
46.5941298
21
33.4507158
0
LINE
8
DEFAULT_255_2_778
10
46.5941298
20
33.4507158
11
46.5907298
21
33.4266158
0
LINE
8
DEFAULT_255_2_778
10
46.5907298
20
33.4266158
11
46.5883298
21
33.4083158
0
LINE
8
DEFAULT_255_2_778
10
46.5883298
20
33.4083158
11
46.5867298
21
33.3970158
0
LINE
8
DEFAULT_255_2_778
10
46.5867298
20
33.3970158
11
46.5859298
21
33.3927158
0
LINE
8
DEFAULT_255_2_778
10
115.8520298
20
33.7777158
11
115.8692298
21
33.7967158
0
LINE
8
DEFAULT_255_2_778
10
115.8692298
20
33.7967158
11
115.8837298
21
33.8176158
0
LINE
8
DEFAULT_255_2_778
10
115.3697298
20
33.5856158
11
115.4001298
21
33.5150158
0
LINE
8
DEFAULT_255_2_778
10
115.4001298
20
33.5150158
11
115.4268298
21
33.4531158
0
LINE
8
DEFAULT_255_2_778
10
115.4268298
20
33.4531158
11
115.4374298
21
33.4284158
0
LINE
8
DEFAULT_255_2_778
10
115.4374298
20
33.4284158
11
115.4456298
21
33.4097158
0
LINE
8
DEFAULT_255_2_778
10
115.4527298
20
33.3930158
11
46.5830298
21
33.3930158
0
LINE
8
DEFAULT_255_2_778
10
39.8025298
20
60.9298158
11
39.7470298
21
60.9467158
0
LINE
8
DEFAULT_255_2_778
10
39.7470298
20
60.9467158
11
39.5848298
21
60.9919158
0
LINE
8
DEFAULT_255_2_778
10
39.5848298
20
60.9919158
11
39.5486298
21
60.9573158
0
LINE
8
DEFAULT_255_2_778
10
39.5845298
20
60.9917158
11
39.5880298
21
61.0240158
0
LINE
8
DEFAULT_255_2_778
10
115.4138298
20
33.3554158
11
115.8517298
21
33.7774158
0
LINE
8
DEFAULT_255_2_778
10
115.8517298
20
33.7774158
11
115.7102298
21
33.9137158
0
LINE
8
DEFAULT_255_2_778
10
115.7102298
20
33.9137158
11
115.9102298
21
33.9137158
0
LINE
8
DEFAULT_255_2_778
10
115.9102298
20
33.9137158
11
115.9102298
21
61.3425158
0
LINE
8
DEFAULT_255_2_778
10
115.9102298
20
61.3425158
11
115.7102298
21
61.3425158
0
LINE
8
DEFAULT_255_2_778
10
115.7102298
20
61.3425158
11
115.3149298
21
61.7232158
0
LINE
8
DEFAULT_255_2_778
10
115.3149298
20
61.7232158
11
42.4611298
21
61.7232158
0
LINE
8
DEFAULT_255_2_778
10
42.4611298
20
61.7232158
11
42.4251298
21
61.9529158
0
LINE
8
DEFAULT_255_2_778
10
42.4251298
20
61.9529158
11
37.6330298
21
60.5215158
0
LINE
8
DEFAULT_255_2_778
10
37.6330298
20
60.5215158
11
41.3723298
21
34.7865158
0
LINE
8
DEFAULT_255_2_778
10
41.3723298
20
34.7865158
11
46.5804298
21
33.3552158
0
LINE
8
DEFAULT_255_2_778
10
46.5804298
20
33.3552158
11
115.4138298
21
33.3554158
0
LINE
8
DEFAULT_255_2_778
10
37.6726298
20
60.3501158
11
41.3652298
21
34.9366158
0
LINE
8
DEFAULT_255_2_778
10
41.3652298
20
34.9366158
11
43.2945298
21
34.4384158
0
LINE
8
DEFAULT_255_2_778
10
43.2945298
20
34.4384158
11
39.4570298
21
60.8504158
0
LINE
8
DEFAULT_255_2_778
10
39.4570298
20
60.8504158
11
37.6726298
21
60.3498158
0
LINE
8
DEFAULT_255_2_778
10
37.6726298
20
60.3498158
11
37.6602298
21
60.4289158
0
LINE
8
DEFAULT_255_2_778
10
37.6602298
20
60.4289158
11
37.6499298
21
60.4837158
0
LINE
8
DEFAULT_255_2_778
10
37.6428298
20
60.5125158
11
37.6383298
21
60.5215158
0
LINE
8
DEFAULT_255_2_778
10
37.6383298
20
60.5215158
11
39.6229298
21
61.0774158
0
LINE
8
DEFAULT_255_2_778
10
39.6229298
20
61.0774158
11
42.4309298
21
61.9161158
0
LINE
8
DEFAULT_255_2_778
10
42.4309298
20
61.9161158
11
115.3980298
21
61.9161158
0
LINE
8
DEFAULT_255_2_778
10
115.3980298
20
61.9161158
11
115.8517298
21
61.4788158
0
LINE
8
DEFAULT_255_2_778
10
115.8517298
20
61.4788158
11
115.7104298
21
61.3425158
0
LINE
8
DEFAULT_255_2_778
10
115.7104298
20
61.3425158
11
115.7104298
21
33.9134158
0
LINE
8
DEFAULT_255_2_778
10
115.7104298
20
33.9134158
11
115.3697298
21
33.5851158
0
LINE
8
DEFAULT_255_2_778
10
115.3697298
20
33.5851158
11
46.6134298
21
33.5851158
0
LINE
8
DEFAULT_255_2_778
10
46.6134298
20
33.5851158
11
43.6573298
21
34.3976158
0
LINE
8
DEFAULT_255_2_778
10
43.6573298
20
34.3976158
11
39.8023298
21
60.9292158
0
LINE
8
DEFAULT_255_2_778
10
39.8023298
20
60.9292158
11
42.4611298
21
61.7232158
0
LINE
8
DEFAULT_255_2_778
10
124.7113817
20
61.485217
11
125.0335817
21
61.479917
0
LINE
8
DEFAULT_255_2_778
10
125.0761817
20
66.373917
11
125.0571817
21
66.352717
0
LINE
8
DEFAULT_255_2_778
10
125.0571817
20
66.352717
11
125.0327817
21
66.311217
0
LINE
8
DEFAULT_255_2_778
10
125.0327817
20
66.311217
11
125.0711817
21
66.400617
0
LINE
8
DEFAULT_255_2_778
10
125.0558817
20
33.838617
11
125.0558817
21
32.101917
0
LINE
8
DEFAULT_255_2_778
10
115.8517817
20
63.198617
11
115.8834817
21
63.238617
0
LINE
8
DEFAULT_255_2_778
10
115.8834817
20
63.238617
11
115.8951817
21
63.261117
0
LINE
8
DEFAULT_255_2_778
10
115.8517817
20
68.093417
11
115.8707817
21
68.114617
0
LINE
8
DEFAULT_255_2_778
10
115.8707817
20
68.114617
11
115.8951817
21
68.156117
0
LINE
8
DEFAULT_255_2_778
10
115.8951817
20
68.156117
11
115.8567817
21
68.066717
0
ARC
8
DEFAULT_255_2_778
10
125.2047692
20
66.2376097
40
0.1872744
50
165.3357975
51
179.9054055
0
ARC
8
DEFAULT_255_2_778
10
116.1100216
20
70.0812321
40
0.4123717
50
95.33286
51
111.7229462
0
ARC
8
DEFAULT_255_2_778
10
116.1117881
20
70.0875097
40
0.407213
50
112.2807766
51
155.6173427
0
ARC
8
DEFAULT_255_2_778
10
116.0894893
20
70.1068889
40
0.3789968
50
156.8941623
51
179.7989294
0
ARC
8
DEFAULT_255_2_778
10
124.8356543
20
70.1055627
40
0.3821354
50
6.0018394
51
23.1212444
0
ARC
8
DEFAULT_255_2_778
10
124.8160635
20
70.0874402
40
0.4073678
50
24.3835244
51
67.6918896
0
ARC
8
DEFAULT_255_2_778
10
124.8168011
20
70.0762551
40
0.4174648
50
68.3682766
51
89.8773101
0
ARC
8
DEFAULT_255_2_778
10
115.7183225
20
68.2303366
40
0.1919747
50
345.5151049
51
359.7261276
0
ARC
8
DEFAULT_255_2_778
10
116.1100138
20
70.1759816
40
0.1251386
50
89.7338675
51
90.0888218
0
ARC
8
DEFAULT_255_2_778
10
116.1097792
20
70.0972134
40
0.203907
50
89.9885971
51
133.6644082
0
ARC
8
DEFAULT_255_2_778
10
116.0994035
20
70.1080432
40
0.1889091
50
133.6557644
51
179.8556981
0
ARC
8
DEFAULT_255_2_778
10
124.8285866
20
70.1080432
40
0.1889091
50
0.1443019
51
46.3442356
0
ARC
8
DEFAULT_255_2_778
10
124.8183067
20
70.0974522
40
0.2036682
50
46.3086982
51
90.0102293
0
ARC
8
DEFAULT_255_2_778
10
124.8180763
20
70.1759828
40
0.1251377
50
89.9111786
51
90.2661329
0
ARC
8
DEFAULT_255_2_778
10
125.2123015
20
33.9708749
40
0.1959427
50
203.6352629
51
226.0027864
0
ARC
8
DEFAULT_255_2_778
10
125.2123005
20
29.076075
40
0.195942
50
203.6353841
51
226.0029996
0
LINE
8
DEFAULT_255_2_778
10
125.0325951
20
66.3114189
11
125.0235951
21
66.2850189
0
LINE
8
DEFAULT_255_2_778
10
116.1105951
20
70.4937189
11
116.0716951
21
70.4918189
0
LINE
8
DEFAULT_255_2_778
10
125.2174951
20
70.1082189
11
125.2156951
21
70.1455189
0
LINE
8
DEFAULT_255_2_778
10
124.8176951
20
70.4937189
11
124.8176951
21
70.3011189
0
LINE
8
DEFAULT_255_2_778
10
124.8176951
20
70.3011189
11
116.1105951
21
70.3011189
0
LINE
8
DEFAULT_255_2_778
10
116.1105951
20
70.3011189
11
116.1105951
21
70.4937189
0
LINE
8
DEFAULT_255_2_778
10
116.1105951
20
70.4937189
11
124.8176951
21
70.4937189
0
LINE
8
DEFAULT_255_2_778
10
115.8951951
20
68.1558189
11
115.9041951
21
68.1823189
0
LINE
8
DEFAULT_255_2_778
10
125.0761951
20
32.1103189
11
125.0444951
21
32.0704189
0
LINE
8
DEFAULT_255_2_778
10
125.0444951
20
32.0704189
11
125.0327951
21
32.0479189
0
LINE
8
DEFAULT_255_2_778
10
124.7136951
20
32.5789189
11
125.0558951
21
32.5731189
0
ARC
8
DEFAULT_255_2_778
10
125.2065986
20
31.9733778
40
0.189152
50
164.4365499
51
176.3312153
0
ARC
8
DEFAULT_255_2_778
10
125.1953231
20
31.9742944
40
0.177841
50
176.3934511
51
179.989069
0
LINE
8
DEFAULT_255_2_778
10
125.0174821
20
54.7105283
11
124.7137821
21
54.7105283
0
LINE
8
DEFAULT_255_2_778
10
124.7137821
20
53.9763283
11
124.9677821
21
53.9763283
0
LINE
8
DEFAULT_255_2_778
10
124.9677821
20
53.9763283
11
125.0177821
21
53.9665283
0
LINE
8
DEFAULT_255_2_778
10
125.0177821
20
50.9452283
11
124.9677821
21
50.9354283
0
LINE
8
DEFAULT_255_2_778
10
124.9677821
20
50.9354283
11
124.7137821
21
50.9354283
0
LINE
8
DEFAULT_255_2_778
10
124.7137821
20
50.2012283
11
125.0174821
21
50.2012283
0
LINE
8
DEFAULT_255_2_778
10
124.7137821
20
68.9324283
11
125.0174821
21
68.9324283
0
LINE
8
DEFAULT_255_2_778
10
125.0174821
20
68.8427283
11
124.7137821
21
68.8401283
0
LINE
8
DEFAULT_255_2_778
10
125.0558821
20
67.5661283
11
124.7137821
21
67.5690283
0
LINE
8
DEFAULT_255_2_778
10
125.0558821
20
62.5816283
11
124.7137821
21
62.5758283
0
LINE
8
DEFAULT_255_2_778
10
115.8721821
20
66.3739283
11
115.8721821
21
68.0934283
0
LINE
8
DEFAULT_255_2_778
10
115.8721821
20
61.4788283
11
115.8721821
21
63.2071283
0
LINE
8
DEFAULT_255_2_778
10
125.6127821
20
66.6184283
11
125.5244821
21
66.8081283
0
LINE
8
DEFAULT_255_2_778
10
125.6127821
20
61.7236283
11
125.5347821
21
61.9133283
0
LINE
8
DEFAULT_255_2_778
10
125.0558821
20
28.9438283
11
125.0558821
21
27.2155283
0
LINE
8
DEFAULT_255_2_778
10
125.0711821
20
32.1373283
11
125.0328821
21
32.0479283
0
LINE
8
DEFAULT_255_2_778
10
125.0328821
20
32.0479283
11
125.0243821
21
32.0241283
0
LINE
8
DEFAULT_255_2_778
10
125.0711821
20
28.9084283
11
125.0328821
21
28.9978283
0
LINE
8
DEFAULT_255_2_778
10
125.0328821
20
28.9978283
11
125.0243821
21
29.0216283
0
LINE
8
DEFAULT_255_2_778
10
125.0243821
20
29.0216283
11
125.0193821
21
29.0465283
0
LINE
8
DEFAULT_255_2_778
10
125.0193821
20
29.0465283
11
125.0177821
21
29.0716283
0
ARC
8
DEFAULT_255_2_778
10
125.2045147
20
61.342954
40
0.1870295
50
156.8186913
51
180.0543319
0
LINE
8
DEFAULT_255_2_778
10
125.0558853
20
68.1018766
11
125.0558853
21
66.3735766
0
LINE
8
DEFAULT_255_2_778
10
125.0558853
20
63.3276766
11
125.0558853
21
61.4790766
0
LINE
8
DEFAULT_255_2_778
10
125.0174853
20
69.8959766
11
116.2137853
21
69.8959766
0
LINE
8
DEFAULT_255_2_778
10
116.2137853
20
69.8959766
11
116.2137853
21
25.3805766
0
LINE
8
DEFAULT_255_2_778
10
116.2137853
20
25.3805766
11
125.0174853
21
25.3805766
0
LINE
8
DEFAULT_255_2_778
10
116.2137853
20
42.2239766
11
115.9105853
21
42.2239766
0
LINE
8
DEFAULT_255_2_778
10
115.9105853
20
41.4897766
11
116.2137853
21
41.4897766
0
LINE
8
DEFAULT_255_2_778
10
116.2137853
20
44.1511766
11
115.9105853
21
44.1511766
0
LINE
8
DEFAULT_255_2_778
10
115.9105853
20
43.4169766
11
116.2137853
21
43.4169766
0
LINE
8
DEFAULT_255_2_778
10
116.2137853
20
46.0781766
11
115.9105853
21
46.0781766
0
LINE
8
DEFAULT_255_2_778
10
115.9105853
20
45.3439766
11
116.2137853
21
45.3439766
0
LINE
8
DEFAULT_255_2_778
10
116.2137853
20
49.9323766
11
115.9105853
21
49.9323766
0
LINE
8
DEFAULT_255_2_778
10
115.9105853
20
49.1981766
11
116.2137853
21
49.1981766
0
LINE
8
DEFAULT_255_2_778
10
116.2137853
20
51.8595766
11
115.9105853
21
51.8595766
0
LINE
8
DEFAULT_255_2_778
10
115.9105853
20
51.1253766
11
116.2137853
21
51.1253766
0
LINE
8
DEFAULT_255_2_778
10
116.2137853
20
53.7865766
11
115.9105853
21
53.7865766
0
LINE
8
DEFAULT_255_2_778
10
115.9105853
20
53.0523766
11
116.2137853
21
53.0523766
0
LINE
8
DEFAULT_255_2_778
10
116.2137853
20
55.7134766
11
115.9105853
21
55.7134766
0
LINE
8
DEFAULT_255_2_778
10
115.9105853
20
54.9792766
11
116.2137853
21
54.9792766
0
LINE
8
DEFAULT_255_2_778
10
116.2137853
20
48.0053766
11
115.9105853
21
48.0053766
0
LINE
8
DEFAULT_255_2_778
10
115.9105853
20
47.2711766
11
116.2137853
21
47.2711766
0
LINE
8
DEFAULT_255_2_778
10
116.2137853
20
40.2970766
11
115.9105853
21
40.2970766
0
LINE
8
DEFAULT_255_2_778
10
115.9105853
20
39.5627766
11
116.2137853
21
39.5627766
0
LINE
8
DEFAULT_255_2_778
10
125.6127853
20
67.8486766
11
125.5140853
21
67.6189766
0
LINE
8
DEFAULT_255_2_778
10
116.2137853
20
67.6268766
11
115.8721853
21
67.6268766
0
LINE
8
DEFAULT_255_2_778
10
115.8721853
20
66.8077766
11
116.2137853
21
66.8077766
0
LINE
8
DEFAULT_255_2_778
10
125.6233853
20
62.9538766
11
125.5349853
21
62.7641766
0
LINE
8
DEFAULT_255_2_778
10
116.2137853
20
62.7320766
11
115.8721853
21
62.7320766
0
LINE
8
DEFAULT_255_2_778
10
115.8721853
20
61.9129766
11
116.2137853
21
61.9129766
0
LINE
8
DEFAULT_255_2_778
10
115.8721853
20
27.2424766
11
115.8721853
21
28.9080766
0
LINE
8
DEFAULT_255_2_778
10
115.8721853
20
32.1372766
11
115.8721853
21
33.8028766
0
LINE
8
DEFAULT_255_2_778
10
116.2137853
20
28.4685766
11
115.8721853
21
28.4685766
0
LINE
8
DEFAULT_255_2_778
10
116.2137635
20
33.3634063
11
115.8721635
21
33.3634063
0
LINE
8
DEFAULT_255_2_778
10
115.8721635
20
32.5445063
11
116.2137635
21
32.5445063
0
LINE
8
DEFAULT_255_2_778
10
125.0711635
20
68.0664063
11
125.0328635
21
68.1558063
0
LINE
8
DEFAULT_255_2_778
10
125.0328635
20
68.1558063
11
125.0444635
21
68.1333063
0
LINE
8
DEFAULT_255_2_778
10
125.0444635
20
68.1333063
11
125.0762635
21
68.0934063
0
LINE
8
DEFAULT_255_2_778
10
124.7137635
20
32.2410063
11
123.9517635
21
32.6649063
0
LINE
8
DEFAULT_255_2_778
10
123.9517635
20
32.6649063
11
122.9717635
21
32.6649063
0
LINE
8
DEFAULT_255_2_778
10
122.9717635
20
32.6649063
11
122.4637635
21
32.3823063
0
LINE
8
DEFAULT_255_2_778
10
124.7136995
20
66.5045092
11
123.9516995
21
66.9284092
0
LINE
8
DEFAULT_255_2_778
10
123.9516995
20
66.9284092
11
122.9716995
21
66.9284092
0
LINE
8
DEFAULT_255_2_778
10
122.9716995
20
66.9284092
11
122.4636995
21
66.6458092
0
LINE
8
DEFAULT_255_2_778
10
122.4636995
20
61.7510092
11
122.9716995
21
62.0336092
0
LINE
8
DEFAULT_255_2_778
10
122.9716995
20
62.0336092
11
123.9516995
21
62.0336092
0
LINE
8
DEFAULT_255_2_778
10
123.9516995
20
62.0336092
11
124.7136995
21
61.6097092
0
LINE
8
DEFAULT_255_2_778
10
123.4436995
20
38.2417092
11
123.4436995
21
39.1347092
0
LINE
8
DEFAULT_255_2_778
10
117.4836995
20
39.1347092
11
117.4836995
21
38.2431092
0
LINE
8
DEFAULT_255_2_778
10
123.4436995
20
33.2430092
11
123.4436995
21
35.1869092
0
LINE
8
DEFAULT_255_2_778
10
117.4836995
20
35.1853092
11
117.4836995
21
33.2430092
0
LINE
8
DEFAULT_255_2_778
10
123.4436995
20
29.8947092
11
123.4436995
21
28.3482092
0
LINE
8
DEFAULT_255_2_778
10
117.4836995
20
28.3482092
11
117.4836995
21
29.8947092
0
LINE
8
DEFAULT_255_2_778
10
123.4436995
20
32.6649092
11
123.4436995
21
31.1184092
0
LINE
8
DEFAULT_255_2_778
10
117.4836995
20
31.1184092
11
117.4836995
21
32.6649092
0
LINE
8
DEFAULT_255_2_778
10
123.4436995
20
60.0897092
11
123.4436995
21
62.0336092
0
LINE
8
DEFAULT_255_2_778
10
117.4836995
20
62.0336092
11
117.4836995
21
60.0913092
0
LINE
8
DEFAULT_255_2_778
10
123.4436995
20
64.1581766
11
123.4436995
21
62.6117766
0
LINE
8
DEFAULT_255_2_778
10
117.4836995
20
62.6117766
11
117.4836995
21
64.1581766
0
LINE
8
DEFAULT_255_2_778
10
123.4436995
20
66.9283766
11
123.4436995
21
65.3818766
0
LINE
8
DEFAULT_255_2_778
10
117.4836995
20
65.3818766
11
117.4836995
21
66.9283766
0
LINE
8
DEFAULT_255_2_778
10
123.4436995
20
69.8959766
11
123.4436995
21
67.5064766
0
LINE
8
DEFAULT_255_2_778
10
117.4836995
20
67.5064766
11
117.4836995
21
69.8959766
0
LINE
8
DEFAULT_255_2_778
10
123.4436995
20
56.1421766
11
123.4436995
21
57.0350766
0
LINE
8
DEFAULT_255_2_778
10
117.4836995
20
57.0334766
11
117.4836995
21
56.1418766
0
LINE
8
DEFAULT_255_2_778
10
124.7136995
20
25.3805766
11
124.7136995
21
69.8959766
0
LINE
8
DEFAULT_255_2_778
10
122.463696
20
67.7891299
11
122.971696
21
67.5065299
0
LINE
8
DEFAULT_255_2_778
10
122.971696
20
67.5065299
11
123.951696
21
67.5065299
0
LINE
8
DEFAULT_255_2_778
10
123.951696
20
67.5065299
11
124.713696
21
67.9304299
0
LINE
8
DEFAULT_255_2_778
10
116.213696
20
67.9304299
11
116.975696
21
67.5065299
0
LINE
8
DEFAULT_255_2_778
10
116.975696
20
67.5065299
11
117.955696
21
67.5065299
0
LINE
8
DEFAULT_255_2_778
10
117.955696
20
67.5065299
11
118.463696
21
67.7891299
0
LINE
8
DEFAULT_255_2_778
10
122.463696
20
62.8943299
11
122.971696
21
62.6117299
0
LINE
8
DEFAULT_255_2_778
10
122.971696
20
62.6117299
11
123.951696
21
62.6117299
0
LINE
8
DEFAULT_255_2_778
10
123.951696
20
62.6117299
11
124.713696
21
63.0356299
0
LINE
8
DEFAULT_255_2_778
10
116.213696
20
63.0356299
11
116.975696
21
62.6117299
0
LINE
8
DEFAULT_255_2_778
10
116.975696
20
62.6117299
11
117.955696
21
62.6117299
0
LINE
8
DEFAULT_255_2_778
10
117.955696
20
62.6117299
11
118.463696
21
62.8943299
0
LINE
8
DEFAULT_255_2_778
10
118.463696
20
32.3823339
11
117.955696
21
32.6649339
0
LINE
8
DEFAULT_255_2_778
10
117.955696
20
32.6649339
11
116.975696
21
32.6649339
0
LINE
8
DEFAULT_255_2_778
10
116.975696
20
32.6649339
11
116.213696
21
32.2410339
0
LINE
8
DEFAULT_255_2_778
10
122.463696
20
28.6308299
11
122.971696
21
28.3482299
0
LINE
8
DEFAULT_255_2_778
10
122.971696
20
28.3482299
11
123.951696
21
28.3482299
0
LINE
8
DEFAULT_255_2_778
10
123.951696
20
28.3482299
11
124.713696
21
28.7721299
0
LINE
8
DEFAULT_255_2_778
10
116.213696
20
28.7721299
11
116.975696
21
28.3482299
0
LINE
8
DEFAULT_255_2_778
10
116.975696
20
28.3482299
11
117.955696
21
28.3482299
0
LINE
8
DEFAULT_255_2_778
10
117.955696
20
28.3482299
11
118.463696
21
28.6308299
0
LINE
8
DEFAULT_255_2_778
10
122.463696
20
33.5256299
11
122.971696
21
33.2430299
0
LINE
8
DEFAULT_255_2_778
10
122.971696
20
33.2430299
11
123.951696
21
33.2430299
0
LINE
8
DEFAULT_255_2_778
10
123.951696
20
33.2430299
11
124.713696
21
33.6669299
0
LINE
8
DEFAULT_255_2_778
10
116.213696
20
33.6669299
11
116.975696
21
33.2430299
0
LINE
8
DEFAULT_255_2_778
10
116.975696
20
33.2430299
11
117.955696
21
33.2430299
0
LINE
8
DEFAULT_255_2_778
10
117.955696
20
33.2430299
11
118.463696
21
33.5256299
0
LINE
8
DEFAULT_255_2_778
10
116.213696
20
66.5045297
11
116.975696
21
66.9284297
0
LINE
8
DEFAULT_255_2_778
10
116.975696
20
66.9284297
11
117.955696
21
66.9284297
0
LINE
8
DEFAULT_255_2_778
10
117.955696
20
66.9284297
11
118.463696
21
66.6458297
0
LINE
8
DEFAULT_255_2_778
10
116.213696
20
61.6097297
11
116.975696
21
62.0336297
0
LINE
8
DEFAULT_255_2_778
10
116.975696
20
62.0336297
11
117.955696
21
62.0336297
0
LINE
8
DEFAULT_255_2_778
10
117.955696
20
62.0336297
11
118.463696
21
61.7510297
0
ARC
8
DEFAULT_255_2_778
10
122.2096914
20
68.3537432
40
0.1883915
50
89.9410128
51
90.1771011
0
ARC
8
DEFAULT_255_2_778
10
122.2098715
20
68.2822562
40
0.2598787
50
46.3938531
51
89.9969543
0
ARC
8
DEFAULT_255_2_778
10
122.2227369
20
68.2961096
40
0.2409743
50
0.2435156
51
46.337071
0
ARC
8
DEFAULT_255_2_778
10
122.2227579
20
66.1381569
40
0.2409526
50
313.7267345
51
359.8042785
0
ARC
8
DEFAULT_255_2_778
10
122.2100994
20
66.1510611
40
0.2590277
50
269.9993824
51
313.7771583
0
LINE
8
DEFAULT_255_2_778
10
122.2100966
20
65.8920335
11
122.2097091
21
65.8920338
0
ARC
8
DEFAULT_255_2_778
10
118.7176276
20
66.0798535
40
0.1878207
50
269.9409214
51
270.177375
0
ARC
8
DEFAULT_255_2_778
10
118.7175228
20
66.1518516
40
0.259819
50
226.3885785
51
269.9804193
0
ARC
8
DEFAULT_255_2_778
10
118.7046819
20
66.1380582
40
0.2409749
50
180.2435648
51
226.336983
0
ARC
8
DEFAULT_255_2_778
10
118.7043936
20
68.2962209
40
0.2406853
50
133.7326633
51
179.8541146
0
ARC
8
DEFAULT_255_2_778
10
118.7173873
20
68.2826868
40
0.2594474
50
90.0145206
51
133.7399171
0
LINE
8
DEFAULT_255_2_778
10
118.7173216
20
68.5421341
11
118.7177091
21
68.5421338
0
LINE
8
DEFAULT_255_2_778
10
122.4637091
20
68.2971338
11
122.4637091
21
66.1373338
0
LINE
8
DEFAULT_255_2_778
10
122.2097091
20
65.8920338
11
118.7182091
21
65.8920338
0
LINE
8
DEFAULT_255_2_778
10
118.4637091
20
66.1370338
11
118.4637091
21
68.2968338
0
LINE
8
DEFAULT_255_2_778
10
118.7177091
20
68.5421338
11
122.2091091
21
68.5421338
0
ARC
8
DEFAULT_255_2_778
10
122.2382995
20
63.5232432
40
0.1883915
50
89.9410128
51
90.1771011
0
ARC
8
DEFAULT_255_2_778
10
122.2384796
20
63.4517562
40
0.2598787
50
46.3938531
51
89.9969543
0
ARC
8
DEFAULT_255_2_778
10
122.251345
20
63.4656096
40
0.2409743
50
0.2435156
51
46.337071
0
ARC
8
DEFAULT_255_2_778
10
122.251366
20
61.3076569
40
0.2409526
50
313.7267345
51
359.8042785
0
ARC
8
DEFAULT_255_2_778
10
122.2387075
20
61.3205611
40
0.2590277
50
269.9993824
51
313.7771583
0
LINE
8
DEFAULT_255_2_778
10
122.2387047
20
61.0615335
11
122.2383172
21
61.0615338
0
ARC
8
DEFAULT_255_2_778
10
118.7462348
20
61.2499233
40
0.1883904
50
269.941013
51
270.1771013
0
ARC
8
DEFAULT_255_2_778
10
118.7460589
20
61.321172
40
0.2596394
50
226.3727523
51
269.9960364
0
ARC
8
DEFAULT_255_2_778
10
118.73329
20
61.3075582
40
0.2409749
50
180.2435648
51
226.336983
0
ARC
8
DEFAULT_255_2_778
10
118.7330017
20
63.4657209
40
0.2406853
50
133.7326633
51
179.8541146
0
ARC
8
DEFAULT_255_2_778
10
118.7459954
20
63.4521868
40
0.2594474
50
90.0145206
51
133.7399171
0
LINE
8
DEFAULT_255_2_778
10
118.7459297
20
63.7116341
11
118.7463172
21
63.7116338
0
LINE
8
DEFAULT_255_2_778
10
122.4923172
20
63.4666338
11
122.4923172
21
61.3068338
0
LINE
8
DEFAULT_255_2_778
10
122.2383172
20
61.0615338
11
118.7468172
21
61.0615338
0
LINE
8
DEFAULT_255_2_778
10
118.4923172
20
61.3065338
11
118.4923172
21
63.4663338
0
LINE
8
DEFAULT_255_2_778
10
118.7463172
20
63.7116338
11
122.2377172
21
63.7116338
0
ARC
8
DEFAULT_255_2_778
10
124.0747426
20
55.891839
40
0.2498807
50
1.1799802
51
90.9567269
0
ARC
8
DEFAULT_255_2_778
10
124.074659
20
54.8009151
40
0.2499638
50
269.062759
51
358.8239559
0
ARC
8
DEFAULT_255_2_778
10
124.0749588
20
53.9648541
40
0.2499641
50
1.1761079
51
90.9371985
0
ARC
8
DEFAULT_255_2_778
10
124.0751061
20
52.8738646
40
0.2498157
50
269.0284584
51
358.8348531
0
ARC
8
DEFAULT_255_2_778
10
124.0756629
20
52.0383771
40
0.24945
50
1.0583856
51
91.054927
0
ARC
8
DEFAULT_255_2_778
10
124.0748062
20
50.9466646
40
0.2498157
50
269.0284472
51
358.8348576
0
ARC
8
DEFAULT_255_2_778
10
124.0751468
20
50.1108492
40
0.2497723
50
1.1322521
51
90.9810424
0
ARC
8
DEFAULT_255_2_778
10
124.0750427
20
49.0197305
40
0.2498806
50
269.0432604
51
358.8200348
0
ARC
8
DEFAULT_255_2_778
10
124.0752301
20
48.1839336
40
0.2496893
50
1.1362116
51
91.000495
0
ARC
8
DEFAULT_255_2_778
10
124.074959
20
47.0928151
40
0.2499638
50
269.0627652
51
358.8239632
0
ARC
8
DEFAULT_255_2_778
10
124.0756827
20
46.2571958
40
0.2494316
50
1.077158
51
91.0595651
0
ARC
8
DEFAULT_255_2_778
10
124.0753678
20
45.1654007
40
0.2497529
50
269.0140586
51
358.8492252
0
ARC
8
DEFAULT_255_2_778
10
124.0752937
20
44.3297995
40
0.2496244
50
1.1213716
51
91.0153398
0
ARC
8
DEFAULT_255_2_778
10
124.0749589
20
43.2386152
40
0.2499638
50
269.0627702
51
358.8239514
0
ARC
8
DEFAULT_255_2_778
10
124.0757937
20
42.4030995
40
0.2496244
50
1.1213716
51
91.0153398
0
ARC
8
DEFAULT_255_2_778
10
124.075606
20
41.3118647
40
0.2498158
50
269.0284745
51
358.8348299
0
ARC
8
DEFAULT_255_2_778
10
124.0758424
20
40.4756388
40
0.2498809
50
1.1800082
51
90.9566756
0
ARC
8
DEFAULT_255_2_778
10
124.0757589
20
39.3847152
40
0.2499638
50
269.0627702
51
358.8239514
0
ARC
8
DEFAULT_255_2_778
10
122.2103873
20
34.0392746
40
0.2396127
50
89.9901156
51
90.2670964
0
ARC
8
DEFAULT_255_2_778
10
122.2103117
20
34.0199591
40
0.2589283
50
46.3092964
51
89.974118
0
ARC
8
DEFAULT_255_2_778
10
122.2227969
20
34.0328601
40
0.2409755
50
0.2436244
51
46.3369259
0
ARC
8
DEFAULT_255_2_778
10
122.223046
20
31.8748106
40
0.2407254
50
313.7037214
51
359.827251
0
ARC
8
DEFAULT_255_2_778
10
122.2103041
20
31.8878144
40
0.2589301
50
269.9679599
51
313.7538844
0
LINE
8
DEFAULT_255_2_778
10
122.2101593
20
31.6288845
11
122.2097703
21
31.6288848
0
LINE
8
DEFAULT_255_2_778
10
118.7177703
20
31.6288848
11
118.7173804
21
31.6288845
0
ARC
8
DEFAULT_255_2_778
10
118.7172806
20
31.887948
40
0.2590636
50
226.3220428
51
270.0220517
0
ARC
8
DEFAULT_255_2_778
10
118.7047425
20
31.874909
40
0.2409744
50
180.2435354
51
226.3370665
0
ARC
8
DEFAULT_255_2_778
10
118.7044951
20
34.032959
40
0.2407259
50
133.7038057
51
179.8272514
0
ARC
8
DEFAULT_255_2_778
10
118.7174167
20
34.0195052
40
0.2593798
50
90.007491
51
133.7138909
0
LINE
8
DEFAULT_255_2_778
10
118.7173828
20
34.2788851
11
118.7177703
21
34.2788848
0
ARC
8
DEFAULT_255_2_778
10
117.3025702
20
30.2692425
40
0.3726706
50
181.1158982
51
270.4766225
0
ARC
8
DEFAULT_255_2_778
10
117.3026999
20
30.7443937
40
0.372803
50
89.5434828
51
178.8639891
0
ARC
8
DEFAULT_255_2_778
10
117.2915281
20
30.263552
40
0.2620589
50
180.1677348
51
226.2074221
0
ARC
8
DEFAULT_255_2_778
10
117.3057991
20
30.2796194
40
0.2835346
50
226.3727123
51
269.9739764
0
ARC
8
DEFAULT_255_2_778
10
123.9440928
20
30.2779932
40
0.2819089
50
269.8938014
51
313.7595134
0
ARC
8
DEFAULT_255_2_778
10
123.9577125
20
30.263552
40
0.2620589
50
313.7925779
51
359.8322652
0
ARC
8
DEFAULT_255_2_778
10
123.9583629
20
30.7507168
40
0.2614095
50
0.2340896
51
46.4198997
0
ARC
8
DEFAULT_255_2_778
10
123.9449721
20
30.7381329
40
0.2797585
50
46.2098661
51
89.9955336
0
ARC
8
DEFAULT_255_2_778
10
123.944966
20
30.7456909
40
0.2722005
50
89.9941223
51
90.3990392
0
ARC
8
DEFAULT_255_2_778
10
117.3052197
20
30.735797
40
0.2820881
50
89.9084728
51
133.7448671
0
ARC
8
DEFAULT_255_2_778
10
117.2911877
20
30.7505634
40
0.2617181
50
133.7608761
51
179.863967
0
ARC
8
DEFAULT_255_2_778
10
123.9471838
20
30.7446442
40
0.3695554
50
1.1071386
51
90.5137403
0
ARC
8
DEFAULT_255_2_778
10
123.9467142
20
30.2695064
40
0.3700326
50
269.5596434
51
358.8352725
0
LINE
8
DEFAULT_255_2_778
10
122.2097703
20
26.7342848
11
122.2101578
21
26.7342845
0
ARC
8
DEFAULT_255_2_778
10
122.2101606
20
26.9933121
40
0.2590276
50
269.9993824
51
313.7771583
0
ARC
8
DEFAULT_255_2_778
10
122.2232157
20
26.9802376
40
0.2405555
50
313.6865117
51
359.8445031
0
ARC
8
DEFAULT_255_2_778
10
122.2227969
20
29.1383602
40
0.2409755
50
0.2436107
51
46.3369307
0
ARC
8
DEFAULT_255_2_778
10
122.2099566
20
29.124567
40
0.2598189
50
46.3885785
51
89.9804193
0
ARC
8
DEFAULT_255_2_778
10
122.2098515
20
29.1966619
40
0.1877241
50
89.9408298
51
90.1774056
0
LINE
8
DEFAULT_255_2_778
10
118.7177703
20
29.3843848
11
118.7173828
21
29.3843851
0
ARC
8
DEFAULT_255_2_778
10
118.71738
20
29.1253574
40
0.2590276
50
89.9993824
51
133.7771583
0
ARC
8
DEFAULT_255_2_778
10
118.7041554
20
29.1385048
40
0.2403858
50
133.6692973
51
179.8617598
0
ARC
8
DEFAULT_255_2_778
10
118.7047425
20
26.980309
40
0.2409744
50
180.2435354
51
226.3370665
0
ARC
8
DEFAULT_255_2_778
10
118.717584
20
26.9941026
40
0.2598189
50
226.3885785
51
269.9804193
0
ARC
8
DEFAULT_255_2_778
10
118.717689
20
26.9220077
40
0.1877241
50
269.9408298
51
270.1774056
0
LINE
8
DEFAULT_255_2_778
10
116.9797703
20
54.8068848
11
121.4024703
21
54.8068848
0
LINE
8
DEFAULT_255_2_778
10
121.4024703
20
54.8068848
11
121.4024703
21
55.8860848
0
LINE
8
DEFAULT_255_2_778
10
121.4024703
20
55.8860848
11
116.9797703
21
55.8860848
0
LINE
8
DEFAULT_255_2_778
10
118.3616703
20
55.8860848
11
118.3616703
21
54.8068848
0
LINE
8
DEFAULT_255_2_778
10
123.9985703
20
55.0521848
11
123.9985703
21
55.6405848
0
LINE
8
DEFAULT_255_2_778
10
124.3245703
20
54.7957848
11
124.3245703
21
55.8969848
0
LINE
8
DEFAULT_255_2_778
10
124.0705703
20
56.1416848
11
116.9244703
21
56.1416848
0
LINE
8
DEFAULT_255_2_778
10
116.9244703
20
56.1416848
11
116.9244703
21
55.7625848
0
LINE
8
DEFAULT_255_2_778
10
116.9244703
20
55.7625848
11
116.7725703
21
55.7625848
0
LINE
8
DEFAULT_255_2_778
10
116.7725703
20
55.7625848
11
116.7725703
21
54.9301848
0
LINE
8
DEFAULT_255_2_778
10
116.7725703
20
54.9301848
11
116.9244703
21
54.9301848
0
LINE
8
DEFAULT_255_2_778
10
116.9244703
20
54.9301848
11
116.9244703
21
54.5509848
0
LINE
8
DEFAULT_255_2_778
10
116.9244703
20
54.5509848
11
124.0705703
21
54.5509848
0
LINE
8
DEFAULT_255_2_778
10
124.3245703
20
54.7957848
11
124.3245703
21
54.7957848
0
LINE
8
DEFAULT_255_2_778
10
121.4022703
20
55.8860848
11
121.9430703
21
55.8448848
0
LINE
8
DEFAULT_255_2_778
10
121.9430703
20
55.8448848
11
122.4105703
21
55.8093848
0
LINE
8
DEFAULT_255_2_778
10
122.4105703
20
55.8093848
11
122.8442703
21
55.7738848
0
LINE
8
DEFAULT_255_2_778
10
122.8442703
20
55.7738848
11
123.2122703
21
55.7384848
0
LINE
8
DEFAULT_255_2_778
10
123.2122703
20
55.7384848
11
123.4881703
21
55.7029848
0
LINE
8
DEFAULT_255_2_778
10
123.5360703
20
55.6945848
11
123.4881703
21
55.7029848
0
LINE
8
DEFAULT_255_2_778
10
123.4881703
20
55.7029848
11
123.4881703
21
54.9899848
0
LINE
8
DEFAULT_255_2_778
10
123.4881703
20
54.9899848
11
123.5360703
21
54.9983848
0
LINE
8
DEFAULT_255_2_778
10
123.5360703
20
54.9983848
11
123.5360703
21
55.6947848
0
LINE
8
DEFAULT_255_2_778
10
123.5360703
20
55.6947848
11
123.5472703
21
55.6926848
0
LINE
8
DEFAULT_255_2_778
10
123.5472703
20
55.6926848
11
123.5853703
21
55.6860848
0
LINE
8
DEFAULT_255_2_778
10
123.5853703
20
55.6860848
11
123.6149703
21
55.6818848
0
LINE
8
DEFAULT_255_2_778
10
123.6149703
20
55.6818848
11
123.7202703
21
55.6688848
0
LINE
8
DEFAULT_255_2_778
10
123.7202703
20
55.6688848
11
123.7802703
21
55.6622848
0
LINE
8
DEFAULT_255_2_778
10
123.7802703
20
55.6622848
11
123.9776703
21
55.6426848
0
LINE
8
DEFAULT_255_2_778
10
123.9776703
20
55.0507848
11
123.9102703
21
55.0441848
0
LINE
8
DEFAULT_255_2_778
10
123.9102703
20
55.0441848
11
123.7202703
21
55.0245848
0
LINE
8
DEFAULT_255_2_778
10
123.7202703
20
55.0245848
11
123.6826703
21
55.0203848
0
LINE
8
DEFAULT_255_2_778
10
123.6826703
20
55.0203848
11
123.5853703
21
55.0073848
0
LINE
8
DEFAULT_255_2_778
10
123.5853703
20
55.0073848
11
123.5718703
21
55.0052848
0
LINE
8
DEFAULT_255_2_778
10
123.5718703
20
55.0052848
11
123.5363703
21
54.9986848
0
LINE
8
DEFAULT_255_2_778
10
123.4884703
20
54.9901848
11
123.2124703
21
54.9547848
0
LINE
8
DEFAULT_255_2_778
10
123.2124703
20
54.9547848
11
122.8444703
21
54.9192848
0
LINE
8
DEFAULT_255_2_778
10
122.8444703
20
54.9192848
11
122.4108703
21
54.8838848
0
LINE
8
DEFAULT_255_2_778
10
122.4108703
20
54.8838848
11
121.9432703
21
54.8483848
0
LINE
8
DEFAULT_255_2_778
10
121.9432703
20
54.8483848
11
121.4024703
21
54.8070848
0
LINE
8
DEFAULT_255_2_778
10
123.7533703
20
55.6685848
11
123.7533703
21
56.1419848
0
LINE
8
DEFAULT_255_2_778
10
121.6985703
20
55.8664848
11
121.6985703
21
56.1419848
0
LINE
8
DEFAULT_255_2_778
10
120.2568703
20
55.8860848
11
120.2568703
21
56.1419848
0
LINE
8
DEFAULT_255_2_778
10
116.9799703
20
52.8798848
11
121.4027703
21
52.8798848
0
LINE
8
DEFAULT_255_2_778
10
121.4027703
20
52.8798848
11
121.4027703
21
53.9591848
0
LINE
8
DEFAULT_255_2_778
10
121.4027703
20
53.9591848
11
116.9799703
21
53.9591848
0
LINE
8
DEFAULT_255_2_778
10
118.3618703
20
53.9591848
11
118.3618703
21
52.8798848
0
LINE
8
DEFAULT_255_2_778
10
123.9988703
20
53.1251848
11
123.9988703
21
53.7135848
0
LINE
8
DEFAULT_255_2_778
10
124.3248703
20
52.8687848
11
124.3248703
21
53.9699848
0
LINE
8
DEFAULT_255_2_778
10
124.0708703
20
54.2147848
11
116.9246703
21
54.2147848
0
LINE
8
DEFAULT_255_2_778
10
116.9246703
20
54.2147848
11
116.9246703
21
53.8355848
0
LINE
8
DEFAULT_255_2_778
10
116.9246703
20
53.8355848
11
116.7728703
21
53.8355848
0
LINE
8
DEFAULT_255_2_778
10
116.7728703
20
53.8355848
11
116.7728703
21
53.0031848
0
LINE
8
DEFAULT_255_2_778
10
116.7728703
20
53.0031848
11
116.9246703
21
53.0031848
0
LINE
8
DEFAULT_255_2_778
10
116.9246703
20
53.0031848
11
116.9246703
21
52.6240848
0
LINE
8
DEFAULT_255_2_778
10
116.9246703
20
52.6240848
11
124.0708703
21
52.6240848
0
LINE
8
DEFAULT_255_2_778
10
124.3248703
20
52.8687848
11
124.3248703
21
52.8687848
0
LINE
8
DEFAULT_255_2_778
10
121.4024703
20
53.9591848
11
121.9432703
21
53.9178848
0
LINE
8
DEFAULT_255_2_778
10
121.9432703
20
53.9178848
11
122.4108703
21
53.8823848
0
LINE
8
DEFAULT_255_2_778
10
122.4108703
20
53.8823848
11
122.8444703
21
53.8469848
0
LINE
8
DEFAULT_255_2_778
10
122.8444703
20
53.8469848
11
123.2124703
21
53.8114848
0
LINE
8
DEFAULT_255_2_778
10
123.2124703
20
53.8114848
11
123.4884703
21
53.7760848
0
LINE
8
DEFAULT_255_2_778
10
123.5363703
20
53.7675848
11
123.4884703
21
53.7760848
0
LINE
8
DEFAULT_255_2_778
10
123.4884703
20
53.7760848
11
123.4884703
21
53.0629848
0
LINE
8
DEFAULT_255_2_778
10
123.4884703
20
53.0629848
11
123.5363703
21
53.0714848
0
LINE
8
DEFAULT_255_2_778
10
123.5363703
20
53.0714848
11
123.5363703
21
53.7678848
0
LINE
8
DEFAULT_255_2_778
10
123.5363703
20
53.7678848
11
123.5474703
21
53.7657848
0
LINE
8
DEFAULT_255_2_778
10
123.5474703
20
53.7657848
11
123.5855703
21
53.7590848
0
LINE
8
DEFAULT_255_2_778
10
123.5855703
20
53.7590848
11
123.6152703
21
53.7548848
0
LINE
8
DEFAULT_255_2_778
10
123.6152703
20
53.7548848
11
123.7205703
21
53.7418848
0
LINE
8
DEFAULT_255_2_778
10
123.7205703
20
53.7418848
11
123.7805703
21
53.7352848
0
LINE
8
DEFAULT_255_2_778
10
123.7805703
20
53.7352848
11
123.9779703
21
53.7156848
0
LINE
8
DEFAULT_255_2_778
10
123.9779703
20
53.1238848
11
123.9104703
21
53.1172848
0
LINE
8
DEFAULT_255_2_778
10
123.9104703
20
53.1172848
11
123.7205703
21
53.0976848
0
LINE
8
DEFAULT_255_2_778
10
123.7205703
20
53.0976848
11
123.6829703
21
53.0933848
0
LINE
8
DEFAULT_255_2_778
10
123.6829703
20
53.0933848
11
123.5855703
21
53.0804848
0
LINE
8
DEFAULT_255_2_778
10
123.5855703
20
53.0804848
11
123.5720703
21
53.0783848
0
LINE
8
DEFAULT_255_2_778
10
123.5720703
20
53.0783848
11
123.5366703
21
53.0716848
0
LINE
8
DEFAULT_255_2_778
10
123.4887703
20
53.0632848
11
123.2127703
21
53.0277848
0
LINE
8
DEFAULT_255_2_778
10
123.2127703
20
53.0277848
11
122.8447703
21
52.9923848
0
LINE
8
DEFAULT_255_2_778
10
122.8447703
20
52.9923848
11
122.4110703
21
52.9568848
0
LINE
8
DEFAULT_255_2_778
10
122.4110703
20
52.9568848
11
121.9435703
21
52.9214848
0
LINE
8
DEFAULT_255_2_778
10
121.9435703
20
52.9214848
11
121.4027703
21
52.8801848
0
LINE
8
DEFAULT_255_2_778
10
116.9799703
20
50.9529848
11
121.4027703
21
50.9529848
0
LINE
8
DEFAULT_255_2_778
10
121.4027703
20
50.9529848
11
121.4027703
21
52.0321848
0
LINE
8
DEFAULT_255_2_778
10
121.4027703
20
52.0321848
11
116.9799703
21
52.0321848
0
LINE
8
DEFAULT_255_2_778
10
118.3618703
20
52.0321848
11
118.3618703
21
50.9529848
0
LINE
8
DEFAULT_255_2_778
10
123.9988703
20
51.1981848
11
123.9988703
21
51.7866848
0
LINE
8
DEFAULT_255_2_778
10
121.4027703
20
52.0318848
11
121.9435703
21
51.9906848
0
LINE
8
DEFAULT_255_2_778
10
121.9435703
20
51.9906848
11
122.4110703
21
51.9551848
0
LINE
8
DEFAULT_255_2_778
10
122.4110703
20
51.9551848
11
122.8447703
21
51.9197848
0
LINE
8
DEFAULT_255_2_778
10
122.8447703
20
51.9197848
11
123.2127703
21
51.8842848
0
LINE
8
DEFAULT_255_2_778
10
123.2127703
20
51.8842848
11
123.4887703
21
51.8487848
0
LINE
8
DEFAULT_255_2_778
10
123.5366703
20
51.8403848
11
123.4887703
21
51.8487848
0
LINE
8
DEFAULT_255_2_778
10
123.4887703
20
51.8487848
11
123.4887703
21
51.1357848
0
LINE
8
DEFAULT_255_2_778
10
123.4887703
20
51.1357848
11
123.5366703
21
51.1442848
0
LINE
8
DEFAULT_255_2_778
10
123.5366703
20
51.1442848
11
123.5366703
21
51.8405848
0
LINE
8
DEFAULT_255_2_778
10
123.5366703
20
51.8405848
11
123.5474703
21
51.8384848
0
LINE
8
DEFAULT_255_2_778
10
123.5474703
20
51.8384848
11
123.5855703
21
51.8318848
0
LINE
8
DEFAULT_255_2_778
10
123.5855703
20
51.8318848
11
123.6152703
21
51.8276848
0
LINE
8
DEFAULT_255_2_778
10
123.6152703
20
51.8276848
11
123.7205703
21
51.8146848
0
LINE
8
DEFAULT_255_2_778
10
123.7205703
20
51.8146848
11
123.7805703
21
51.8080848
0
LINE
8
DEFAULT_255_2_778
10
123.7805703
20
51.8080848
11
123.9779703
21
51.7884848
0
LINE
8
DEFAULT_255_2_778
10
123.9779703
20
51.1965848
11
123.9104703
21
51.1899848
0
LINE
8
DEFAULT_255_2_778
10
123.9104703
20
51.1899848
11
123.7205703
21
51.1704848
0
LINE
8
DEFAULT_255_2_778
10
123.7205703
20
51.1704848
11
123.6829703
21
51.1659848
0
LINE
8
DEFAULT_255_2_778
10
123.6829703
20
51.1659848
11
123.5855703
21
51.1529848
0
LINE
8
DEFAULT_255_2_778
10
123.5855703
20
51.1529848
11
123.5720703
21
51.1508848
0
LINE
8
DEFAULT_255_2_778
10
123.5720703
20
51.1508848
11
123.5366703
21
51.1442848
0
LINE
8
DEFAULT_255_2_778
10
123.4887703
20
51.1357848
11
123.2127703
21
51.1002848
0
LINE
8
DEFAULT_255_2_778
10
123.2127703
20
51.1002848
11
122.8447703
21
51.0648848
0
LINE
8
DEFAULT_255_2_778
10
122.8447703
20
51.0648848
11
122.4110703
21
51.0293848
0
LINE
8
DEFAULT_255_2_778
10
122.4110703
20
51.0293848
11
121.9435703
21
50.9939848
0
LINE
8
DEFAULT_255_2_778
10
121.9435703
20
50.9939848
11
121.4027703
21
50.9526848
0
LINE
8
DEFAULT_255_2_778
10
124.0710703
20
52.2877848
11
116.9246703
21
52.2877848
0
LINE
8
DEFAULT_255_2_778
10
116.9246703
20
52.2877848
11
116.9246703
21
51.9085848
0
LINE
8
DEFAULT_255_2_778
10
116.9246703
20
51.9085848
11
116.7728703
21
51.9085848
0
LINE
8
DEFAULT_255_2_778
10
116.7728703
20
51.9085848
11
116.7728703
21
51.0759848
0
LINE
8
DEFAULT_255_2_778
10
116.7728703
20
51.0759848
11
116.9246703
21
51.0759848
0
LINE
8
DEFAULT_255_2_778
10
116.9246703
20
51.0759848
11
116.9246703
21
50.6968848
0
LINE
8
DEFAULT_255_2_778
10
116.9246703
20
50.6968848
11
124.0705703
21
50.6968848
0
LINE
8
DEFAULT_255_2_778
10
124.3245703
20
50.9415848
11
124.3250703
21
52.0429848
0
LINE
8
DEFAULT_255_2_778
10
116.9799703
20
49.0256848
11
121.4027703
21
49.0256848
0
LINE
8
DEFAULT_255_2_778
10
121.4027703
20
49.0256848
11
121.4027703
21
50.1049848
0
LINE
8
DEFAULT_255_2_778
10
121.4027703
20
50.1049848
11
116.9799703
21
50.1049848
0
LINE
8
DEFAULT_255_2_778
10
118.3618703
20
50.1049848
11
118.3618703
21
49.0256848
0
LINE
8
DEFAULT_255_2_778
10
123.9988703
20
49.2709848
11
123.9988703
21
49.8593848
0
LINE
8
DEFAULT_255_2_778
10
124.3248703
20
49.0145848
11
124.3248703
21
50.1157848
0
LINE
8
DEFAULT_255_2_778
10
124.0708703
20
50.3605848
11
116.9246703
21
50.3605848
0
LINE
8
DEFAULT_255_2_778
10
116.9246703
20
50.3605848
11
116.9246703
21
49.9813848
0
LINE
8
DEFAULT_255_2_778
10
116.9246703
20
49.9813848
11
116.7728703
21
49.9813848
0
LINE
8
DEFAULT_255_2_778
10
116.7728703
20
49.9813848
11
116.7728703
21
49.1489848
0
LINE
8
DEFAULT_255_2_778
10
116.7728703
20
49.1489848
11
116.9246703
21
49.1489848
0
LINE
8
DEFAULT_255_2_778
10
116.9246703
20
49.1489848
11
116.9246703
21
48.7698848
0
LINE
8
DEFAULT_255_2_778
10
116.9246703
20
48.7698848
11
124.0708703
21
48.7698848
0
LINE
8
DEFAULT_255_2_778
10
124.3248703
20
49.0145848
11
124.3248703
21
49.0145848
0
LINE
8
DEFAULT_255_2_778
10
121.4024703
20
50.1049848
11
121.9432703
21
50.0636848
0
LINE
8
DEFAULT_255_2_778
10
121.9432703
20
50.0636848
11
122.4108703
21
50.0282848
0
LINE
8
DEFAULT_255_2_778
10
122.4108703
20
50.0282848
11
122.8444703
21
49.9927848
0
LINE
8
DEFAULT_255_2_778
10
122.8444703
20
49.9927848
11
123.2124703
21
49.9572848
0
LINE
8
DEFAULT_255_2_778
10
123.2124703
20
49.9572848
11
123.4884703
21
49.9218848
0
LINE
8
DEFAULT_255_2_778
10
123.5363703
20
49.9133848
11
123.4884703
21
49.9218848
0
LINE
8
DEFAULT_255_2_778
10
123.4884703
20
49.9218848
11
123.4884703
21
49.2087848
0
LINE
8
DEFAULT_255_2_778
10
123.4884703
20
49.2087848
11
123.5363703
21
49.2172848
0
LINE
8
DEFAULT_255_2_778
10
123.5363703
20
49.2172848
11
123.5363703
21
49.9136848
0
LINE
8
DEFAULT_255_2_778
10
123.5363703
20
49.9136848
11
123.5474703
21
49.9115848
0
LINE
8
DEFAULT_255_2_778
10
123.5474703
20
49.9115848
11
123.5855703
21
49.9049848
0
LINE
8
DEFAULT_255_2_778
10
123.5855703
20
49.9049848
11
123.6152703
21
49.9006848
0
LINE
8
DEFAULT_255_2_778
10
123.6152703
20
49.9006848
11
123.7205703
21
49.8877848
0
LINE
8
DEFAULT_255_2_778
10
123.7205703
20
49.8877848
11
123.7805703
21
49.8810848
0
LINE
8
DEFAULT_255_2_778
10
123.7805703
20
49.8810848
11
123.9779703
21
49.8615848
0
LINE
8
DEFAULT_255_2_778
10
123.9779703
20
49.2696848
11
123.9104703
21
49.2630848
0
LINE
8
DEFAULT_255_2_778
10
123.9104703
20
49.2630848
11
123.7205703
21
49.2434848
0
LINE
8
DEFAULT_255_2_778
10
123.7205703
20
49.2434848
11
123.6829703
21
49.2392848
0
LINE
8
DEFAULT_255_2_778
10
123.6829703
20
49.2392848
11
123.5855703
21
49.2262848
0
LINE
8
DEFAULT_255_2_778
10
123.5855703
20
49.2262848
11
123.5720703
21
49.2241848
0
LINE
8
DEFAULT_255_2_778
10
123.5720703
20
49.2241848
11
123.5366703
21
49.2175848
0
LINE
8
DEFAULT_255_2_778
10
123.4887703
20
49.2090848
11
123.2127703
21
49.1735848
0
LINE
8
DEFAULT_255_2_778
10
123.2127703
20
49.1735848
11
122.8447703
21
49.1381848
0
LINE
8
DEFAULT_255_2_778
10
122.8447703
20
49.1381848
11
122.4110703
21
49.1026848
0
LINE
8
DEFAULT_255_2_778
10
122.4110703
20
49.1026848
11
121.9435703
21
49.0672848
0
LINE
8
DEFAULT_255_2_778
10
121.9435703
20
49.0672848
11
121.4027703
21
49.0259848
0
LINE
8
DEFAULT_255_2_778
10
116.9799703
20
47.0987848
11
121.4027703
21
47.0987848
0
LINE
8
DEFAULT_255_2_778
10
121.4027703
20
47.0987848
11
121.4027703
21
48.1779848
0
LINE
8
DEFAULT_255_2_778
10
121.4027703
20
48.1779848
11
116.9799703
21
48.1779848
0
LINE
8
DEFAULT_255_2_778
10
118.3618703
20
48.1779848
11
118.3618703
21
47.0987848
0
LINE
8
DEFAULT_255_2_778
10
123.9988703
20
47.3439848
11
123.9988703
21
47.9324848
0
LINE
8
DEFAULT_255_2_778
10
124.3248703
20
47.0876848
11
124.3248703
21
48.1888848
0
LINE
8
DEFAULT_255_2_778
10
124.0708703
20
48.4335848
11
116.9246703
21
48.4335848
0
LINE
8
DEFAULT_255_2_778
10
116.9246703
20
48.4335848
11
116.9246703
21
48.0544848
0
LINE
8
DEFAULT_255_2_778
10
116.9246703
20
48.0544848
11
116.7728703
21
48.0544848
0
LINE
8
DEFAULT_255_2_778
10
116.7728703
20
48.0544848
11
116.7728703
21
47.2220848
0
LINE
8
DEFAULT_255_2_778
10
116.7728703
20
47.2220848
11
116.9246703
21
47.2220848
0
LINE
8
DEFAULT_255_2_778
10
116.9246703
20
47.2220848
11
116.9246703
21
46.8428848
0
LINE
8
DEFAULT_255_2_778
10
116.9246703
20
46.8428848
11
124.0708703
21
46.8428848
0
LINE
8
DEFAULT_255_2_778
10
124.3248703
20
47.0876848
11
124.3248703
21
47.0876848
0
LINE
8
DEFAULT_255_2_778
10
121.4024703
20
48.1779848
11
121.9432703
21
48.1366848
0
LINE
8
DEFAULT_255_2_778
10
121.9432703
20
48.1366848
11
122.4108703
21
48.1012848
0
LINE
8
DEFAULT_255_2_778
10
122.4108703
20
48.1012848
11
122.8444703
21
48.0657848
0
LINE
8
DEFAULT_255_2_778
10
122.8444703
20
48.0657848
11
123.2124703
21
48.0303848
0
LINE
8
DEFAULT_255_2_778
10
123.2124703
20
48.0303848
11
123.4884703
21
47.9948848
0
LINE
8
DEFAULT_255_2_778
10
123.5363703
20
47.9864848
11
123.4884703
21
47.9948848
0
LINE
8
DEFAULT_255_2_778
10
123.4884703
20
47.9948848
11
123.4884703
21
47.2818848
0
LINE
8
DEFAULT_255_2_778
10
123.4884703
20
47.2818848
11
123.5363703
21
47.2902848
0
LINE
8
DEFAULT_255_2_778
10
123.5363703
20
47.2902848
11
123.5363703
21
47.9866848
0
LINE
8
DEFAULT_255_2_778
10
123.5363703
20
47.9866848
11
123.5474703
21
47.9845848
0
LINE
8
DEFAULT_255_2_778
10
123.5474703
20
47.9845848
11
123.5855703
21
47.9779848
0
LINE
8
DEFAULT_255_2_778
10
123.5855703
20
47.9779848
11
123.6152703
21
47.9737848
0
LINE
8
DEFAULT_255_2_778
10
123.6152703
20
47.9737848
11
123.7205703
21
47.9607848
0
LINE
8
DEFAULT_255_2_778
10
123.7205703
20
47.9607848
11
123.7805703
21
47.9541848
0
LINE
8
DEFAULT_255_2_778
10
123.7805703
20
47.9541848
11
123.9779703
21
47.9345848
0
LINE
8
DEFAULT_255_2_778
10
123.9779703
20
47.3426848
11
123.9104703
21
47.3360848
0
LINE
8
DEFAULT_255_2_778
10
123.9104703
20
47.3360848
11
123.7205703
21
47.3164848
0
LINE
8
DEFAULT_255_2_778
10
123.7205703
20
47.3164848
11
123.6829703
21
47.3122848
0
LINE
8
DEFAULT_255_2_778
10
123.6829703
20
47.3122848
11
123.5855703
21
47.2992848
0
LINE
8
DEFAULT_255_2_778
10
123.5855703
20
47.2992848
11
123.5720703
21
47.2971848
0
LINE
8
DEFAULT_255_2_778
10
123.5720703
20
47.2971848
11
123.5366703
21
47.2905848
0
LINE
8
DEFAULT_255_2_778
10
123.4887703
20
47.2820848
11
123.2127703
21
47.2466848
0
LINE
8
DEFAULT_255_2_778
10
123.2127703
20
47.2466848
11
122.8447703
21
47.2111848
0
LINE
8
DEFAULT_255_2_778
10
122.8447703
20
47.2111848
11
122.4110703
21
47.1757848
0
LINE
8
DEFAULT_255_2_778
10
122.4110703
20
47.1757848
11
121.9435703
21
47.1402848
0
LINE
8
DEFAULT_255_2_778
10
121.9435703
20
47.1402848
11
121.4027703
21
47.0989848
0
LINE
8
DEFAULT_255_2_778
10
116.9799703
20
45.1717848
11
121.4027703
21
45.1717848
0
LINE
8
DEFAULT_255_2_778
10
121.4027703
20
45.1717848
11
121.4027703
21
46.2510848
0
LINE
8
DEFAULT_255_2_778
10
121.4027703
20
46.2510848
11
116.9799703
21
46.2510848
0
LINE
8
DEFAULT_255_2_778
10
118.3618703
20
46.2510848
11
118.3618703
21
45.1717848
0
LINE
8
DEFAULT_255_2_778
10
123.9988703
20
45.4170848
11
123.9988703
21
46.0054848
0
LINE
8
DEFAULT_255_2_778
10
121.4027703
20
46.2507848
11
121.9435703
21
46.2094848
0
LINE
8
DEFAULT_255_2_778
10
121.9435703
20
46.2094848
11
122.4110703
21
46.1740848
0
LINE
8
DEFAULT_255_2_778
10
122.4110703
20
46.1740848
11
122.8447703
21
46.1385848
0
LINE
8
DEFAULT_255_2_778
10
122.8447703
20
46.1385848
11
123.2127703
21
46.1031848
0
LINE
8
DEFAULT_255_2_778
10
123.2127703
20
46.1031848
11
123.4887703
21
46.0676848
0
LINE
8
DEFAULT_255_2_778
10
123.5366703
20
46.0591848
11
123.4887703
21
46.0676848
0
LINE
8
DEFAULT_255_2_778
10
123.4887703
20
46.0676848
11
123.4887703
21
45.3546848
0
LINE
8
DEFAULT_255_2_778
10
123.4887703
20
45.3546848
11
123.5366703
21
45.3630848
0
LINE
8
DEFAULT_255_2_778
10
123.5366703
20
45.3630848
11
123.5366703
21
46.0594848
0
LINE
8
DEFAULT_255_2_778
10
123.5366703
20
46.0594848
11
123.5474703
21
46.0573848
0
LINE
8
DEFAULT_255_2_778
10
123.5474703
20
46.0573848
11
123.5855703
21
46.0507848
0
LINE
8
DEFAULT_255_2_778
10
123.5855703
20
46.0507848
11
123.6152703
21
46.0464848
0
LINE
8
DEFAULT_255_2_778
10
123.6152703
20
46.0464848
11
123.7205703
21
46.0335848
0
LINE
8
DEFAULT_255_2_778
10
123.7205703
20
46.0335848
11
123.7805703
21
46.0269848
0
LINE
8
DEFAULT_255_2_778
10
123.7805703
20
46.0269848
11
123.9779703
21
46.0073848
0
LINE
8
DEFAULT_255_2_778
10
123.9779703
20
45.4154848
11
123.9104703
21
45.4088848
0
LINE
8
DEFAULT_255_2_778
10
123.9104703
20
45.4088848
11
123.7205703
21
45.3892848
0
LINE
8
DEFAULT_255_2_778
10
123.7205703
20
45.3892848
11
123.6829703
21
45.3847848
0
LINE
8
DEFAULT_255_2_778
10
123.6829703
20
45.3847848
11
123.5855703
21
45.3717848
0
LINE
8
DEFAULT_255_2_778
10
123.5855703
20
45.3717848
11
123.5720703
21
45.3696848
0
LINE
8
DEFAULT_255_2_778
10
123.5720703
20
45.3696848
11
123.5366703
21
45.3630848
0
LINE
8
DEFAULT_255_2_778
10
123.4887703
20
45.3546848
11
123.2127703
21
45.3191848
0
LINE
8
DEFAULT_255_2_778
10
123.2127703
20
45.3191848
11
122.8447703
21
45.2836848
0
LINE
8
DEFAULT_255_2_778
10
122.8447703
20
45.2836848
11
122.4110703
21
45.2482848
0
LINE
8
DEFAULT_255_2_778
10
122.4110703
20
45.2482848
11
121.9435703
21
45.2127848
0
LINE
8
DEFAULT_255_2_778
10
121.9435703
20
45.2127848
11
121.4027703
21
45.1715848
0
LINE
8
DEFAULT_255_2_778
10
124.0710703
20
46.5065848
11
116.9252703
21
46.5065848
0
LINE
8
DEFAULT_255_2_778
10
116.9252703
20
46.5065848
11
116.9252703
21
46.1274848
0
LINE
8
DEFAULT_255_2_778
10
116.9252703
20
46.1274848
11
116.7733703
21
46.1274848
0
LINE
8
DEFAULT_255_2_778
10
116.7733703
20
46.1274848
11
116.7733703
21
45.2948848
0
LINE
8
DEFAULT_255_2_778
10
116.7733703
20
45.2948848
11
116.9252703
21
45.2948848
0
LINE
8
DEFAULT_255_2_778
10
116.9252703
20
45.2948848
11
116.9252703
21
44.9156848
0
LINE
8
DEFAULT_255_2_778
10
116.9252703
20
44.9156848
11
124.0710703
21
44.9156848
0
LINE
8
DEFAULT_255_2_778
10
124.3250703
20
45.1603848
11
124.3250703
21
46.2618848
0
LINE
8
DEFAULT_255_2_778
10
116.9799703
20
43.2445848
11
121.4027703
21
43.2445848
0
LINE
8
DEFAULT_255_2_778
10
121.4027703
20
43.2445848
11
121.4027703
21
44.3237848
0
LINE
8
DEFAULT_255_2_778
10
121.4027703
20
44.3237848
11
116.9799703
21
44.3237848
0
LINE
8
DEFAULT_255_2_778
10
118.3618703
20
44.3237848
11
118.3618703
21
43.2445848
0
LINE
8
DEFAULT_255_2_778
10
123.9988703
20
43.4898848
11
123.9988703
21
44.0782848
0
LINE
8
DEFAULT_255_2_778
10
124.3248703
20
43.2334848
11
124.3248703
21
44.3346848
0
LINE
8
DEFAULT_255_2_778
10
124.0708703
20
44.5793848
11
116.9246703
21
44.5793848
0
LINE
8
DEFAULT_255_2_778
10
116.9246703
20
44.5793848
11
116.9246703
21
44.2002848
0
LINE
8
DEFAULT_255_2_778
10
116.9246703
20
44.2002848
11
116.7728703
21
44.2002848
0
LINE
8
DEFAULT_255_2_778
10
116.7728703
20
44.2002848
11
116.7728703
21
43.3678848
0
LINE
8
DEFAULT_255_2_778
10
116.7728703
20
43.3678848
11
116.9246703
21
43.3678848
0
LINE
8
DEFAULT_255_2_778
10
116.9246703
20
43.3678848
11
116.9246703
21
42.9886848
0
LINE
8
DEFAULT_255_2_778
10
116.9246703
20
42.9886848
11
124.0708703
21
42.9886848
0
LINE
8
DEFAULT_255_2_778
10
124.3248703
20
43.2334848
11
124.3248703
21
43.2334848
0
LINE
8
DEFAULT_255_2_778
10
121.4024703
20
44.3237848
11
121.9432703
21
44.2825848
0
LINE
8
DEFAULT_255_2_778
10
121.9432703
20
44.2825848
11
122.4108703
21
44.2470848
0
LINE
8
DEFAULT_255_2_778
10
122.4108703
20
44.2470848
11
122.8444703
21
44.2115848
0
LINE
8
DEFAULT_255_2_778
10
122.8444703
20
44.2115848
11
123.2124703
21
44.1761848
0
LINE
8
DEFAULT_255_2_778
10
123.2124703
20
44.1761848
11
123.4884703
21
44.1406848
0
LINE
8
DEFAULT_255_2_778
10
123.5363703
20
44.1322848
11
123.4884703
21
44.1406848
0
LINE
8
DEFAULT_255_2_778
10
123.4884703
20
44.1406848
11
123.4884703
21
43.4276848
0
LINE
8
DEFAULT_255_2_778
10
123.4884703
20
43.4276848
11
123.5363703
21
43.4361848
0
LINE
8
DEFAULT_255_2_778
10
123.5363703
20
43.4361848
11
123.5363703
21
44.1324848
0
LINE
8
DEFAULT_255_2_778
10
123.5363703
20
44.1324848
11
123.5474703
21
44.1303848
0
LINE
8
DEFAULT_255_2_778
10
123.5474703
20
44.1303848
11
123.5855703
21
44.1237848
0
LINE
8
DEFAULT_255_2_778
10
123.5855703
20
44.1237848
11
123.6152703
21
44.1195848
0
LINE
8
DEFAULT_255_2_778
10
123.6152703
20
44.1195848
11
123.7205703
21
44.1065848
0
LINE
8
DEFAULT_255_2_778
10
123.7205703
20
44.1065848
11
123.7805703
21
44.0999848
0
LINE
8
DEFAULT_255_2_778
10
123.7805703
20
44.0999848
11
123.9779703
21
44.0803848
0
LINE
8
DEFAULT_255_2_778
10
123.9779703
20
43.4884848
11
123.9104703
21
43.4818848
0
LINE
8
DEFAULT_255_2_778
10
123.9104703
20
43.4818848
11
123.7205703
21
43.4622848
0
LINE
8
DEFAULT_255_2_778
10
123.7205703
20
43.4622848
11
123.6829703
21
43.4580848
0
LINE
8
DEFAULT_255_2_778
10
123.6829703
20
43.4580848
11
123.5855703
21
43.4450848
0
LINE
8
DEFAULT_255_2_778
10
123.5855703
20
43.4450848
11
123.5720703
21
43.4429848
0
LINE
8
DEFAULT_255_2_778
10
123.5720703
20
43.4429848
11
123.5366703
21
43.4363848
0
LINE
8
DEFAULT_255_2_778
10
123.4887703
20
43.4279848
11
123.2127703
21
43.3924848
0
LINE
8
DEFAULT_255_2_778
10
123.2127703
20
43.3924848
11
122.8447703
21
43.3569848
0
LINE
8
DEFAULT_255_2_778
10
122.8447703
20
43.3569848
11
122.4110703
21
43.3215848
0
LINE
8
DEFAULT_255_2_778
10
122.4110703
20
43.3215848
11
121.9435703
21
43.2860848
0
LINE
8
DEFAULT_255_2_778
10
121.9435703
20
43.2860848
11
121.4027703
21
43.2448848
0
LINE
8
DEFAULT_255_2_778
10
116.9799703
20
41.3175848
11
121.4027703
21
41.3175848
0
LINE
8
DEFAULT_255_2_778
10
121.4027703
20
41.3175848
11
121.4027703
21
42.3968848
0
LINE
8
DEFAULT_255_2_778
10
121.4027703
20
42.3968848
11
116.9799703
21
42.3968848
0
LINE
8
DEFAULT_255_2_778
10
123.5366703
20
42.2052848
11
123.4887703
21
42.2137848
0
LINE
8
DEFAULT_255_2_778
10
123.4887703
20
42.2137848
11
123.4887703
21
41.5006848
0
LINE
8
DEFAULT_255_2_778
10
123.4887703
20
41.5006848
11
123.5366703
21
41.5091848
0
LINE
8
DEFAULT_255_2_778
10
123.5366703
20
41.5091848
11
123.5366703
21
42.2055848
0
LINE
8
DEFAULT_255_2_778
10
123.5366703
20
42.2055848
11
123.5477703
21
42.2034848
0
LINE
8
DEFAULT_255_2_778
10
123.5477703
20
42.2034848
11
123.5858703
21
42.1967848
0
LINE
8
DEFAULT_255_2_778
10
123.5858703
20
42.1967848
11
123.6154703
21
42.1925848
0
LINE
8
DEFAULT_255_2_778
10
123.6154703
20
42.1925848
11
123.7207703
21
42.1796848
0
LINE
8
DEFAULT_255_2_778
10
123.7207703
20
42.1796848
11
123.7808703
21
42.1729848
0
LINE
8
DEFAULT_255_2_778
10
123.7808703
20
42.1729848
11
123.9782703
21
42.1534848
0
LINE
8
DEFAULT_255_2_778
10
121.4030703
20
42.3970848
11
121.9438703
21
42.3558848
0
LINE
8
DEFAULT_255_2_778
10
121.9438703
20
42.3558848
11
122.4113703
21
42.3203848
0
LINE
8
DEFAULT_255_2_778
10
122.4113703
20
42.3203848
11
122.8449703
21
42.2849848
0
LINE
8
DEFAULT_255_2_778
10
122.8449703
20
42.2849848
11
123.2130703
21
42.2494848
0
LINE
8
DEFAULT_255_2_778
10
123.2130703
20
42.2494848
11
123.4890703
21
42.2139848
0
LINE
8
DEFAULT_255_2_778
10
124.3253703
20
41.3067848
11
124.3253703
21
42.4079848
0
LINE
8
DEFAULT_255_2_778
10
124.0713703
20
42.6526848
11
116.9252703
21
42.6526848
0
LINE
8
DEFAULT_255_2_778
10
116.9252703
20
42.6526848
11
116.9252703
21
42.2735848
0
LINE
8
DEFAULT_255_2_778
10
116.9252703
20
42.2735848
11
116.7733703
21
42.2735848
0
LINE
8
DEFAULT_255_2_778
10
116.7733703
20
42.2735848
11
116.7733703
21
41.4411848
0
LINE
8
DEFAULT_255_2_778
10
116.7733703
20
41.4411848
11
116.9252703
21
41.4411848
0
LINE
8
DEFAULT_255_2_778
10
116.9252703
20
41.4411848
11
116.9252703
21
41.0620848
0
LINE
8
DEFAULT_255_2_778
10
116.9252703
20
41.0620848
11
124.0713703
21
41.0620848
0
LINE
8
DEFAULT_255_2_778
10
124.3253703
20
41.3067848
11
124.3253703
21
41.3067848
0
LINE
8
DEFAULT_255_2_778
10
123.9993703
20
41.5631848
11
123.9993703
21
42.1515848
0
LINE
8
DEFAULT_255_2_778
10
118.3624703
20
42.3968848
11
118.3624703
21
41.3175848
0
LINE
8
DEFAULT_255_2_778
10
123.9784703
20
41.5612848
11
123.9110703
21
41.5546848
0
LINE
8
DEFAULT_255_2_778
10
123.9110703
20
41.5546848
11
123.7210703
21
41.5350848
0
LINE
8
DEFAULT_255_2_778
10
123.7210703
20
41.5350848
11
123.6834703
21
41.5308848
0
LINE
8
DEFAULT_255_2_778
10
123.6834703
20
41.5308848
11
123.5860703
21
41.5178848
0
LINE
8
DEFAULT_255_2_778
10
123.5860703
20
41.5178848
11
123.5726703
21
41.5157848
0
LINE
8
DEFAULT_255_2_778
10
123.5726703
20
41.5157848
11
123.5371703
21
41.5091848
0
LINE
8
DEFAULT_255_2_778
10
123.4892703
20
41.5006848
11
123.2133703
21
41.4652848
0
LINE
8
DEFAULT_255_2_778
10
123.2133703
20
41.4652848
11
122.8452703
21
41.4297848
0
LINE
8
DEFAULT_255_2_778
10
122.8452703
20
41.4297848
11
122.4116703
21
41.3943848
0
LINE
8
DEFAULT_255_2_778
10
122.4116703
20
41.3943848
11
121.9441703
21
41.3588848
0
LINE
8
DEFAULT_255_2_778
10
121.9441703
20
41.3588848
11
121.4032703
21
41.3175848
0
LINE
8
DEFAULT_255_2_778
10
116.9805703
20
39.3903848
11
121.4032703
21
39.3903848
0
LINE
8
DEFAULT_255_2_778
10
121.4032703
20
39.3903848
11
121.4032703
21
40.4695848
0
LINE
8
DEFAULT_255_2_778
10
121.4032703
20
40.4695848
11
116.9805703
21
40.4695848
0
LINE
8
DEFAULT_255_2_778
10
118.3624703
20
40.4695848
11
118.3624703
21
39.3903848
0
LINE
8
DEFAULT_255_2_778
10
123.9993703
20
39.6356848
11
123.9993703
21
40.2240848
0
LINE
8
DEFAULT_255_2_778
10
121.4030703
20
40.4693848
11
121.9438703
21
40.4280848
0
LINE
8
DEFAULT_255_2_778
10
121.9438703
20
40.4280848
11
122.4113703
21
40.3926848
0
LINE
8
DEFAULT_255_2_778
10
122.4113703
20
40.3926848
11
122.8449703
21
40.3571848
0
LINE
8
DEFAULT_255_2_778
10
122.8449703
20
40.3571848
11
123.2130703
21
40.3216848
0
LINE
8
DEFAULT_255_2_778
10
123.2130703
20
40.3216848
11
123.4890703
21
40.2862848
0
LINE
8
DEFAULT_255_2_778
10
123.5368703
20
40.2777848
11
123.4890703
21
40.2862848
0
LINE
8
DEFAULT_255_2_778
10
123.4890703
20
40.2862848
11
123.4890703
21
39.5731848
0
LINE
8
DEFAULT_255_2_778
10
123.4890703
20
39.5731848
11
123.5368703
21
39.5816848
0
LINE
8
DEFAULT_255_2_778
10
123.5368703
20
39.5816848
11
123.5368703
21
40.2780848
0
LINE
8
DEFAULT_255_2_778
10
123.5368703
20
40.2780848
11
123.5480703
21
40.2759848
0
LINE
8
DEFAULT_255_2_778
10
123.5480703
20
40.2759848
11
123.5860703
21
40.2693848
0
LINE
8
DEFAULT_255_2_778
10
123.5860703
20
40.2693848
11
123.6157703
21
40.2650848
0
LINE
8
DEFAULT_255_2_778
10
123.6157703
20
40.2650848
11
123.7210703
21
40.2521848
0
LINE
8
DEFAULT_255_2_778
10
123.7210703
20
40.2521848
11
123.7811703
21
40.2454848
0
LINE
8
DEFAULT_255_2_778
10
123.7811703
20
40.2454848
11
123.9784703
21
40.2259848
0
LINE
8
DEFAULT_255_2_778
10
123.9784703
20
39.6340848
11
123.9110703
21
39.6274848
0
LINE
8
DEFAULT_255_2_778
10
123.9110703
20
39.6274848
11
123.7210703
21
39.6078848
0
LINE
8
DEFAULT_255_2_778
10
123.7210703
20
39.6078848
11
123.6834703
21
39.6036848
0
LINE
8
DEFAULT_255_2_778
10
123.6834703
20
39.6036848
11
123.5860703
21
39.5906848
0
LINE
8
DEFAULT_255_2_778
10
123.5860703
20
39.5906848
11
123.5726703
21
39.5885848
0
LINE
8
DEFAULT_255_2_778
10
123.5726703
20
39.5885848
11
123.5371703
21
39.5819848
0
LINE
8
DEFAULT_255_2_778
10
124.0716703
20
40.7254848
11
116.9254703
21
40.7254848
0
LINE
8
DEFAULT_255_2_778
10
116.9254703
20
40.7254848
11
116.9254703
21
40.3462848
0
LINE
8
DEFAULT_255_2_778
10
116.9254703
20
40.3462848
11
116.7736703
21
40.3462848
0
LINE
8
DEFAULT_255_2_778
10
116.7736703
20
40.3462848
11
116.7736703
21
39.5139848
0
LINE
8
DEFAULT_255_2_778
10
116.7736703
20
39.5139848
11
116.9254703
21
39.5139848
0
LINE
8
DEFAULT_255_2_778
10
116.9254703
20
39.5139848
11
116.9254703
21
39.1347848
0
LINE
8
DEFAULT_255_2_778
10
116.9254703
20
39.1347848
11
124.0716703
21
39.1347848
0
LINE
8
DEFAULT_255_2_778
10
124.3256703
20
39.3795848
11
124.3256703
21
40.4807848
0
LINE
8
DEFAULT_255_2_778
10
123.4892703
20
39.5734848
11
123.2133703
21
39.5379848
0
LINE
8
DEFAULT_255_2_778
10
123.2133703
20
39.5379848
11
122.8452703
21
39.5025848
0
LINE
8
DEFAULT_255_2_778
10
122.8452703
20
39.5025848
11
122.4116703
21
39.4670848
0
LINE
8
DEFAULT_255_2_778
10
122.4116703
20
39.4670848
11
121.9441703
21
39.4316848
0
LINE
8
DEFAULT_255_2_778
10
121.9441703
20
39.4316848
11
121.4032703
21
39.3903848
0
LINE
8
DEFAULT_255_2_778
10
122.3343703
20
39.4612848
11
122.3343703
21
39.1345848
0
LINE
8
DEFAULT_255_2_778
10
120.9966703
20
39.3903848
11
120.9966703
21
39.1345848
0
LINE
8
DEFAULT_255_2_778
10
118.5693703
20
39.3903848
11
118.5693703
21
39.1345848
0
LINE
8
DEFAULT_255_2_778
10
117.4845703
20
41.0614848
11
117.4845703
21
40.7251848
0
LINE
8
DEFAULT_255_2_778
10
123.4445703
20
40.7251848
11
123.4445703
21
41.0614848
0
LINE
8
DEFAULT_255_2_778
10
117.4845703
20
42.9884848
11
117.4845703
21
42.6521848
0
LINE
8
DEFAULT_255_2_778
10
123.4445703
20
42.6521848
11
123.4445703
21
42.9884848
0
LINE
8
DEFAULT_255_2_778
10
117.4845703
20
44.9153848
11
117.4845703
21
44.5791848
0
LINE
8
DEFAULT_255_2_778
10
123.4445703
20
44.5791848
11
123.4445703
21
44.9153848
0
LINE
8
DEFAULT_255_2_778
10
117.4845703
20
46.8423848
11
117.4845703
21
46.5060848
0
LINE
8
DEFAULT_255_2_778
10
123.4445703
20
46.5060848
11
123.4445703
21
46.8423848
0
LINE
8
DEFAULT_255_2_778
10
117.4845703
20
48.7693848
11
117.4845703
21
48.4330848
0
LINE
8
DEFAULT_255_2_778
10
123.4445703
20
48.4330848
11
123.4445703
21
48.7693848
0
LINE
8
DEFAULT_255_2_778
10
117.4845703
20
50.6962848
11
117.4845703
21
50.3599848
0
LINE
8
DEFAULT_255_2_778
10
123.4445703
20
50.3599848
11
123.4445703
21
50.6962848
0
LINE
8
DEFAULT_255_2_778
10
117.4845703
20
52.6232848
11
117.4845703
21
52.2869848
0
LINE
8
DEFAULT_255_2_778
10
123.4445703
20
52.2869848
11
123.4445703
21
52.6232848
0
LINE
8
DEFAULT_255_2_778
10
117.4845703
20
54.5501848
11
117.4845703
21
54.2139848
0
LINE
8
DEFAULT_255_2_778
10
123.4445703
20
54.2139848
11
123.4445703
21
54.5501848
0
LINE
8
DEFAULT_255_2_778
10
123.7541703
20
54.5501848
11
123.7541703
21
55.0235848
0
LINE
8
DEFAULT_255_2_778
10
123.7541703
20
53.7405848
11
123.7541703
21
54.2139848
0
LINE
8
DEFAULT_255_2_778
10
123.7541703
20
52.6232848
11
123.7541703
21
53.0965848
0
LINE
8
DEFAULT_255_2_778
10
123.7541703
20
51.8136848
11
123.7541703
21
52.2869848
0
LINE
8
DEFAULT_255_2_778
10
123.7541703
20
50.6962848
11
123.7541703
21
51.1696848
0
LINE
8
DEFAULT_255_2_778
10
123.7541703
20
49.8866848
11
123.7541703
21
50.3607848
0
LINE
8
DEFAULT_255_2_778
10
123.7541703
20
48.7701848
11
123.7541703
21
49.2434848
0
LINE
8
DEFAULT_255_2_778
10
123.7541703
20
47.9604848
11
123.7541703
21
48.4338848
0
LINE
8
DEFAULT_255_2_778
10
123.7541703
20
46.8431848
11
123.7541703
21
47.3164848
0
LINE
8
DEFAULT_255_2_778
10
123.7541703
20
46.0335848
11
123.7541703
21
46.5068848
0
LINE
8
DEFAULT_255_2_778
10
123.7541703
20
44.9161848
11
123.7541703
21
45.3895848
0
LINE
8
DEFAULT_255_2_778
10
123.7541703
20
44.1065848
11
123.7541703
21
44.5798848
0
LINE
8
DEFAULT_255_2_778
10
123.7541703
20
42.9892848
11
123.7541703
21
43.4625848
0
LINE
8
DEFAULT_255_2_778
10
123.7541703
20
42.1796848
11
123.7541703
21
42.6529848
0
LINE
8
DEFAULT_255_2_778
10
123.7541703
20
41.0622848
11
123.7541703
21
41.5356848
0
LINE
8
DEFAULT_255_2_778
10
123.7541703
20
40.2526848
11
123.7541703
21
40.7259848
0
LINE
8
DEFAULT_255_2_778
10
123.7541703
20
39.1353848
11
123.7541703
21
39.6086848
0
LINE
8
DEFAULT_255_2_778
10
122.3343703
20
40.7259848
11
122.3343703
21
40.3992848
0
LINE
8
DEFAULT_255_2_778
10
122.3343703
20
41.3887848
11
122.3343703
21
41.0620848
0
LINE
8
DEFAULT_255_2_778
10
122.3343703
20
42.6526848
11
122.3343703
21
42.3259848
0
LINE
8
DEFAULT_255_2_778
10
122.3343703
20
43.3154848
11
122.3343703
21
42.9886848
0
LINE
8
DEFAULT_255_2_778
10
122.3343703
20
44.5793848
11
122.3343703
21
44.2526848
0
LINE
8
DEFAULT_255_2_778
10
122.3343703
20
45.2421848
11
122.3343703
21
44.9153848
0
LINE
8
DEFAULT_255_2_778
10
122.3343703
20
46.5060848
11
122.3343703
21
46.1793848
0
LINE
8
DEFAULT_255_2_778
10
122.3343703
20
47.1688848
11
122.3343703
21
46.8420848
0
LINE
8
DEFAULT_255_2_778
10
122.3343703
20
48.4327848
11
122.3343703
21
48.1059848
0
LINE
8
DEFAULT_255_2_778
10
122.3343703
20
49.0955848
11
122.3343703
21
48.7687848
0
LINE
8
DEFAULT_255_2_778
10
122.3343703
20
50.3594848
11
122.3343703
21
50.0326848
0
LINE
8
DEFAULT_255_2_778
10
122.3343703
20
51.0222848
11
122.3343703
21
50.6954848
0
LINE
8
DEFAULT_255_2_778
10
122.3343703
20
52.2861848
11
122.3343703
21
51.9593848
0
LINE
8
DEFAULT_255_2_778
10
122.3343703
20
52.9489848
11
122.3343703
21
52.6221848
0
LINE
8
DEFAULT_255_2_778
10
122.3343703
20
54.2128848
11
122.3343703
21
53.8860848
0
LINE
8
DEFAULT_255_2_778
10
122.3343703
20
54.8756848
11
122.3343703
21
54.5488848
0
LINE
8
DEFAULT_255_2_778
10
122.3343703
20
56.1395848
11
122.3343703
21
55.8127848
0
LINE
8
DEFAULT_255_2_778
10
121.6993703
20
54.5486848
11
121.6993703
21
54.8240848
0
LINE
8
DEFAULT_255_2_778
10
121.6993703
20
53.9371848
11
121.6993703
21
54.2125848
0
LINE
8
DEFAULT_255_2_778
10
121.6993703
20
52.6219848
11
121.6993703
21
52.8973848
0
LINE
8
DEFAULT_255_2_778
10
121.6993703
20
52.0104848
11
121.6993703
21
52.2858848
0
LINE
8
DEFAULT_255_2_778
10
121.6993703
20
50.6952848
11
121.6993703
21
50.9706848
0
LINE
8
DEFAULT_255_2_778
10
121.6993703
20
50.0837848
11
121.6993703
21
50.3607848
0
LINE
8
DEFAULT_255_2_778
10
121.6993703
20
48.7701848
11
121.6993703
21
49.0455848
0
LINE
8
DEFAULT_255_2_778
10
121.6993703
20
48.1586848
11
121.6993703
21
48.4340848
0
LINE
8
DEFAULT_255_2_778
10
121.6993703
20
46.8434848
11
121.6993703
21
47.1188848
0
LINE
8
DEFAULT_255_2_778
10
121.6993703
20
46.2319848
11
121.6993703
21
46.5073848
0
LINE
8
DEFAULT_255_2_778
10
121.6993703
20
44.9167848
11
121.6993703
21
45.1921848
0
LINE
8
DEFAULT_255_2_778
10
121.6993703
20
44.3052848
11
121.6993703
21
44.5806848
0
LINE
8
DEFAULT_255_2_778
10
121.6993703
20
42.9900848
11
121.6993703
21
43.2654848
0
LINE
8
DEFAULT_255_2_778
10
121.6993703
20
42.3785848
11
121.6993703
21
42.6539848
0
LINE
8
DEFAULT_255_2_778
10
121.6993703
20
41.0633848
11
121.6993703
21
41.3387848
0
LINE
8
DEFAULT_255_2_778
10
121.6993703
20
40.4518848
11
121.6993703
21
40.7272848
0
LINE
8
DEFAULT_255_2_778
10
121.6993703
20
39.1366848
11
121.6993703
21
39.4120848
0
LINE
8
DEFAULT_255_2_778
10
120.9966703
20
40.7275848
11
120.9966703
21
40.4717848
0
LINE
8
DEFAULT_255_2_778
10
120.9966703
20
41.3197848
11
120.9966703
21
41.0638848
0
LINE
8
DEFAULT_255_2_778
10
120.9966703
20
42.6545848
11
120.9966703
21
42.3986848
0
LINE
8
DEFAULT_255_2_778
10
120.9966703
20
43.2466848
11
120.9966703
21
42.9908848
0
LINE
8
DEFAULT_255_2_778
10
120.9966703
20
44.5814848
11
120.9966703
21
44.3256848
0
LINE
8
DEFAULT_255_2_778
10
120.9966703
20
45.1736848
11
120.9966703
21
44.9177848
0
LINE
8
DEFAULT_255_2_778
10
120.9966703
20
46.5084848
11
120.9966703
21
46.2525848
0
LINE
8
DEFAULT_255_2_778
10
120.9966703
20
47.1005848
11
120.9966703
21
46.8447848
0
LINE
8
DEFAULT_255_2_778
10
120.9966703
20
48.4354848
11
120.9966703
21
48.1795848
0
LINE
8
DEFAULT_255_2_778
10
120.9966703
20
49.0275848
11
120.9966703
21
48.7716848
0
LINE
8
DEFAULT_255_2_778
10
120.9966703
20
50.3623848
11
120.9966703
21
50.1065848
0
LINE
8
DEFAULT_255_2_778
10
120.9966703
20
50.9545848
11
120.9966703
21
50.6986848
0
LINE
8
DEFAULT_255_2_778
10
120.9966703
20
52.8814848
11
120.9966703
21
52.0334848
0
LINE
8
DEFAULT_255_2_778
10
120.9966703
20
54.2162848
11
120.9966703
21
53.9604848
0
LINE
8
DEFAULT_255_2_778
10
120.9966703
20
54.8084848
11
120.9966703
21
54.5525848
0
LINE
8
DEFAULT_255_2_778
10
120.9966703
20
56.1432848
11
120.9966703
21
55.8873848
0
LINE
8
DEFAULT_255_2_778
10
118.5693703
20
40.7265848
11
118.5693703
21
40.4706848
0
LINE
8
DEFAULT_255_2_778
10
118.5693703
20
41.3186848
11
118.5693703
21
41.0627848
0
LINE
8
DEFAULT_255_2_778
10
118.5693703
20
42.6534848
11
118.5693703
21
42.3976848
0
LINE
8
DEFAULT_255_2_778
10
118.5693703
20
43.2456848
11
118.5693703
21
42.9897848
0
LINE
8
DEFAULT_255_2_778
10
118.5693703
20
44.5804848
11
118.5693703
21
44.3245848
0
LINE
8
DEFAULT_255_2_778
10
118.5693703
20
45.1725848
11
118.5693703
21
44.9167848
0
LINE
8
DEFAULT_255_2_778
10
118.5693703
20
46.5073848
11
118.5693703
21
46.2515848
0
LINE
8
DEFAULT_255_2_778
10
118.5693703
20
47.0995848
11
118.5693703
21
46.8436848
0
LINE
8
DEFAULT_255_2_778
10
118.5693703
20
48.4343848
11
118.5693703
21
48.1784848
0
LINE
8
DEFAULT_255_2_778
10
118.5693703
20
49.0264848
11
118.5693703
21
48.7706848
0
LINE
8
DEFAULT_255_2_778
10
118.5693703
20
50.3613848
11
118.5693703
21
50.1054848
0
LINE
8
DEFAULT_255_2_778
10
118.5693703
20
50.9534848
11
118.5693703
21
50.6975848
0
LINE
8
DEFAULT_255_2_778
10
118.5693703
20
52.8804848
11
118.5693703
21
52.0324848
0
LINE
8
DEFAULT_255_2_778
10
118.5693703
20
54.2152848
11
118.5693703
21
53.9593848
0
LINE
8
DEFAULT_255_2_778
10
118.5693703
20
54.8073848
11
118.5693703
21
54.5515848
0
LINE
8
DEFAULT_255_2_778
10
118.5693703
20
56.1421848
11
118.5693703
21
55.8863848
0
LINE
8
DEFAULT_255_2_778
10
120.2576703
20
54.5512848
11
120.2576703
21
54.8070848
0
LINE
8
DEFAULT_255_2_778
10
120.2576703
20
53.9591848
11
120.2576703
21
54.2149848
0
LINE
8
DEFAULT_255_2_778
10
120.2576703
20
52.6242848
11
120.2576703
21
52.8801848
0
LINE
8
DEFAULT_255_2_778
10
120.2576703
20
52.0321848
11
120.2576703
21
52.2880848
0
LINE
8
DEFAULT_255_2_778
10
120.2576703
20
50.6973848
11
120.2576703
21
50.9531848
0
LINE
8
DEFAULT_255_2_778
10
120.2576703
20
50.1051848
11
120.2576703
21
50.3610848
0
LINE
8
DEFAULT_255_2_778
10
120.2576703
20
48.7703848
11
120.2576703
21
49.0262848
0
LINE
8
DEFAULT_255_2_778
10
120.2576703
20
48.1782848
11
120.2576703
21
48.4340848
0
LINE
8
DEFAULT_255_2_778
10
120.2576703
20
46.8434848
11
120.2576703
21
47.0992848
0
LINE
8
DEFAULT_255_2_778
10
120.2576703
20
46.2512848
11
120.2576703
21
46.5071848
0
LINE
8
DEFAULT_255_2_778
10
120.2576703
20
44.9164848
11
120.2576703
21
45.1723848
0
LINE
8
DEFAULT_255_2_778
10
120.2576703
20
44.3243848
11
120.2576703
21
44.5801848
0
LINE
8
DEFAULT_255_2_778
10
120.2576703
20
42.9894848
11
120.2576703
21
43.2453848
0
LINE
8
DEFAULT_255_2_778
10
120.2576703
20
42.3973848
11
120.2576703
21
42.6532848
0
LINE
8
DEFAULT_255_2_778
10
120.2576703
20
41.0625848
11
120.2576703
21
41.3183848
0
LINE
8
DEFAULT_255_2_778
10
120.2576703
20
40.4703848
11
120.2576703
21
40.7262848
0
LINE
8
DEFAULT_255_2_778
10
120.2576703
20
39.1355848
11
120.2576703
21
39.3914848
0
LINE
8
DEFAULT_255_2_778
10
122.4637703
20
34.0338848
11
122.4637703
21
31.8740848
0
LINE
8
DEFAULT_255_2_778
10
122.2097703
20
31.6288848
11
118.7177703
21
31.6288848
0
LINE
8
DEFAULT_255_2_778
10
118.4637703
20
31.8738848
11
118.4637703
21
34.0336848
0
LINE
8
DEFAULT_255_2_778
10
118.7177703
20
34.2788848
11
122.2092703
21
34.2788848
0
LINE
8
DEFAULT_255_2_778
10
123.9438703
20
29.9957848
11
117.3059703
21
29.9957848
0
LINE
8
DEFAULT_255_2_778
10
124.2200703
20
30.2619848
11
124.3166703
21
30.2619848
0
LINE
8
DEFAULT_255_2_778
10
124.3166703
20
30.2619848
11
124.3166703
21
30.7514848
0
LINE
8
DEFAULT_255_2_778
10
124.3166703
20
30.7514848
11
124.2200703
21
30.7514848
0
LINE
8
DEFAULT_255_2_778
10
117.0294703
20
30.2619848
11
117.0294703
21
30.7514848
0
LINE
8
DEFAULT_255_2_778
10
117.0294703
20
30.7514848
11
116.9299703
21
30.7514848
0
LINE
8
DEFAULT_255_2_778
10
116.9299703
20
30.7514848
11
116.9299703
21
30.2619848
0
LINE
8
DEFAULT_255_2_778
10
116.9299703
20
30.2619848
11
117.0294703
21
30.2619848
0
LINE
8
DEFAULT_255_2_778
10
117.3056703
20
29.9960848
11
117.3056703
21
29.8968848
0
LINE
8
DEFAULT_255_2_778
10
117.3056703
20
29.8968848
11
123.9435703
21
29.8997848
0
LINE
8
DEFAULT_255_2_778
10
123.9435703
20
29.8997848
11
123.9435703
21
29.9960848
0
LINE
8
DEFAULT_255_2_778
10
124.2197703
20
30.2627848
11
124.2197703
21
30.7517848
0
LINE
8
DEFAULT_255_2_778
10
123.9430703
20
31.0178848
11
117.3056703
21
31.0178848
0
LINE
8
DEFAULT_255_2_778
10
117.3056703
20
31.0176848
11
117.3056703
21
31.1168848
0
LINE
8
DEFAULT_255_2_778
10
117.3056703
20
31.1168848
11
123.4437703
21
31.1184848
0
LINE
8
DEFAULT_255_2_778
10
123.4437703
20
31.1184848
11
123.9438703
21
31.1139848
0
LINE
8
DEFAULT_255_2_778
10
123.9438703
20
31.1139848
11
123.9438703
21
31.0176848
0
LINE
8
DEFAULT_255_2_778
10
118.7177703
20
26.7342848
11
122.2097703
21
26.7342848
0
LINE
8
DEFAULT_255_2_778
10
122.4637703
20
26.9795848
11
122.4637703
21
29.1393848
0
LINE
8
DEFAULT_255_2_778
10
122.2092703
20
29.3843848
11
118.7177703
21
29.3843848
0
LINE
8
DEFAULT_255_2_778
10
118.4637703
20
29.1390848
11
118.4637703
21
26.9792848
0
LINE
8
DEFAULT_255_2_778
10
118.7182703
20
26.7342848
11
118.7177703
21
26.7342848
0
ARC
8
DEFAULT_255_2_778
10
117.2914648
20
37.8753403
40
0.262115
50
133.7977923
51
179.8270587
0
ARC
8
DEFAULT_255_2_778
10
117.3053436
20
37.8601368
40
0.2826948
50
90.0163024
51
133.6954368
0
LINE
8
DEFAULT_255_2_778
10
117.3052632
20
38.1428317
11
117.305651
21
38.1428314
0
ARC
8
DEFAULT_255_2_778
10
123.9435342
20
37.9538705
40
0.1889618
50
89.9411035
51
90.1768276
0
ARC
8
DEFAULT_255_2_778
10
123.9436821
20
37.8598735
40
0.282959
50
46.5019995
51
89.9906169
0
ARC
8
DEFAULT_255_2_778
10
123.9574553
20
37.875285
40
0.2622997
50
0.3159603
51
46.3672041
0
ARC
8
DEFAULT_255_2_778
10
123.9572956
20
35.5532689
40
0.262457
50
313.8295025
51
359.7953486
0
ARC
8
DEFAULT_255_2_778
10
123.9435783
20
35.5687761
40
0.2831447
50
269.9742428
51
313.6588823
0
ARC
8
DEFAULT_255_2_778
10
117.305197
20
35.56796
40
0.2823289
50
226.2747505
51
270.0921313
0
ARC
8
DEFAULT_255_2_778
10
117.2918075
20
35.5532694
40
0.2624582
50
180.2047703
51
226.1703882
0
ARC
8
DEFAULT_255_2_778
10
123.9399796
20
35.577371
40
0.3880551
50
270.5125521
51
291.825474
0
ARC
8
DEFAULT_255_2_778
10
123.9441235
20
35.5677725
40
0.3776041
50
291.7832464
51
313.6679959
0
ARC
8
DEFAULT_255_2_778
10
123.9550745
20
35.5569585
40
0.3622206
50
313.5960798
51
336.3806062
0
ARC
8
DEFAULT_255_2_778
10
123.9613885
20
35.5525262
40
0.3546631
50
336.62797
51
359.8877546
0
ARC
8
DEFAULT_255_2_778
10
123.9615046
20
37.8759603
40
0.3545472
50
0.1246099
51
23.3759537
0
ARC
8
DEFAULT_255_2_778
10
123.9559668
20
37.8721291
40
0.361153
50
23.5853058
51
46.4380974
0
ARC
8
DEFAULT_255_2_778
10
123.943786
20
37.8606178
40
0.3778897
50
46.3025957
51
68.1789538
0
ARC
8
DEFAULT_255_2_778
10
123.938609
20
37.843041
40
0.3961353
50
68.4287933
51
87.6576058
0
ARC
8
DEFAULT_255_2_778
10
123.939426
20
37.8543862
40
0.3847661
50
87.7101111
51
89.4006198
0
ARC
8
DEFAULT_255_2_778
10
117.285666
20
37.8755298
40
0.356017
50
156.2294322
51
179.8066119
0
ARC
8
DEFAULT_255_2_778
10
117.2922897
20
37.8728616
40
0.3631544
50
133.1442808
51
156.2654141
0
ARC
8
DEFAULT_255_2_778
10
117.3059324
20
37.8592396
40
0.3824235
50
111.2623197
51
133.2400027
0
ARC
8
DEFAULT_255_2_778
10
117.3142447
20
37.8367617
40
0.4063859
50
90.5066839
51
111.2052374
0
ARC
8
DEFAULT_255_2_778
10
117.3149729
20
35.5939367
40
0.4086251
50
248.8521736
51
269.4360556
0
ARC
8
DEFAULT_255_2_778
10
117.308095
20
35.5721752
40
0.3858505
50
226.8587948
51
248.6388828
0
ARC
8
DEFAULT_255_2_778
10
117.2944126
20
35.5571731
40
0.365548
50
203.8388093
51
226.8157265
0
ARC
8
DEFAULT_255_2_778
10
117.28634
20
35.5527826
40
0.3563904
50
180.1529099
51
203.7177005
0
ARC
8
DEFAULT_255_2_778
10
121.4359212
20
37.1182526
40
0.5218201
50
207.1627586
51
246.7159385
0
ARC
8
DEFAULT_255_2_778
10
121.4174469
20
36.2127002
40
0.4657686
50
113.778121
51
163.1602609
0
ARC
8
DEFAULT_255_2_778
10
121.9179825
20
36.486195
40
0.4353365
50
271.6149016
51
286.6134485
0
ARC
8
DEFAULT_255_2_778
10
121.9320126
20
36.4353488
40
0.382603
50
286.7771563
51
304.8148967
0
ARC
8
DEFAULT_255_2_778
10
121.9716658
20
36.3845549
40
0.318282
50
304.174801
51
326.9839632
0
ARC
8
DEFAULT_255_2_778
10
122.004385
20
36.3528401
40
0.2737061
50
328.8192155
51
356.0806084
0
ARC
8
DEFAULT_255_2_778
10
122.1019583
20
36.3283246
40
0.8184132
50
0.0020866
51
0.4065339
0
ARC
8
DEFAULT_255_2_778
10
122.0773846
20
36.329175
40
0.8429873
50
351.7513002
51
359.9442244
0
ARC
8
DEFAULT_255_2_778
10
122.1318273
20
36.3180514
40
0.7875185
50
342.7813815
51
351.9839383
0
ARC
8
DEFAULT_255_2_778
10
122.2307972
20
36.2954336
40
0.686332
50
320.9699788
51
342.1391688
0
ARC
8
DEFAULT_255_2_778
10
122.1527412
20
36.3585983
40
0.7867438
50
302.6981888
51
320.9762913
0
ARC
8
DEFAULT_255_2_778
10
122.0500829
20
36.515034
40
0.9738481
50
288.5038208
51
302.8088622
0
ARC
8
DEFAULT_255_2_778
10
121.9773705
20
36.7236823
40
1.1947894
50
277.5062469
51
288.6349791
0
ARC
8
DEFAULT_255_2_778
10
121.9202191
20
37.1531675
40
1.6280603
50
269.9710094
51
277.5258197
0
ARC
8
DEFAULT_255_2_778
10
121.9193957
20
37.1919825
40
1.6668751
50
269.6925395
51
269.9999866
0
ARC
8
DEFAULT_255_2_778
10
121.8712373
20
36.8549506
40
1.3284662
50
255.019915
51
263.5738032
0
ARC
8
DEFAULT_255_2_778
10
121.8009596
20
36.596481
40
1.0606154
50
243.4598902
51
255.0782193
0
ARC
8
DEFAULT_255_2_778
10
121.679398
20
36.3611588
40
0.7957824
50
227.0664416
51
243.7193752
0
ARC
8
DEFAULT_255_2_778
10
121.5461848
20
36.2210801
40
0.6024901
50
204.479108
51
227.2677383
0
ARC
8
DEFAULT_255_2_778
10
121.4908157
20
36.1853126
40
0.5373634
50
195.0774246
51
203.4544319
0
ARC
8
DEFAULT_255_2_778
10
121.6403295
20
37.097824
40
0.7605722
50
143.7524468
51
151.5433864
0
ARC
8
DEFAULT_255_2_778
10
121.6527516
20
37.0545895
40
0.7991225
50
115.9352718
51
134.2881103
0
ARC
8
DEFAULT_255_2_778
10
121.8000168
20
36.7743806
40
1.1155623
50
104.1634588
51
116.4428756
0
ARC
8
DEFAULT_255_2_778
10
121.8806386
20
36.4802521
40
1.4204904
50
95.5299735
51
104.4135782
0
ARC
8
DEFAULT_255_2_778
10
121.9719988
20
35.90272
40
2.0011201
50
90.0005625
51
90.5969232
0
ARC
8
DEFAULT_255_2_778
10
121.9721386
20
35.9115965
40
1.9922435
50
83.1529949
51
90.0045845
0
ARC
8
DEFAULT_255_2_778
10
122.0681306
20
36.7285105
40
1.1697136
50
69.8928522
51
83.05092
0
ARC
8
DEFAULT_255_2_778
10
122.1680033
20
36.9980106
40
0.8823057
50
52.0374
51
69.9667317
0
ARC
8
DEFAULT_255_2_778
10
122.2359297
20
37.0936618
40
0.7651267
50
30.9301671
51
51.6415988
0
ARC
8
DEFAULT_255_2_778
10
122.1973525
20
37.0759755
40
0.8073219
50
11.2539971
51
30.5996414
0
ARC
8
DEFAULT_255_2_778
10
121.8768626
20
37.0137798
40
1.1337884
50
3.805622
51
11.1758363
0
ARC
8
DEFAULT_255_2_778
10
121.8267436
20
36.9887368
40
0.4921516
50
357.5654914
51
359.999388
0
ARC
8
DEFAULT_255_2_778
10
121.8290363
20
36.988765
40
0.4898589
50
359.9960809
51
13.200809
0
ARC
8
DEFAULT_255_2_778
10
121.9108901
20
37.0166401
40
0.4038907
50
12.0025777
51
32.7832207
0
ARC
8
DEFAULT_255_2_778
10
121.9940917
20
37.0659032
40
0.3072882
50
33.4607723
51
63.302334
0
ARC
8
DEFAULT_255_2_778
10
121.9784071
20
37.0029848
40
0.3708199
50
65.5055422
51
90.0390188
0
ARC
8
DEFAULT_255_2_778
10
121.9781665
20
36.9991702
40
0.3746344
50
90.0018294
51
91.1341941
0
ARC
8
DEFAULT_255_2_778
10
121.9662538
20
36.9787238
40
0.3950333
50
89.3477108
51
89.9999054
0
ARC
8
DEFAULT_255_2_778
10
121.966358
20
36.9760004
40
0.3977566
50
90.0149177
51
104.5322443
0
ARC
8
DEFAULT_255_2_778
10
121.9392586
20
37.0835214
40
0.2868766
50
104.6814933
51
126.566332
0
ARC
8
DEFAULT_255_2_778
10
121.9106326
20
37.1234304
40
0.2377703
50
126.7553519
51
153.7129271
0
ARC
8
DEFAULT_255_2_778
10
121.9163906
20
37.1256444
40
0.2419948
50
154.7867393
51
179.9875857
0
ARC
8
DEFAULT_255_2_778
10
121.9162532
20
37.1256985
40
0.2418575
50
180.0003889
51
181.2241555
0
ARC
8
DEFAULT_255_2_778
10
121.8820664
20
37.1132653
40
0.207201
50
183.4957135
51
210.9411303
0
ARC
8
DEFAULT_255_2_778
10
121.8909518
20
37.1309474
40
0.2241639
50
213.6508069
51
243.8480926
0
ARC
8
DEFAULT_255_2_778
10
121.9502687
20
37.2476296
40
0.3550499
50
243.5549411
51
261.0203057
0
ARC
8
DEFAULT_255_2_778
10
121.8756283
20
36.1191792
40
0.320228
50
97.9476363
51
113.9077507
0
ARC
8
DEFAULT_255_2_778
10
121.8211472
20
36.2346492
40
0.1926098
50
113.0121552
51
142.7885837
0
ARC
8
DEFAULT_255_2_778
10
121.8097829
20
36.2562558
40
0.1708053
50
146.2575449
51
179.8054132
0
ARC
8
DEFAULT_255_2_778
10
121.8411128
20
36.252375
40
0.2021835
50
178.7357513
51
179.1621645
0
ARC
8
DEFAULT_255_2_778
10
121.8546862
20
36.2523791
40
0.2157555
50
179.2159522
51
180.003803
0
ARC
8
DEFAULT_255_2_778
10
121.8190311
20
36.2491202
40
0.1801297
50
178.9679052
51
212.4642489
0
ARC
8
DEFAULT_255_2_778
10
121.8334736
20
36.2692221
40
0.2033139
50
215.0600839
51
245.217974
0
ARC
8
DEFAULT_255_2_778
10
121.8859147
20
36.3762079
40
0.3224409
50
244.7263161
51
261.9661479
0
ARC
8
DEFAULT_255_2_778
10
117.2918063
20
65.013294
40
0.262457
50
133.8295025
51
179.7953486
0
ARC
8
DEFAULT_255_2_778
10
117.305523
20
64.9977886
40
0.2831429
50
89.9741086
51
133.6590419
0
LINE
8
DEFAULT_255_2_778
10
123.942951
20
65.2809314
11
123.9433424
21
65.2809317
0
ARC
8
DEFAULT_255_2_778
10
123.9435403
20
64.9978806
40
0.2830511
50
46.4801928
51
90.040066
0
ARC
8
DEFAULT_255_2_778
10
123.9576264
20
65.0133588
40
0.2621282
50
0.3000289
51
46.3831275
0
ARC
8
DEFAULT_255_2_778
10
123.9576372
20
64.5266226
40
0.262115
50
313.7977923
51
359.8270587
0
ARC
8
DEFAULT_255_2_778
10
123.9435788
20
64.5422744
40
0.2831431
50
269.9741375
51
313.6590318
0
ARC
8
DEFAULT_255_2_778
10
123.9467436
20
64.5327022
40
0.3698829
50
269.53643
51
358.8426766
0
ARC
8
DEFAULT_255_2_778
10
123.9469808
20
65.0076065
40
0.3696389
50
1.1044598
51
90.5006366
0
ARC
8
DEFAULT_255_2_778
10
117.2914648
20
64.5266226
40
0.262115
50
180.1729413
51
226.2022077
0
ARC
8
DEFAULT_255_2_778
10
117.305523
20
64.5422742
40
0.2831429
50
226.3409581
51
270.0258914
0
ARC
8
DEFAULT_255_2_778
10
117.3025525
20
65.007472
40
0.3726723
50
89.5236309
51
178.8838484
0
ARC
8
DEFAULT_255_2_778
10
117.3024234
20
64.5323581
40
0.3725406
50
181.0961228
51
270.4963979
0
ARC
8
DEFAULT_255_2_778
10
117.2918063
20
59.723494
40
0.262457
50
133.8295025
51
179.7953486
0
ARC
8
DEFAULT_255_2_778
10
117.3057037
20
59.707537
40
0.2835944
50
90.0106569
51
133.6224613
0
LINE
8
DEFAULT_255_2_778
10
123.942951
20
59.9911314
11
123.9433424
21
59.9911317
0
ARC
8
DEFAULT_255_2_778
10
123.9435403
20
59.7080806
40
0.2830511
50
46.4801928
51
90.040066
0
ARC
8
DEFAULT_255_2_778
10
123.9574553
20
59.723485
40
0.2622997
50
0.3159603
51
46.3672041
0
ARC
8
DEFAULT_255_2_778
10
123.9576926
20
57.4013994
40
0.2620598
50
313.7925542
51
359.8102338
0
ARC
8
DEFAULT_255_2_778
10
123.9434355
20
57.417071
40
0.2832395
50
270.0031228
51
313.6804785
0
ARC
8
DEFAULT_255_2_778
10
117.3051598
20
57.415807
40
0.281976
50
226.2165945
51
270.0998044
0
ARC
8
DEFAULT_255_2_778
10
117.2914113
20
57.4014001
40
0.2620617
50
180.1899163
51
226.2072478
0
ARC
8
DEFAULT_255_2_778
10
123.939563
20
57.4276809
40
0.3901688
50
270.5709523
51
291.7670766
0
ARC
8
DEFAULT_255_2_778
10
123.9441235
20
57.4159725
40
0.3776041
50
291.7832464
51
313.6679959
0
ARC
8
DEFAULT_255_2_778
10
123.954178
20
57.4057869
40
0.3632939
50
313.63014
51
336.3464568
0
ARC
8
DEFAULT_255_2_778
10
123.9610232
20
57.4008021
40
0.3550286
50
336.6401159
51
359.8756242
0
ARC
8
DEFAULT_255_2_778
10
123.9610232
20
59.7241607
40
0.3550286
50
0.1243758
51
23.3598841
0
ARC
8
DEFAULT_255_2_778
10
123.954178
20
59.719176
40
0.3632939
50
23.6535432
51
46.36986
0
ARC
8
DEFAULT_255_2_778
10
123.9441218
20
59.7089877
40
0.3776072
50
46.332104
51
68.2166675
0
ARC
8
DEFAULT_255_2_778
10
123.9382341
20
59.6908872
40
0.3966021
50
68.3972175
51
87.606164
0
ARC
8
DEFAULT_255_2_778
10
123.93948
20
59.7072191
40
0.380233
50
87.6909482
51
89.4016193
0
ARC
8
DEFAULT_255_2_778
10
117.2853062
20
59.7238062
40
0.355657
50
156.2173366
51
179.8187228
0
ARC
8
DEFAULT_255_2_778
10
117.2922897
20
59.7210616
40
0.3631544
50
133.1442808
51
156.2654141
0
ARC
8
DEFAULT_255_2_778
10
117.3059324
20
59.7074396
40
0.3824235
50
111.2623197
51
133.2400027
0
ARC
8
DEFAULT_255_2_778
10
117.3145268
20
59.6849644
40
0.4064854
50
90.5463212
51
111.2424458
0
ARC
8
DEFAULT_255_2_778
10
117.3141202
20
57.4377902
40
0.4041712
50
248.7375019
51
269.5507273
0
ARC
8
DEFAULT_255_2_778
10
117.3062324
20
57.4175233
40
0.3824235
50
226.7599973
51
248.7376803
0
ARC
8
DEFAULT_255_2_778
10
117.292657
20
57.4042288
40
0.3634394
50
203.7712418
51
226.8832941
0
ARC
8
DEFAULT_255_2_778
10
117.2855072
20
57.400907
40
0.3555573
50
180.1410909
51
203.7457812
0
ARC
8
DEFAULT_255_2_778
10
1.7840749
20
88.6915542
40
0.0696239
50
180.0187056
51
183.4366268
0
ARC
8
DEFAULT_255_2_778
10
1.8100488
20
88.6954194
40
0.0958106
50
184.8129386
51
211.3787379
0
ARC
8
DEFAULT_255_2_778
10
1.8711108
20
88.7362408
40
0.169225
50
212.413644
51
232.8652479
0
ARC
8
DEFAULT_255_2_778
10
1.8059158
20
92.7359451
40
0.0915043
50
148.0764686
51
178.3176802
0
ARC
8
DEFAULT_255_2_778
10
1.8644339
20
92.6997706
40
0.1603007
50
126.5588751
51
148.1623854
0
ARC
8
DEFAULT_255_2_778
10
2.3188248
20
92.7560143
40
1.0960517
50
332.265047
51
340.3661186
0
ARC
8
DEFAULT_255_2_778
10
2.8199063
20
92.5959372
40
0.5694887
50
345.4982133
51
349.876883
0
ARC
8
DEFAULT_255_2_778
10
2.9863236
20
92.5650594
40
0.4002365
50
350.0410812
51
352.5163776
0
ARC
8
DEFAULT_255_2_778
10
3.196477
20
92.5635695
40
0.1901775
50
0.350068
51
13.3036112
0
ARC
8
DEFAULT_255_2_778
10
3.2832815
20
92.5841925
40
0.1009569
50
13.249774
51
33.1042032
0
ARC
8
DEFAULT_255_2_778
10
2.3119838
20
88.6701152
40
1.1038306
50
19.6625216
51
27.7064099
0
ARC
8
DEFAULT_255_2_778
10
2.8622356
20
88.8431275
40
0.526345
50
8.0055977
51
14.6144583
0
ARC
8
DEFAULT_255_2_778
10
3.1953952
20
88.8654094
40
0.1914578
50
346.874245
51
359.737252
0
ARC
8
DEFAULT_255_2_778
10
3.285502
20
88.8445063
40
0.0989583
50
326.5304658
51
346.8132921
0
ARC
8
DEFAULT_255_2_778
10
2.4650433
20
90.5975706
40
2.3817608
50
88.6154155
51
90.0046268
0
ARC
8
DEFAULT_255_2_778
10
2.4746502
20
90.8483839
40
2.1307916
50
82.1153352
51
88.7107018
0
ARC
8
DEFAULT_255_2_778
10
5.0393804
20
88.8560243
40
0.5163613
50
63.8749053
51
90.0424522
0
ARC
8
DEFAULT_255_2_778
10
5.0390042
20
88.8513351
40
0.5210504
50
90.000704
51
92.7171485
0
ARC
8
DEFAULT_255_2_778
10
5.0390259
20
88.8509778
40
0.5214085
50
92.717668
51
101.0431528
0
ARC
8
DEFAULT_255_2_778
10
5.039425
20
88.8217524
40
1.0325659
50
77.3443475
51
90.0070975
0
ARC
8
DEFAULT_255_2_778
10
5.0392553
20
88.8418859
40
1.0124323
50
89.9976362
51
90.2719128
0
ARC
8
DEFAULT_255_2_778
10
5.0393749
20
88.8159436
40
1.0383749
50
90.2717164
51
101.117656
0
ARC
8
DEFAULT_255_2_778
10
5.9516087
20
84.1721753
40
5.7708956
50
101.1145048
51
116.8366071
0
ARC
8
DEFAULT_255_2_778
10
5.9482534
20
84.2171943
40
5.2435522
50
101.0955844
51
119.7457874
0
ARC
8
DEFAULT_255_2_778
10
3.4890289
20
88.5174266
40
0.2897925
50
119.4267158
51
169.5413428
0
ARC
8
DEFAULT_255_2_778
10
4.1639123
20
88.8595556
40
0.9324043
50
159.6415733
51
167.9800142
0
ARC
8
DEFAULT_255_2_778
10
5.9306486
20
88.5519216
40
2.7273761
50
172.2241195
51
177.8733295
0
ARC
8
DEFAULT_255_2_778
10
4.1546605
20
92.5688729
40
0.9232459
50
192.0182623
51
200.4413038
0
ARC
8
DEFAULT_255_2_778
10
5.9551892
20
97.2680528
40
5.7814052
50
243.1740994
51
263.1321579
0
ARC
8
DEFAULT_255_2_778
10
2.4750073
20
88.7109822
40
0.7423447
50
269.248511
51
349.0153568
0
ARC
8
DEFAULT_255_2_778
10
2.4653324
20
88.7555267
40
0.7868255
50
265.3138738
51
269.9955279
0
ARC
8
DEFAULT_255_2_778
10
2.4590046
20
88.7261942
40
0.7570842
50
220.2831499
51
265.6097998
0
ARC
8
DEFAULT_255_2_778
10
2.4186815
20
88.6920252
40
0.7042309
50
180.0645777
51
220.2835882
0
ARC
8
DEFAULT_255_2_778
10
2.4467886
20
92.7266037
40
0.7324268
50
96.4165539
51
179.1059991
0
ARC
8
DEFAULT_255_2_778
10
2.4650923
20
92.673876
40
0.7869656
50
94.6677502
51
97.3118419
0
ARC
8
DEFAULT_255_2_778
10
2.4652461
20
92.6756059
40
0.7852539
50
90.0044511
51
94.689207
0
ARC
8
DEFAULT_255_2_778
10
2.4746599
20
92.7181528
40
0.7427675
50
11.0119361
51
90.7308894
0
ARC
8
DEFAULT_255_2_778
10
3.4879215
20
92.9120601
40
0.2888943
50
190.3753398
51
240.6566017
0
ARC
8
DEFAULT_255_2_778
10
5.9528984
20
97.2253794
40
5.2568684
50
240.2750723
51
262.4627485
0
ARC
8
DEFAULT_255_2_778
10
2.4646279
20
90.8203325
40
2.369601
50
269.9981403
51
270.8610886
0
ARC
8
DEFAULT_255_2_778
10
2.471573
20
90.6045838
40
2.1537754
50
270.762606
51
277.8772598
0
ARC
8
DEFAULT_255_2_778
10
110.3022473
20
107.1713734
40
1.7710037
50
0.0083486
51
7.8034373
0
ARC
8
DEFAULT_255_2_778
10
110.237685
20
107.1434217
40
1.8388607
50
8.3931794
51
70.0535942
0
ARC
8
DEFAULT_255_2_778
10
110.1806585
20
107.0402317
40
1.9554012
50
69.5143444
51
90.0666968
0
LINE
8
DEFAULT_255_2_778
10
110.1783822
20
108.9956315
11
110.177751
21
108.9956314
0
ARC
8
DEFAULT_255_2_778
10
49.3070808
20
107.0312276
40
1.9644038
50
89.9979531
51
97.2948135
0
ARC
8
DEFAULT_255_2_778
10
49.2995921
20
107.0575946
40
1.9373036
50
97.1741429
51
121.2795998
0
ARC
8
DEFAULT_255_2_778
10
49.2205745
20
107.1598269
40
1.8089621
50
120.8218707
51
179.6261079
0
ARC
8
DEFAULT_255_2_778
10
110.3049362
20
107.1700756
40
1.9680153
50
0.0452964
51
9.8142097
0
ARC
8
DEFAULT_255_2_778
10
110.2917778
20
107.1608338
40
1.9825684
50
10.0125658
51
30.5492518
0
ARC
8
DEFAULT_255_2_778
10
110.2428664
20
107.1264585
40
2.0421683
50
30.6823272
51
50.8624478
0
ARC
8
DEFAULT_255_2_778
10
110.1960382
20
107.0672496
40
2.1176502
50
50.8908652
51
70.6054017
0
ARC
8
DEFAULT_255_2_778
10
110.1771745
20
107.0069887
40
2.1807567
50
70.6636665
51
87.3083555
0
ARC
8
DEFAULT_255_2_778
10
110.1781245
20
107.0347558
40
2.1529756
50
87.2989094
51
89.9966348
0
ARC
8
DEFAULT_255_2_778
10
49.3072452
20
107.0057686
40
2.1819629
50
90.0024751
51
99.1558306
0
ARC
8
DEFAULT_255_2_778
10
49.304739
20
107.0274419
40
2.160167
50
99.181674
51
118.5889334
0
ARC
8
DEFAULT_255_2_778
10
49.2699828
20
107.0966561
40
2.0827617
50
118.6605123
51
138.5845811
0
ARC
8
DEFAULT_255_2_778
10
49.2093108
20
107.151039
40
2.0012868
50
138.6031392
51
159.0798521
0
ARC
8
DEFAULT_255_2_778
10
49.1747861
20
107.168413
40
1.9628381
50
159.1937244
51
179.9002142
0
ARC
8
DEFAULT_255_2_778
10
110.177729
20
80.6873918
40
2.1810603
50
270.0005766
51
279.157728
0
ARC
8
DEFAULT_255_2_778
10
110.1798401
20
80.6667601
40
2.1603559
50
279.1895394
51
298.5959566
0
ARC
8
DEFAULT_255_2_778
10
110.2161281
20
80.5959936
40
2.0808542
50
298.6512865
51
318.5938062
0
ARC
8
DEFAULT_255_2_778
10
110.2755866
20
80.5431266
40
2.001292
50
318.6031667
51
339.0798256
0
ARC
8
DEFAULT_255_2_778
10
110.3106586
20
80.5256503
40
1.9622954
50
339.1908152
51
359.9001761
0
ARC
8
DEFAULT_255_2_778
10
110.1764404
20
80.692975
40
2.090544
50
270.0359198
51
279.1325932
0
ARC
8
DEFAULT_255_2_778
10
110.1788134
20
80.6618797
40
2.0594678
50
279.2047196
51
298.5900867
0
ARC
8
DEFAULT_255_2_778
10
110.2154689
20
80.5915997
40
1.9802168
50
298.6319211
51
318.5912302
0
ARC
8
DEFAULT_255_2_778
10
110.2699164
20
80.5426519
40
1.9070054
50
318.6122093
51
339.083302
0
ARC
8
DEFAULT_255_2_778
10
110.2982564
20
80.5273202
40
1.8750641
50
339.2117509
51
357.2258097
0
ARC
8
DEFAULT_255_2_778
10
110.3326049
20
80.5250917
40
1.840648
50
357.2433492
51
359.9203041
0
ARC
8
DEFAULT_255_2_778
10
110.311054
20
107.1707815
40
1.8621972
50
0.026152
51
9.8589027
0
ARC
8
DEFAULT_255_2_778
10
110.2884324
20
107.1617516
40
1.8860375
50
10.0115014
51
30.568545
0
ARC
8
DEFAULT_255_2_778
10
110.242748
20
107.1306531
40
1.9411917
50
30.673113
51
50.8870562
0
ARC
8
DEFAULT_255_2_778
10
110.1954554
20
107.0718387
40
2.0166608
50
50.8986678
51
70.6199029
0
ARC
8
DEFAULT_255_2_778
10
110.1751137
20
107.0058104
40
2.0856996
50
70.6946586
51
87.4947878
0
ARC
8
DEFAULT_255_2_778
10
110.1779455
20
107.0529204
40
2.0385111
50
87.5164253
51
89.9970342
0
ARC
8
DEFAULT_255_2_778
10
49.3074455
20
107.0148087
40
2.0766228
50
90.0081272
51
99.1631534
0
ARC
8
DEFAULT_255_2_778
10
49.3059522
20
107.0322342
40
2.0591823
50
99.1993429
51
118.5900954
0
ARC
8
DEFAULT_255_2_778
10
49.2707971
20
107.1008611
40
1.9821011
50
118.6471059
51
138.5890784
0
ARC
8
DEFAULT_255_2_778
10
49.2134605
20
107.1519158
40
1.9053291
50
138.6000458
51
159.0867269
0
ARC
8
DEFAULT_255_2_778
10
49.1866455
20
107.1665426
40
1.8750641
50
159.2117509
51
177.2258097
0
ARC
8
DEFAULT_255_2_778
10
49.152297
20
107.1687712
40
1.840648
50
177.2433492
51
179.9203041
0
ARC
8
DEFAULT_255_2_778
10
35.0168959
20
50.2669161
40
1.3309948
50
180.0063367
51
195.8886493
0
ARC
8
DEFAULT_255_2_778
10
34.9987701
20
50.2668311
40
1.3128691
50
179.8183069
51
180.0027116
0
ARC
8
DEFAULT_255_2_778
10
35.0193788
20
50.2664964
40
1.3334787
50
164.1260813
51
179.806737
0
ARC
8
DEFAULT_255_2_778
10
35.220923
20
50.2672142
40
1.330978
50
344.111231
51
359.9932078
0
ARC
8
DEFAULT_255_2_778
10
35.1459302
20
50.2669562
40
1.4059708
50
0.0040839
51
0.1184303
0
ARC
8
DEFAULT_255_2_778
10
35.2192727
20
50.2668168
40
1.3326288
50
0.1309411
51
15.8789303
0
ARC
8
DEFAULT_255_2_778
10
35.1191559
20
50.1638316
40
1.4839746
50
75.2391289
51
89.8414782
0
ARC
8
DEFAULT_255_2_778
10
35.1189681
20
50.1615331
40
1.4862736
50
89.8344839
51
89.9972865
0
ARC
8
DEFAULT_255_2_778
10
35.1188162
20
50.1663865
40
1.48142
50
89.9914017
51
104.7737088
0
ARC
8
DEFAULT_255_2_778
10
35.1194066
20
50.1975524
40
0.966479
50
77.2047191
51
90.0003353
0
ARC
8
DEFAULT_255_2_778
10
35.1193953
20
50.1975524
40
0.966479
50
89.9996647
51
102.7952809
0
ARC
8
DEFAULT_255_2_778
10
35.1193953
20
50.3375104
40
0.966479
50
257.2047191
51
270.0003353
0
ARC
8
DEFAULT_255_2_778
10
35.1194066
20
50.3375104
40
0.966479
50
269.9996647
51
282.7952809
0
ARC
8
DEFAULT_255_2_778
10
35.1194509
20
50.3688001
40
1.4818184
50
270.1589456
51
284.7830387
0
ARC
8
DEFAULT_255_2_778
10
35.1192681
20
50.3732548
40
1.4862736
50
270.0027135
51
270.1655161
0
ARC
8
DEFAULT_255_2_778
10
35.1191234
20
50.3662608
40
1.4792793
50
255.2041379
51
270.0083317
0
ARC
8
DEFAULT_255_2_778
10
35.0525346
20
50.2675013
40
0.8634587
50
179.9979985
51
193.81408
0
ARC
8
DEFAULT_255_2_778
10
35.0525346
20
50.2675616
40
0.8634587
50
166.18592
51
180.0020015
0
ARC
8
DEFAULT_255_2_778
10
35.1873673
20
50.2675013
40
0.8634587
50
346.18592
51
0.0020015
0
ARC
8
DEFAULT_255_2_778
10
35.1873673
20
50.2675616
40
0.8634587
50
359.9979985
51
13.81408
0
ARC
8
DEFAULT_255_2_778
10
34.8993242
20
50.2707581
40
3.235375
50
161.562166
51
180.0589117
0
ARC
8
DEFAULT_255_2_778
10
35.0174971
20
50.2064524
40
3.3679029
50
114.2110508
51
161.1601714
0
ARC
8
DEFAULT_255_2_778
10
35.1037184
20
50.0573538
40
3.5392896
50
96.8907364
51
114.494223
0
ARC
8
DEFAULT_255_2_778
10
35.1194356
20
49.946839
40
3.6508925
50
89.9840658
51
96.9275315
0
ARC
8
DEFAULT_255_2_778
10
35.1246338
20
49.9952555
40
3.6024783
50
74.4667709
51
90.0665257
0
ARC
8
DEFAULT_255_2_778
10
35.1558828
20
50.1075123
40
3.4859532
50
52.2247872
51
74.4675206
0
ARC
8
DEFAULT_255_2_778
10
35.2836092
20
50.2488595
40
3.2960203
50
9.8005033
51
52.474641
0
ARC
8
DEFAULT_255_2_778
10
35.3165436
20
50.2687697
40
3.2602075
50
359.9764814
51
9.554224
0
ARC
8
DEFAULT_255_2_778
10
35.341012
20
50.2641153
40
3.2357407
50
341.6543497
51
0.058719
0
ARC
8
DEFAULT_255_2_778
10
35.2233718
20
50.3281223
40
3.3676314
50
294.1705888
51
341.2506684
0
ARC
8
DEFAULT_255_2_778
10
35.1367055
20
50.47857
40
3.5404185
50
276.4920231
51
294.4532601
0
ARC
8
DEFAULT_255_2_778
10
35.1213645
20
50.5901246
40
3.6529932
50
269.9856725
51
276.5332707
0
ARC
8
DEFAULT_255_2_778
10
35.1162977
20
50.5393578
40
3.6022288
50
254.4666838
51
270.0660602
0
ARC
8
DEFAULT_255_2_778
10
35.085286
20
50.4279606
40
3.4865954
50
232.2283846
51
254.4674559
0
ARC
8
DEFAULT_255_2_778
10
34.957156
20
50.2862274
40
3.2961115
50
189.8046108
51
232.4798744
0
ARC
8
DEFAULT_255_2_778
10
34.9234733
20
50.2660937
40
3.2595226
50
179.9764855
51
189.5566933
0
ARC
8
DEFAULT_255_2_778
10
34.8691603
20
50.2708897
40
3.7402109
50
163.3036334
51
180.0529771
0
ARC
8
DEFAULT_255_2_778
10
34.9925966
20
50.2052971
40
3.8773845
50
115.5275747
51
162.8992738
0
ARC
8
DEFAULT_255_2_778
10
35.0974635
20
50.0358181
40
4.0755676
50
98.9039141
51
115.8311426
0
ARC
8
DEFAULT_255_2_778
10
35.1183952
20
49.9118682
40
4.2012638
50
89.9746914
51
98.9242998
0
ARC
8
DEFAULT_255_2_778
10
35.1244545
20
49.9472453
40
4.1658882
50
75.6656551
51
90.0578135
0
ARC
8
DEFAULT_255_2_778
10
35.155709
20
50.070746
40
4.0384945
50
56.1747297
51
75.6614724
0
ARC
8
DEFAULT_255_2_778
10
35.2919716
20
50.2373641
40
3.8242808
50
10.6253228
51
56.4810952
0
ARC
8
DEFAULT_255_2_778
10
35.3508003
20
50.2691735
40
3.7606509
50
359.9734586
51
10.3142585
0
ARC
8
DEFAULT_255_2_778
10
35.3716047
20
50.2639901
40
3.7398478
50
343.3028399
51
0.0527218
0
ARC
8
DEFAULT_255_2_778
10
35.2475484
20
50.3297827
40
3.8776732
50
295.530322
51
342.898341
0
ARC
8
DEFAULT_255_2_778
10
35.1429611
20
50.4987102
40
4.0752393
50
278.9053501
51
295.8335761
0
ARC
8
DEFAULT_255_2_778
10
35.1221042
20
50.6222387
40
4.2005078
50
269.974722
51
278.9255782
0
ARC
8
DEFAULT_255_2_778
10
35.1160416
20
50.5881042
40
4.1663749
50
255.6668633
51
270.0578865
0
ARC
8
DEFAULT_255_2_778
10
35.084691
20
50.4642436
40
4.0386086
50
236.1762431
51
255.6627756
0
ARC
8
DEFAULT_255_2_778
10
34.9482953
20
50.2974008
40
3.8241345
50
190.6246335
51
236.4824887
0
ARC
8
DEFAULT_255_2_778
10
34.8898508
20
50.2656883
40
3.7609003
50
179.9734441
51
190.3139503
0
ARC
8
DEFAULT_255_2_778
10
34.8976255
20
50.2707474
40
3.2688762
50
161.8374958
51
180.0581215
0
ARC
8
DEFAULT_255_2_778
10
35.015563
20
50.2067278
40
3.4009784
50
114.2260748
51
161.4320358
0
ARC
8
DEFAULT_255_2_778
10
35.1033159
20
50.0553614
40
3.5750679
50
96.8959532
51
114.5131636
0
ARC
8
DEFAULT_255_2_778
10
35.1192257
20
49.9435675
40
3.6879641
50
89.9840722
51
96.9328054
0
ARC
8
DEFAULT_255_2_778
10
35.1243075
20
49.9911704
40
3.6403633
50
74.8092372
51
90.0638461
0
ARC
8
DEFAULT_255_2_778
10
35.1549371
20
50.1036872
40
3.5237521
50
52.8832119
51
74.8104764
0
ARC
8
DEFAULT_255_2_778
10
35.2829956
20
50.247681
40
3.3316893
50
9.7776037
51
53.1450029
0
ARC
8
DEFAULT_255_2_778
10
35.3184838
20
50.2687735
40
3.2931676
50
359.9766499
51
9.5208133
0
ARC
8
DEFAULT_255_2_778
10
35.3424895
20
50.2641125
40
3.2691632
50
341.8383324
51
0.0581689
0
ARC
8
DEFAULT_255_2_778
10
35.2247932
20
50.3280263
40
3.4010029
50
294.2274311
51
341.433268
0
ARC
8
DEFAULT_255_2_778
10
35.1371683
20
50.4791603
40
3.574828
50
276.8963561
51
294.5141319
0
ARC
8
DEFAULT_255_2_778
10
35.1212771
20
50.5907956
40
3.6875645
50
269.9840563
51
276.9332069
0
ARC
8
DEFAULT_255_2_778
10
35.1161892
20
50.5438661
40
3.6406369
50
254.8097869
51
270.0639239
0
ARC
8
DEFAULT_255_2_778
10
35.0856164
20
50.4314156
40
3.5241044
50
233.0238433
51
254.8104343
0
ARC
8
DEFAULT_255_2_778
10
34.9578387
20
50.2872704
40
3.3321283
50
189.7516819
51
233.2882861
0
ARC
8
DEFAULT_255_2_778
10
34.9223135
20
50.2660921
40
3.2935628
50
179.9767003
51
189.4932565
0
ARC
8
DEFAULT_255_2_778
10
34.9266229
20
50.2705819
40
2.8064737
50
160.0097873
51
180.0643185
0
ARC
8
DEFAULT_255_2_778
10
35.0357231
20
50.2095609
40
2.9299299
50
113.2500104
51
159.6177468
0
ARC
8
DEFAULT_255_2_778
10
35.108271
20
50.0760591
40
3.0812596
50
94.7480303
51
113.5095466
0
ARC
8
DEFAULT_255_2_778
10
35.1198023
20
49.9760197
40
3.1819118
50
89.9919211
51
94.8058521
0
ARC
8
DEFAULT_255_2_778
10
35.1243948
20
50.0367814
40
3.1211528
50
73.0960132
51
90.0760689
0
ARC
8
DEFAULT_255_2_778
10
35.1557723
20
50.1382813
40
3.0149148
50
47.7165271
51
73.1056816
0
ARC
8
DEFAULT_255_2_778
10
35.2756994
20
50.2572314
40
2.8462389
50
9.0646156
51
47.8915732
0
ARC
8
DEFAULT_255_2_778
10
35.2891317
20
50.2684599
40
2.8312195
50
359.9791858
51
8.8830461
0
ARC
8
DEFAULT_255_2_778
10
35.3141051
20
50.2643084
40
2.8062476
50
340.0089754
51
0.0637638
0
ARC
8
DEFAULT_255_2_778
10
35.2044084
20
50.3255307
40
2.9303334
50
293.2545059
51
339.6173118
0
ARC
8
DEFAULT_255_2_778
10
35.1321924
20
50.4583273
40
3.080885
50
274.7493286
51
293.5133593
0
ARC
8
DEFAULT_255_2_778
10
35.1206998
20
50.5580602
40
3.1812288
50
269.9919172
51
274.8068842
0
ARC
8
DEFAULT_255_2_778
10
35.1161072
20
50.4979638
40
3.1211351
50
253.0959146
51
270.076069
0
ARC
8
DEFAULT_255_2_778
10
35.0847213
20
50.3964313
40
3.0148636
50
227.7158589
51
253.1055527
0
ARC
8
DEFAULT_255_2_778
10
34.9648978
20
50.2775774
40
2.8463285
50
189.0637436
51
227.8906197
0
ARC
8
DEFAULT_255_2_778
10
34.9516818
20
50.2664018
40
2.8315311
50
179.9791656
51
188.8825584
0
ARC
8
DEFAULT_255_2_778
10
34.9350416
20
50.2705059
40
2.6688924
50
159.2792007
51
180.0660018
0
ARC
8
DEFAULT_255_2_778
10
35.0420363
20
50.2100058
40
2.7904349
50
112.8950554
51
158.8946085
0
ARC
8
DEFAULT_255_2_778
10
35.1094685
20
50.0832412
40
2.9334749
50
94.3067626
51
113.1451153
0
ARC
8
DEFAULT_255_2_778
10
35.1198995
20
49.9877782
40
3.0294533
50
89.9933528
51
94.3679014
0
ARC
8
DEFAULT_255_2_778
10
35.1243205
20
50.0492654
40
2.9679688
50
72.7546115
51
90.0785606
0
ARC
8
DEFAULT_255_2_778
10
35.1557704
20
50.147969
40
2.8643789
50
46.1308452
51
72.7700932
0
ARC
8
DEFAULT_255_2_778
10
35.2727313
20
50.2597642
40
2.7027361
50
8.7304233
51
46.2759379
0
ARC
8
DEFAULT_255_2_778
10
35.2794032
20
50.2683537
40
2.6948481
50
359.9803913
51
8.5714474
0
ARC
8
DEFAULT_255_2_778
10
35.3051833
20
50.2643462
40
2.6690694
50
339.2799663
51
0.0662295
0
ARC
8
DEFAULT_255_2_778
10
35.1984655
20
50.324735
40
2.7903131
50
292.8947787
51
338.8954497
0
ARC
8
DEFAULT_255_2_778
10
35.1310302
20
50.4515177
40
2.933371
50
274.3067035
51
293.1447788
0
ARC
8
DEFAULT_255_2_778
10
35.1206022
20
50.5469945
40
3.029363
50
269.9933573
51
274.3677701
0
ARC
8
DEFAULT_255_2_778
10
35.1161725
20
50.4860496
40
2.9684209
50
252.756533
51
270.0787211
0
ARC
8
DEFAULT_255_2_778
10
35.0848203
20
50.3874061
40
2.8649174
50
226.4061355
51
252.7705721
0
ARC
8
DEFAULT_255_2_778
10
34.9683463
20
50.2753413
40
2.7034505
50
188.7869175
51
226.5562368
0
ARC
8
DEFAULT_255_2_778
10
34.9610368
20
50.2664945
40
2.694886
50
179.9800792
51
188.6247725
0
ARC
8
DEFAULT_255_2_778
10
44.0074625
20
12.3287851
40
1.1596538
50
270.0290762
51
275.3518895
0
ARC
8
DEFAULT_255_2_778
10
44.0015688
20
12.398528
40
1.2296426
50
275.3222027
51
302.1578761
0
ARC
8
DEFAULT_255_2_778
10
8.1018215
20
93.1394894
40
1.1481692
50
154.4478835
51
179.9952928
0
ARC
8
DEFAULT_255_2_778
10
8.1000018
20
93.1395773
40
1.1463493
50
179.9996778
51
182.9362655
0
ARC
8
DEFAULT_255_2_778
10
8.0998177
20
93.1395651
40
1.1461647
50
182.9361265
51
187.8343739
0
ARC
8
DEFAULT_255_2_778
10
8.1242582
20
93.1430716
40
0.4725299
50
186.0842245
51
188.1073686
0
ARC
8
DEFAULT_255_2_778
10
8.1232478
20
93.1429757
40
0.471515
50
180.0009921
51
186.0856422
0
ARC
8
DEFAULT_255_2_778
10
8.1224752
20
93.1430151
40
0.4707423
50
137.9626232
51
180.0057978
0
ARC
8
DEFAULT_255_2_778
10
8.1441562
20
93.1226536
40
0.5004798
50
89.9906731
51
137.8933904
0
ARC
8
DEFAULT_255_2_778
10
8.1445908
20
93.2662744
40
0.3568592
50
89.8297783
51
90.0566919
0
ARC
8
DEFAULT_255_2_778
10
44.104615
20
12.3271389
40
0.4862107
50
269.7921256
51
269.9999772
0
ARC
8
DEFAULT_255_2_778
10
44.1046373
20
12.3409533
40
0.500025
50
269.9974243
51
317.9012546
0
ARC
8
DEFAULT_255_2_778
10
44.1258731
20
12.3210068
40
0.4708961
50
317.9698015
51
0.0027327
0
ARC
8
DEFAULT_255_2_778
10
44.1257143
20
12.3210231
40
0.4710548
50
0.000754
51
5.8368761
0
ARC
8
DEFAULT_255_2_778
10
44.1249086
20
12.3209399
40
0.4718648
50
5.8369768
51
8.1129039
0
LINE
8
DEFAULT_255_2_778
10
124.219951
20
35.5518314
11
124.316551
21
35.5518314
0
LINE
8
DEFAULT_255_2_778
10
124.316551
20
37.8767314
11
124.219951
21
37.8767314
0
LINE
8
DEFAULT_255_2_778
10
117.029351
20
35.5518314
11
117.029351
21
37.8767314
0
LINE
8
DEFAULT_255_2_778
10
117.029351
20
37.8767314
11
116.929951
21
37.8767314
0
LINE
8
DEFAULT_255_2_778
10
116.929951
20
37.8767314
11
116.929951
21
35.5518314
0
LINE
8
DEFAULT_255_2_778
10
116.929951
20
35.5518314
11
117.029351
21
35.5518314
0
LINE
8
DEFAULT_255_2_778
10
117.305651
20
38.1428314
11
123.942951
21
38.1428314
0
LINE
8
DEFAULT_255_2_778
10
124.219751
20
37.8767314
11
124.219751
21
35.5523314
0
LINE
8
DEFAULT_255_2_778
10
123.943451
20
35.2856314
11
117.305651
21
35.2856314
0
LINE
8
DEFAULT_255_2_778
10
124.316051
20
35.5518314
11
124.316051
21
37.8767314
0
LINE
8
DEFAULT_255_2_778
10
123.943751
20
35.2856314
11
123.943751
21
35.1893314
0
LINE
8
DEFAULT_255_2_778
10
123.943751
20
35.1893314
11
117.305851
21
35.1864314
0
LINE
8
DEFAULT_255_2_778
10
117.305851
20
35.1864314
11
117.305851
21
35.2856314
0
LINE
8
DEFAULT_255_2_778
10
117.305851
20
38.1428314
11
117.305851
21
38.2421314
0
LINE
8
DEFAULT_255_2_778
10
117.305851
20
38.2421314
11
123.443951
21
38.2436314
0
LINE
8
DEFAULT_255_2_778
10
123.443951
20
38.2436314
11
123.944051
21
38.2391314
0
LINE
8
DEFAULT_255_2_778
10
123.944051
20
38.2391314
11
123.944051
21
38.1428314
0
LINE
8
DEFAULT_255_2_778
10
120.971651
20
36.3476314
11
120.971651
21
36.8800314
0
LINE
8
DEFAULT_255_2_778
10
122.277451
20
36.3341314
11
122.920351
21
36.3341314
0
LINE
8
DEFAULT_255_2_778
10
121.910451
20
35.5251314
11
121.722551
21
35.5348314
0
LINE
8
DEFAULT_255_2_778
10
120.971951
20
36.0455314
11
120.971951
21
35.5642314
0
LINE
8
DEFAULT_255_2_778
10
120.971951
20
35.5642314
11
119.951451
21
35.5642314
0
LINE
8
DEFAULT_255_2_778
10
119.951451
20
35.5642314
11
119.604551
21
36.8900314
0
LINE
8
DEFAULT_255_2_778
10
119.604551
20
36.8900314
11
119.257751
21
35.5642314
0
LINE
8
DEFAULT_255_2_778
10
119.257751
20
35.5642314
11
118.237451
21
35.5642314
0
LINE
8
DEFAULT_255_2_778
10
118.237451
20
35.5642314
11
118.237451
21
37.8648314
0
LINE
8
DEFAULT_255_2_778
10
118.237451
20
37.8648314
11
118.931251
21
37.8648314
0
LINE
8
DEFAULT_255_2_778
10
118.931251
20
37.8648314
11
118.931251
21
36.4416314
0
LINE
8
DEFAULT_255_2_778
10
118.931251
20
36.4416314
11
119.298451
21
37.8648314
0
LINE
8
DEFAULT_255_2_778
10
119.298451
20
37.8648314
11
119.910651
21
37.8648314
0
LINE
8
DEFAULT_255_2_778
10
119.910651
20
37.8648314
11
120.277951
21
36.4416314
0
LINE
8
DEFAULT_255_2_778
10
120.277951
20
36.4416314
11
120.277951
21
37.8648314
0
LINE
8
DEFAULT_255_2_778
10
120.277951
20
37.8648314
11
120.971651
21
37.8648314
0
LINE
8
DEFAULT_255_2_778
10
120.971651
20
37.8648314
11
120.971651
21
37.4602314
0
LINE
8
DEFAULT_255_2_778
10
121.026951
20
37.5475314
11
121.094751
21
37.6266314
0
LINE
8
DEFAULT_255_2_778
10
121.743751
20
37.8941314
11
121.951151
21
37.9037314
0
LINE
8
DEFAULT_255_2_778
10
123.008151
20
37.0890314
11
123.012151
21
36.9678314
0
LINE
8
DEFAULT_255_2_778
10
123.012151
20
36.9678314
11
122.318451
21
36.9678314
0
LINE
8
DEFAULT_255_2_778
10
121.674451
20
37.1205314
11
121.675251
21
37.1006314
0
LINE
8
DEFAULT_255_2_778
10
121.894851
20
36.8969314
11
121.991651
21
36.8900314
0
LINE
8
DEFAULT_255_2_778
10
121.991651
20
36.8900314
11
122.154951
21
36.8900314
0
LINE
8
DEFAULT_255_2_778
10
122.154951
20
36.8900314
11
122.154951
21
36.4416314
0
LINE
8
DEFAULT_255_2_778
10
122.154951
20
36.4416314
11
121.909851
21
36.4416314
0
LINE
8
DEFAULT_255_2_778
10
121.909851
20
36.4416314
11
121.831351
21
36.4363314
0
LINE
8
DEFAULT_255_2_778
10
121.840851
20
36.0569314
11
121.926851
21
36.0510314
0
LINE
8
DEFAULT_255_2_778
10
121.926851
20
36.0510314
11
121.930251
21
36.0510314
0
LINE
8
DEFAULT_255_2_778
10
117.305651
20
65.2809314
11
123.942951
21
65.2809314
0
LINE
8
DEFAULT_255_2_778
10
124.219751
20
65.0147314
11
124.219751
21
64.5258314
0
LINE
8
DEFAULT_255_2_778
10
117.029351
20
64.5252314
11
117.029351
21
65.0147314
0
LINE
8
DEFAULT_255_2_778
10
117.029351
20
65.0147314
11
116.929951
21
65.0147314
0
LINE
8
DEFAULT_255_2_778
10
116.929951
20
65.0147314
11
116.929951
21
64.5252314
0
LINE
8
DEFAULT_255_2_778
10
116.929951
20
64.5252314
11
117.029351
21
64.5252314
0
LINE
8
DEFAULT_255_2_778
10
124.219951
20
64.5252314
11
124.316551
21
64.5252314
0
LINE
8
DEFAULT_255_2_778
10
124.316551
20
64.5252314
11
124.316551
21
65.0147314
0
LINE
8
DEFAULT_255_2_778
10
124.316551
20
65.0147314
11
124.219951
21
65.0147314
0
LINE
8
DEFAULT_255_2_778
10
117.305651
20
64.2591314
11
117.305651
21
64.1598314
0
LINE
8
DEFAULT_255_2_778
10
117.305651
20
64.1598314
11
123.943451
21
64.1628314
0
LINE
8
DEFAULT_255_2_778
10
123.943451
20
64.1628314
11
123.943451
21
64.2591314
0
LINE
8
DEFAULT_255_2_778
10
123.943451
20
64.2591314
11
117.305651
21
64.2591314
0
LINE
8
DEFAULT_255_2_778
10
117.305651
20
65.2809314
11
117.305651
21
65.3801314
0
LINE
8
DEFAULT_255_2_778
10
117.305651
20
65.3801314
11
123.443651
21
65.3817314
0
LINE
8
DEFAULT_255_2_778
10
123.443651
20
65.3817314
11
123.943751
21
65.3772314
0
LINE
8
DEFAULT_255_2_778
10
123.943751
20
65.3772314
11
123.943751
21
65.2809314
0
LINE
8
DEFAULT_255_2_778
10
124.219951
20
57.4000314
11
124.316551
21
57.4000314
0
LINE
8
DEFAULT_255_2_778
10
124.316551
20
59.7249314
11
124.219951
21
59.7249314
0
LINE
8
DEFAULT_255_2_778
10
117.029351
20
57.4000314
11
117.029351
21
59.7249314
0
LINE
8
DEFAULT_255_2_778
10
117.029351
20
59.7249314
11
116.929951
21
59.7249314
0
LINE
8
DEFAULT_255_2_778
10
116.929951
20
59.7249314
11
116.929951
21
57.4000314
0
LINE
8
DEFAULT_255_2_778
10
116.929951
20
57.4000314
11
117.029351
21
57.4000314
0
LINE
8
DEFAULT_255_2_778
10
117.305651
20
59.9911314
11
123.942951
21
59.9911314
0
LINE
8
DEFAULT_255_2_778
10
124.219751
20
59.7249314
11
124.219751
21
57.4005314
0
LINE
8
DEFAULT_255_2_778
10
123.943451
20
57.1338314
11
117.305651
21
57.1338314
0
LINE
8
DEFAULT_255_2_778
10
124.316051
20
57.4000314
11
124.316051
21
59.7249314
0
LINE
8
DEFAULT_255_2_778
10
123.943751
20
57.1338314
11
123.943751
21
57.0375314
0
LINE
8
DEFAULT_255_2_778
10
123.943751
20
57.0375314
11
117.305851
21
57.0346314
0
LINE
8
DEFAULT_255_2_778
10
117.305851
20
57.0346314
11
117.305851
21
57.1338314
0
LINE
8
DEFAULT_255_2_778
10
117.305851
20
59.9911314
11
117.305851
21
60.0903314
0
LINE
8
DEFAULT_255_2_778
10
117.305851
20
60.0903314
11
123.443951
21
60.0919314
0
LINE
8
DEFAULT_255_2_778
10
123.443951
20
60.0919314
11
123.944051
21
60.0874314
0
LINE
8
DEFAULT_255_2_778
10
123.944051
20
60.0874314
11
123.944051
21
59.9911314
0
LINE
8
DEFAULT_255_2_778
10
1.768951
20
88.6013314
11
1.835851
21
88.5600314
0
LINE
8
DEFAULT_255_2_778
10
1.835851
20
88.5600314
11
1.927151
21
88.5232314
0
LINE
8
DEFAULT_255_2_778
10
1.927151
20
88.5232314
11
2.040151
21
88.4923314
0
LINE
8
DEFAULT_255_2_778
10
2.040151
20
88.4923314
11
2.170851
21
88.4692314
0
LINE
8
DEFAULT_255_2_778
10
2.170851
20
88.4692314
11
2.314551
21
88.4552314
0
LINE
8
DEFAULT_255_2_778
10
2.314551
20
88.4552314
11
2.464551
21
88.4502314
0
LINE
8
DEFAULT_255_2_778
10
1.768951
20
92.8285314
11
1.835851
21
92.8698314
0
LINE
8
DEFAULT_255_2_778
10
1.835851
20
92.8698314
11
1.927151
21
92.9066314
0
LINE
8
DEFAULT_255_2_778
10
1.927151
20
92.9066314
11
2.040151
21
92.9370314
0
LINE
8
DEFAULT_255_2_778
10
2.040151
20
92.9370314
11
2.170851
21
92.9600314
0
LINE
8
DEFAULT_255_2_778
10
2.170851
20
92.9600314
11
2.314251
21
92.9743314
0
LINE
8
DEFAULT_255_2_778
10
2.314251
20
92.9743314
11
2.464251
21
92.9791314
0
LINE
8
DEFAULT_255_2_778
10
3.351151
20
92.3877314
11
3.371251
21
92.4533314
0
LINE
8
DEFAULT_255_2_778
10
3.383151
20
92.5129314
11
3.386651
21
92.5647314
0
LINE
8
DEFAULT_255_2_778
10
3.367851
20
92.6393314
11
3.346151
21
92.6600314
0
LINE
8
DEFAULT_255_2_778
10
3.345851
20
89.3209314
11
3.289251
21
89.1833314
0
LINE
8
DEFAULT_255_2_778
10
3.351451
20
89.0415314
11
3.371551
21
88.9759314
0
LINE
8
DEFAULT_255_2_778
10
3.383451
20
88.9164314
11
3.386851
21
88.8645314
0
LINE
8
DEFAULT_255_2_778
10
3.368051
20
88.7899314
11
3.346351
21
88.7693314
0
LINE
8
DEFAULT_255_2_778
10
3.015151
20
93.2294314
11
3.014851
21
93.2283314
0
LINE
8
DEFAULT_255_2_778
10
3.014851
20
93.2283314
11
3.014851
21
93.2241314
0
LINE
8
DEFAULT_255_2_778
10
3.014851
20
93.2241314
11
3.014851
21
93.2169314
0
LINE
8
DEFAULT_255_2_778
10
3.014851
20
93.2169314
11
3.014851
21
93.2066314
0
LINE
8
DEFAULT_255_2_778
10
3.014851
20
93.2066314
11
3.014851
21
93.1934314
0
LINE
8
DEFAULT_255_2_778
10
3.014851
20
93.1934314
11
3.015151
21
93.1770314
0
LINE
8
DEFAULT_255_2_778
10
3.015151
20
93.1770314
11
3.015151
21
93.1362314
0
LINE
8
DEFAULT_255_2_778
10
3.015151
20
93.1362314
11
3.015151
21
93.0859314
0
LINE
8
DEFAULT_255_2_778
10
3.015151
20
93.0859314
11
3.014851
21
93.0285314
0
LINE
8
DEFAULT_255_2_778
10
3.014851
20
93.0285314
11
3.014651
21
92.9664314
0
LINE
8
DEFAULT_255_2_778
10
3.014651
20
92.9664314
11
3.015151
21
92.9021314
0
LINE
8
DEFAULT_255_2_778
10
2.464851
20
93.4611314
11
2.464851
21
92.9793314
0
LINE
8
DEFAULT_255_2_778
10
2.766951
20
92.9590314
11
2.900551
21
92.9346314
0
LINE
8
DEFAULT_255_2_778
10
2.900551
20
92.9346314
11
3.014851
21
92.9023314
0
LINE
8
DEFAULT_255_2_778
10
3.014851
20
92.9023314
11
3.103551
21
92.8648314
0
LINE
8
DEFAULT_255_2_778
10
3.103551
20
92.8648314
11
3.167251
21
92.8230314
0
LINE
8
DEFAULT_255_2_778
10
3.167251
20
92.8230314
11
3.179451
21
92.8118314
0
LINE
8
DEFAULT_255_2_778
10
3.179451
20
92.8118314
11
3.205151
21
92.7772314
0
LINE
8
DEFAULT_255_2_778
10
3.205151
20
92.7772314
11
3.207451
21
92.7981314
0
LINE
8
DEFAULT_255_2_778
10
3.207451
20
92.7981314
11
3.204051
21
92.8603314
0
LINE
8
DEFAULT_255_2_778
10
4.839151
20
89.8348314
11
4.939151
21
89.3627314
0
LINE
8
DEFAULT_255_2_778
10
3.204051
20
88.5700314
11
3.208051
21
88.6325314
0
LINE
8
DEFAULT_255_2_778
10
3.208051
20
88.6325314
11
3.205651
21
88.6534314
0
LINE
8
DEFAULT_255_2_778
10
3.205651
20
88.6534314
11
3.198751
21
88.6417314
0
LINE
8
DEFAULT_255_2_778
10
3.198751
20
88.6417314
11
3.167851
21
88.6076314
0
LINE
8
DEFAULT_255_2_778
10
3.167851
20
88.6076314
11
3.104051
21
88.5658314
0
LINE
8
DEFAULT_255_2_778
10
3.104051
20
88.5658314
11
3.015451
21
88.5282314
0
LINE
8
DEFAULT_255_2_778
10
3.015451
20
88.5282314
11
3.015151
21
88.4637314
0
LINE
8
DEFAULT_255_2_778
10
3.015151
20
88.4637314
11
3.015451
21
88.4015314
0
LINE
8
DEFAULT_255_2_778
10
3.015451
20
88.4015314
11
3.015651
21
88.3441314
0
LINE
8
DEFAULT_255_2_778
10
3.015651
20
88.3441314
11
3.015951
21
88.2938314
0
LINE
8
DEFAULT_255_2_778
10
3.015951
20
88.2938314
11
3.015651
21
88.2531314
0
LINE
8
DEFAULT_255_2_778
10
3.015651
20
88.2531314
11
3.015451
21
88.2367314
0
LINE
8
DEFAULT_255_2_778
10
3.015451
20
88.2367314
11
3.015451
21
88.2234314
0
LINE
8
DEFAULT_255_2_778
10
3.015451
20
88.2234314
11
3.015451
21
88.2131314
0
LINE
8
DEFAULT_255_2_778
10
3.015451
20
88.2131314
11
3.015451
21
88.2057314
0
LINE
8
DEFAULT_255_2_778
10
3.015451
20
88.2057314
11
3.015451
21
88.2015314
0
LINE
8
DEFAULT_255_2_778
10
3.015451
20
88.2015314
11
3.015651
21
88.2004314
0
LINE
8
DEFAULT_255_2_778
10
3.251951
20
89.0537314
11
3.228351
21
88.9209314
0
LINE
8
DEFAULT_255_2_778
10
3.205151
20
88.6531314
11
3.205151
21
92.7772314
0
LINE
8
DEFAULT_255_2_778
10
3.205151
20
92.7772314
11
3.228151
21
92.5094314
0
LINE
8
DEFAULT_255_2_778
10
3.228151
20
92.5094314
11
3.251651
21
92.3766314
0
LINE
8
DEFAULT_255_2_778
10
3.289551
20
92.2464314
11
3.346151
21
92.1088314
0
LINE
8
DEFAULT_255_2_778
10
3.578751
20
92.5351314
11
3.345851
21
92.1086314
0
LINE
8
DEFAULT_255_2_778
10
3.345851
20
92.1086314
11
3.345851
21
89.3212314
0
LINE
8
DEFAULT_255_2_778
10
3.345851
20
89.3212314
11
3.578751
21
88.8947314
0
LINE
8
DEFAULT_255_2_778
10
1.714451
20
88.6912314
11
1.714451
21
92.7380314
0
LINE
8
DEFAULT_255_2_778
10
2.464551
20
87.9689314
11
2.464551
21
88.4507314
0
LINE
8
DEFAULT_255_2_778
10
2.766751
20
88.4711314
11
2.900351
21
88.4954314
0
LINE
8
DEFAULT_255_2_778
10
2.900351
20
88.4954314
11
3.014651
21
88.5277314
0
LINE
8
DEFAULT_255_2_778
10
110.178251
20
109.1877314
11
110.178251
21
108.9956314
0
LINE
8
DEFAULT_255_2_778
10
110.178251
20
108.9956314
11
49.307151
21
108.9956314
0
LINE
8
DEFAULT_255_2_778
10
49.307151
20
108.9956314
11
49.307151
21
109.1877314
0
LINE
8
DEFAULT_255_2_778
10
49.307151
20
109.1877314
11
110.177751
21
109.1877314
0
LINE
8
DEFAULT_255_2_778
10
112.272951
20
80.5222314
11
112.272951
21
107.1716314
0
LINE
8
DEFAULT_255_2_778
10
112.272951
20
107.1716314
11
112.073451
21
107.1716314
0
LINE
8
DEFAULT_255_2_778
10
112.073451
20
107.1716314
11
112.073451
21
80.5225314
0
LINE
8
DEFAULT_255_2_778
10
112.073451
20
80.5225314
11
112.272951
21
80.5225314
0
LINE
8
DEFAULT_255_2_778
10
52.304151
20
78.6024314
11
110.177751
21
78.6024314
0
LINE
8
DEFAULT_255_2_778
10
112.173251
20
80.5225314
11
112.173251
21
107.1716314
0
LINE
8
DEFAULT_255_2_778
10
110.178051
20
109.0914314
11
49.307151
21
109.0914314
0
LINE
8
DEFAULT_255_2_778
10
47.311651
20
107.1713314
11
47.311651
21
83.4059314
0
LINE
8
DEFAULT_255_2_778
10
47.411451
20
83.3104314
11
47.411451
21
107.1713314
0
LINE
8
DEFAULT_255_2_778
10
47.411451
20
107.1713314
11
47.211951
21
107.1713314
0
LINE
8
DEFAULT_255_2_778
10
47.211951
20
107.1713314
11
47.211951
21
83.5025314
0
LINE
8
DEFAULT_255_2_778
10
47.211951
20
83.5025314
11
52.404151
21
78.5061314
0
LINE
8
DEFAULT_255_2_778
10
52.404151
20
78.5061314
11
110.177751
21
78.5061314
0
LINE
8
DEFAULT_255_2_778
10
110.177751
20
78.5061314
11
110.177751
21
78.6982314
0
LINE
8
DEFAULT_255_2_778
10
110.177751
20
78.6982314
11
52.204351
21
78.6982314
0
LINE
8
DEFAULT_255_2_778
10
34.405851
20
50.0605314
11
34.370351
21
49.8885314
0
LINE
8
DEFAULT_255_2_778
10
34.370351
20
49.8885314
11
33.736751
21
49.9025314
0
LINE
8
DEFAULT_255_2_778
10
33.736751
20
50.6312314
11
34.370351
21
50.6452314
0
LINE
8
DEFAULT_255_2_778
10
35.867351
20
49.8888314
11
36.501051
21
49.9028314
0
LINE
8
DEFAULT_255_2_778
10
36.501051
20
50.6314314
11
35.867351
21
50.6455314
0
LINE
8
DEFAULT_255_2_778
10
35.511551
20
50.9884314
11
35.497251
21
51.5988314
0
LINE
8
DEFAULT_255_2_778
10
34.741051
20
51.5988314
11
34.726751
21
50.9884314
0
LINE
8
DEFAULT_255_2_778
10
34.620651
20
49.7869314
11
34.726751
21
49.5461314
0
LINE
8
DEFAULT_255_2_778
10
35.497551
20
51.5990314
11
35.333451
21
51.1400314
0
LINE
8
DEFAULT_255_2_778
10
34.905351
20
51.1400314
11
34.741351
21
51.5990314
0
LINE
8
DEFAULT_255_2_778
10
33.737251
20
50.6317314
11
34.213751
21
50.4737314
0
LINE
8
DEFAULT_255_2_778
10
34.213751
20
50.0613314
11
33.737251
21
49.9033314
0
LINE
8
DEFAULT_255_2_778
10
34.741351
20
48.9360314
11
34.905351
21
49.3950314
0
LINE
8
DEFAULT_255_2_778
10
35.333451
20
49.3950314
11
35.497551
21
48.9360314
0
LINE
8
DEFAULT_255_2_778
10
36.501651
20
49.9033314
11
36.025051
21
50.0613314
0
LINE
8
DEFAULT_255_2_778
10
36.025051
20
50.4737314
11
36.501651
21
50.6317314
0
LINE
8
DEFAULT_255_2_778
10
34.759351
20
49.9202314
11
34.620951
21
49.7869314
0
LINE
8
DEFAULT_255_2_778
10
34.620951
20
49.7869314
11
34.370951
21
49.8890314
0
LINE
8
DEFAULT_255_2_778
10
35.479751
20
49.9202314
11
35.333751
21
49.5803314
0
LINE
8
DEFAULT_255_2_778
10
34.759351
20
50.6145314
11
34.905351
21
50.9545314
0
LINE
8
DEFAULT_255_2_778
10
35.832451
20
50.4737314
11
35.867951
21
50.6457314
0
LINE
8
DEFAULT_255_2_778
10
35.867951
20
50.6457314
11
35.617851
21
50.7479314
0
LINE
8
DEFAULT_255_2_778
10
35.333451
20
50.9545314
11
35.333451
21
51.1400314
0
LINE
8
DEFAULT_255_2_778
10
34.905351
20
51.1400314
11
34.905351
21
50.9545314
0
LINE
8
DEFAULT_255_2_778
10
34.905351
20
50.9545314
11
34.727051
21
50.9886314
0
LINE
8
DEFAULT_255_2_778
10
34.727051
20
50.9886314
11
34.620951
21
50.7479314
0
LINE
8
DEFAULT_255_2_778
10
34.905351
20
49.5805314
11
34.905351
21
49.3950314
0
LINE
8
DEFAULT_255_2_778
10
35.333451
20
49.3950314
11
35.333451
21
49.5805314
0
LINE
8
DEFAULT_255_2_778
10
35.333451
20
49.5805314
11
35.511751
21
49.5464314
0
LINE
8
DEFAULT_255_2_778
10
35.511751
20
49.5464314
11
35.497551
21
48.9360314
0
LINE
8
DEFAULT_255_2_778
10
34.741351
20
48.9360314
11
34.727051
21
49.5464314
0
LINE
8
DEFAULT_255_2_778
10
34.727051
20
49.5464314
11
34.905351
21
49.5805314
0
LINE
8
DEFAULT_255_2_778
10
34.905351
20
49.5805314
11
34.759351
21
49.9205314
0
LINE
8
DEFAULT_255_2_778
10
34.759351
20
49.9205314
11
34.406651
21
50.0613314
0
LINE
8
DEFAULT_255_2_778
10
34.406651
20
50.0613314
11
34.214051
21
50.0613314
0
LINE
8
DEFAULT_255_2_778
10
34.214051
20
50.4737314
11
34.406651
21
50.4737314
0
LINE
8
DEFAULT_255_2_778
10
34.406651
20
50.4737314
11
34.371151
21
50.6457314
0
LINE
8
DEFAULT_255_2_778
10
34.371151
20
50.6457314
11
34.621251
21
50.7479314
0
LINE
8
DEFAULT_255_2_778
10
34.621251
20
50.7479314
11
34.759551
21
50.6145314
0
LINE
8
DEFAULT_255_2_778
10
34.759551
20
50.6145314
11
34.406851
21
50.4737314
0
LINE
8
DEFAULT_255_2_778
10
35.832951
20
50.0613314
11
35.480351
21
49.9205314
0
LINE
8
DEFAULT_255_2_778
10
35.480351
20
49.9205314
11
35.618651
21
49.7872314
0
LINE
8
DEFAULT_255_2_778
10
35.618651
20
49.7872314
11
35.512551
21
49.5464314
0
LINE
8
DEFAULT_255_2_778
10
35.618651
20
49.7872314
11
35.868751
21
49.8893314
0
LINE
8
DEFAULT_255_2_778
10
35.868751
20
49.8893314
11
35.833251
21
50.0613314
0
LINE
8
DEFAULT_255_2_778
10
35.833251
20
50.0613314
11
36.025851
21
50.0613314
0
LINE
8
DEFAULT_255_2_778
10
36.025851
20
50.4737314
11
35.833251
21
50.4737314
0
LINE
8
DEFAULT_255_2_778
10
35.833251
20
50.4737314
11
35.480551
21
50.6145314
0
LINE
8
DEFAULT_255_2_778
10
35.480551
20
50.6145314
11
35.334551
21
50.9545314
0
LINE
8
DEFAULT_255_2_778
10
35.334551
20
50.9545314
11
35.512851
21
50.9886314
0
LINE
8
DEFAULT_255_2_778
10
35.512851
20
50.9886314
11
35.618951
21
50.7479314
0
LINE
8
DEFAULT_255_2_778
10
35.618951
20
50.7479314
11
35.480551
21
50.6145314
0
LINE
8
DEFAULT_255_2_778
10
31.663951
20
50.2674314
11
31.663951
21
50.2674314
0
LINE
8
DEFAULT_255_2_778
10
31.128951
20
50.2674314
11
31.128951
21
50.2674314
0
LINE
8
DEFAULT_255_2_778
10
31.628751
20
50.2674314
11
31.628751
21
50.2674314
0
LINE
8
DEFAULT_255_2_778
10
32.120151
20
50.2674314
11
32.120151
21
50.2674314
0
LINE
8
DEFAULT_255_2_778
10
32.266151
20
50.2674314
11
32.266151
21
50.2674314
0
LINE
8
DEFAULT_255_2_778
10
44.656051
20
11.3575314
11
44.752351
21
10.6870314
0
LINE
8
DEFAULT_255_2_778
10
44.752351
20
10.6870314
11
18.293551
21
10.6870314
0
LINE
8
DEFAULT_255_2_778
10
18.293551
20
10.6870314
11
6.371151
21
93.6347314
0
LINE
8
DEFAULT_255_2_778
10
6.371151
20
93.6347314
11
7.065951
21
93.6347314
0
LINE
8
DEFAULT_255_2_778
10
44.752651
20
11.3572314
11
44.592251
21
12.3875314
0
LINE
8
DEFAULT_255_2_778
10
44.592251
20
12.3875314
11
44.566151
21
12.4097314
0
LINE
8
DEFAULT_255_2_778
10
44.566151
20
12.4097314
11
44.076851
21
12.3431314
0
LINE
8
DEFAULT_255_2_778
10
44.076851
20
12.3431314
11
19.809851
21
12.3431314
0
LINE
8
DEFAULT_255_2_778
10
19.809851
20
12.3431314
11
19.320651
21
12.2764314
0
LINE
8
DEFAULT_255_2_778
10
19.320651
20
12.2764314
11
7.682651
21
93.0542314
0
LINE
8
DEFAULT_255_2_778
10
7.682651
20
93.0542314
11
7.656451
21
93.0764314
0
LINE
8
DEFAULT_255_2_778
10
7.656451
20
93.0764314
11
19.300751
21
12.2544314
0
LINE
8
DEFAULT_255_2_778
10
19.300751
20
12.2544314
11
18.615751
21
12.1613314
0
LINE
8
DEFAULT_255_2_778
10
18.615751
20
12.1613314
11
6.971451
21
92.9833314
0
LINE
8
DEFAULT_255_2_778
10
6.971451
20
92.9833314
11
7.656451
21
93.0764314
0
LINE
8
DEFAULT_255_2_778
10
8.145651
20
93.6231314
11
8.171851
21
93.6008314
0
LINE
8
DEFAULT_255_2_778
10
8.171851
20
93.6008314
11
8.171851
21
93.1209314
0
LINE
8
DEFAULT_255_2_778
10
8.171851
20
93.1209314
11
19.809851
21
12.3431314
0
LINE
8
DEFAULT_255_2_778
10
19.809851
20
12.3431314
11
19.809851
21
11.8631314
0
LINE
8
DEFAULT_255_2_778
10
19.809851
20
11.8631314
11
44.076851
21
11.8631314
0
LINE
8
DEFAULT_255_2_778
10
44.076851
20
11.8631314
11
44.103051
21
11.8409314
0
LINE
8
DEFAULT_255_2_778
10
44.103051
20
11.8409314
11
19.789951
21
11.8409314
0
LINE
8
DEFAULT_255_2_778
10
19.789951
20
11.8409314
11
19.789951
21
11.1688314
0
LINE
8
DEFAULT_255_2_778
10
19.789951
20
11.1688314
11
44.102851
21
11.1688314
0
LINE
8
DEFAULT_255_2_778
10
44.102851
20
11.1688314
11
44.102851
21
11.8409314
0
ARC
8
DEFAULT_255_2_778
10
130.4378879
20
61.3068799
40
0.738113
50
126.6539965
51
126.7338574
0
ARC
8
DEFAULT_255_2_778
10
130.0436454
20
61.8480363
40
0.068946
50
98.526269
51
132.2950796
0
ARC
8
DEFAULT_255_2_778
10
130.0001781
20
61.7236184
40
0.1357548
50
177.7657499
51
179.9992412
0
ARC
8
DEFAULT_255_2_778
10
129.9994672
20
61.7237303
40
0.1350402
50
162.0177964
51
177.8014526
0
ARC
8
DEFAULT_255_2_778
10
130.0490321
20
61.7000526
40
0.1896313
50
123.9155954
51
159.8359969
0
ARC
8
DEFAULT_255_2_778
10
130.791866
20
65.7238621
40
1.3324229
50
126.55483
51
126.6385211
0
ARC
8
DEFAULT_255_2_778
10
130.0429049
20
66.7448151
40
0.0665416
50
97.9310849
51
132.108919
0
ARC
8
DEFAULT_255_2_778
10
130.0024682
20
66.6177763
40
0.1378453
50
162.1977361
51
179.8570873
0
ARC
8
DEFAULT_255_2_778
10
130.0499896
20
66.5940139
40
0.1905282
50
123.9725012
51
159.7624462
0
ARC
8
DEFAULT_255_2_778
10
130.0294589
20
62.9627256
40
0.1654374
50
185.6744021
51
225.8007694
0
ARC
8
DEFAULT_255_2_778
10
129.9815028
20
62.9533512
40
0.1168795
50
180.0152217
51
183.4253459
0
ARC
8
DEFAULT_255_2_778
10
131.9608723
20
65.4137127
40
3.2863781
50
233.3015928
51
233.3193157
0
ARC
8
DEFAULT_255_2_778
10
130.0435844
20
62.8283764
40
0.0680315
50
227.6317776
51
261.9209634
0
ARC
8
DEFAULT_255_2_778
10
1.1326103
20
10.9586521
40
0.878587
50
180.0086064
51
183.786798
0
ARC
8
DEFAULT_255_2_778
10
1.1817405
20
10.9639058
40
0.9279592
50
183.9101305
51
211.1911745
0
ARC
8
DEFAULT_255_2_778
10
1.2291645
20
11.0013106
40
0.9879275
50
211.6224974
51
241.2196255
0
ARC
8
DEFAULT_255_2_778
10
1.2562182
20
10.9650375
40
0.9700346
50
238.7868292
51
267.7966118
0
ARC
8
DEFAULT_255_2_778
10
1.2276226
20
13.948242
40
0.9856351
50
211.5769936
51
241.2486822
0
ARC
8
DEFAULT_255_2_778
10
1.177058
20
13.9112255
40
0.9231877
50
183.174675
51
211.2630865
0
ARC
8
DEFAULT_255_2_778
10
1.1391706
20
13.9073824
40
0.8851473
50
180.0040302
51
183.0621122
0
ARC
8
DEFAULT_255_2_778
10
-44.0325924
20
37.9071732
40
51.199294
50
331.1126233
51
331.1214263
0
ARC
8
DEFAULT_255_2_778
10
1.2810225
20
12.8879903
40
0.5627111
50
149.530194
51
159.6234149
0
ARC
8
DEFAULT_255_2_778
10
121.9215888
20
5.5729794
40
0.5051593
50
270.0039202
51
272.6528989
0
ARC
8
DEFAULT_255_2_778
10
121.9206267
20
5.5885268
40
0.5207345
50
272.6794673
51
290.7035424
0
ARC
8
DEFAULT_255_2_778
10
121.9233181
20
5.5770607
40
0.5090597
50
290.8764185
51
311.3337091
0
ARC
8
DEFAULT_255_2_778
10
121.9377926
20
5.5585914
40
0.4857062
50
314.0706963
51
335.687553
0
ARC
8
DEFAULT_255_2_778
10
121.9495853
20
5.5511745
40
0.4719096
50
335.9187089
51
356.1690048
0
ARC
8
DEFAULT_255_2_778
10
121.9706208
20
5.5494019
40
0.4508025
50
356.2151731
51
359.9896163
0
ARC
8
DEFAULT_255_2_778
10
66.3885352
20
5.566478
40
0.5060484
50
190.5389068
51
211.1220821
0
ARC
8
DEFAULT_255_2_778
10
66.3705079
20
5.5599518
40
0.4872569
50
211.5607771
51
234.8555424
0
ARC
8
DEFAULT_255_2_778
10
66.3813659
20
5.5714123
40
0.5028837
50
234.5955992
51
250.3819286
0
ARC
8
DEFAULT_255_2_778
10
66.388064
20
5.5921785
40
0.5246937
50
250.4543201
51
266.7767692
0
ARC
8
DEFAULT_255_2_778
10
66.3869866
20
5.5763077
40
0.5087875
50
266.7974135
51
269.9928767
0
ARC
8
DEFAULT_255_2_778
10
66.4765972
20
5.6509901
40
0.4804749
50
179.8771695
51
269.7407745
0
ARC
8
DEFAULT_255_2_778
10
121.8245803
20
5.662097
40
0.4916462
50
269.0376932
51
358.8255733
0
ARC
8
DEFAULT_255_2_778
10
5.3560296
20
95.174783
40
0.239395
50
66.4386058
51
87.9188269
0
ARC
8
DEFAULT_255_2_778
10
5.1989964
20
95.9082177
40
0.2734724
50
344.3444452
51
353.7150026
0
ARC
8
DEFAULT_255_2_778
10
5.2990062
20
95.8957047
40
0.1727004
50
354.2090921
51
359.887965
0
ARC
8
DEFAULT_255_2_778
10
5.3494083
20
95.8967217
40
0.1223054
50
359.3653719
51
17.8542774
0
ARC
8
DEFAULT_255_2_778
10
5.4121066
20
95.9226945
40
0.0539661
50
25.7268098
51
61.0565618
0
ARC
8
DEFAULT_255_2_778
10
3.1332465
20
95.7977018
40
2.2211768
50
0.0056328
51
8.252499
0
ARC
8
DEFAULT_255_2_778
10
4.146351
20
105.8093797
40
0.19616
50
181.0397373
51
270.1379499
0
ARC
8
DEFAULT_255_2_778
10
4.1836152
20
105.3523375
40
0.2033856
50
90.3075904
51
137.8515517
0
ARC
8
DEFAULT_255_2_778
10
4.1719924
20
105.36292
40
0.1876669
50
137.8657323
51
180.0342462
0
ARC
8
DEFAULT_255_2_778
10
4.1729893
20
105.3628141
40
0.1886637
50
180.0019096
51
185.8107373
0
ARC
8
DEFAULT_255_2_778
10
4.1729452
20
105.3628035
40
0.1886188
50
185.8088779
51
188.1327368
0
ARC
8
DEFAULT_255_2_778
10
5.5268615
20
96.1460357
40
0.197624
50
188.9120338
51
266.7981226
0
ARC
8
DEFAULT_255_2_778
10
5.7168843
20
96.0303291
40
0.3538566
50
203.9614458
51
216.2239229
0
ARC
8
DEFAULT_255_2_778
10
6.1412162
20
96.2094176
40
0.8143972
50
188.1044153
51
203.3510457
0
ARC
8
DEFAULT_255_2_778
10
6.8887209
20
96.3493452
40
1.574512
50
189.0301037
51
189.3107718
0
ARC
8
DEFAULT_255_2_778
10
136.529892
20
33.5936622
40
0.1657659
50
185.6614349
51
225.7022936
0
ARC
8
DEFAULT_255_2_778
10
136.481992
20
33.5843478
40
0.1172687
50
180.0134925
51
183.4408966
0
ARC
8
DEFAULT_255_2_778
10
131.3999606
20
52.4543994
40
0.1986954
50
269.2683274
51
270.0040735
0
ARC
8
DEFAULT_255_2_778
10
131.3999433
20
52.4542647
40
0.1985608
50
270.0090602
51
347.8047958
0
ARC
8
DEFAULT_255_2_778
10
132.1949228
20
54.0718658
40
0.2034737
50
50.6547918
51
89.2113749
0
ARC
8
DEFAULT_255_2_778
10
134.7736604
20
51.973392
40
0.189565
50
0.250306
51
51.0521425
0
ARC
8
DEFAULT_255_2_778
10
129.7992019
20
54.4693517
40
1.7078455
50
311.5389267
51
357.6599575
0
ARC
8
DEFAULT_255_2_778
10
129.8048035
20
54.457964
40
1.7018203
50
358.0353335
51
359.9995544
0
ARC
8
DEFAULT_255_2_778
10
129.8080586
20
54.4580188
40
1.6985651
50
359.9977049
51
44.3234601
0
ARC
8
DEFAULT_255_2_778
10
129.7912993
20
54.4587416
40
1.4153757
50
0.0036423
51
44.3202847
0
ARC
8
DEFAULT_255_2_778
10
129.789769
20
54.4588379
40
1.416906
50
358.0134163
51
359.9997433
0
ARC
8
DEFAULT_255_2_778
10
129.7843156
20
54.4677743
40
1.4226927
50
311.5109181
51
357.6613478
0
ARC
8
DEFAULT_255_2_778
10
134.67419
20
85.9150208
40
0.0424335
50
350.208628
51
359.8641659
0
ARC
8
DEFAULT_255_2_778
10
134.6667499
20
85.9163508
40
0.0499915
50
312.0348303
51
350.1566484
0
ARC
8
DEFAULT_255_2_778
10
134.6778123
20
85.9158544
40
0.2843132
50
310.8891996
51
359.7714211
0
ARC
8
DEFAULT_255_2_778
10
129.1598595
20
138.4812165
40
0.8186468
50
319.2484659
51
328.0676831
0
ARC
8
DEFAULT_255_2_778
10
129.3536691
20
135.7793849
40
0.7544565
50
0.1393732
51
40.3757704
0
ARC
8
DEFAULT_255_2_778
10
129.3332404
20
135.76518
40
0.779225
50
40.1984031
51
53.9667275
0
ARC
8
DEFAULT_255_2_778
10
120.0575421
20
137.6672023
40
1.0193145
50
91.125327
51
126.455437
0
ARC
8
DEFAULT_255_2_778
10
120.01197
20
137.7190457
40
0.950555
50
126.1028647
51
179.7604342
0
ARC
8
DEFAULT_255_2_778
10
124.9213013
20
135.2596404
40
0.2030954
50
38.3738883
51
89.2884872
0
ARC
8
DEFAULT_255_2_778
10
119.2548778
20
135.2334516
40
9.3051544
50
359.9209916
51
0.4631771
0
ARC
8
DEFAULT_255_2_778
10
126.5687506
20
135.3177423
40
1.9909982
50
359.7390155
51
7.758419
0
ARC
8
DEFAULT_255_2_778
10
127.327989
20
135.4040027
40
1.227183
50
8.5532648
51
25.7486313
0
ARC
8
DEFAULT_255_2_778
10
127.463468
20
135.4654371
40
1.0784731
50
25.9356821
51
35.768686
0
ARC
8
DEFAULT_255_2_778
10
127.653516
20
135.6056186
40
0.8423376
50
35.5880767
51
48.2673017
0
ARC
8
DEFAULT_255_2_778
10
127.8183123
20
135.7949556
40
0.5913535
50
47.9715272
51
66.2240206
0
ARC
8
DEFAULT_255_2_778
10
127.8616618
20
135.8868231
40
0.4898131
50
66.5320096
51
88.7527706
0
ARC
8
DEFAULT_255_2_778
10
120.0337144
20
136.5207298
40
0.9723808
50
180.7783786
51
258.46328
0
ARC
8
DEFAULT_255_2_778
10
120.06107
20
136.5849523
40
1.0408702
50
257.6948864
51
269.0671132
0
ARC
8
DEFAULT_255_2_778
10
127.865352
20
135.2162119
40
0.1965083
50
1.1104335
51
90.0375042
0
ARC
8
DEFAULT_255_2_778
10
130.3413573
20
137.7075491
40
0.5878177
50
2.6981484
51
86.1209643
0
ARC
8
DEFAULT_255_2_778
10
130.3376696
20
137.7132102
40
0.2940877
50
2.7305313
51
86.1095079
0
ARC
8
DEFAULT_255_2_778
10
136.5285925
20
28.6995343
40
0.165254
50
185.6140692
51
225.7710346
0
ARC
8
DEFAULT_255_2_778
10
136.4810272
20
28.6903411
40
0.1171038
50
180.0102617
51
183.413836
0
ARC
8
DEFAULT_255_2_778
10
136.4987411
20
32.3549543
40
0.1348178
50
161.9978228
51
180.0570069
0
ARC
8
DEFAULT_255_2_778
10
136.5487819
20
32.3312278
40
0.1898744
50
123.9571271
51
159.8549378
0
ARC
8
DEFAULT_255_2_778
10
1.0035973
20
94.3887948
40
0.7792428
50
89.0054126
51
89.9987117
0
ARC
8
DEFAULT_255_2_778
10
1.0015075
20
94.404317
40
0.7637235
50
89.8419088
51
133.290582
0
ARC
8
DEFAULT_255_2_778
10
0.9646563
20
94.4425334
40
0.7106377
50
133.2407143
51
179.8092538
0
ARC
8
DEFAULT_255_2_778
10
0.9819484
20
94.4448993
40
0.7279259
50
180.0000127
51
180.0849424
0
ARC
8
DEFAULT_255_2_778
10
0.9247979
20
43.8846259
40
0.6707769
50
179.8467364
51
179.9999846
0
ARC
8
DEFAULT_255_2_778
10
0.9635237
20
43.8871198
40
0.7095071
50
180.2013828
51
226.7989635
0
ARC
8
DEFAULT_255_2_778
10
1.002547
20
43.9285314
40
0.7664081
50
226.7916777
51
270.1874548
0
ARC
8
DEFAULT_255_2_778
10
1.0050495
20
43.9476121
40
0.7854848
50
270.0003548
51
270.8807353
0
ARC
8
DEFAULT_255_2_778
10
137.0638986
20
51.745739
40
0.9474837
50
247.276354
51
268.9310885
0
ARC
8
DEFAULT_255_2_778
10
136.9397783
20
51.4646645
40
0.6403078
50
221.2587179
51
247.8052518
0
ARC
8
DEFAULT_255_2_778
10
136.7405993
20
51.2918143
40
0.376592
50
180.9801497
51
221.4735906
0
ARC
8
DEFAULT_255_2_778
10
136.7064985
20
51.2853675
40
0.3424361
50
178.9202879
51
179.9991924
0
ARC
8
DEFAULT_255_2_778
10
38.6382187
20
68.5977505
40
0.1819679
50
184.9275675
51
189.163997
0
ARC
8
DEFAULT_255_2_778
10
38.5951876
20
68.5909557
40
0.138404
50
189.2240699
51
194.8774631
0
ARC
8
DEFAULT_255_2_778
10
38.5796935
20
68.5868792
40
0.1223826
50
194.8953896
51
198.3288956
0
ARC
8
DEFAULT_255_2_778
10
38.5164724
20
68.5605162
40
0.0543227
50
192.8948463
51
244.6604433
0
ARC
8
DEFAULT_255_2_778
10
134.0739077
20
132.0080087
40
2.3212657
50
3.124229
51
3.7238188
0
ARC
8
DEFAULT_255_2_778
10
135.6967263
20
132.1338573
40
0.6939935
50
2.0570799
51
18.0613846
0
ARC
8
DEFAULT_255_2_778
10
135.8891795
20
132.1755215
40
0.4985099
50
20.3671492
51
56.0442604
0
ARC
8
DEFAULT_255_2_778
10
135.8790659
20
132.1479822
40
0.5270482
50
56.8045268
51
89.6458849
0
ARC
8
DEFAULT_255_2_778
10
137.2619324
20
29.5337231
40
1.273829
50
233.0506923
51
233.0961647
0
ARC
8
DEFAULT_255_2_778
10
136.5426342
20
28.5648091
40
0.0674487
50
227.4596731
51
261.9795873
0
ARC
8
DEFAULT_255_2_778
10
136.8353027
20
33.8532799
40
0.5576836
50
232.5539705
51
232.6567214
0
ARC
8
DEFAULT_255_2_778
10
136.5423728
20
33.4590922
40
0.0669005
50
227.3166904
51
262.1394688
0
ARC
8
DEFAULT_255_2_778
10
136.5426342
20
32.4811312
40
0.0674487
50
98.0204127
51
132.5403269
0
ARC
8
DEFAULT_255_2_778
10
137.2619324
20
31.5122172
40
1.273829
50
126.9038353
51
126.9493077
0
ARC
8
DEFAULT_255_2_778
10
1.2508209
20
126.727681
40
1.0202132
50
91.7467307
51
127.1357142
0
ARC
8
DEFAULT_255_2_778
10
1.2038418
20
126.7804173
40
0.9498264
50
126.797003
51
179.7645695
0
ARC
8
DEFAULT_255_2_778
10
130.0291425
20
67.8578368
40
0.1658545
50
185.9641487
51
225.7077874
0
ARC
8
DEFAULT_255_2_778
10
129.9815524
20
67.8484532
40
0.1176291
50
180.0160679
51
183.8263461
0
ARC
8
DEFAULT_255_2_778
10
1.2505882
20
96.7032322
40
1.0195945
50
232.6844575
51
268.2371854
0
ARC
8
DEFAULT_255_2_778
10
1.2037863
20
96.6510901
40
0.9497707
50
180.2334599
51
233.0230829
0
ARC
8
DEFAULT_255_2_778
10
5.7554106
20
94.1032147
40
0.4910791
50
181.1078235
51
271.0632725
0
ARC
8
DEFAULT_255_2_778
10
135.7838295
20
132.0803887
40
0.4917982
50
1.1804285
51
90.944427
0
ARC
8
DEFAULT_255_2_778
10
136.0803625
20
127.1327161
40
0.99349
50
30.9152967
51
73.4040732
0
ARC
8
DEFAULT_255_2_778
10
136.1297519
20
127.1651217
40
0.9344716
50
0.0305622
51
30.766498
0
ARC
8
DEFAULT_255_2_778
10
33.9149506
20
132.0146229
40
2.2567146
50
176.3377966
51
176.9544927
0
ARC
8
DEFAULT_255_2_778
10
32.3505666
20
132.1347895
40
0.6881401
50
161.8612928
51
178.003074
0
ARC
8
DEFAULT_255_2_778
10
32.1626103
20
132.176936
40
0.4967463
50
123.9457518
51
159.7313309
0
ARC
8
DEFAULT_255_2_778
10
32.1730868
20
132.1507702
40
0.5243362
50
95.7429878
51
123.2988189
0
ARC
8
DEFAULT_255_2_778
10
32.1707388
20
132.1803565
40
0.4946637
50
90.0365358
51
95.8152986
0
ARC
8
DEFAULT_255_2_778
10
1.2261724
20
41.6703913
40
0.9722378
50
101.5160365
51
179.2262686
0
ARC
8
DEFAULT_255_2_778
10
1.2534876
20
41.6062293
40
1.040655
50
91.8868419
51
102.2844301
0
ARC
8
DEFAULT_255_2_778
10
1.2222779
20
42.6395136
40
0.0077352
50
113.2592581
51
190.4937438
0
ARC
8
DEFAULT_255_2_778
10
1.6162015
20
42.5906175
40
0.4043277
50
173.2551696
51
173.3582831
0
ARC
8
DEFAULT_255_2_778
10
1.0842761
20
42.6524014
40
0.1311741
50
352.8260833
51
353.4252989
0
ARC
8
DEFAULT_255_2_778
10
1.2261724
20
10.971849
40
0.9722378
50
180.7737314
51
258.4839635
0
ARC
8
DEFAULT_255_2_778
10
1.2534876
20
11.0360111
40
1.040655
50
257.7155699
51
268.1131581
0
ARC
8
DEFAULT_255_2_778
10
46.3104911
20
10.4630655
40
0.463284
50
2.5305157
51
8.3845913
0
ARC
8
DEFAULT_255_2_778
10
137.034545
20
86.0424664
40
0.0618557
50
270.0113285
51
270.9988943
0
ARC
8
DEFAULT_255_2_778
10
137.042346
20
86.0960712
40
0.1157228
50
241.5537885
51
266.140769
0
ARC
8
DEFAULT_255_2_778
10
5.7554701
20
10.1049706
40
0.4911339
50
181.079218
51
271.0562161
0
ARC
8
DEFAULT_255_2_778
10
4.1457002
20
127.7914102
40
0.1963101
50
89.9057002
51
178.9463263
0
ARC
8
DEFAULT_255_2_778
10
130.2521618
20
143.9963293
40
0.2939189
50
2.8259547
51
89.2082396
0
ARC
8
DEFAULT_255_2_778
10
129.7347557
20
139.4822279
40
0.136329
50
182.8583669
51
212.3796002
0
ARC
8
DEFAULT_255_2_778
10
129.6963701
20
139.4745791
40
0.0977775
50
153.1636412
51
179.5016639
0
ARC
8
DEFAULT_255_2_778
10
129.1938437
20
139.8992315
40
0.5633811
50
317.4866742
51
359.8666334
0
ARC
8
DEFAULT_255_2_778
10
128.3983516
20
139.8839509
40
1.3589436
50
0.0008883
51
0.5889835
0
ARC
8
DEFAULT_255_2_778
10
128.399738
20
139.8842012
40
1.3575572
50
337.3095347
51
359.9903232
0
ARC
8
DEFAULT_255_2_778
10
129.7347817
20
143.4510228
40
0.6921153
50
193.7547942
51
252.097203
0
ARC
8
DEFAULT_255_2_778
10
129.564733
20
143.3849214
40
0.511779
50
180.0389892
51
191.0922584
0
ARC
8
DEFAULT_255_2_778
10
129.5541592
20
143.3845845
40
0.5012049
50
173.0628621
51
180.0012974
0
ARC
8
DEFAULT_255_2_778
10
129.7228529
20
143.4262211
40
0.6664976
50
109.3114057
51
178.3751126
0
ARC
8
DEFAULT_255_2_778
10
129.7054849
20
143.4476053
40
0.6406407
50
103.1605697
51
108.4779339
0
ARC
8
DEFAULT_255_2_778
10
132.2502154
20
139.3431884
40
5.440171
50
119.2006829
51
119.6419651
0
LINE
8
DEFAULT_255_2_778
10
129.5961189
20
144.0920021
11
129.6006067
21
144.0945165
0
ARC
8
DEFAULT_255_2_778
10
129.2503155
20
144.8286963
40
0.8134641
50
295.5067006
51
318.2306225
0
ARC
8
DEFAULT_255_2_778
10
129.7086402
20
144.3990428
40
0.0002549
50
44.078837
51
90.7218359
0
ARC
8
DEFAULT_255_2_778
10
129.7403747
20
144.3704418
40
0.0428947
50
137.7228425
51
159.2085092
0
ARC
8
DEFAULT_255_2_778
10
130.7865045
20
143.8462517
40
1.2127935
50
153.5912625
51
155.8034103
0
ARC
8
DEFAULT_255_2_778
10
137.0388415
20
141.0171969
40
8.0753893
50
155.6766254
51
156.4855678
0
LINE
8
DEFAULT_255_2_778
10
129.6340356
20
144.2391162
11
129.6332498
21
144.237319
0
ARC
8
DEFAULT_255_2_778
10
176.6304827
20
123.6932701
40
51.2913038
50
156.3882663
51
156.3927946
0
ARC
8
DEFAULT_255_2_778
10
73.2968007
20
168.7809875
40
61.4506841
50
336.3507717
51
336.4552775
0
ARC
8
DEFAULT_255_2_778
10
126.5717812
20
145.448855
40
3.2904583
50
335.5277974
51
336.3880117
0
ARC
8
DEFAULT_255_2_778
10
129.2364025
20
144.2346936
40
0.3622541
50
333.1572427
51
335.7270915
0
ARC
8
DEFAULT_255_2_778
10
129.2836104
20
142.059369
40
0.7705615
50
0.6432809
51
71.9768293
0
ARC
8
DEFAULT_255_2_778
10
129.2260285
20
142.0729566
40
0.5315094
50
359.5756566
51
12.7448176
0
ARC
8
DEFAULT_255_2_778
10
129.348045
20
142.099778
40
0.4065828
50
12.8515455
51
37.070114
0
ARC
8
DEFAULT_255_2_778
10
129.156666
20
141.9310583
40
0.6612672
50
38.7390974
51
58.846333
0
ARC
8
DEFAULT_255_2_778
10
128.3415504
20
140.6981272
40
2.1389106
50
57.2462926
51
59.8584098
0
ARC
8
DEFAULT_255_2_778
10
128.0940708
20
140.2929215
40
2.6136176
50
59.6271801
51
59.6497177
0
ARC
8
DEFAULT_255_2_778
10
128.8336643
20
141.5566863
40
1.149343
50
59.6333905
51
59.6673691
0
LINE
8
DEFAULT_255_2_778
10
129.4141047
20
142.5486935
11
129.4135185
21
142.5490365
0
LINE
8
DEFAULT_255_2_778
10
129.4135185
20
142.5490365
11
129.4129345
21
142.5493782
0
LINE
8
DEFAULT_255_2_778
10
129.4129345
20
142.5493782
11
129.4123525
21
142.5497186
0
LINE
8
DEFAULT_255_2_778
10
129.4123525
20
142.5497186
11
129.4117726
21
142.5500576
0
ARC
8
DEFAULT_255_2_778
10
128.8516217
20
141.5920267
40
1.1097713
50
59.6856084
51
59.7201629
0
ARC
8
DEFAULT_255_2_778
10
128.1597202
20
140.4098975
40
2.4794998
50
59.6866599
51
59.7097757
0
LINE
8
DEFAULT_255_2_778
10
129.410331
20
142.5508999
11
129.4091854
21
142.5515688
0
ARC
8
DEFAULT_255_2_778
10
128.1896307
20
140.4619537
40
2.4194638
50
59.7310331
51
59.7544211
0
LINE
8
DEFAULT_255_2_778
10
129.4083324
20
142.5520666
11
129.4077669
21
142.5523966
0
LINE
8
DEFAULT_255_2_778
10
129.4077669
20
142.5523966
11
129.4072033
21
142.5527252
0
LINE
8
DEFAULT_255_2_778
10
129.4072033
20
142.5527252
11
129.4066418
21
142.5530526
0
LINE
8
DEFAULT_255_2_778
10
129.4066418
20
142.5530526
11
129.4055226
21
142.5537048
0
LINE
8
DEFAULT_255_2_778
10
129.4055226
20
142.5537048
11
129.4044114
21
142.5543521
0
LINE
8
DEFAULT_255_2_778
10
129.4044114
20
142.5543521
11
129.4033082
21
142.5549943
0
LINE
8
DEFAULT_255_2_778
10
129.4033082
20
142.5549943
11
129.4027607
21
142.5553129
0
ARC
8
DEFAULT_255_2_778
10
129.6922023
20
143.0534811
40
0.5761493
50
239.7801325
51
239.8429013
0
LINE
8
DEFAULT_255_2_778
10
129.4022151
20
142.5556303
11
129.4016715
21
142.5559465
0
LINE
8
DEFAULT_255_2_778
10
129.4016715
20
142.5559465
11
129.4011298
21
142.5562615
0
ARC
8
DEFAULT_255_2_778
10
135.8326431
20
153.7395787
40
12.9008119
50
239.55312
51
240.0968404
0
ARC
8
DEFAULT_255_2_778
10
130.6972253
20
144.9806657
40
2.7474638
50
238.4458341
51
239.3186091
0
ARC
8
DEFAULT_255_2_778
10
129.8671729
20
143.6712099
40
1.1974501
50
225.2883016
51
239.502466
0
ARC
8
DEFAULT_255_2_778
10
129.6137458
20
143.3981861
40
0.8252152
50
209.500119
51
224.4562296
0
ARC
8
DEFAULT_255_2_778
10
129.6834355
20
143.4348504
40
0.9039276
50
198.2131389
51
209.3476146
0
ARC
8
DEFAULT_255_2_778
10
129.9069513
20
143.5085861
40
1.1392918
50
189.7586692
51
198.2222447
0
ARC
8
DEFAULT_255_2_778
10
130.262444
20
143.570713
40
1.5001715
50
183.3380104
51
189.7958068
0
ARC
8
DEFAULT_255_2_778
10
130.5301895
20
143.5909017
40
1.7686442
50
182.6405555
51
183.4858846
0
ARC
8
DEFAULT_255_2_778
10
129.8529588
20
143.3704693
40
1.0983601
50
110.7917011
51
172.7321783
0
ARC
8
DEFAULT_255_2_778
10
129.9225995
20
143.2837634
40
1.2046293
50
98.9822134
51
112.4246333
0
ARC
8
DEFAULT_255_2_778
10
129.9097688
20
144.3752573
40
0.2009632
50
90.0984938
51
150.6951048
0
ARC
8
DEFAULT_255_2_778
10
130.2438705
20
143.9484089
40
0.6305315
50
89.9979438
51
90.4586364
0
ARC
8
DEFAULT_255_2_778
10
130.2475316
20
143.9735424
40
0.6054089
50
35.9410196
51
90.34435
0
ARC
8
DEFAULT_255_2_778
10
130.2836096
20
144.0025461
40
0.5591806
50
1.7702468
51
35.7047367
0
LINE
8
DEFAULT_255_2_778
10
129.9429233
20
61.8577202
11
129.9964233
21
61.8984202
0
LINE
8
DEFAULT_255_2_778
10
129.9432233
20
61.8574202
11
130.5645233
21
61.2695202
0
LINE
8
DEFAULT_255_2_778
10
129.9432233
20
66.7522202
11
129.9967233
21
66.7930202
0
LINE
8
DEFAULT_255_2_778
10
129.9435233
20
66.7520202
11
130.5647233
21
66.1641202
0
LINE
8
DEFAULT_255_2_778
10
129.9435233
20
62.8195202
11
129.9141233
21
62.8441202
0
LINE
8
DEFAULT_255_2_778
10
130.5647233
20
63.4074202
11
129.9435233
21
62.8195202
0
LINE
8
DEFAULT_255_2_778
10
129.9435233
20
62.8195202
11
129.9969233
21
62.7787202
0
LINE
8
DEFAULT_255_2_778
10
130.0493233
20
66.8120202
11
130.0451233
21
66.8112202
0
LINE
8
DEFAULT_255_2_778
10
130.0451233
20
66.8112202
11
130.0340233
21
66.8107202
0
LINE
8
DEFAULT_255_2_778
10
130.0340233
20
66.8107202
11
125.5308233
21
66.8107202
0
LINE
8
DEFAULT_255_2_778
10
125.5308233
20
66.8107202
11
125.0770233
21
66.3733202
0
LINE
8
DEFAULT_255_2_778
10
125.0770233
20
66.3733202
11
125.2183233
21
66.2371202
0
LINE
8
DEFAULT_255_2_778
10
125.2183233
20
66.2371202
11
125.0183233
21
66.2371202
0
LINE
8
DEFAULT_255_2_778
10
125.0183233
20
66.2371202
11
125.0183233
21
63.3343202
0
LINE
8
DEFAULT_255_2_778
10
125.0183233
20
63.3343202
11
125.2183233
21
63.3343202
0
LINE
8
DEFAULT_255_2_778
10
125.2183233
20
63.3343202
11
125.6136233
21
62.9536202
0
LINE
8
DEFAULT_255_2_778
10
125.6136233
20
62.9536202
11
129.8649233
21
62.9536202
0
LINE
8
DEFAULT_255_2_778
10
129.8649233
20
62.9536202
11
129.8649233
21
66.6181202
0
LINE
8
DEFAULT_255_2_778
10
129.8649233
20
66.6181202
11
125.6136233
21
66.6181202
0
LINE
8
DEFAULT_255_2_778
10
125.6136233
20
66.6181202
11
125.2183233
21
66.2373202
0
LINE
8
DEFAULT_255_2_778
10
125.2183233
20
66.2373202
11
125.2183233
21
63.3346202
0
LINE
8
DEFAULT_255_2_778
10
125.2183233
20
63.3346202
11
125.0770233
21
63.1983202
0
LINE
8
DEFAULT_255_2_778
10
125.0770233
20
63.1983202
11
125.5308233
21
62.7610202
0
LINE
8
DEFAULT_255_2_778
10
125.5308233
20
62.7610202
11
130.0340233
21
62.7610202
0
LINE
8
DEFAULT_255_2_778
10
130.0340233
20
62.7610202
11
130.0451233
21
62.7605202
0
LINE
8
DEFAULT_255_2_778
10
130.0451233
20
62.7605202
11
130.0493233
21
62.7597202
0
LINE
8
DEFAULT_255_2_778
10
130.0493233
20
62.7597202
11
130.5647233
21
63.2475202
0
LINE
8
DEFAULT_255_2_778
10
0.2540233
20
13.9073202
11
1.2192233
21
13.9073202
0
LINE
8
DEFAULT_255_2_778
10
1.2192233
20
13.9073202
11
1.0480233
21
13.6189202
0
LINE
8
DEFAULT_255_2_778
10
1.0480233
20
13.6189202
11
0.9022233
21
13.3662202
0
LINE
8
DEFAULT_255_2_778
10
0.9022233
20
13.3662202
11
0.7998233
21
13.1802202
0
LINE
8
DEFAULT_255_2_778
10
5.2885233
20
9.9824202
11
0.7535233
21
10.1351202
0
LINE
8
DEFAULT_255_2_778
10
0.7535233
20
10.1351202
11
0.7535233
21
13.0839202
0
LINE
8
DEFAULT_255_2_778
10
0.7535233
20
13.0839202
11
5.2591233
21
10.5658202
0
LINE
8
DEFAULT_255_2_778
10
32.8478233
20
93.5566202
11
36.3868233
21
69.1996202
0
LINE
8
DEFAULT_255_2_778
10
36.3868233
20
69.1996202
11
38.3162233
21
68.7014202
0
LINE
8
DEFAULT_255_2_778
10
38.3162233
20
68.7014202
11
34.6763233
21
93.7524202
0
LINE
8
DEFAULT_255_2_778
10
34.6763233
20
93.7524202
11
34.9837233
21
94.0932202
0
LINE
8
DEFAULT_255_2_778
10
34.9837233
20
94.0932202
11
38.6789233
21
68.6607202
0
LINE
8
DEFAULT_255_2_778
10
38.6789233
20
68.6607202
11
41.6351233
21
67.8481202
0
LINE
8
DEFAULT_255_2_778
10
41.6351233
20
67.8481202
11
41.6018233
21
67.6185202
0
LINE
8
DEFAULT_255_2_778
10
41.6018233
20
67.6185202
11
36.3937233
21
69.0499202
0
LINE
8
DEFAULT_255_2_778
10
36.3937233
20
69.0499202
11
32.9020233
21
93.0820202
0
LINE
8
DEFAULT_255_2_778
10
32.9020233
20
93.0820202
11
5.2644233
21
93.0820202
0
LINE
8
DEFAULT_255_2_778
10
41.6351233
20
67.8481202
11
115.3152233
21
67.8481202
0
LINE
8
DEFAULT_255_2_778
10
115.3152233
20
67.8481202
11
115.7105233
21
68.2289202
0
LINE
8
DEFAULT_255_2_778
10
115.7105233
20
68.2289202
11
115.7105233
21
70.1077202
0
LINE
8
DEFAULT_255_2_778
10
115.7105233
20
70.1077202
11
115.9105233
21
70.1077202
0
LINE
8
DEFAULT_255_2_778
10
115.9105233
20
70.1077202
11
115.9105233
21
68.2289202
0
LINE
8
DEFAULT_255_2_778
10
115.9105233
20
68.2289202
11
115.7105233
21
68.2289202
0
LINE
8
DEFAULT_255_2_778
10
115.7105233
20
68.2289202
11
115.8518233
21
68.0926202
0
LINE
8
DEFAULT_255_2_778
10
115.8518233
20
68.0926202
11
115.3980233
21
67.6552202
0
LINE
8
DEFAULT_255_2_778
10
115.3980233
20
67.6552202
11
41.6047233
21
67.6552202
0
LINE
8
DEFAULT_255_2_778
10
66.3464233
20
5.0678202
11
66.3459233
21
5.0673202
0
LINE
8
DEFAULT_255_2_778
10
66.3459233
20
5.0673202
11
121.9226233
21
5.0673202
0
LINE
8
DEFAULT_255_2_778
10
121.9226233
20
5.0673202
11
121.9221233
21
5.0678202
0
LINE
8
DEFAULT_255_2_778
10
121.9221233
20
5.0678202
11
66.3464233
21
5.0678202
0
LINE
8
DEFAULT_255_2_778
10
66.3464233
20
5.0678202
11
66.4522233
21
5.1699202
0
LINE
8
DEFAULT_255_2_778
10
66.4522233
20
5.1699202
11
121.8158233
21
5.1699202
0
LINE
8
DEFAULT_255_2_778
10
121.8158233
20
5.1699202
11
121.9216233
21
5.0678202
0
LINE
8
DEFAULT_255_2_778
10
122.2595233
20
5.1948202
11
122.2756233
21
5.2096202
0
LINE
8
DEFAULT_255_2_778
10
65.8860233
20
6.1330202
11
122.4235233
21
6.1330202
0
LINE
8
DEFAULT_255_2_778
10
65.8696233
20
6.0134202
11
65.8707233
21
5.8562202
0
LINE
8
DEFAULT_255_2_778
10
65.8707233
20
5.8562202
11
65.8730233
21
5.7298202
0
LINE
8
DEFAULT_255_2_778
10
65.8730233
20
5.7298202
11
65.8786233
21
5.5909202
0
LINE
8
DEFAULT_255_2_778
10
65.8786233
20
5.5909202
11
65.8910233
21
5.4739202
0
LINE
8
DEFAULT_255_2_778
10
66.9864233
20
8.6500202
11
66.4908233
21
8.1515202
0
LINE
8
DEFAULT_255_2_778
10
66.4908233
20
8.1515202
11
66.4908233
21
6.1333202
0
LINE
8
DEFAULT_255_2_778
10
66.4908233
20
6.1333202
11
66.4895233
21
5.7724202
0
LINE
8
DEFAULT_255_2_778
10
66.4895233
20
5.7724202
11
66.4879233
21
5.6083202
0
LINE
8
DEFAULT_255_2_778
10
66.4879233
20
5.6083202
11
66.4858233
21
5.4639202
0
LINE
8
DEFAULT_255_2_778
10
66.4858233
20
5.4639202
11
66.4834233
21
5.3440202
0
LINE
8
DEFAULT_255_2_778
10
66.4834233
20
5.3440202
11
66.4808233
21
5.2530202
0
LINE
8
DEFAULT_255_2_778
10
66.4808233
20
5.2530202
11
66.4776233
21
5.1945202
0
LINE
8
DEFAULT_255_2_778
10
66.4776233
20
5.1945202
11
66.4744233
21
5.1705202
0
LINE
8
DEFAULT_255_2_778
10
65.9961233
20
5.6520202
11
65.8947233
21
5.5499202
0
LINE
8
DEFAULT_255_2_778
10
65.8947233
20
5.5499202
11
65.8916233
21
5.5560202
0
LINE
8
DEFAULT_255_2_778
10
65.8916233
20
5.5560202
11
65.8884233
21
5.5800202
0
LINE
8
DEFAULT_255_2_778
10
65.8884233
20
5.5800202
11
65.8855233
21
5.6216202
0
LINE
8
DEFAULT_255_2_778
10
65.8855233
20
5.6216202
11
65.8828233
21
5.6787202
0
LINE
8
DEFAULT_255_2_778
10
65.8828233
20
5.6787202
11
65.8791233
21
5.8311202
0
LINE
8
DEFAULT_255_2_778
10
65.8791233
20
5.8311202
11
65.8775233
21
6.0142202
0
LINE
8
DEFAULT_255_2_778
10
65.8775233
20
6.0142202
11
65.8733233
21
9.6136202
0
LINE
8
DEFAULT_255_2_778
10
122.4320233
20
6.8143202
11
122.4314233
21
7.6866202
0
LINE
8
DEFAULT_255_2_778
10
122.4314233
20
7.6866202
11
121.4400233
21
8.6503202
0
LINE
8
DEFAULT_255_2_778
10
121.4400233
20
8.6503202
11
66.8782233
21
8.6503202
0
LINE
8
DEFAULT_255_2_778
10
66.8782233
20
8.6503202
11
65.8738233
21
7.6864202
0
LINE
8
DEFAULT_255_2_778
10
65.8738233
20
7.6864202
11
65.8738233
21
6.8143202
0
LINE
8
DEFAULT_255_2_778
10
121.2813233
20
8.6500202
11
121.7991233
21
8.1515202
0
LINE
8
DEFAULT_255_2_778
10
121.7991233
20
8.1515202
11
121.7991233
21
6.1333202
0
LINE
8
DEFAULT_255_2_778
10
121.7991233
20
6.1333202
11
121.8004233
21
5.7724202
0
LINE
8
DEFAULT_255_2_778
10
121.8004233
20
5.7724202
11
121.8020233
21
5.6083202
0
LINE
8
DEFAULT_255_2_778
10
121.8020233
20
5.6083202
11
121.8041233
21
5.4639202
0
LINE
8
DEFAULT_255_2_778
10
121.8041233
20
5.4639202
11
121.8068233
21
5.3440202
0
LINE
8
DEFAULT_255_2_778
10
121.8068233
20
5.3440202
11
121.8097233
21
5.2530202
0
LINE
8
DEFAULT_255_2_778
10
121.8097233
20
5.2530202
11
121.8128233
21
5.1945202
0
LINE
8
DEFAULT_255_2_778
10
121.8128233
20
5.1945202
11
121.8163233
21
5.1705202
0
LINE
8
DEFAULT_255_2_778
10
122.3161233
20
5.6520202
11
122.4219233
21
5.5499202
0
LINE
8
DEFAULT_255_2_778
10
122.4219233
20
5.5499202
11
122.4254233
21
5.5560202
0
LINE
8
DEFAULT_255_2_778
10
122.4254233
20
5.5560202
11
122.4288233
21
5.5800202
0
LINE
8
DEFAULT_255_2_778
10
122.4288233
20
5.5800202
11
122.4320233
21
5.6216202
0
LINE
8
DEFAULT_255_2_778
10
122.4320233
20
5.6216202
11
122.4346233
21
5.6787202
0
LINE
8
DEFAULT_255_2_778
10
122.4346233
20
5.6787202
11
122.4386233
21
5.8311202
0
LINE
8
DEFAULT_255_2_778
10
122.4386233
20
5.8311202
11
122.4402233
21
6.0142202
0
LINE
8
DEFAULT_255_2_778
10
122.4402233
20
6.0142202
11
122.4447233
21
9.6136202
0
LINE
8
DEFAULT_255_2_778
10
5.7645233
20
95.2248202
11
5.5515233
21
95.3479202
0
LINE
8
DEFAULT_255_2_778
10
5.5515233
20
95.3479202
11
5.4517233
21
95.3942202
0
LINE
8
DEFAULT_255_2_778
10
5.5274233
20
95.7558202
11
5.5301233
21
95.8027202
0
LINE
8
DEFAULT_255_2_778
10
5.5301233
20
95.8027202
11
5.5266233
21
95.9223202
0
LINE
8
DEFAULT_255_2_778
10
5.5412233
20
95.7548202
11
5.4906233
21
95.7688202
0
LINE
8
DEFAULT_255_2_778
10
5.4906233
20
95.7688202
11
5.4507233
21
95.7984202
0
LINE
8
DEFAULT_255_2_778
10
5.4507233
20
95.7984202
11
5.4623233
21
95.8344202
0
LINE
8
DEFAULT_255_2_778
10
5.4658233
20
95.9342202
11
5.4607233
21
95.9461202
0
LINE
8
DEFAULT_255_2_778
10
4.1820233
20
105.5560202
11
4.1804233
21
105.5497202
0
LINE
8
DEFAULT_255_2_778
10
4.1804233
20
105.5497202
11
4.1791233
21
105.5317202
0
LINE
8
DEFAULT_255_2_778
10
4.1791233
20
105.5317202
11
4.1780233
21
105.5028202
0
LINE
8
DEFAULT_255_2_778
10
4.1780233
20
105.5028202
11
4.1772233
21
105.4650202
0
LINE
8
DEFAULT_255_2_778
10
4.1772233
20
105.4650202
11
4.1772233
21
105.3631202
0
LINE
8
DEFAULT_255_2_778
10
4.1772233
20
105.3631202
11
4.0151233
21
105.3406202
0
LINE
8
DEFAULT_255_2_778
10
4.0151233
20
105.3406202
11
3.9936233
21
105.3375202
0
LINE
8
DEFAULT_255_2_778
10
3.9936233
20
105.3375202
11
3.9862233
21
105.3361202
0
LINE
8
DEFAULT_255_2_778
10
5.5473233
20
95.7540202
11
5.5496233
21
95.7876202
0
LINE
8
DEFAULT_255_2_778
10
5.5496233
20
95.7876202
11
5.5533233
21
95.8524202
0
LINE
8
DEFAULT_255_2_778
10
5.5533233
20
95.8524202
11
5.5549233
21
95.8913202
0
LINE
8
DEFAULT_255_2_778
10
5.5549233
20
95.8913202
11
5.5557233
21
95.9209202
0
LINE
8
DEFAULT_255_2_778
10
5.5557233
20
95.9209202
11
5.5555233
21
95.9397202
0
LINE
8
DEFAULT_255_2_778
10
5.5555233
20
95.9397202
11
5.5541233
21
95.9463202
0
LINE
8
DEFAULT_255_2_778
10
4.1854233
20
103.9696202
11
4.3765233
21
103.9960202
0
LINE
8
DEFAULT_255_2_778
10
4.3765233
20
103.9960202
11
6.2500233
21
103.9960202
0
LINE
8
DEFAULT_255_2_778
10
5.4517233
20
105.7838202
11
4.1481233
21
105.8058202
0
LINE
8
DEFAULT_255_2_778
10
4.1481233
20
105.8058202
11
4.1471233
21
105.7320202
0
LINE
8
DEFAULT_255_2_778
10
4.1471233
20
105.7320202
11
4.1468233
21
105.6986202
0
LINE
8
DEFAULT_255_2_778
10
4.1468233
20
105.6986202
11
4.1468233
21
105.6695202
0
LINE
8
DEFAULT_255_2_778
10
4.1468233
20
105.6695202
11
4.1468233
21
105.6457202
0
LINE
8
DEFAULT_255_2_778
10
4.1468233
20
105.6457202
11
4.1471233
21
105.6280202
0
LINE
8
DEFAULT_255_2_778
10
4.1471233
20
105.6280202
11
4.1473233
21
105.6216202
0
LINE
8
DEFAULT_255_2_778
10
4.1473233
20
105.6216202
11
4.1476233
21
105.6171202
0
LINE
8
DEFAULT_255_2_778
10
4.1476233
20
105.6171202
11
4.1479233
21
105.6142202
0
LINE
8
DEFAULT_255_2_778
10
4.1479233
20
105.6142202
11
4.1481233
21
105.6132202
0
LINE
8
DEFAULT_255_2_778
10
4.1468233
20
105.6132202
11
5.4504233
21
105.5912202
0
LINE
8
DEFAULT_255_2_778
10
6.2500233
20
105.5732202
11
4.1825233
21
105.5557202
0
LINE
8
DEFAULT_255_2_778
10
3.9862233
20
105.3361202
11
5.3316233
21
96.1154202
0
LINE
8
DEFAULT_255_2_778
10
5.5158233
20
95.9487202
11
7.4443233
21
95.8188202
0
LINE
8
DEFAULT_255_2_778
10
5.3319233
20
96.1141202
11
5.5229233
21
96.1400202
0
LINE
8
DEFAULT_255_2_778
10
5.5229233
20
96.1400202
11
5.5195233
21
96.0908202
0
LINE
8
DEFAULT_255_2_778
10
5.5195233
20
96.0908202
11
5.5142233
21
95.9747202
0
LINE
8
DEFAULT_255_2_778
10
5.5142233
20
95.9747202
11
5.5144233
21
95.9556202
0
LINE
8
DEFAULT_255_2_778
10
5.5144233
20
95.9556202
11
5.5158233
21
95.9490202
0
LINE
8
DEFAULT_255_2_778
10
7.3657233
20
96.0162202
11
5.5229233
21
96.1403202
0
LINE
8
DEFAULT_255_2_778
10
5.5229233
20
96.1403202
11
4.1772233
21
105.3631202
0
LINE
8
DEFAULT_255_2_778
10
4.1772233
20
105.3631202
11
6.2013233
21
105.3801202
0
LINE
8
DEFAULT_255_2_778
10
7.3940233
20
95.8225202
11
6.2013233
21
103.9960202
0
LINE
8
DEFAULT_255_2_778
10
6.2013233
20
103.9960202
11
6.2013233
21
105.5727202
0
LINE
8
DEFAULT_255_2_778
10
5.3544233
20
95.4127202
11
5.3544233
21
95.7982202
0
LINE
8
DEFAULT_255_2_778
10
5.3544233
20
95.7982202
11
5.4509233
21
95.7982202
0
LINE
8
DEFAULT_255_2_778
10
5.4509233
20
95.7982202
11
5.4314233
21
95.8212202
0
LINE
8
DEFAULT_255_2_778
10
5.5425233
20
95.4140202
11
5.5414233
21
95.7545202
0
LINE
8
DEFAULT_255_2_778
10
5.5414233
20
95.7545202
11
7.4724233
21
95.6244202
0
LINE
8
DEFAULT_255_2_778
10
136.4435233
20
33.4504202
11
136.4141233
21
33.4750202
0
LINE
8
DEFAULT_255_2_778
10
125.0717233
20
33.8021202
11
125.0333233
21
33.8915202
0
LINE
8
DEFAULT_255_2_778
10
125.0333233
20
33.8915202
11
125.0249233
21
33.9153202
0
LINE
8
DEFAULT_255_2_778
10
125.0249233
20
33.9153202
11
125.0199233
21
33.9402202
0
LINE
8
DEFAULT_255_2_778
10
125.0199233
20
33.9402202
11
125.0183233
21
33.9653202
0
LINE
8
DEFAULT_255_2_778
10
136.5544233
20
33.3848202
11
137.0544233
21
33.8666202
0
LINE
8
DEFAULT_255_2_778
10
125.0566233
20
33.6745202
11
124.7145233
21
33.6687202
0
LINE
8
DEFAULT_255_2_778
10
132.3237233
20
54.2292202
11
132.3218233
21
54.2263202
0
LINE
8
DEFAULT_255_2_778
10
132.3218233
20
54.2263202
11
132.3155233
21
54.2184202
0
LINE
8
DEFAULT_255_2_778
10
132.3155233
20
54.2184202
11
132.3049233
21
54.2057202
0
LINE
8
DEFAULT_255_2_778
10
132.3049233
20
54.2057202
11
132.2904233
21
54.1885202
0
LINE
8
DEFAULT_255_2_778
10
132.2904233
20
54.1885202
11
132.2710233
21
54.1660202
0
LINE
8
DEFAULT_255_2_778
10
132.2710233
20
54.1660202
11
132.1977233
21
54.0824202
0
LINE
8
DEFAULT_255_2_778
10
132.1977233
20
54.0824202
11
132.1988233
21
54.1562202
0
LINE
8
DEFAULT_255_2_778
10
132.1988233
20
54.1562202
11
132.1991233
21
54.1895202
0
LINE
8
DEFAULT_255_2_778
10
132.1991233
20
54.1895202
11
132.1991233
21
54.2186202
0
LINE
8
DEFAULT_255_2_778
10
132.1991233
20
54.2186202
11
132.1991233
21
54.2427202
0
LINE
8
DEFAULT_255_2_778
10
132.1991233
20
54.2427202
11
132.1988233
21
54.2605202
0
LINE
8
DEFAULT_255_2_778
10
132.1988233
20
54.2605202
11
132.1983233
21
54.2713202
0
LINE
8
DEFAULT_255_2_778
10
132.1983233
20
54.2713202
11
132.1977233
21
54.2750202
0
LINE
8
DEFAULT_255_2_778
10
134.7666233
20
51.7805202
11
134.7666233
21
51.9739202
0
LINE
8
DEFAULT_255_2_778
10
134.7666233
20
51.9739202
11
134.8155233
21
52.0298202
0
LINE
8
DEFAULT_255_2_778
10
134.8155233
20
52.0298202
11
134.8375233
21
52.0549202
0
LINE
8
DEFAULT_255_2_778
10
134.8375233
20
52.0549202
11
134.8565233
21
52.0771202
0
LINE
8
DEFAULT_255_2_778
10
134.8565233
20
52.0771202
11
134.8721233
21
52.0954202
0
LINE
8
DEFAULT_255_2_778
10
134.8721233
20
52.0954202
11
134.8835233
21
52.1091202
0
LINE
8
DEFAULT_255_2_778
10
134.8835233
20
52.1091202
11
134.8904233
21
52.1176202
0
LINE
8
DEFAULT_255_2_778
10
134.8904233
20
52.1176202
11
134.8925233
21
52.1208202
0
LINE
8
DEFAULT_255_2_778
10
130.5647233
20
52.2557202
11
131.3974233
21
52.2557202
0
LINE
8
DEFAULT_255_2_778
10
131.5940233
20
52.4123202
11
131.9630233
21
54.2792202
0
LINE
8
DEFAULT_255_2_778
10
131.9630233
20
54.2792202
11
132.1977233
21
54.2753202
0
LINE
8
DEFAULT_255_2_778
10
132.3239233
20
54.2292202
11
134.8928233
21
52.1208202
0
LINE
8
DEFAULT_255_2_778
10
134.9632233
20
51.7792202
11
134.9632233
21
51.9742202
0
LINE
8
DEFAULT_255_2_778
10
134.9632233
20
51.9742202
11
134.7666233
21
51.9742202
0
LINE
8
DEFAULT_255_2_778
10
134.7666233
20
51.9742202
11
132.1977233
21
54.0827202
0
LINE
8
DEFAULT_255_2_778
10
132.1977233
20
54.0827202
11
131.9252233
21
54.0872202
0
LINE
8
DEFAULT_255_2_778
10
130.9317233
20
53.1910202
11
130.7272233
21
53.4024202
0
LINE
8
DEFAULT_255_2_778
10
130.5732233
20
52.8690202
11
130.9317233
21
53.1910202
0
LINE
8
DEFAULT_255_2_778
10
130.7272233
20
53.4024202
11
130.5653233
21
53.2569202
0
LINE
8
DEFAULT_255_2_778
10
130.5653233
20
55.6942202
11
130.8039233
21
55.4476202
0
LINE
8
DEFAULT_255_2_778
10
130.8039233
20
55.4476202
11
131.0232233
21
55.6448202
0
LINE
8
DEFAULT_255_2_778
10
131.0232233
20
55.6448202
11
130.5653233
21
56.1181202
0
LINE
8
DEFAULT_255_2_778
10
134.8642233
20
85.7009202
11
134.8637233
21
85.7020202
0
LINE
8
DEFAULT_255_2_778
10
134.8637233
20
85.7020202
11
134.8616233
21
85.7046202
0
LINE
8
DEFAULT_255_2_778
10
134.8616233
20
85.7046202
11
134.8579233
21
85.7088202
0
LINE
8
DEFAULT_255_2_778
10
134.8579233
20
85.7088202
11
134.8526233
21
85.7149202
0
LINE
8
DEFAULT_255_2_778
10
134.8526233
20
85.7149202
11
134.8370233
21
85.7324202
0
LINE
8
DEFAULT_255_2_778
10
134.8370233
20
85.7324202
11
134.8153233
21
85.7559202
0
LINE
8
DEFAULT_255_2_778
10
134.8153233
20
85.7559202
11
134.7888233
21
85.7845202
0
LINE
8
DEFAULT_255_2_778
10
134.7888233
20
85.7845202
11
134.7594233
21
85.8160202
0
LINE
8
DEFAULT_255_2_778
10
134.7594233
20
85.8160202
11
134.7002233
21
85.8792202
0
LINE
8
DEFAULT_255_2_778
10
134.7002233
20
85.8792202
11
132.0022233
21
83.5149202
0
LINE
8
DEFAULT_255_2_778
10
134.7166233
20
85.9602202
11
134.7166233
21
85.9147202
0
LINE
8
DEFAULT_255_2_778
10
134.7166233
20
85.9147202
11
134.9621233
21
85.9147202
0
LINE
8
DEFAULT_255_2_778
10
134.9621233
20
85.9147202
11
134.9621233
21
85.9623202
0
LINE
8
DEFAULT_255_2_778
10
134.8639233
20
85.7009202
11
132.3120233
21
83.4649202
0
LINE
8
DEFAULT_255_2_778
10
132.3120233
20
83.4649202
11
132.0120233
21
83.4649202
0
LINE
8
DEFAULT_255_2_778
10
132.0120233
20
83.4649202
11
131.5151233
21
85.9335202
0
LINE
8
DEFAULT_255_2_778
10
127.8729233
20
135.4132202
11
127.8713233
21
135.4172202
0
LINE
8
DEFAULT_255_2_778
10
127.8713233
20
135.4172202
11
127.8699233
21
135.4293202
0
LINE
8
DEFAULT_255_2_778
10
127.8699233
20
135.4293202
11
127.8686233
21
135.4505202
0
LINE
8
DEFAULT_255_2_778
10
127.8686233
20
135.4505202
11
127.8676233
21
135.4809202
0
LINE
8
DEFAULT_255_2_778
10
127.8676233
20
135.4809202
11
127.8668233
21
135.5211202
0
LINE
8
DEFAULT_255_2_778
10
127.8668233
20
135.5211202
11
127.8662233
21
135.5706202
0
LINE
8
DEFAULT_255_2_778
10
127.8662233
20
135.5706202
11
127.8657233
21
135.6955202
0
LINE
8
DEFAULT_255_2_778
10
127.8657233
20
135.6955202
11
127.8662233
21
135.8495202
0
LINE
8
DEFAULT_255_2_778
10
127.8662233
20
135.8495202
11
127.8678233
21
136.0220202
0
LINE
8
DEFAULT_255_2_778
10
127.8678233
20
136.0220202
11
127.8702233
21
136.2011202
0
LINE
8
DEFAULT_255_2_778
10
127.8702233
20
136.2011202
11
127.8731233
21
136.3765202
0
LINE
8
DEFAULT_255_2_778
10
120.0507233
20
137.7233202
11
120.0465233
21
137.9106202
0
LINE
8
DEFAULT_255_2_778
10
120.0465233
20
137.9106202
11
120.0430233
21
138.0910202
0
LINE
8
DEFAULT_255_2_778
10
120.0430233
20
138.0910202
11
120.0407233
21
138.2572202
0
LINE
8
DEFAULT_255_2_778
10
120.0407233
20
138.2572202
11
120.0393233
21
138.4027202
0
LINE
8
DEFAULT_255_2_778
10
120.0393233
20
138.4027202
11
120.0391233
21
138.5223202
0
LINE
8
DEFAULT_255_2_778
10
120.0391233
20
138.5223202
11
120.0393233
21
138.5707202
0
LINE
8
DEFAULT_255_2_778
10
120.0393233
20
138.5707202
11
120.0399233
21
138.6112202
0
LINE
8
DEFAULT_255_2_778
10
120.0399233
20
138.6112202
11
120.0407233
21
138.6430202
0
LINE
8
DEFAULT_255_2_778
10
120.0407233
20
138.6430202
11
120.0417233
21
138.6660202
0
LINE
8
DEFAULT_255_2_778
10
120.0417233
20
138.6660202
11
120.0430233
21
138.6800202
0
LINE
8
DEFAULT_255_2_778
10
120.0430233
20
138.6800202
11
120.0446233
21
138.6848202
0
LINE
8
DEFAULT_255_2_778
10
125.7988233
20
135.4478202
11
125.7993233
21
135.4441202
0
LINE
8
DEFAULT_255_2_778
10
125.7993233
20
135.4441202
11
125.7999233
21
135.4333202
0
LINE
8
DEFAULT_255_2_778
10
125.7999233
20
135.4333202
11
125.8001233
21
135.4156202
0
LINE
8
DEFAULT_255_2_778
10
125.8001233
20
135.4156202
11
125.8001233
21
135.3912202
0
LINE
8
DEFAULT_255_2_778
10
125.8001233
20
135.3912202
11
125.8001233
21
135.3608202
0
LINE
8
DEFAULT_255_2_778
10
125.8001233
20
135.3608202
11
125.7999233
21
135.3264202
0
LINE
8
DEFAULT_255_2_778
10
125.7999233
20
135.3264202
11
125.7988233
21
135.2550202
0
LINE
8
DEFAULT_255_2_778
10
125.7988233
20
135.2550202
11
125.5617233
21
135.2976202
0
LINE
8
DEFAULT_255_2_778
10
125.5617233
20
135.2976202
11
125.4477233
21
135.3182202
0
LINE
8
DEFAULT_255_2_778
10
125.4477233
20
135.3182202
11
125.3397233
21
135.3378202
0
LINE
8
DEFAULT_255_2_778
10
125.3397233
20
135.3378202
11
125.2416233
21
135.3555202
0
LINE
8
DEFAULT_255_2_778
10
125.2416233
20
135.3555202
11
125.1979233
21
135.3634202
0
LINE
8
DEFAULT_255_2_778
10
125.1979233
20
135.3634202
11
125.1593233
21
135.3706202
0
LINE
8
DEFAULT_255_2_778
10
125.1593233
20
135.3706202
11
125.1267233
21
135.3767202
0
LINE
8
DEFAULT_255_2_778
10
125.1267233
20
135.3767202
11
125.1019233
21
135.3814202
0
LINE
8
DEFAULT_255_2_778
10
125.1019233
20
135.3814202
11
125.0860233
21
135.3843202
0
LINE
8
DEFAULT_255_2_778
10
125.0860233
20
135.3843202
11
125.0805233
21
135.3854202
0
LINE
8
DEFAULT_255_2_778
10
129.7101233
20
137.8772202
11
129.7800233
21
137.9468202
0
LINE
8
DEFAULT_255_2_778
10
129.8546233
20
138.0482202
11
130.3107233
21
138.0098202
0
LINE
8
DEFAULT_255_2_778
10
130.3107233
20
138.0098202
11
130.3282233
21
138.2135202
0
LINE
8
DEFAULT_255_2_778
10
130.3282233
20
138.2135202
11
130.3343233
21
138.2760202
0
LINE
8
DEFAULT_255_2_778
10
130.3343233
20
138.2760202
11
130.3353233
21
138.2855202
0
LINE
8
DEFAULT_255_2_778
10
130.3353233
20
138.2855202
11
130.3361233
21
138.2924202
0
LINE
8
DEFAULT_255_2_778
10
130.3361233
20
138.2924202
11
130.3367233
21
138.2966202
0
LINE
8
DEFAULT_255_2_778
10
130.3367233
20
138.2966202
11
130.3369233
21
138.2979202
0
LINE
8
DEFAULT_255_2_778
10
129.7916233
20
136.3953202
11
129.7400233
21
136.4300202
0
LINE
8
DEFAULT_255_2_778
10
130.3570233
20
138.0064202
11
130.3745233
21
138.2069202
0
LINE
8
DEFAULT_255_2_778
10
130.3745233
20
138.2069202
11
130.3795233
21
138.2712202
0
LINE
8
DEFAULT_255_2_778
10
130.3795233
20
138.2712202
11
130.3803233
21
138.2813202
0
LINE
8
DEFAULT_255_2_778
10
130.3803233
20
138.2813202
11
130.3806233
21
138.2884202
0
LINE
8
DEFAULT_255_2_778
10
130.3806233
20
138.2884202
11
130.3808233
21
138.2929202
0
LINE
8
DEFAULT_255_2_778
10
130.3808233
20
138.2929202
11
130.3806233
21
138.2945202
0
LINE
8
DEFAULT_255_2_778
10
125.0805233
20
135.3857202
11
127.1902233
21
132.6750202
0
LINE
8
DEFAULT_255_2_778
10
128.7412233
20
138.8223202
11
129.6934233
21
138.7834202
0
LINE
8
DEFAULT_255_2_778
10
129.6934233
20
138.7834202
11
129.7109233
21
137.8212202
0
LINE
8
DEFAULT_255_2_778
10
127.8723233
20
136.3765202
11
120.0515233
21
136.5080202
0
LINE
8
DEFAULT_255_2_778
10
120.0515233
20
136.5080202
11
120.0483233
21
136.3202202
0
LINE
8
DEFAULT_255_2_778
10
120.0483233
20
136.3202202
11
120.0459233
21
136.1392202
0
LINE
8
DEFAULT_255_2_778
10
120.0459233
20
136.1392202
11
120.0446233
21
135.9728202
0
LINE
8
DEFAULT_255_2_778
10
120.0446233
20
135.9728202
11
120.0441233
21
135.8267202
0
LINE
8
DEFAULT_255_2_778
10
120.0441233
20
135.8267202
11
120.0446233
21
135.7069202
0
LINE
8
DEFAULT_255_2_778
10
120.0446233
20
135.7069202
11
120.0452233
21
135.6582202
0
LINE
8
DEFAULT_255_2_778
10
120.0452233
20
135.6582202
11
120.0459233
21
135.6177202
0
LINE
8
DEFAULT_255_2_778
10
120.0459233
20
135.6177202
11
120.0470233
21
135.5860202
0
LINE
8
DEFAULT_255_2_778
10
120.0470233
20
135.5860202
11
120.0483233
21
135.5629202
0
LINE
8
DEFAULT_255_2_778
10
120.0483233
20
135.5629202
11
120.0497233
21
135.5489202
0
LINE
8
DEFAULT_255_2_778
10
120.0497233
20
135.5489202
11
120.0512233
21
135.5442202
0
LINE
8
DEFAULT_255_2_778
10
120.0441233
20
135.5442202
11
127.8652233
21
135.4127202
0
LINE
8
DEFAULT_255_2_778
10
128.0618233
20
135.2200202
11
127.5705233
21
135.2251202
0
LINE
8
DEFAULT_255_2_778
10
127.5705233
20
135.2251202
11
127.5705233
21
132.9782202
0
LINE
8
DEFAULT_255_2_778
10
127.5705233
20
132.9782202
11
128.0618233
21
132.9782202
0
LINE
8
DEFAULT_255_2_778
10
127.6628233
20
132.6745202
11
127.5707233
21
132.9782202
0
LINE
8
DEFAULT_255_2_778
10
127.5707233
20
132.9782202
11
125.7985233
21
135.2550202
0
LINE
8
DEFAULT_255_2_778
10
125.7985233
20
135.2550202
11
127.5707233
21
135.2251202
0
LINE
8
DEFAULT_255_2_778
10
127.5707233
20
135.2251202
11
127.5718233
21
135.2989202
0
LINE
8
DEFAULT_255_2_778
10
127.5718233
20
135.2989202
11
127.5720233
21
135.3322202
0
LINE
8
DEFAULT_255_2_778
10
127.5720233
20
135.3322202
11
127.5720233
21
135.3613202
0
LINE
8
DEFAULT_255_2_778
10
127.5720233
20
135.3613202
11
127.5720233
21
135.3854202
0
LINE
8
DEFAULT_255_2_778
10
127.5720233
20
135.3854202
11
127.5718233
21
135.4031202
0
LINE
8
DEFAULT_255_2_778
10
127.5718233
20
135.4031202
11
127.5712233
21
135.4140202
0
LINE
8
DEFAULT_255_2_778
10
127.5712233
20
135.4140202
11
127.5707233
21
135.4177202
0
LINE
8
DEFAULT_255_2_778
10
128.7383233
20
138.8260202
11
127.7321233
21
138.8620202
0
LINE
8
DEFAULT_255_2_778
10
127.7321233
20
138.8620202
11
120.0380233
21
138.6840202
0
LINE
8
DEFAULT_255_2_778
10
130.3811233
20
138.2940202
11
130.3113233
21
138.2998202
0
LINE
8
DEFAULT_255_2_778
10
130.3113233
20
138.2998202
11
129.7273233
21
138.2646202
0
LINE
8
DEFAULT_255_2_778
10
130.3113233
20
132.6742202
11
130.3113233
21
138.0103202
0
LINE
8
DEFAULT_255_2_778
10
130.3113233
20
138.0103202
11
130.3576233
21
138.0066202
0
LINE
8
DEFAULT_255_2_778
10
129.7487233
20
132.6750202
11
129.7487233
21
135.7815202
0
LINE
8
DEFAULT_255_2_778
10
129.7487233
20
135.7815202
11
130.1086233
21
135.7815202
0
LINE
8
DEFAULT_255_2_778
10
130.1086233
20
135.7815202
11
130.1086233
21
132.6750202
0
LINE
8
DEFAULT_255_2_778
10
129.7620233
20
132.6750202
11
129.7620233
21
135.0245202
0
LINE
8
DEFAULT_255_2_778
10
129.7620233
20
135.0245202
11
129.7114233
21
137.8193202
0
LINE
8
DEFAULT_255_2_778
10
129.7114233
20
137.8193202
11
127.7620233
21
137.8982202
0
LINE
8
DEFAULT_255_2_778
10
131.0844233
20
132.6750202
11
130.9285233
21
137.7357202
0
LINE
8
DEFAULT_255_2_778
10
130.9285233
20
137.7357202
11
130.6314233
21
137.7272202
0
LINE
8
DEFAULT_255_2_778
10
130.6314233
20
137.7272202
11
130.7870233
21
132.6750202
0
LINE
8
DEFAULT_255_2_778
10
128.0620233
20
132.6750202
11
128.0620233
21
135.2206202
0
LINE
8
DEFAULT_255_2_778
10
128.0620233
20
135.2206202
11
128.5534233
21
135.2206202
0
LINE
8
DEFAULT_255_2_778
10
128.5534233
20
135.2206202
11
128.5534233
21
132.6750202
0
LINE
8
DEFAULT_255_2_778
10
129.7585233
20
135.2206202
11
127.7620233
21
137.1444202
0
LINE
8
DEFAULT_255_2_778
10
127.7620233
20
137.1444202
11
127.7620233
21
137.8982202
0
LINE
8
DEFAULT_255_2_778
10
127.7620233
20
137.8982202
11
120.0446233
21
137.7233202
0
LINE
8
DEFAULT_255_2_778
10
120.0446233
20
137.7233202
11
120.0446233
21
136.5080202
0
LINE
8
DEFAULT_255_2_778
10
120.0446233
20
136.5080202
11
119.0620233
21
136.5080202
0
LINE
8
DEFAULT_255_2_778
10
119.0620233
20
136.5080202
11
119.0620233
21
137.7233202
0
LINE
8
DEFAULT_255_2_778
10
119.0620233
20
137.7233202
11
120.0446233
21
137.7233202
0
LINE
8
DEFAULT_255_2_778
10
36.3868233
20
69.1999202
11
36.3958233
21
69.1343202
0
LINE
8
DEFAULT_255_2_778
10
36.3958233
20
69.1343202
11
36.4011233
21
69.0858202
0
LINE
8
DEFAULT_255_2_778
10
36.4011233
20
69.0858202
11
36.4024233
21
69.0599202
0
LINE
8
DEFAULT_255_2_778
10
36.4024233
20
69.0599202
11
36.4011233
21
69.0517202
0
LINE
8
DEFAULT_255_2_778
10
36.4011233
20
69.0517202
11
38.4937233
21
68.5117202
0
LINE
8
DEFAULT_255_2_778
10
38.4937233
20
68.5117202
11
41.6073233
21
67.6560202
0
LINE
8
DEFAULT_255_2_778
10
136.4427233
20
28.5564202
11
136.4133233
21
28.5811202
0
LINE
8
DEFAULT_255_2_778
10
1.2380233
20
95.1642202
11
1.0171233
21
95.1679202
0
LINE
8
DEFAULT_255_2_778
10
0.2540233
20
94.4438202
11
0.2540233
21
43.8864202
0
LINE
8
DEFAULT_255_2_778
10
1.0171233
20
43.1622202
11
1.2380233
21
43.1659202
0
LINE
8
DEFAULT_255_2_778
10
136.5536233
20
28.5004202
11
137.0536233
21
28.9822202
0
LINE
8
DEFAULT_255_2_778
10
136.3641233
20
51.2918202
11
136.3641233
21
51.2979202
0
LINE
8
DEFAULT_255_2_778
10
129.8639233
20
51.3463202
11
129.8639233
21
51.3524202
0
LINE
8
DEFAULT_255_2_778
10
38.4572233
20
68.5823202
11
38.5106233
21
68.5987202
0
LINE
8
DEFAULT_255_2_778
10
38.5106233
20
68.5987202
11
38.6789233
21
68.6609202
0
LINE
8
DEFAULT_255_2_778
10
38.3159233
20
68.7017202
11
38.3482233
21
68.6710202
0
LINE
8
DEFAULT_255_2_778
10
38.3482233
20
68.6710202
11
38.4569233
21
68.5821202
0
LINE
8
DEFAULT_255_2_778
10
137.0640233
20
29.1444202
11
136.4427233
21
28.5564202
0
LINE
8
DEFAULT_255_2_778
10
136.4427233
20
28.5564202
11
136.4962233
21
28.5157202
0
LINE
8
DEFAULT_255_2_778
10
136.5332233
20
28.4980202
11
125.5300233
21
28.4980202
0
LINE
8
DEFAULT_255_2_778
10
125.5300233
20
28.4980202
11
125.0762233
21
28.9353202
0
LINE
8
DEFAULT_255_2_778
10
125.0762233
20
28.9353202
11
125.2175233
21
29.0716202
0
LINE
8
DEFAULT_255_2_778
10
125.2175233
20
29.0716202
11
125.2175233
21
31.9743202
0
LINE
8
DEFAULT_255_2_778
10
125.2175233
20
31.9743202
11
125.6128233
21
32.3551202
0
LINE
8
DEFAULT_255_2_778
10
137.0640233
20
34.0391202
11
136.4427233
21
33.4512202
0
LINE
8
DEFAULT_255_2_778
10
136.4427233
20
33.4512202
11
136.4962233
21
33.4105202
0
LINE
8
DEFAULT_255_2_778
10
136.4962233
20
32.5302202
11
136.4427233
21
32.4895202
0
LINE
8
DEFAULT_255_2_778
10
136.4427233
20
32.4895202
11
137.0640233
21
31.9016202
0
LINE
8
DEFAULT_255_2_778
10
4.1473233
20
127.9877202
11
4.1471233
21
127.9866202
0
LINE
8
DEFAULT_255_2_778
10
4.1471233
20
127.9866202
11
4.1471233
21
127.9832202
0
LINE
8
DEFAULT_255_2_778
10
4.1471233
20
127.9832202
11
4.1471233
21
127.9773202
0
LINE
8
DEFAULT_255_2_778
10
4.1471233
20
127.9773202
11
4.1471233
21
127.9691202
0
LINE
8
DEFAULT_255_2_778
10
4.1471233
20
127.9691202
11
4.1471233
21
127.9588202
0
LINE
8
DEFAULT_255_2_778
10
4.1471233
20
127.9588202
11
4.1471233
21
127.9461202
0
LINE
8
DEFAULT_255_2_778
10
4.1471233
20
127.9461202
11
4.1468233
21
127.9144202
0
LINE
8
DEFAULT_255_2_778
10
4.1468233
20
127.9144202
11
4.1466233
21
127.8739202
0
LINE
8
DEFAULT_255_2_778
10
4.1466233
20
127.8739202
11
4.1466233
21
127.8252202
0
LINE
8
DEFAULT_255_2_778
10
4.1466233
20
127.8252202
11
4.1466233
21
127.7688202
0
LINE
8
DEFAULT_255_2_778
10
4.1466233
20
127.7688202
11
4.1466233
21
127.7053202
0
LINE
8
DEFAULT_255_2_778
10
4.1466233
20
127.7053202
11
4.1466233
21
127.5593202
0
LINE
8
DEFAULT_255_2_778
10
4.1466233
20
127.5593202
11
4.1468233
21
127.3929202
0
LINE
8
DEFAULT_255_2_778
10
4.1468233
20
127.3929202
11
4.1473233
21
127.2122202
0
LINE
8
DEFAULT_255_2_778
10
4.1473233
20
127.2122202
11
4.1479233
21
127.0243202
0
LINE
8
DEFAULT_255_2_778
10
4.1479233
20
127.0243202
11
5.4515233
21
127.0463202
0
LINE
8
DEFAULT_255_2_778
10
3.9484233
20
127.8392202
11
1.2197233
21
127.7474202
0
LINE
8
DEFAULT_255_2_778
10
1.2229233
20
127.7474202
11
1.2197233
21
127.7426202
0
LINE
8
DEFAULT_255_2_778
10
1.2197233
20
127.7426202
11
1.2168233
21
127.7286202
0
LINE
8
DEFAULT_255_2_778
10
1.2168233
20
127.7286202
11
1.2144233
21
127.7056202
0
LINE
8
DEFAULT_255_2_778
10
1.2144233
20
127.7056202
11
1.2123233
21
127.6739202
0
LINE
8
DEFAULT_255_2_778
10
1.2123233
20
127.6739202
11
1.2094233
21
127.5847202
0
LINE
8
DEFAULT_255_2_778
10
1.2094233
20
127.5847202
11
1.2084233
21
127.4651202
0
LINE
8
DEFAULT_255_2_778
10
1.2084233
20
127.4651202
11
1.2094233
21
127.3193202
0
LINE
8
DEFAULT_255_2_778
10
1.2094233
20
127.3193202
11
1.2123233
21
127.1529202
0
LINE
8
DEFAULT_255_2_778
10
1.2123233
20
127.1529202
11
1.2229233
21
126.7846202
0
LINE
8
DEFAULT_255_2_778
10
1.2229233
20
126.7846202
11
3.9531233
21
126.8764202
0
LINE
8
DEFAULT_255_2_778
10
130.5639233
20
66.3244202
11
130.0485233
21
66.8123202
0
LINE
8
DEFAULT_255_2_778
10
130.5639233
20
61.4296202
11
130.0485233
21
61.9175202
0
LINE
8
DEFAULT_255_2_778
10
130.0485233
20
61.9175202
11
130.0443233
21
61.9170202
0
LINE
8
DEFAULT_255_2_778
10
130.0443233
20
61.9170202
11
130.0332233
21
61.9164202
0
LINE
8
DEFAULT_255_2_778
10
130.0332233
20
61.9164202
11
125.5300233
21
61.9164202
0
LINE
8
DEFAULT_255_2_778
10
125.5300233
20
61.9164202
11
125.0762233
21
61.4791202
0
LINE
8
DEFAULT_255_2_778
10
125.0762233
20
61.4791202
11
125.2175233
21
61.3428202
0
LINE
8
DEFAULT_255_2_778
10
125.2175233
20
61.3428202
11
125.0175233
21
61.3428202
0
LINE
8
DEFAULT_255_2_778
10
125.0175233
20
61.3428202
11
125.0175233
21
33.9661202
0
LINE
8
DEFAULT_255_2_778
10
125.0175233
20
33.9661202
11
125.2175233
21
33.9661202
0
LINE
8
DEFAULT_255_2_778
10
125.2175233
20
33.9661202
11
125.6128233
21
33.5854202
0
LINE
8
DEFAULT_255_2_778
10
125.6128233
20
33.5854202
11
136.3641233
21
33.5854202
0
LINE
8
DEFAULT_255_2_778
10
136.3641233
20
33.5854202
11
136.3641233
21
51.2865202
0
LINE
8
DEFAULT_255_2_778
10
136.3641233
20
51.2865202
11
129.8641233
21
51.3413202
0
LINE
8
DEFAULT_255_2_778
10
129.8641233
20
51.3413202
11
129.8641233
21
61.7238202
0
LINE
8
DEFAULT_255_2_778
10
129.8641233
20
61.7238202
11
125.6128233
21
61.7238202
0
LINE
8
DEFAULT_255_2_778
10
125.6128233
20
61.7238202
11
125.2175233
21
61.3431202
0
LINE
8
DEFAULT_255_2_778
10
125.2175233
20
61.3431202
11
125.2175233
21
33.9664202
0
LINE
8
DEFAULT_255_2_778
10
125.2175233
20
33.9664202
11
125.0762233
21
33.8301202
0
LINE
8
DEFAULT_255_2_778
10
125.0762233
20
33.8301202
11
125.5300233
21
33.3928202
0
LINE
8
DEFAULT_255_2_778
10
125.5300233
20
33.3928202
11
136.5332233
21
33.3928202
0
LINE
8
DEFAULT_255_2_778
10
136.5332233
20
33.3928202
11
136.5443233
21
33.3922202
0
LINE
8
DEFAULT_255_2_778
10
136.5443233
20
33.3922202
11
136.5486233
21
33.3914202
0
LINE
8
DEFAULT_255_2_778
10
130.5639233
20
68.3024202
11
129.9427233
21
67.7145202
0
LINE
8
DEFAULT_255_2_778
10
129.9427233
20
67.7145202
11
129.9133233
21
67.7391202
0
LINE
8
DEFAULT_255_2_778
10
1.2541233
20
95.6831202
11
1.2192233
21
95.6841202
0
LINE
8
DEFAULT_255_2_778
10
34.9837233
20
94.0937202
11
5.2644233
21
94.0937202
0
LINE
8
DEFAULT_255_2_778
10
5.7645233
20
93.6122202
11
34.6906233
21
93.7326202
0
LINE
8
DEFAULT_255_2_778
10
34.6906233
20
93.7326202
11
32.9155233
21
93.5638202
0
LINE
8
DEFAULT_255_2_778
10
137.0640233
20
32.0608202
11
136.5486233
21
32.5487202
0
LINE
8
DEFAULT_255_2_778
10
136.5486233
20
32.5487202
11
136.5639233
21
32.5845202
0
LINE
8
DEFAULT_255_2_778
10
136.4041233
20
128.0715202
11
136.3996233
21
131.7283202
0
LINE
8
DEFAULT_255_2_778
10
136.3996233
20
131.7283202
11
136.3980233
21
131.9114202
0
LINE
8
DEFAULT_255_2_778
10
136.3980233
20
131.9114202
11
136.3940233
21
132.0638202
0
LINE
8
DEFAULT_255_2_778
10
136.3940233
20
132.0638202
11
136.3914233
21
132.1210202
0
LINE
8
DEFAULT_255_2_778
10
136.3914233
20
132.1210202
11
136.3882233
21
132.1625202
0
LINE
8
DEFAULT_255_2_778
10
136.3882233
20
132.1625202
11
136.3848233
21
132.1866202
0
LINE
8
DEFAULT_255_2_778
10
136.3848233
20
132.1866202
11
136.3813233
21
132.1927202
0
LINE
8
DEFAULT_255_2_778
10
136.3813233
20
132.1927202
11
136.2755233
21
132.0905202
0
LINE
8
DEFAULT_255_2_778
10
135.7757233
20
132.5721202
11
135.7725233
21
132.5480202
0
LINE
8
DEFAULT_255_2_778
10
135.7725233
20
132.5480202
11
135.7694233
21
132.4895202
0
LINE
8
DEFAULT_255_2_778
10
135.7694233
20
132.4895202
11
135.7664233
21
132.3985202
0
LINE
8
DEFAULT_255_2_778
10
135.7664233
20
132.3985202
11
135.7638233
21
132.2787202
0
LINE
8
DEFAULT_255_2_778
10
135.7638233
20
132.2787202
11
135.7617233
21
132.1342202
0
LINE
8
DEFAULT_255_2_778
10
135.7617233
20
132.1342202
11
135.7601233
21
131.9702202
0
LINE
8
DEFAULT_255_2_778
10
135.7601233
20
131.9702202
11
135.7588233
21
131.6093202
0
LINE
8
DEFAULT_255_2_778
10
135.7588233
20
131.6093202
11
135.7588233
21
129.5910202
0
LINE
8
DEFAULT_255_2_778
10
135.7588233
20
129.5910202
11
135.2410233
21
129.0926202
0
LINE
8
DEFAULT_255_2_778
10
129.9289233
20
67.6560202
11
125.5300233
21
67.6560202
0
LINE
8
DEFAULT_255_2_778
10
125.5300233
20
67.6560202
11
125.0762233
21
68.0934202
0
LINE
8
DEFAULT_255_2_778
10
125.0762233
20
68.0934202
11
125.2175233
21
68.2297202
0
LINE
8
DEFAULT_255_2_778
10
125.2175233
20
68.2297202
11
125.2175233
21
70.1085202
0
LINE
8
DEFAULT_255_2_778
10
125.2175233
20
70.1085202
11
125.0175233
21
70.1085202
0
LINE
8
DEFAULT_255_2_778
10
125.0175233
20
70.1085202
11
125.0175233
21
68.2297202
0
LINE
8
DEFAULT_255_2_778
10
125.0175233
20
68.2297202
11
125.2175233
21
68.2297202
0
LINE
8
DEFAULT_255_2_778
10
125.2175233
20
68.2297202
11
125.6128233
21
67.8489202
0
LINE
8
DEFAULT_255_2_778
10
125.6128233
20
67.8489202
11
129.8641233
21
67.8489202
0
LINE
8
DEFAULT_255_2_778
10
129.8641233
20
67.8489202
11
129.8641233
21
86.4023202
0
LINE
8
DEFAULT_255_2_778
10
129.8641233
20
86.4023202
11
136.3641233
21
86.4571202
0
LINE
8
DEFAULT_255_2_778
10
136.3641233
20
86.4571202
11
136.3641233
21
128.0848202
0
LINE
8
DEFAULT_255_2_778
10
137.0642233
20
127.1656202
11
137.0642233
21
85.9808202
0
LINE
8
DEFAULT_255_2_778
10
115.8431233
20
68.0720202
11
115.8137233
21
68.0037202
0
LINE
8
DEFAULT_255_2_778
10
115.8137233
20
68.0037202
11
115.4142233
21
67.6187202
0
LINE
8
DEFAULT_255_2_778
10
115.4142233
20
67.6187202
11
41.6047233
21
67.6187202
0
LINE
8
DEFAULT_255_2_778
10
31.6532233
20
131.7289202
11
31.6542233
21
131.8789202
0
LINE
8
DEFAULT_255_2_778
10
31.6542233
20
131.8789202
11
31.6614233
21
132.1345202
0
LINE
8
DEFAULT_255_2_778
10
32.1704233
20
132.6750202
11
135.8821233
21
132.6750202
0
LINE
8
DEFAULT_255_2_778
10
135.8821233
20
132.6750202
11
135.8815233
21
132.6745202
0
LINE
8
DEFAULT_255_2_778
10
135.8815233
20
132.6745202
11
135.7757233
21
132.5724202
0
LINE
8
DEFAULT_255_2_778
10
135.7757233
20
132.5724202
11
32.2773233
21
132.5724202
0
LINE
8
DEFAULT_255_2_778
10
32.2773233
20
132.5724202
11
32.1715233
21
132.6745202
0
LINE
8
DEFAULT_255_2_778
10
32.1715233
20
132.6745202
11
32.1709233
21
132.6750202
0
LINE
8
DEFAULT_255_2_778
10
1.2192233
20
42.6463202
11
1.2541233
21
42.6474202
0
LINE
8
DEFAULT_255_2_778
10
137.0642233
20
32.1027202
11
136.5642233
21
32.5845202
0
LINE
8
DEFAULT_255_2_778
10
136.5642233
20
32.5845202
11
125.5141233
21
32.5845202
0
LINE
8
DEFAULT_255_2_778
10
125.5141233
20
32.5845202
11
125.6128233
21
32.3548202
0
LINE
8
DEFAULT_255_2_778
10
125.6128233
20
32.3548202
11
136.3641233
21
32.3548202
0
LINE
8
DEFAULT_255_2_778
10
136.3641233
20
32.3548202
11
136.3641233
21
28.6903202
0
LINE
8
DEFAULT_255_2_778
10
136.3641233
20
28.6903202
11
125.6128233
21
28.6903202
0
LINE
8
DEFAULT_255_2_778
10
125.6128233
20
28.6903202
11
125.2175233
21
29.0711202
0
LINE
8
DEFAULT_255_2_778
10
125.2175233
20
29.0711202
11
125.0175233
21
29.0711202
0
LINE
8
DEFAULT_255_2_778
10
125.0175233
20
29.0711202
11
125.0175233
21
31.9738202
0
LINE
8
DEFAULT_255_2_778
10
125.0175233
20
31.9738202
11
125.2175233
21
31.9738202
0
LINE
8
DEFAULT_255_2_778
10
125.2175233
20
31.9738202
11
125.0762233
21
32.1101202
0
LINE
8
DEFAULT_255_2_778
10
125.0762233
20
32.1101202
11
125.5300233
21
32.5474202
0
LINE
8
DEFAULT_255_2_778
10
125.5300233
20
32.5474202
11
136.5332233
21
32.5474202
0
LINE
8
DEFAULT_255_2_778
10
136.5332233
20
32.5474202
11
136.5443233
21
32.5479202
0
LINE
8
DEFAULT_255_2_778
10
136.5443233
20
32.5479202
11
136.5486233
21
32.5485202
0
LINE
8
DEFAULT_255_2_778
10
31.6489233
20
128.1289202
11
31.6534233
21
131.7283202
0
LINE
8
DEFAULT_255_2_778
10
31.6534233
20
131.7283202
11
31.6550233
21
131.9114202
0
LINE
8
DEFAULT_255_2_778
10
31.6550233
20
131.9114202
11
31.6590233
21
132.0638202
0
LINE
8
DEFAULT_255_2_778
10
31.6590233
20
132.0638202
11
31.6616233
21
132.1210202
0
LINE
8
DEFAULT_255_2_778
10
31.6616233
20
132.1210202
11
31.6648233
21
132.1625202
0
LINE
8
DEFAULT_255_2_778
10
31.6648233
20
132.1625202
11
31.6683233
21
132.1866202
0
LINE
8
DEFAULT_255_2_778
10
31.6683233
20
132.1866202
11
31.6717233
21
132.1927202
0
LINE
8
DEFAULT_255_2_778
10
31.6759233
20
130.0562202
11
32.7607233
21
129.0923202
0
LINE
8
DEFAULT_255_2_778
10
32.7607233
20
129.0923202
11
135.2920233
21
129.0923202
0
LINE
8
DEFAULT_255_2_778
10
135.2920233
20
129.0923202
11
135.7900233
21
129.5714202
0
LINE
8
DEFAULT_255_2_778
10
135.7900233
20
129.5714202
11
136.2689233
21
130.0559202
0
LINE
8
DEFAULT_255_2_778
10
5.4589233
20
127.1653202
11
31.6473233
21
127.1653202
0
LINE
8
DEFAULT_255_2_778
10
31.6473233
20
127.1653202
11
31.6550233
21
130.8973202
0
LINE
8
DEFAULT_255_2_778
10
1.2144233
20
42.6360202
11
1.2105233
21
42.6048202
0
LINE
8
DEFAULT_255_2_778
10
1.2105233
20
42.6048202
11
1.2076233
21
42.5537202
0
LINE
8
DEFAULT_255_2_778
10
1.2076233
20
42.5537202
11
1.2057233
21
42.4838202
0
LINE
8
DEFAULT_255_2_778
10
1.2057233
20
42.4838202
11
1.2049233
21
42.3968202
0
LINE
8
DEFAULT_255_2_778
10
1.2049233
20
42.3968202
11
1.2052233
21
42.2944202
0
LINE
8
DEFAULT_255_2_778
10
1.2052233
20
42.2944202
11
1.2086233
21
42.0523202
0
LINE
8
DEFAULT_255_2_778
10
1.2086233
20
42.0523202
11
1.2192233
21
41.6837202
0
LINE
8
DEFAULT_255_2_778
10
1.2192233
20
41.6837202
11
0.2540233
21
41.6837202
0
LINE
8
DEFAULT_255_2_778
10
0.2540233
20
41.6837202
11
0.2540233
21
10.9587202
0
LINE
8
DEFAULT_255_2_778
10
1.2192233
20
9.9959202
11
5.3401233
21
9.8573202
0
LINE
8
DEFAULT_255_2_778
10
5.2647233
20
10.5777202
11
44.8900233
21
10.5777202
0
LINE
8
DEFAULT_255_2_778
10
44.8900233
20
10.5777202
11
42.6117233
21
26.2588202
0
LINE
8
DEFAULT_255_2_778
10
42.6117233
20
26.2588202
11
47.4038233
21
27.6902202
0
LINE
8
DEFAULT_255_2_778
10
46.7733233
20
10.4835202
11
44.9188233
21
10.4835202
0
LINE
8
DEFAULT_255_2_778
10
44.9188233
20
10.4835202
11
42.6516233
21
26.0874202
0
LINE
8
DEFAULT_255_2_778
10
42.6516233
20
26.0874202
11
44.4360233
21
26.5879202
0
LINE
8
DEFAULT_255_2_778
10
44.4360233
20
26.5879202
11
46.7691233
21
10.5309202
0
LINE
8
DEFAULT_255_2_778
10
46.7691233
20
10.5309202
11
47.1191233
21
10.5783202
0
LINE
8
DEFAULT_255_2_778
10
47.1191233
20
10.5783202
11
65.8646233
21
10.5783202
0
LINE
8
DEFAULT_255_2_778
10
65.8646233
20
10.5783202
11
65.8646233
21
6.8204202
0
LINE
8
DEFAULT_255_2_778
10
122.4463233
20
6.8204202
11
122.4047233
21
10.5783202
0
LINE
8
DEFAULT_255_2_778
10
122.4047233
20
10.5783202
11
137.0648233
21
10.5783202
0
LINE
8
DEFAULT_255_2_778
10
137.0648233
20
10.5783202
11
137.0648233
21
51.7623202
0
LINE
8
DEFAULT_255_2_778
10
137.0648233
20
51.7623202
11
130.5647233
21
51.8170202
0
LINE
8
DEFAULT_255_2_778
10
130.5647233
20
51.8170202
11
130.5647233
21
85.9260202
0
LINE
8
DEFAULT_255_2_778
10
130.5647233
20
85.9260202
11
137.0356233
21
85.9806202
0
LINE
8
DEFAULT_255_2_778
10
136.9872233
20
85.9943202
11
136.9205233
21
86.0314202
0
LINE
8
DEFAULT_255_2_778
10
136.9205233
20
86.0314202
11
136.8412233
21
86.0848202
0
LINE
8
DEFAULT_255_2_778
10
136.8412233
20
86.0848202
11
136.7533233
21
86.1494202
0
LINE
8
DEFAULT_255_2_778
10
136.7533233
20
86.1494202
11
136.5634233
21
86.2973202
0
LINE
8
DEFAULT_255_2_778
10
136.5634233
20
86.2973202
11
136.3649233
21
86.4565202
0
LINE
8
DEFAULT_255_2_778
10
31.6516233
20
128.1289202
11
5.4589233
21
128.1289202
0
LINE
8
DEFAULT_255_2_778
10
5.4589233
20
128.1289202
11
5.4589233
21
105.7748202
0
LINE
8
DEFAULT_255_2_778
10
5.4589233
20
105.7748202
11
6.2489233
21
105.7748202
0
LINE
8
DEFAULT_255_2_778
10
6.2489233
20
105.7748202
11
6.2489233
21
104.0693202
0
LINE
8
DEFAULT_255_2_778
10
6.2489233
20
104.0693202
11
7.5285233
21
95.2320202
0
LINE
8
DEFAULT_255_2_778
10
7.5285233
20
95.2320202
11
5.7645233
21
95.2320202
0
LINE
8
DEFAULT_255_2_778
10
5.7645233
20
95.2320202
11
5.7645233
21
9.6136202
0
LINE
8
DEFAULT_255_2_778
10
5.7645233
20
9.6136202
11
65.8265233
21
9.6136202
0
LINE
8
DEFAULT_255_2_778
10
5.4494233
20
105.5671202
11
5.4494233
21
127.2960202
0
LINE
8
DEFAULT_255_2_778
10
5.2644233
20
10.0957202
11
5.2644233
21
95.4132202
0
LINE
8
DEFAULT_255_2_778
10
5.2644233
20
95.4132202
11
7.4996233
21
95.4320202
0
LINE
8
DEFAULT_255_2_778
10
3.9494233
20
127.0243202
11
4.1460233
21
127.0243202
0
LINE
8
DEFAULT_255_2_778
10
4.1460233
20
127.0243202
11
4.1460233
21
105.8066202
0
LINE
8
DEFAULT_255_2_778
10
4.1460233
20
105.8066202
11
3.9494233
21
105.8066202
0
LINE
8
DEFAULT_255_2_778
10
3.9494233
20
105.8066202
11
3.9494233
21
127.7950202
0
LINE
8
DEFAULT_255_2_778
10
4.1460233
20
127.9877202
11
5.4496233
21
128.0096202
0
LINE
8
DEFAULT_255_2_778
10
1.2192233
20
96.6472202
11
0.2540233
21
96.6472202
0
LINE
8
DEFAULT_255_2_778
10
0.2540233
20
96.6472202
11
0.2540233
21
126.7843202
0
LINE
8
DEFAULT_255_2_778
10
0.2540233
20
126.7843202
11
1.2192233
21
126.7843202
0
LINE
8
DEFAULT_255_2_778
10
1.2192233
20
126.7843202
11
1.2192233
21
96.6464202
0
LINE
8
DEFAULT_255_2_778
10
1.2192233
20
96.6464202
11
1.2541233
21
96.6464202
0
LINE
8
DEFAULT_255_2_778
10
1.2541233
20
96.6464202
11
1.2192233
21
44.2047202
0
LINE
8
DEFAULT_255_2_778
10
1.2192233
20
44.2047202
11
1.2192233
21
13.9073202
0
LINE
8
DEFAULT_255_2_778
10
1.2192233
20
13.9073202
11
5.2644233
21
11.6467202
0
LINE
8
DEFAULT_255_2_778
10
130.2398233
20
144.5789202
11
130.2388233
21
144.4945202
0
LINE
8
DEFAULT_255_2_778
10
130.2388233
20
144.4945202
11
130.2398233
21
144.2907202
0
LINE
8
DEFAULT_255_2_778
10
130.2689233
20
144.5784202
11
130.2740233
21
144.5561202
0
LINE
8
DEFAULT_255_2_778
10
130.2740233
20
144.5561202
11
130.2565233
21
144.2905202
0
LINE
8
DEFAULT_255_2_778
10
130.2565233
20
144.2905202
11
130.2388233
21
144.2905202
0
LINE
8
DEFAULT_255_2_778
10
130.2388233
20
144.2905202
11
129.8570233
21
144.2873202
0
LINE
8
DEFAULT_255_2_778
10
129.8570233
20
144.2873202
11
129.9091233
21
144.5744202
0
LINE
8
DEFAULT_255_2_778
10
129.9091233
20
144.5744202
11
129.9094233
21
144.5757202
0
LINE
8
DEFAULT_255_2_778
10
130.2562233
20
144.2902202
11
130.2562233
21
138.2934202
0
LINE
8
DEFAULT_255_2_778
10
129.7572233
20
142.0685202
11
130.0538233
21
142.0685202
0
LINE
8
DEFAULT_255_2_778
10
130.0538233
20
142.0685202
11
130.0538233
21
138.2858202
0
LINE
8
DEFAULT_255_2_778
10
129.6522233
20
139.3608202
11
129.6196233
21
139.4092202
0
LINE
8
DEFAULT_255_2_778
10
128.9949233
20
138.7956202
11
129.6091233
21
139.5185202
0
LINE
8
DEFAULT_255_2_778
10
129.6522233
20
139.3605202
11
129.5122233
21
139.0523202
0
LINE
8
DEFAULT_255_2_778
10
129.5122233
20
139.0523202
11
129.3289233
21
139.2102202
0
LINE
8
DEFAULT_255_2_778
10
129.8570233
20
144.2868202
11
129.7088233
21
144.3992202
0
LINE
8
DEFAULT_255_2_778
10
129.5596233
20
144.0711202
11
129.7345233
21
144.4725202
0
LINE
8
DEFAULT_255_2_778
10
129.7575233
20
138.2596202
11
129.7575233
21
142.0690202
0
LINE
8
DEFAULT_255_2_778
10
129.9094233
20
144.5762202
11
130.2388233
21
144.5789202
0
LINE
8
DEFAULT_255_2_778
10
129.5125233
20
138.8073202
11
129.5125233
21
139.0528202
0
LINE
8
DEFAULT_255_2_778
10
129.5125233
20
139.0528202
11
129.3043233
21
138.8036202
0
LINE
8
DEFAULT_255_2_778
10
130.7282233
20
138.1487202
11
130.5459233
21
144.0111202
0
LINE
8
DEFAULT_255_2_778
10
130.5459233
20
144.0111202
11
130.8425233
21
144.0196202
0
LINE
8
DEFAULT_255_2_778
10
130.8425233
20
144.0196202
11
131.1278233
21
132.7375202
0
ENDSEC
0
EOF