0
SECTION
2
HEADER
9
$MEASUREMENT
70
1
0
ENDSEC
0
SECTION
2
TABLES
0
TABLE
2
LTYPE
0
LTYPE
72
65
70
64
2
CONTINUOUS
3
______
73
0
40
0
0
ENDTAB
0
TABLE
2
LAYER
0
LAYER
2
DEFAULT_255_2_778
70
0
62
255
6
CONTINUOUS
0
LAYER
2
DEFAULT_255_1_388
70
0
62
255
6
CONTINUOUS
0
ENDTAB
0
ENDSEC
0
SECTION
2
ENTITIES
0
ARC
8
DEFAULT_255_2_778
10
3.5700693
20
44.0552035
40
0.7914215
50
129.1312896
51
180.1450914
0
ARC
8
DEFAULT_255_2_778
10
3.5703345
20
44.0556906
40
0.7912112
50
89.854026
51
129.1684493
0
ARC
8
DEFAULT_255_2_778
10
25.7993937
20
44.0553771
40
0.7915249
50
39.4792447
51
90.147911
0
ARC
8
DEFAULT_255_2_778
10
25.7999935
20
44.0552238
40
0.7911595
50
359.8533901
51
39.5154338
0
ARC
8
DEFAULT_255_2_778
10
25.7996693
20
-1.9863488
40
0.7914836
50
309.4761667
51
0.1482649
0
ARC
8
DEFAULT_255_2_778
10
25.799398
20
-1.9867799
40
0.7913235
50
269.8517415
51
309.511178
0
ARC
8
DEFAULT_255_2_778
10
3.570342
20
-1.9867217
40
0.7913815
50
219.1282118
51
270.1454017
0
ARC
8
DEFAULT_255_2_778
10
3.5700247
20
-1.9863392
40
0.7913769
50
179.8524075
51
219.1641908
0
LINE
8
DEFAULT_255_2_778
10
3.5723503
20
44.8468993
11
25.7973503
21
44.8468993
0
LINE
8
DEFAULT_255_2_778
10
26.5911503
20
44.0531993
11
26.5911503
21
-1.9843007
0
LINE
8
DEFAULT_255_2_778
10
25.7973503
20
-2.7781007
11
3.5723503
21
-2.7781007
0
LINE
8
DEFAULT_255_2_778
10
2.7786503
20
-1.9843007
11
2.7786503
21
44.0531993
0
LINE
8
DEFAULT_255_1_388
10
8.9927618
20
-0.0145334
11
8.8590343
21
0.0198021
0
LINE
8
DEFAULT_255_1_388
10
8.8590343
20
0.0198021
11
8.925898
21
0.6757898
0
LINE
8
DEFAULT_255_1_388
10
8.925898
20
0.6757898
11
9.5999571
21
0.6757898
0
LINE
8
DEFAULT_255_1_388
10
9.5999571
20
0.6757898
11
9.5999571
21
0.5212803
0
LINE
8
DEFAULT_255_1_388
10
9.5999571
20
0.5212803
11
9.0677577
21
0.5212803
0
LINE
8
DEFAULT_255_1_388
10
9.0677577
20
0.5212803
11
9.0280008
21
0.1625652
0
LINE
8
DEFAULT_255_1_388
10
8.8120489
20
-0.2937348
11
8.9701727
21
-0.2937348
0
LINE
8
DEFAULT_255_1_388
10
9.0370365
20
0.0216092
11
8.9927618
21
-0.0145334
0
ARC
8
DEFAULT_255_1_388
10
9.2366622
20
-0.1951759
40
0.4141476
50
93.7181681
51
120.253934
0
ARC
8
DEFAULT_255_1_388
10
9.2472674
20
-0.2860716
40
0.5055616
50
89.9660471
51
94.2495185
0
ARC
8
DEFAULT_255_1_388
10
9.2518496
20
-0.2197846
40
0.4392953
50
73.8045384
51
90.5585736
0
ARC
8
DEFAULT_255_1_388
10
9.2782754
20
-0.123248
40
0.3392225
50
41.3071072
51
73.543002
0
ARC
8
DEFAULT_255_1_388
10
9.2314574
20
-0.1635539
40
0.4009977
50
13.5075837
51
41.2174839
0
ARC
8
DEFAULT_255_1_388
10
9.0467671
20
-0.2119093
40
0.5918864
50
1.1330171
51
13.8830737
0
ARC
8
DEFAULT_255_1_388
10
8.8871317
20
-0.2204478
40
0.7516787
50
359.9925091
51
1.5431298
0
ARC
8
DEFAULT_255_1_388
10
9.0315932
20
-0.2250973
40
0.6072343
50
347.8572712
51
0.4294349
0
ARC
8
DEFAULT_255_1_388
10
9.2285066
20
-0.2697102
40
0.4053482
50
323.6727442
51
348.1674594
0
ARC
8
DEFAULT_255_1_388
10
9.2616031
20
-0.2898825
40
0.3667495
50
316.8171818
51
323.1486802
0
ARC
8
DEFAULT_255_1_388
10
9.2685155
20
-0.2940388
40
0.358869
50
281.839603
51
316.5458142
0
ARC
8
DEFAULT_255_1_388
10
9.2262442
20
-0.1190637
40
0.5388223
50
269.5770964
51
282.4214641
0
ARC
8
DEFAULT_255_1_388
10
9.2182363
20
-0.143107
40
0.5147801
50
256.2425863
51
270.4486481
0
ARC
8
DEFAULT_255_1_388
10
9.1845891
20
-0.2780876
40
0.3756708
50
228.9024379
51
256.33135
0
ARC
8
DEFAULT_255_1_388
10
9.1762871
20
-0.2911946
40
0.360344
50
193.7536029
51
228.5272638
0
ARC
8
DEFAULT_255_1_388
10
9.3155436
20
-0.2503537
40
0.5053599
50
184.9244437
51
194.4976052
0
ARC
8
DEFAULT_255_1_388
10
9.3372077
20
-0.2463278
40
0.3700839
50
187.3596909
51
198.6733728
0
ARC
8
DEFAULT_255_1_388
10
9.2191321
20
-0.2872627
40
0.2451195
50
198.4453795
51
217.7945479
0
ARC
8
DEFAULT_255_1_388
10
9.1858493
20
-0.3108437
40
0.2043754
50
218.2887146
51
228.5613203
0
ARC
8
DEFAULT_255_1_388
10
9.19685
20
-0.2960098
40
0.2227819
50
228.9652423
51
258.1237049
0
ARC
8
DEFAULT_255_1_388
10
9.2199937
20
-0.1969036
40
0.3245374
50
257.7260585
51
270.4013717
0
ARC
8
DEFAULT_255_1_388
10
9.2250435
20
-0.2469745
40
0.2744726
50
269.4204315
51
286.420998
0
ARC
8
DEFAULT_255_1_388
10
9.2417491
20
-0.3076295
40
0.2115721
50
286.7250065
51
320.6004665
0
ARC
8
DEFAULT_255_1_388
10
9.1986407
20
-0.2726473
40
0.2670878
50
320.6712228
51
344.5440474
0
ARC
8
DEFAULT_255_1_388
10
9.068512
20
-0.2344606
40
0.4026927
50
344.241448
51
356.735803
0
ARC
8
DEFAULT_255_1_388
10
8.9281428
20
-0.2228344
40
0.5435085
50
356.3547471
51
0.0507222
0
ARC
8
DEFAULT_255_1_388
10
9.0783693
20
-0.2193188
40
0.3932934
50
359.5579289
51
12.9534322
0
ARC
8
DEFAULT_255_1_388
10
9.1970533
20
-0.1905414
40
0.2711827
50
12.6489751
51
41.608121
0
ARC
8
DEFAULT_255_1_388
10
9.2229693
20
-0.1685054
40
0.2371737
50
41.7851122
51
85.9892156
0
ARC
8
DEFAULT_255_1_388
10
9.2091003
20
-0.2600262
40
0.3295244
50
84.6965848
51
90.0672125
0
ARC
8
DEFAULT_255_1_388
10
9.206457
20
-0.3351882
40
0.4046926
50
89.6804991
51
99.161352
0
ARC
8
DEFAULT_255_1_388
10
9.1833579
20
-0.1971152
40
0.2647044
50
98.9836248
51
113.8905702
0
ARC
8
DEFAULT_255_1_388
10
9.1575254
20
-0.1361882
40
0.1985386
50
114.195234
51
127.3641866
0
LINE
8
DEFAULT_255_1_388
10
10.6462848
20
0.138169
11
10.6462848
21
-0.0786865
0
LINE
8
DEFAULT_255_1_388
10
9.815909
20
-0.1012756
11
9.815909
21
0.1219048
0
LINE
8
DEFAULT_255_1_388
10
10.4791253
20
-0.1238647
11
10.4791253
21
0.1499153
0
LINE
8
DEFAULT_255_1_388
10
9.9830685
20
0.1625652
11
9.9830685
21
-0.1048898
0
ARC
8
DEFAULT_255_1_388
10
9.2685182
20
-0.0841882
40
1.3777776
50
353.8440855
51
0.2287917
0
ARC
8
DEFAULT_255_1_388
10
9.7904199
20
-0.1424586
40
0.852639
50
344.4934746
51
353.9763743
0
ARC
8
DEFAULT_255_1_388
10
10.1271006
20
-0.2381809
40
0.5026273
50
329.2803599
51
344.7473406
0
ARC
8
DEFAULT_255_1_388
10
10.2386502
20
-0.2993962
40
0.3754848
50
324.9361395
51
328.6153007
0
ARC
8
DEFAULT_255_1_388
10
10.2812152
20
-0.3291414
40
0.3235566
50
280.5801797
51
324.9173226
0
ARC
8
DEFAULT_255_1_388
10
10.236078
20
-0.1411764
40
0.5167077
50
269.5979457
51
281.6732777
0
ARC
8
DEFAULT_255_1_388
10
10.2279684
20
-0.1546887
40
0.5032026
50
256.6228565
51
270.5105488
0
ARC
8
DEFAULT_255_1_388
10
10.1827427
20
-0.3288655
40
0.3233092
50
215.8618351
51
257.2787793
0
ARC
8
DEFAULT_255_1_388
10
10.2976134
20
-0.2517894
40
0.4615831
50
197.9695203
51
215.2622745
0
ARC
8
DEFAULT_255_1_388
10
10.5771809
20
-0.1574359
40
0.7566307
50
187.8816486
51
198.2346584
0
ARC
8
DEFAULT_255_1_388
10
11.0225048
20
-0.0931547
40
1.2065653
50
180.8977266
51
188.0054894
0
ARC
8
DEFAULT_255_1_388
10
11.3275261
20
-0.08166
40
1.5117443
50
180.7434591
51
181.152202
0
ARC
8
DEFAULT_255_1_388
10
11.1600257
20
0.1273371
40
1.3441277
50
173.7674302
51
180.2315596
0
ARC
8
DEFAULT_255_1_388
10
10.6518126
20
0.1847779
40
0.8326847
50
164.3058537
51
173.9000553
0
ARC
8
DEFAULT_255_1_388
10
10.3242126
20
0.2791652
40
0.4917711
50
148.7922028
51
164.5682288
0
ARC
8
DEFAULT_255_1_388
10
10.2172864
20
0.3388457
40
0.3694204
50
144.5883979
51
148.1161588
0
ARC
8
DEFAULT_255_1_388
10
10.1785609
20
0.3658667
40
0.322202
50
101.6440149
51
144.5142619
0
ARC
8
DEFAULT_255_1_388
10
10.2263801
20
0.1758337
40
0.5180451
50
89.528284
51
102.5820197
0
ARC
8
DEFAULT_255_1_388
10
10.2352793
20
0.1714376
40
0.5224441
50
77.0437914
51
90.508231
0
ARC
8
DEFAULT_255_1_388
10
10.2805047
20
0.3562272
40
0.3322297
50
48.2777708
51
77.4996087
0
ARC
8
DEFAULT_255_1_388
10
10.2886787
20
0.3707557
40
0.315966
50
36.3141586
51
47.6307332
0
ARC
8
DEFAULT_255_1_388
10
10.1909509
20
0.3049159
40
0.4337313
50
18.2931065
51
35.6770203
0
ARC
8
DEFAULT_255_1_388
10
9.904835
20
0.2067107
40
0.7362203
50
8.0246996
51
18.5605636
0
ARC
8
DEFAULT_255_1_388
10
9.4364705
20
0.1375432
40
1.2096583
50
1.127539
51
8.1718423
0
ARC
8
DEFAULT_255_1_388
10
9.0715839
20
0.1232374
40
1.5747719
50
0.5432713
51
1.38669
0
ARC
8
DEFAULT_255_1_388
10
9.2773217
20
0.1539163
40
1.2018103
50
359.8092569
51
4.9408001
0
ARC
8
DEFAULT_255_1_388
10
9.7509799
20
0.19619
40
0.7262727
50
4.8364937
51
12.2906017
0
ARC
8
DEFAULT_255_1_388
10
10.0609263
20
0.2652485
40
0.4087324
50
12.0806994
51
23.8171225
0
ARC
8
DEFAULT_255_1_388
10
10.1929659
20
0.3211508
40
0.2653719
50
24.2874621
51
31.3934353
0
ARC
8
DEFAULT_255_1_388
10
10.2520095
20
0.3597822
40
0.1948607
50
30.7407708
51
82.4658033
0
ARC
8
DEFAULT_255_1_388
10
10.2317756
20
0.2604017
40
0.2961198
50
81.1057101
51
90.2187368
0
ARC
8
DEFAULT_255_1_388
10
10.2277568
20
0.2894421
40
0.2670929
50
89.380395
51
105.6763916
0
ARC
8
DEFAULT_255_1_388
10
10.207129
20
0.364432
40
0.1893189
50
105.7980655
51
149.7387869
0
ARC
8
DEFAULT_255_1_388
10
10.326843
20
0.2924719
40
0.3289892
50
149.4208441
51
163.628295
0
ARC
8
DEFAULT_255_1_388
10
10.562066
20
0.2207345
40
0.5749004
50
163.3764549
51
172.141138
0
ARC
8
DEFAULT_255_1_388
10
10.9333381
20
0.1675582
40
0.9499585
50
172.0258462
51
178.0705453
0
ARC
8
DEFAULT_255_1_388
10
11.2754934
20
0.1513682
40
1.2924734
50
177.8639301
51
179.5036263
0
ARC
8
DEFAULT_255_1_388
10
11.1535953
20
-0.1089849
40
1.170534
50
179.7995545
51
185.246089
0
ARC
8
DEFAULT_255_1_388
10
10.6987546
20
-0.1520596
40
0.7136613
50
185.1411911
51
193.0082205
0
ARC
8
DEFAULT_255_1_388
10
10.4013806
20
-0.2223559
40
0.4080987
50
192.7897338
51
205.2507384
0
ARC
8
DEFAULT_255_1_388
10
10.2836016
20
-0.2749462
40
0.2791522
50
205.8001921
51
211.2545876
0
ARC
8
DEFAULT_255_1_388
10
10.2247555
20
-0.3143868
40
0.2084074
50
210.3789935
51
238.4007996
0
ARC
8
DEFAULT_255_1_388
10
10.2225641
20
-0.3091214
40
0.2117943
50
239.6521916
51
265.9793852
0
ARC
8
DEFAULT_255_1_388
10
10.232149
20
-0.2334642
40
0.2879689
50
265.1324455
51
270.0603288
0
ARC
8
DEFAULT_255_1_388
10
10.2353867
20
-0.2699582
40
0.2514919
50
269.3314378
51
287.2180039
0
ARC
8
DEFAULT_255_1_388
10
10.250895
20
-0.3265709
40
0.1928357
50
287.7957942
51
329.0808983
0
ARC
8
DEFAULT_255_1_388
10
10.1431707
20
-0.2593349
40
0.319808
50
328.6635261
51
343.3325043
0
ARC
8
DEFAULT_255_1_388
10
9.8987165
20
-0.1831805
40
0.5758408
50
343.0498092
51
351.9392499
0
ARC
8
DEFAULT_255_1_388
10
9.5086487
20
-0.1256795
40
0.9701202
50
351.8071632
51
357.7957897
0
ARC
8
DEFAULT_255_1_388
10
9.1451964
20
-0.1068276
40
1.3340376
50
357.5870923
51
359.2682493
0
LINE
8
DEFAULT_255_1_388
10
11.4865997
20
0.6766934
11
11.5164173
21
0.6766934
0
LINE
8
DEFAULT_255_1_388
10
11.5164173
20
0.6766934
11
11.5164173
21
0.5348338
0
LINE
8
DEFAULT_255_1_388
10
11.5164173
20
0.5348338
11
11.4856961
21
0.5348338
0
LINE
8
DEFAULT_255_1_388
10
10.8703687
20
-0.1392253
11
10.8703687
21
-0.0750722
0
LINE
8
DEFAULT_255_1_388
10
11.0384317
20
-0.0967578
11
11.0384317
21
-0.1582001
0
ARC
8
DEFAULT_255_1_388
10
11.4915853
20
-0.0274174
40
0.562282
50
90.6001079
51
104.5146616
0
ARC
8
DEFAULT_255_1_388
10
11.4478812
20
0.13511
40
0.3939917
50
104.2855758
51
133.8630124
0
ARC
8
DEFAULT_255_1_388
10
11.4663065
20
0.1229243
40
0.4155734
50
134.5304124
51
161.6210222
0
ARC
8
DEFAULT_255_1_388
10
11.6522997
20
0.0573421
40
0.6127682
50
161.2850533
51
174.2074364
0
ARC
8
DEFAULT_255_1_388
10
11.8112564
20
0.0354437
40
0.7731446
50
173.7817938
51
174.9251711
0
ARC
8
DEFAULT_255_1_388
10
11.2986758
20
-0.120073
40
0.3412588
50
95.8332067
51
138.995412
0
ARC
8
DEFAULT_255_1_388
10
11.3238038
20
-0.2639305
40
0.4870358
50
89.8755506
51
97.0540979
0
ARC
8
DEFAULT_255_1_388
10
11.3291427
20
-0.1699159
40
0.3930432
50
71.6407016
51
90.6240821
0
ARC
8
DEFAULT_255_1_388
10
11.3460821
20
-0.1075567
40
0.3285421
50
39.6368051
51
71.0190743
0
ARC
8
DEFAULT_255_1_388
10
11.2744728
20
-0.1694414
40
0.4231706
50
10.6588054
51
39.9044509
0
ARC
8
DEFAULT_255_1_388
10
11.1003274
20
-0.2072777
40
0.60133
50
359.6827842
51
11.1326896
0
ARC
8
DEFAULT_255_1_388
10
11.095861
20
-0.2152285
40
0.6058047
50
347.2485908
51
0.4371098
0
ARC
8
DEFAULT_255_1_388
10
11.2834395
20
-0.2603621
40
0.4128987
50
318.1408565
51
347.6118497
0
ARC
8
DEFAULT_255_1_388
10
11.3199992
20
-0.2904097
40
0.3656244
50
275.6342406
51
317.824739
0
ARC
8
DEFAULT_255_1_388
10
11.2951513
20
-0.1442173
40
0.513655
50
269.8872513
51
276.7916069
0
ARC
8
DEFAULT_255_1_388
10
11.2889705
20
-0.2595819
40
0.398323
50
246.9139443
51
270.7436787
0
ARC
8
DEFAULT_255_1_388
10
11.2896901
20
-0.2755956
40
0.3839368
50
218.1665534
51
245.8780431
0
ARC
8
DEFAULT_255_1_388
10
11.3886273
20
-0.1928097
40
0.5128958
50
191.4115343
51
218.6077624
0
ARC
8
DEFAULT_255_1_388
10
11.606659
20
-0.1439223
40
0.7363054
50
179.6344971
51
191.7836758
0
ARC
8
DEFAULT_255_1_388
10
12.2346464
20
-0.0675505
40
1.3642984
50
171.4523743
51
180.3158856
0
ARC
8
DEFAULT_255_1_388
10
11.7402191
20
0.0093895
40
0.8639311
50
157.9802296
51
171.6246761
0
ARC
8
DEFAULT_255_1_388
10
11.4911542
20
0.1087038
40
0.5958004
50
141.4299236
51
157.8541251
0
ARC
8
DEFAULT_255_1_388
10
11.4189625
20
0.1597746
40
0.5075416
50
102.871586
51
140.8564533
0
ARC
8
DEFAULT_255_1_388
10
11.4918178
20
-0.1147057
40
0.7914163
50
90.377773
51
103.5868422
0
ARC
8
DEFAULT_255_1_388
10
11.2962699
20
-0.1827457
40
0.2667015
50
89.8751238
51
126.2072139
0
ARC
8
DEFAULT_255_1_388
10
11.301417
20
-0.2001153
40
0.2838229
50
124.9742447
51
144.8960197
0
ARC
8
DEFAULT_255_1_388
10
11.2816415
20
-0.1840019
40
0.2583845
50
145.2974778
51
160.2660922
0
ARC
8
DEFAULT_255_1_388
10
11.6272903
20
-0.1617849
40
0.5888695
50
179.6512124
51
190.285571
0
ARC
8
DEFAULT_255_1_388
10
11.4367383
20
-0.1977032
40
0.3949683
50
190.0944895
51
207.5099647
0
ARC
8
DEFAULT_255_1_388
10
11.3730965
20
-0.2279823
40
0.3245464
50
207.9585471
51
216.325377
0
ARC
8
DEFAULT_255_1_388
10
11.3348602
20
-0.2594288
40
0.2751259
50
215.7661336
51
232.5457193
0
ARC
8
DEFAULT_255_1_388
10
11.2917718
20
-0.3141727
40
0.2054668
50
232.8005815
51
270.6605497
0
ARC
8
DEFAULT_255_1_388
10
11.2969142
20
-0.2732147
40
0.2464268
50
269.3550767
51
288.474612
0
ARC
8
DEFAULT_255_1_388
10
11.3073649
20
-0.3125279
40
0.2058436
50
289.1831976
51
322.9685307
0
ARC
8
DEFAULT_255_1_388
10
11.2385751
20
-0.2582721
40
0.2934408
50
322.6007085
51
346.5183319
0
ARC
8
DEFAULT_255_1_388
10
11.1083507
20
-0.2250566
40
0.4278249
50
346.2584622
51
358.7739592
0
ARC
8
DEFAULT_255_1_388
10
10.9932082
20
-0.2188171
40
0.5430876
50
358.3757628
51
0.0082477
0
ARC
8
DEFAULT_255_1_388
10
11.07889
20
-0.2157144
40
0.4574157
50
359.6211417
51
11.28403
0
ARC
8
DEFAULT_255_1_388
10
11.2225507
20
-0.1857465
40
0.3106708
50
11.0483152
51
31.8145585
0
ARC
8
DEFAULT_255_1_388
10
11.2573212
20
-0.1668955
40
0.2711963
50
32.3028554
51
38.0820598
0
ARC
8
DEFAULT_255_1_388
10
11.3046445
20
-0.1240283
40
0.2075566
50
36.8249851
51
85.741667
0
ARC
8
DEFAULT_255_1_388
10
11.2970857
20
-0.1803935
40
0.2643487
50
85.0150021
51
90.050843
0
LINE
8
DEFAULT_255_1_388
10
12.7082188
20
0.1499153
11
12.7082188
21
0.1011229
0
LINE
8
DEFAULT_255_1_388
10
12.0983128
20
-0.6407036
11
12.0657845
21
-0.6407036
0
LINE
8
DEFAULT_255_1_388
10
12.0657845
20
-0.6407036
11
12.0657845
21
-0.4997475
0
LINE
8
DEFAULT_255_1_388
10
12.0657845
20
-0.4997475
11
12.1010235
21
-0.4997475
0
LINE
8
DEFAULT_255_1_388
10
12.5410594
20
0.117387
11
12.5410594
21
0.1842508
0
ARC
8
DEFAULT_255_1_388
10
12.2267686
20
0.2012877
40
0.4089973
50
297.4036461
51
320.0168133
0
ARC
8
DEFAULT_255_1_388
10
12.2593866
20
0.1386072
40
0.3383378
50
270.2631886
51
297.3852322
0
ARC
8
DEFAULT_255_1_388
10
12.2555542
20
0.1923343
40
0.3920983
50
269.9969069
51
270.7871389
0
ARC
8
DEFAULT_255_1_388
10
12.2526866
20
0.1905737
40
0.3903482
50
254.5997295
51
270.4178147
0
ARC
8
DEFAULT_255_1_388
10
12.2366397
20
0.1270693
40
0.3248657
50
236.4717231
51
254.3539376
0
ARC
8
DEFAULT_255_1_388
10
12.2542129
20
0.1506999
40
0.3542746
50
208.4727261
51
236.2134628
0
ARC
8
DEFAULT_255_1_388
10
12.3260892
20
0.1946676
40
0.4384402
50
204.3450776
51
209.0455365
0
ARC
8
DEFAULT_255_1_388
10
12.4025268
20
0.22708
40
0.5214459
50
183.9375459
51
204.1275509
0
ARC
8
DEFAULT_255_1_388
10
12.5047574
20
0.2380863
40
0.6242037
50
179.9652726
51
184.3010611
0
ARC
8
DEFAULT_255_1_388
10
12.477712
20
0.2418004
40
0.5971675
50
166.7585952
51
180.3200491
0
ARC
8
DEFAULT_255_1_388
10
12.3824928
20
0.2624979
40
0.4997418
50
154.6954866
51
166.5679151
0
ARC
8
DEFAULT_255_1_388
10
12.2865168
20
0.3108411
40
0.3923208
50
136.3325251
51
155.0871367
0
ARC
8
DEFAULT_255_1_388
10
12.2549087
20
0.3379271
40
0.3507618
50
121.2365985
51
135.9680081
0
ARC
8
DEFAULT_255_1_388
10
12.2707152
20
0.3086541
40
0.3839917
50
96.8454764
51
120.9881329
0
ARC
8
DEFAULT_255_1_388
10
12.2870958
20
0.2033942
40
0.4904679
50
89.887204
51
97.2797758
0
ARC
8
DEFAULT_255_1_388
10
12.2929931
20
0.2751652
40
0.418725
50
70.6505767
51
90.6748382
0
ARC
8
DEFAULT_255_1_388
10
12.3077628
20
0.3329091
40
0.3593866
50
36.7493297
51
69.8220487
0
ARC
8
DEFAULT_255_1_388
10
12.1953975
20
0.2453446
40
0.5018201
50
15.3958155
51
37.0841102
0
ARC
8
DEFAULT_255_1_388
10
11.955826
20
0.1755111
40
0.7513436
50
3.9487796
51
15.6798517
0
ARC
8
DEFAULT_255_1_388
10
11.6856902
20
0.151181
40
1.0225293
50
359.9290791
51
4.266464
0
ARC
8
DEFAULT_255_1_388
10
11.1675819
20
0.0936372
40
1.5406551
50
352.8365702
51
0.2783851
0
ARC
8
DEFAULT_255_1_388
10
11.762405
20
0.0163664
40
0.9408425
50
341.8359339
51
352.9884057
0
ARC
8
DEFAULT_255_1_388
10
12.1245037
20
-0.1056856
40
0.5587481
50
322.8579243
51
342.1527461
0
ARC
8
DEFAULT_255_1_388
10
12.2216729
20
-0.171965
40
0.4413099
50
319.3348471
51
322.100194
0
ARC
8
DEFAULT_255_1_388
10
12.186866
20
-0.1370186
40
0.4904992
50
285.954114
51
318.8878716
0
ARC
8
DEFAULT_255_1_388
10
12.1051098
20
0.1228865
40
0.7628991
50
272.9280841
51
286.4924389
0
ARC
8
DEFAULT_255_1_388
10
12.0837402
20
0.376324
40
1.017132
50
270.8209173
51
273.4010121
0
ARC
8
DEFAULT_255_1_388
10
12.0937425
20
0.1715073
40
0.6712943
50
270.6214576
51
281.4062333
0
ARC
8
DEFAULT_255_1_388
10
12.1421149
20
-0.059775
40
0.4350167
50
281.1852583
51
299.0622058
0
ARC
8
DEFAULT_255_1_388
10
12.1841394
20
-0.1408862
40
0.3437146
50
299.5068171
51
313.1200142
0
ARC
8
DEFAULT_255_1_388
10
12.1866132
20
-0.1498041
40
0.3355418
50
313.8525725
51
338.5989631
0
ARC
8
DEFAULT_255_1_388
10
12.003926
20
-0.0747424
40
0.5330317
50
338.2523315
51
351.2431701
0
ARC
8
DEFAULT_255_1_388
10
11.7327011
20
-0.0286506
40
0.8081235
50
350.940933
51
357.6690137
0
ARC
8
DEFAULT_255_1_388
10
12.2828891
20
0.1966048
40
0.2581236
50
269.9447107
51
306.8249644
0
ARC
8
DEFAULT_255_1_388
10
12.2562193
20
0.244206
40
0.3122948
50
305.5071046
51
327.0773808
0
ARC
8
DEFAULT_255_1_388
10
12.2695244
20
0.2335445
40
0.2953369
50
327.4106457
51
336.8396801
0
ARC
8
DEFAULT_255_1_388
10
11.9214958
20
0.1878932
40
0.6195743
50
359.663158
51
10.1176387
0
ARC
8
DEFAULT_255_1_388
10
12.1187721
20
0.2243922
40
0.4189561
50
9.9431549
51
26.7699242
0
ARC
8
DEFAULT_255_1_388
10
12.1859707
20
0.2553796
40
0.3450125
50
27.2018067
51
34.6833639
0
ARC
8
DEFAULT_255_1_388
10
12.241032
20
0.296756
40
0.2762035
50
34.124913
51
50.30709
0
ARC
8
DEFAULT_255_1_388
10
12.2912803
20
0.3568741
40
0.1978518
50
50.3850304
51
90.6705051
0
ARC
8
DEFAULT_255_1_388
10
12.2860196
20
0.3226074
40
0.2321235
50
89.2729817
51
111.9140267
0
ARC
8
DEFAULT_255_1_388
10
12.2838284
20
0.3384308
40
0.2166604
50
112.9381864
51
142.5320936
0
ARC
8
DEFAULT_255_1_388
10
12.3452773
20
0.2885392
40
0.2957902
50
142.1024021
51
166.3835244
0
ARC
8
DEFAULT_255_1_388
10
12.4781743
20
0.2542213
40
0.4330361
50
166.1100968
51
178.6653563
0
ARC
8
DEFAULT_255_1_388
10
12.5963668
20
0.2476061
40
0.5513642
50
178.2641888
51
180.010994
0
ARC
8
DEFAULT_255_1_388
10
12.505817
20
0.2444136
40
0.4608248
50
179.6162225
51
191.8786013
0
ARC
8
DEFAULT_255_1_388
10
12.368548
20
0.214059
40
0.3202502
50
191.6192934
51
215.2970746
0
ARC
8
DEFAULT_255_1_388
10
12.3446135
20
0.1997963
40
0.2924827
50
215.7258926
51
216.5355437
0
ARC
8
DEFAULT_255_1_388
10
12.2857755
20
0.1524919
40
0.2170661
50
215.7486606
51
239.9728403
0
ARC
8
DEFAULT_255_1_388
10
12.2778921
20
0.1467838
40
0.208217
50
241.065081
51
269.280972
0
ARC
8
DEFAULT_255_1_388
10
12.2826079
20
0.2023327
40
0.2638514
50
268.4083352
51
270.0069622
0
LINE
8
DEFAULT_255_1_388
10
13.3036678
20
-0.0127263
11
13.3036678
21
-0.1491645
0
LINE
8
DEFAULT_255_1_388
10
13.3036678
20
-0.1491645
11
12.8627284
21
-0.1491645
0
LINE
8
DEFAULT_255_1_388
10
12.8627284
20
-0.1491645
11
12.8627284
21
-0.0127263
0
LINE
8
DEFAULT_255_1_388
10
12.8627284
20
-0.0127263
11
13.3036678
21
-0.0127263
0
LINE
8
DEFAULT_255_1_388
10
13.6669007
20
0.6757898
11
13.6669007
21
-0.4979404
0
LINE
8
DEFAULT_255_1_388
10
13.6669007
20
-0.4979404
11
14.2903602
21
-0.4979404
0
LINE
8
DEFAULT_255_1_388
10
14.2903602
20
-0.4979404
11
14.2903602
21
-0.6398
0
LINE
8
DEFAULT_255_1_388
10
14.2903602
20
-0.6398
11
13.4925128
21
-0.6398
0
LINE
8
DEFAULT_255_1_388
10
13.4925128
20
-0.6398
11
13.4925128
21
0.6757898
0
LINE
8
DEFAULT_255_1_388
10
13.4925128
20
0.6757898
11
13.6669007
21
0.6757898
0
LINE
8
DEFAULT_255_1_388
10
14.6879286
20
-0.0371225
11
14.6879286
21
0.0993157
0
LINE
8
DEFAULT_255_1_388
10
14.6879286
20
0.0993157
11
14.813524
21
0.0993157
0
LINE
8
DEFAULT_255_1_388
10
14.5993792
20
0.3306282
11
14.4322198
21
0.3306282
0
LINE
8
DEFAULT_255_1_388
10
14.4204735
20
-0.2928313
11
14.5885365
21
-0.2928313
0
LINE
8
DEFAULT_255_1_388
10
14.813524
20
-0.0371225
11
14.6879286
21
-0.0371225
0
ARC
8
DEFAULT_255_1_388
10
14.8102467
20
0.4809922
40
0.3816905
50
270.491971
51
281.8953028
0
ARC
8
DEFAULT_255_1_388
10
14.8373894
20
0.3570199
40
0.2547877
50
281.6690378
51
301.2943765
0
ARC
8
DEFAULT_255_1_388
10
14.8565345
20
0.3219926
40
0.2149197
50
301.7834992
51
311.754567
0
ARC
8
DEFAULT_255_1_388
10
14.8668386
20
0.310565
40
0.1995326
50
311.7325027
51
354.2803031
0
ARC
8
DEFAULT_255_1_388
10
14.7850802
20
0.324628
40
0.2823461
50
353.0941646
51
0.1174696
0
ARC
8
DEFAULT_255_1_388
10
14.733236
20
0.3299874
40
0.3342238
50
359.1804452
51
15.0452323
0
ARC
8
DEFAULT_255_1_388
10
14.8846419
20
0.3741546
40
0.1765747
50
13.957816
51
77.6713812
0
ARC
8
DEFAULT_255_1_388
10
14.8411654
20
0.2183464
40
0.3381982
50
76.111571
51
90.7028736
0
ARC
8
DEFAULT_255_1_388
10
14.8345066
20
0.249125
40
0.3074046
50
89.5321574
51
103.5319393
0
ARC
8
DEFAULT_255_1_388
10
14.811945
20
0.3390443
40
0.2147041
50
103.2930114
51
133.5619756
0
ARC
8
DEFAULT_255_1_388
10
14.8069392
20
0.3457351
40
0.2064084
50
133.8349761
51
173.5343225
0
ARC
8
DEFAULT_255_1_388
10
14.8883049
20
0.3313144
40
0.2889266
50
172.5097183
51
180.1360699
0
ARC
8
DEFAULT_255_1_388
10
14.7812813
20
0.335188
40
0.3490913
50
155.3483706
51
180.7484035
0
ARC
8
DEFAULT_255_1_388
10
14.7757789
20
0.3319519
40
0.3454798
50
131.5745177
51
154.4799474
0
ARC
8
DEFAULT_255_1_388
10
14.8110071
20
0.2963422
40
0.3955058
50
96.9874487
51
131.9690874
0
ARC
8
DEFAULT_255_1_388
10
14.8356964
20
0.1562407
40
0.537622
50
89.8592909
51
97.7827481
0
ARC
8
DEFAULT_255_1_388
10
14.8411073
20
0.126736
40
0.5671399
50
78.3654493
51
90.4132586
0
ARC
8
DEFAULT_255_1_388
10
14.8813714
20
0.3133918
40
0.3762034
50
56.6229818
51
78.6387103
0
ARC
8
DEFAULT_255_1_388
10
14.9055543
20
0.3556846
40
0.3275964
50
47.0254604
51
56.085558
0
ARC
8
DEFAULT_255_1_388
10
14.9077794
20
0.3601189
40
0.3228382
50
10.9207523
51
46.777927
0
ARC
8
DEFAULT_255_1_388
10
14.7543388
20
0.3246401
40
0.4802559
50
359.6364235
51
11.6087615
0
ARC
8
DEFAULT_255_1_388
10
14.9607554
20
0.3229404
40
0.273833
50
332.3549969
51
359.7179765
0
ARC
8
DEFAULT_255_1_388
10
14.8875955
20
0.3576285
40
0.3547505
50
325.2332381
51
332.8746682
0
ARC
8
DEFAULT_255_1_388
10
14.9047537
20
0.3456763
40
0.3338396
50
292.9803892
51
325.2391113
0
ARC
8
DEFAULT_255_1_388
10
14.8736733
20
0.4061679
40
0.4016959
50
292.542178
51
293.6931461
0
ARC
8
DEFAULT_255_1_388
10
14.9180305
20
-0.3203964
40
0.372079
50
57.643292
51
72.8626085
0
ARC
8
DEFAULT_255_1_388
10
14.957914
20
-0.2557727
40
0.2961455
50
36.7246661
51
57.4701329
0
ARC
8
DEFAULT_255_1_388
10
14.9566296
20
-0.254353
40
0.2963321
50
8.054535
51
36.3561529
0
ARC
8
DEFAULT_255_1_388
10
14.8595969
20
-0.2717927
40
0.3948682
50
359.8316595
51
8.5873361
0
ARC
8
DEFAULT_255_1_388
10
14.8173443
20
-0.277203
40
0.4371398
50
343.9831631
51
0.557075
0
ARC
8
DEFAULT_255_1_388
10
14.9170493
20
-0.3045037
40
0.3337749
50
311.6358204
51
343.7652116
0
ARC
8
DEFAULT_255_1_388
10
14.8744746
20
-0.2565045
40
0.3979351
50
279.7829743
51
311.625622
0
ARC
8
DEFAULT_255_1_388
10
14.8405882
20
-0.0948358
40
0.5630417
50
269.7285092
51
280.3857694
0
ARC
8
DEFAULT_255_1_388
10
14.8336195
20
-0.0994759
40
0.5584119
50
256.6827433
51
270.4412869
0
ARC
8
DEFAULT_255_1_388
10
14.7955181
20
-0.2552302
40
0.3980715
50
229.4223821
51
256.8554507
0
ARC
8
DEFAULT_255_1_388
10
14.7488735
20
-0.3077317
40
0.3278564
50
181.8183354
51
229.6455015
0
ARC
8
DEFAULT_255_1_388
10
14.8658344
20
-0.2930175
40
0.4453611
50
179.9760419
51
183.2330638
0
ARC
8
DEFAULT_255_1_388
10
14.8464897
20
-0.2953219
40
0.2579652
50
179.4467996
51
196.2871626
0
ARC
8
DEFAULT_255_1_388
10
14.791635
20
-0.3103291
40
0.2011057
50
196.5661293
51
227.7059371
0
ARC
8
DEFAULT_255_1_388
10
14.8100957
20
-0.2896845
40
0.2287994
50
227.7653015
51
257.8763321
0
ARC
8
DEFAULT_255_1_388
10
14.8354041
20
-0.1836039
40
0.3378385
50
257.4583525
51
270.4267406
0
ARC
8
DEFAULT_255_1_388
10
14.840529
20
-0.150977
40
0.3704652
50
269.5965319
51
280.8788143
0
ARC
8
DEFAULT_255_1_388
10
14.8663518
20
-0.2799471
40
0.2389415
50
280.6347277
51
299.8594068
0
ARC
8
DEFAULT_255_1_388
10
14.8878288
20
-0.3207264
40
0.19289
50
300.3575552
51
314.5515667
0
ARC
8
DEFAULT_255_1_388
10
14.8784964
20
-0.3138975
40
0.204312
50
315.0730962
51
345.0429362
0
ARC
8
DEFAULT_255_1_388
10
14.7746471
20
-0.2836461
40
0.31246
50
344.598526
51
357.9270698
0
ARC
8
DEFAULT_255_1_388
10
14.6736776
20
-0.2767295
40
0.4136265
50
357.4755098
51
0.0224936
0
ARC
8
DEFAULT_255_1_388
10
14.7889653
20
-0.2739901
40
0.2983498
50
359.5051035
51
13.4236939
0
ARC
8
DEFAULT_255_1_388
10
14.8864743
20
-0.2490363
40
0.1977186
50
12.9497905
51
48.7550905
0
ARC
8
DEFAULT_255_1_388
10
14.8659665
20
-0.2770627
40
0.2323321
50
49.509109
51
72.1832965
0
ARC
8
DEFAULT_255_1_388
10
14.8257134
20
-0.3965368
40
0.358397
50
71.9008458
51
84.3555134
0
ARC
8
DEFAULT_255_1_388
10
14.8075528
20
-0.5497288
40
0.512641
50
84.019632
51
89.3326067
0
LINE
8
DEFAULT_255_1_388
10
16.033336
20
0.6821148
11
16.033336
21
-0.6398
0
LINE
8
DEFAULT_255_1_388
10
16.033336
20
-0.6398
11
15.865273
21
-0.6398
0
LINE
8
DEFAULT_255_1_388
10
15.865273
20
-0.6398
11
15.865273
21
0.474295
0
LINE
8
DEFAULT_255_1_388
10
15.865273
20
0.474295
11
15.5282435
21
0.3505066
0
LINE
8
DEFAULT_255_1_388
10
15.5282435
20
0.3505066
11
15.5282435
21
0.5023055
0
LINE
8
DEFAULT_255_1_388
10
15.5282435
20
0.5023055
11
16.0071327
21
0.6821148
0
LINE
8
DEFAULT_255_1_388
10
16.0071327
20
0.6821148
11
16.033336
21
0.6821148
0
LINE
8
DEFAULT_255_1_388
10
17.3480223
20
0.138169
11
17.3480223
21
-0.0786865
0
LINE
8
DEFAULT_255_1_388
10
16.5176466
20
-0.1012756
11
16.5176466
21
0.1219048
0
LINE
8
DEFAULT_255_1_388
10
17.1808629
20
-0.1238647
11
17.1808629
21
0.1499153
0
LINE
8
DEFAULT_255_1_388
10
16.684806
20
0.1625652
11
16.684806
21
-0.1048898
0
ARC
8
DEFAULT_255_1_388
10
15.9702557
20
-0.0841882
40
1.3777776
50
353.8440855
51
0.2287917
0
ARC
8
DEFAULT_255_1_388
10
16.4921574
20
-0.1424586
40
0.852639
50
344.4934746
51
353.9763743
0
ARC
8
DEFAULT_255_1_388
10
16.8288382
20
-0.2381809
40
0.5026273
50
329.2803599
51
344.7473406
0
ARC
8
DEFAULT_255_1_388
10
16.9403877
20
-0.2993962
40
0.3754848
50
324.9361395
51
328.6153007
0
ARC
8
DEFAULT_255_1_388
10
16.9829527
20
-0.3291414
40
0.3235566
50
280.5801797
51
324.9173226
0
ARC
8
DEFAULT_255_1_388
10
16.9378156
20
-0.1411764
40
0.5167077
50
269.5979457
51
281.6732777
0
ARC
8
DEFAULT_255_1_388
10
16.9297059
20
-0.1546887
40
0.5032026
50
256.6228565
51
270.5105488
0
ARC
8
DEFAULT_255_1_388
10
16.8844802
20
-0.3288655
40
0.3233092
50
215.8618351
51
257.2787793
0
ARC
8
DEFAULT_255_1_388
10
16.9993509
20
-0.2517894
40
0.4615831
50
197.9695203
51
215.2622745
0
ARC
8
DEFAULT_255_1_388
10
17.2789185
20
-0.1574359
40
0.7566307
50
187.8816486
51
198.2346584
0
ARC
8
DEFAULT_255_1_388
10
17.7242423
20
-0.0931547
40
1.2065653
50
180.8977266
51
188.0054894
0
ARC
8
DEFAULT_255_1_388
10
18.0292637
20
-0.08166
40
1.5117443
50
180.7434591
51
181.152202
0
ARC
8
DEFAULT_255_1_388
10
17.8617633
20
0.1273371
40
1.3441277
50
173.7674302
51
180.2315596
0
ARC
8
DEFAULT_255_1_388
10
17.3535502
20
0.1847779
40
0.8326847
50
164.3058537
51
173.9000553
0
ARC
8
DEFAULT_255_1_388
10
17.0259502
20
0.2791652
40
0.4917711
50
148.7922028
51
164.5682288
0
ARC
8
DEFAULT_255_1_388
10
16.9190239
20
0.3388457
40
0.3694204
50
144.5883979
51
148.1161588
0
ARC
8
DEFAULT_255_1_388
10
16.8802984
20
0.3658667
40
0.322202
50
101.6440149
51
144.5142619
0
ARC
8
DEFAULT_255_1_388
10
16.9281177
20
0.1758337
40
0.5180451
50
89.528284
51
102.5820197
0
ARC
8
DEFAULT_255_1_388
10
16.9370168
20
0.1714376
40
0.5224441
50
77.0437914
51
90.508231
0
ARC
8
DEFAULT_255_1_388
10
16.9822422
20
0.3562272
40
0.3322297
50
48.2777708
51
77.4996087
0
ARC
8
DEFAULT_255_1_388
10
16.9904162
20
0.3707557
40
0.315966
50
36.3141586
51
47.6307332
0
ARC
8
DEFAULT_255_1_388
10
16.8926884
20
0.3049159
40
0.4337313
50
18.2931065
51
35.6770203
0
ARC
8
DEFAULT_255_1_388
10
16.6065725
20
0.2067107
40
0.7362203
50
8.0246996
51
18.5605636
0
ARC
8
DEFAULT_255_1_388
10
16.1382081
20
0.1375432
40
1.2096583
50
1.127539
51
8.1718423
0
ARC
8
DEFAULT_255_1_388
10
15.7733214
20
0.1232374
40
1.5747719
50
0.5432713
51
1.38669
0
ARC
8
DEFAULT_255_1_388
10
15.9790593
20
0.1539163
40
1.2018103
50
359.8092569
51
4.9408001
0
ARC
8
DEFAULT_255_1_388
10
16.4527174
20
0.19619
40
0.7262727
50
4.8364937
51
12.2906017
0
ARC
8
DEFAULT_255_1_388
10
16.7626639
20
0.2652485
40
0.4087324
50
12.0806994
51
23.8171225
0
ARC
8
DEFAULT_255_1_388
10
16.8947035
20
0.3211508
40
0.2653719
50
24.2874621
51
31.3934353
0
ARC
8
DEFAULT_255_1_388
10
16.9537471
20
0.3597822
40
0.1948607
50
30.7407708
51
82.4658033
0
ARC
8
DEFAULT_255_1_388
10
16.9335132
20
0.2604017
40
0.2961198
50
81.1057101
51
90.2187368
0
ARC
8
DEFAULT_255_1_388
10
16.9294943
20
0.2894421
40
0.2670929
50
89.380395
51
105.6763916
0
ARC
8
DEFAULT_255_1_388
10
16.9088665
20
0.364432
40
0.1893189
50
105.7980655
51
149.7387869
0
ARC
8
DEFAULT_255_1_388
10
17.0285805
20
0.2924719
40
0.3289892
50
149.4208441
51
163.628295
0
ARC
8
DEFAULT_255_1_388
10
17.2638035
20
0.2207345
40
0.5749004
50
163.3764549
51
172.141138
0
ARC
8
DEFAULT_255_1_388
10
17.6350757
20
0.1675582
40
0.9499585
50
172.0258462
51
178.0705453
0
ARC
8
DEFAULT_255_1_388
10
17.9772309
20
0.1513682
40
1.2924734
50
177.8639301
51
179.5036263
0
ARC
8
DEFAULT_255_1_388
10
17.8553328
20
-0.1089849
40
1.170534
50
179.7995545
51
185.246089
0
ARC
8
DEFAULT_255_1_388
10
17.4004921
20
-0.1520596
40
0.7136613
50
185.1411911
51
193.0082205
0
ARC
8
DEFAULT_255_1_388
10
17.1031182
20
-0.2223559
40
0.4080987
50
192.7897338
51
205.2507384
0
ARC
8
DEFAULT_255_1_388
10
16.9853392
20
-0.2749462
40
0.2791522
50
205.8001921
51
211.2545876
0
ARC
8
DEFAULT_255_1_388
10
16.9264931
20
-0.3143868
40
0.2084074
50
210.3789935
51
238.4007996
0
ARC
8
DEFAULT_255_1_388
10
16.9243017
20
-0.3091214
40
0.2117943
50
239.6521916
51
265.9793852
0
ARC
8
DEFAULT_255_1_388
10
16.9338866
20
-0.2334642
40
0.2879689
50
265.1324455
51
270.0603288
0
ARC
8
DEFAULT_255_1_388
10
16.9371243
20
-0.2699582
40
0.2514919
50
269.3314378
51
287.2180039
0
ARC
8
DEFAULT_255_1_388
10
16.9526325
20
-0.3265709
40
0.1928357
50
287.7957942
51
329.0808983
0
ARC
8
DEFAULT_255_1_388
10
16.8449082
20
-0.2593349
40
0.319808
50
328.6635261
51
343.3325043
0
ARC
8
DEFAULT_255_1_388
10
16.6004541
20
-0.1831805
40
0.5758408
50
343.0498092
51
351.9392499
0
ARC
8
DEFAULT_255_1_388
10
16.2103862
20
-0.1256795
40
0.9701202
50
351.8071632
51
357.7957897
0
ARC
8
DEFAULT_255_1_388
10
15.8469339
20
-0.1068276
40
1.3340376
50
357.5870923
51
359.2682493
0
LINE
8
DEFAULT_255_1_388
10
18.3491717
20
0.1101585
11
18.3491717
21
-0.0317011
0
LINE
8
DEFAULT_255_1_388
10
18.3491717
20
-0.0317011
11
17.7790226
21
-0.0317011
0
LINE
8
DEFAULT_255_1_388
10
17.7790226
20
-0.0317011
11
17.7790226
21
-0.4979404
0
LINE
8
DEFAULT_255_1_388
10
17.7790226
20
-0.4979404
11
18.4413353
21
-0.4979404
0
LINE
8
DEFAULT_255_1_388
10
18.4413353
20
-0.4979404
11
18.4413353
21
-0.6398
0
LINE
8
DEFAULT_255_1_388
10
18.4413353
20
-0.6398
11
17.6055382
21
-0.6398
0
LINE
8
DEFAULT_255_1_388
10
17.6055382
20
-0.6398
11
17.6055382
21
0.6757898
0
LINE
8
DEFAULT_255_1_388
10
17.6055382
20
0.6757898
11
18.4322997
21
0.6757898
0
LINE
8
DEFAULT_255_1_388
10
18.4322997
20
0.6757898
11
18.4322997
21
0.5330267
0
LINE
8
DEFAULT_255_1_388
10
18.4322997
20
0.5330267
11
17.7790226
21
0.5330267
0
LINE
8
DEFAULT_255_1_388
10
17.7790226
20
0.5330267
11
17.7790226
21
0.1101585
0
LINE
8
DEFAULT_255_1_388
10
17.7790226
20
0.1101585
11
18.3491717
21
0.1101585
0
LINE
8
DEFAULT_255_1_388
10
19.425317
20
-0.6398
11
19.1397906
21
-0.1076005
0
LINE
8
DEFAULT_255_1_388
10
19.1397906
20
-0.1076005
11
18.8307716
21
-0.1076005
0
LINE
8
DEFAULT_255_1_388
10
18.8307716
20
-0.1076005
11
18.8307716
21
-0.6398
0
LINE
8
DEFAULT_255_1_388
10
18.8307716
20
-0.6398
11
18.6563836
21
-0.6398
0
LINE
8
DEFAULT_255_1_388
10
18.6563836
20
-0.6398
11
18.6563836
21
0.6757898
0
LINE
8
DEFAULT_255_1_388
10
18.6563836
20
0.6757898
11
19.0919017
21
0.6757898
0
LINE
8
DEFAULT_255_1_388
10
19.3024322
20
-0.0705544
11
19.6114513
21
-0.6289572
0
LINE
8
DEFAULT_255_1_388
10
19.6114513
20
-0.6289572
11
19.6114513
21
-0.6398
0
LINE
8
DEFAULT_255_1_388
10
19.6114513
20
-0.6398
11
19.425317
21
-0.6398
0
LINE
8
DEFAULT_255_1_388
10
18.8307716
20
0.5330267
11
18.8307716
21
0.0342591
0
LINE
8
DEFAULT_255_1_388
10
18.8307716
20
0.0342591
11
19.0973231
21
0.0342591
0
LINE
8
DEFAULT_255_1_388
10
19.0964195
20
0.5330267
11
18.8307716
21
0.5330267
0
ARC
8
DEFAULT_255_1_388
10
19.0965863
20
-0.1073654
40
0.7831693
50
80.6535681
51
90.3427203
0
ARC
8
DEFAULT_255_1_388
10
19.1437774
20
0.1696722
40
0.5021479
50
65.6987674
51
80.8330164
0
ARC
8
DEFAULT_255_1_388
10
19.1975067
20
0.2928479
40
0.3677787
50
50.0019152
51
65.4304412
0
ARC
8
DEFAULT_255_1_388
10
19.2220883
20
0.3260603
40
0.3265454
50
11.6284215
51
49.5603681
0
ARC
8
DEFAULT_255_1_388
10
19.0493369
20
0.2838524
40
0.5043009
50
359.5655533
51
12.3693319
0
ARC
8
DEFAULT_255_1_388
10
19.1704706
20
0.2768038
40
0.3831661
50
341.998418
51
0.4822212
0
ARC
8
DEFAULT_255_1_388
10
19.2148892
20
0.2647479
40
0.3372036
50
323.8610842
51
341.6141514
0
ARC
8
DEFAULT_255_1_388
10
19.1809438
20
0.2909615
40
0.3800784
50
296.7019299
51
323.6876213
0
ARC
8
DEFAULT_255_1_388
10
19.1313396
20
0.3796532
40
0.4816219
50
290.808313
51
297.2325929
0
ARC
8
DEFAULT_255_1_388
10
19.100219
20
0.4385377
40
0.404289
50
269.5895908
51
281.8058892
0
ARC
8
DEFAULT_255_1_388
10
19.1284456
20
0.309436
40
0.2721459
50
281.5499321
51
303.9358954
0
ARC
8
DEFAULT_255_1_388
10
19.1438991
20
0.2826588
40
0.2413121
50
304.4410786
51
311.211123
0
ARC
8
DEFAULT_255_1_388
10
19.1587396
20
0.2670152
40
0.2197678
50
310.9874923
51
356.2715203
0
ARC
8
DEFAULT_255_1_388
10
19.0737142
20
0.2796992
40
0.3055212
50
354.9346315
51
0.0617816
0
ARC
8
DEFAULT_255_1_388
10
19.0525983
20
0.2827427
40
0.3266482
50
359.5239293
51
12.8808621
0
ARC
8
DEFAULT_255_1_388
10
19.1625746
20
0.3096638
40
0.2134449
50
12.417206
51
43.1023141
0
ARC
8
DEFAULT_255_1_388
10
19.1695076
20
0.3138253
40
0.2055463
50
43.575886
51
48.2047245
0
ARC
8
DEFAULT_255_1_388
10
19.1504337
20
0.2889151
40
0.2368418
50
48.7809155
51
72.6968768
0
ARC
8
DEFAULT_255_1_388
10
19.1105701
20
0.1679385
40
0.364206
50
72.3699892
51
84.8793749
0
ARC
8
DEFAULT_255_1_388
10
19.0939707
20
0.0169651
40
0.5160674
50
84.5398226
51
89.7281165
0
LINE
8
DEFAULT_255_1_388
10
6.821132
20
38.8037468
11
6.9955199
21
38.8037468
0
LINE
8
DEFAULT_255_1_388
10
5.9826242
20
38.9826525
11
5.9826242
21
39.1091516
0
LINE
8
DEFAULT_255_1_388
10
6.9955199
20
39.2790217
11
6.821132
21
39.2790217
0
LINE
8
DEFAULT_255_1_388
10
6.1570121
20
39.1046337
11
6.1570121
21
38.9772312
0
ARC
8
DEFAULT_255_1_388
10
6.3789433
20
38.8709329
40
0.6202263
50
340.1774904
51
353.7812217
0
ARC
8
DEFAULT_255_1_388
10
6.5557286
20
38.8050893
40
0.4315926
50
311.4560052
51
340.4420756
0
ARC
8
DEFAULT_255_1_388
10
6.5519826
20
38.8175665
40
0.4434573
50
282.4332229
51
310.7514507
0
ARC
8
DEFAULT_255_1_388
10
6.5025644
20
39.0217703
40
0.6535262
50
269.9358869
51
282.8096729
0
ARC
8
DEFAULT_255_1_388
10
6.4967583
20
39.1730329
40
0.8048043
50
269.9995752
51
270.3612856
0
ARC
8
DEFAULT_255_1_388
10
6.4908073
20
38.8931781
40
0.5249831
50
250.7885263
51
270.6488451
0
ARC
8
DEFAULT_255_1_388
10
6.4718898
20
38.8214853
40
0.4510942
50
219.3628377
51
250.0611024
0
ARC
8
DEFAULT_255_1_388
10
6.5651772
20
38.9007653
40
0.5735046
50
193.5480293
51
219.5755675
0
ARC
8
DEFAULT_255_1_388
10
6.8319981
20
38.970052
40
0.849146
50
181.1220183
51
193.8754971
0
ARC
8
DEFAULT_255_1_388
10
7.0643214
20
38.9824914
40
1.0816971
50
179.9914644
51
181.5398227
0
ARC
8
DEFAULT_255_1_388
10
6.8566525
20
39.1133586
40
0.8740384
50
169.5837606
51
180.275782
0
ARC
8
DEFAULT_255_1_388
10
6.6499873
20
39.1515439
40
0.6638751
50
155.0367033
51
169.6002779
0
ARC
8
DEFAULT_255_1_388
10
6.5222331
20
39.2131336
40
0.5220662
50
136.7831557
51
155.2472983
0
ARC
8
DEFAULT_255_1_388
10
6.4784122
20
39.2503577
40
0.4646502
50
121.7633063
51
136.4281161
0
ARC
8
DEFAULT_255_1_388
10
6.4935962
20
39.2223049
40
0.4964979
50
95.6460018
51
121.5489589
0
ARC
8
DEFAULT_255_1_388
10
6.5112936
20
39.0975704
40
0.6223912
50
89.9245727
51
96.1375919
0
ARC
8
DEFAULT_255_1_388
10
6.5169641
20
39.1109721
40
0.6090084
50
76.6779212
51
90.456405
0
ARC
8
DEFAULT_255_1_388
10
6.5612454
20
39.289906
40
0.42469
50
47.4858803
51
76.9287069
0
ARC
8
DEFAULT_255_1_388
10
6.5447068
20
39.2786623
40
0.4441778
50
16.5424081
51
46.8934505
0
ARC
8
DEFAULT_255_1_388
10
6.3638118
20
39.2192265
40
0.6345318
50
5.4072971
51
17.0363711
0
ARC
8
DEFAULT_255_1_388
10
6.2019843
20
39.1932304
40
0.6250632
50
7.8888693
51
15.9242022
0
ARC
8
DEFAULT_255_1_388
10
6.4254828
20
39.2581309
40
0.3923364
50
15.7650676
51
27.9410069
0
ARC
8
DEFAULT_255_1_388
10
6.5496997
20
39.3246317
40
0.2514401
50
27.8167196
51
46.4007942
0
ARC
8
DEFAULT_255_1_388
10
6.5552839
20
39.3239882
40
0.2480958
50
47.4372362
51
75.0695672
0
ARC
8
DEFAULT_255_1_388
10
6.5205675
20
39.2031277
40
0.3738281
50
74.7009379
51
87.8124314
0
ARC
8
DEFAULT_255_1_388
10
6.5123292
20
39.0847659
40
0.4924321
50
87.3802571
51
90.0251599
0
ARC
8
DEFAULT_255_1_388
10
6.5079939
20
39.2167997
40
0.3604218
50
89.3451886
51
108.5744412
0
ARC
8
DEFAULT_255_1_388
10
6.4925931
20
39.2745836
40
0.3007661
50
109.2998307
51
143.3037387
0
ARC
8
DEFAULT_255_1_388
10
6.5783221
20
39.2086584
40
0.4089031
50
143.075267
51
163.1918576
0
ARC
8
DEFAULT_255_1_388
10
6.7979055
20
39.1393652
40
0.6391492
50
162.9375929
51
174.6208776
0
ARC
8
DEFAULT_255_1_388
10
7.0933437
20
39.1069711
40
0.9363344
50
174.342123
51
180.1430283
0
ARC
8
DEFAULT_255_1_388
10
6.9885978
20
38.9726117
40
0.8315986
50
179.6817261
51
189.150555
0
ARC
8
DEFAULT_255_1_388
10
6.7072727
20
38.9257559
40
0.5464044
50
188.9911061
51
203.5772363
0
ARC
8
DEFAULT_255_1_388
10
6.5858019
20
38.8753539
40
0.4149206
50
203.9075402
51
215.1312435
0
ARC
8
DEFAULT_255_1_388
10
6.4819817
20
38.7948907
40
0.2837747
50
213.9071511
51
263.8848919
0
ARC
8
DEFAULT_255_1_388
10
6.496081
20
38.8831519
40
0.3730641
50
263.1757928
51
270.1031044
0
ARC
8
DEFAULT_255_1_388
10
6.499689
20
39.0234511
40
0.5133712
50
269.6722503
51
279.0606936
0
ARC
8
DEFAULT_255_1_388
10
6.5297045
20
38.842015
40
0.3294739
50
278.8749101
51
293.6349581
0
ARC
8
DEFAULT_255_1_388
10
6.5657249
20
38.7574251
40
0.2375405
50
293.8553806
51
310.0518171
0
ARC
8
DEFAULT_255_1_388
10
6.5662758
20
38.7504021
40
0.2318463
50
311.0644687
51
332.0111037
0
ARC
8
DEFAULT_255_1_388
10
6.4321431
20
38.8243702
40
0.3850112
50
331.6586806
51
343.2877423
0
ARC
8
DEFAULT_255_1_388
10
6.2000896
20
38.8956806
40
0.6277712
50
343.1446576
51
351.0103568
0
ARC
8
DEFAULT_255_1_388
10
6.036822
20
38.9256873
40
0.7937327
50
350.71248
51
351.1626997
0
LINE
8
DEFAULT_255_1_388
10
7.1617758
20
38.8724177
11
7.1617758
21
38.884164
0
LINE
8
DEFAULT_255_1_388
10
8.0517868
20
38.8760319
11
8.0517868
21
38.8642856
0
ARC
8
DEFAULT_255_1_388
10
7.7902202
20
38.887804
40
0.628455
50
166.3005265
51
180.3318609
0
ARC
8
DEFAULT_255_1_388
10
7.6931552
20
38.9095267
40
0.52901
50
153.8608648
51
166.0965672
0
ARC
8
DEFAULT_255_1_388
10
7.6182718
20
38.9496652
40
0.4441126
50
135.1317053
51
154.2534962
0
ARC
8
DEFAULT_255_1_388
10
7.5869369
20
38.9773431
40
0.4023863
50
121.7042632
51
134.7771455
0
ARC
8
DEFAULT_255_1_388
10
7.5944801
20
38.9628469
40
0.4186852
50
93.4001111
51
121.5399523
0
ARC
8
DEFAULT_255_1_388
10
7.6051635
20
38.8698759
40
0.5121521
50
89.9706387
51
93.9763381
0
ARC
8
DEFAULT_255_1_388
10
7.6104619
20
38.9138563
40
0.4681988
50
71.3321659
51
90.6162917
0
ARC
8
DEFAULT_255_1_388
10
7.6287653
20
38.9816003
40
0.3981841
50
41.1813875
51
70.7072086
0
ARC
8
DEFAULT_255_1_388
10
7.5750369
20
38.932813
40
0.4707474
50
12.1971434
51
41.3446641
0
ARC
8
DEFAULT_255_1_388
10
7.3583633
20
38.8812328
40
0.6934429
50
359.5702713
51
12.5803533
0
ARC
8
DEFAULT_255_1_388
10
7.4115949
20
38.8607207
40
0.6402018
50
347.0196754
51
0.3190452
0
ARC
8
DEFAULT_255_1_388
10
7.5194002
20
38.8375189
40
0.5299421
50
334.350439
51
346.8460534
0
ARC
8
DEFAULT_255_1_388
10
7.6145249
20
38.7881244
40
0.4228234
50
310.4228125
51
334.8045131
0
ARC
8
DEFAULT_255_1_388
10
7.6237227
20
38.7809301
40
0.4113892
50
301.8488154
51
310.0972985
0
ARC
8
DEFAULT_255_1_388
10
7.6200967
20
38.7894573
40
0.4205483
50
274.3078723
51
301.6554173
0
ARC
8
DEFAULT_255_1_388
10
7.6076423
20
38.8881943
40
0.5199658
50
269.954904
51
274.859116
0
ARC
8
DEFAULT_255_1_388
10
7.6021247
20
38.8318239
40
0.4636233
50
250.8887647
51
270.6313164
0
ARC
8
DEFAULT_255_1_388
10
7.5852407
20
38.7689405
40
0.398705
50
221.1701369
51
250.2227012
0
ARC
8
DEFAULT_255_1_388
10
7.6397073
20
38.8185716
40
0.4723796
50
191.6263861
51
221.3526879
0
ARC
8
DEFAULT_255_1_388
10
7.8520918
20
38.8677203
40
0.6903321
50
179.6101251
51
192.0694841
0
ARC
8
DEFAULT_255_1_388
10
7.8997266
20
38.8606681
40
0.5698993
50
179.636304
51
190.6161344
0
ARC
8
DEFAULT_255_1_388
10
7.7149598
20
38.8246635
40
0.3816643
50
190.4136062
51
208.7168709
0
ARC
8
DEFAULT_255_1_388
10
7.6575632
20
38.7961905
40
0.3176572
50
209.187109
51
217.4221816
0
ARC
8
DEFAULT_255_1_388
10
7.5980102
20
38.7437729
40
0.2385702
50
216.1156863
51
265.2575395
0
ARC
8
DEFAULT_255_1_388
10
7.6069139
20
38.8082608
40
0.3035941
50
264.5891546
51
270.0602378
0
ARC
8
DEFAULT_255_1_388
10
7.6106335
20
38.7655539
40
0.2609091
50
269.2532353
51
291.8793864
0
ARC
8
DEFAULT_255_1_388
10
7.6139214
20
38.7455359
40
0.241148
50
292.9269367
51
323.1777736
0
ARC
8
DEFAULT_255_1_388
10
7.56685
20
38.7868762
40
0.3036446
50
322.25666
51
323.087958
0
ARC
8
DEFAULT_255_1_388
10
7.5365757
20
38.8051332
40
0.3388345
50
323.6941379
51
343.8493587
0
ARC
8
DEFAULT_255_1_388
10
7.3590193
20
38.8591698
40
0.5244204
50
343.5746655
51
355.008149
0
ARC
8
DEFAULT_255_1_388
10
7.1331885
20
38.8825797
40
0.7514406
50
354.728272
51
0.1208026
0
ARC
8
DEFAULT_255_1_388
10
7.3320911
20
38.8877947
40
0.5525482
50
359.6235211
51
11.2016685
0
ARC
8
DEFAULT_255_1_388
10
7.5046738
20
38.9233284
40
0.3763527
50
10.9991302
51
30.8317616
0
ARC
8
DEFAULT_255_1_388
10
7.5492042
20
38.9467988
40
0.3260975
50
31.3007463
51
37.395541
0
ARC
8
DEFAULT_255_1_388
10
7.6050761
20
38.9939773
40
0.253082
50
36.5918894
51
62.2439906
0
ARC
8
DEFAULT_255_1_388
10
7.6103052
20
38.9936378
40
0.2509927
50
63.3364883
51
89.7193846
0
ARC
8
DEFAULT_255_1_388
10
7.6054506
20
38.9288375
40
0.3158485
50
88.8962924
51
90.004475
0
ARC
8
DEFAULT_255_1_388
10
7.6018933
20
38.9941071
40
0.250604
50
89.1923115
51
114.7099029
0
ARC
8
DEFAULT_255_1_388
10
7.6051275
20
38.9983675
40
0.2481307
50
115.7996284
51
142.2901353
0
ARC
8
DEFAULT_255_1_388
10
7.6519546
20
38.9564752
40
0.310833
50
141.4607507
51
142.383894
0
ARC
8
DEFAULT_255_1_388
10
7.6667397
20
38.9496449
40
0.3267335
50
143.0176473
51
163.2340089
0
ARC
8
DEFAULT_255_1_388
10
7.8442686
20
38.8934553
40
0.5129308
50
162.9446504
51
174.3733893
0
ARC
8
DEFAULT_255_1_388
10
8.0856659
20
38.8663483
40
0.75583
50
174.1225809
51
180.1563667
0
LINE
8
DEFAULT_255_1_388
10
8.2605102
20
39.3639567
11
8.4186339
21
39.3639567
0
LINE
8
DEFAULT_255_1_388
10
8.4186339
20
39.3639567
11
8.4231518
21
39.255529
0
LINE
8
DEFAULT_255_1_388
10
9.6312174
20
39.0413842
11
9.6312174
21
38.3863
0
LINE
8
DEFAULT_255_1_388
10
9.6312174
20
38.3863
11
9.464058
21
38.3863
0
LINE
8
DEFAULT_255_1_388
10
9.464058
20
38.3863
11
9.464058
21
39.031445
0
LINE
8
DEFAULT_255_1_388
10
9.0294435
20
39.0350593
11
9.0294435
21
38.3863
0
LINE
8
DEFAULT_255_1_388
10
9.0294435
20
38.3863
11
8.8613805
21
38.3863
0
LINE
8
DEFAULT_255_1_388
10
8.8613805
20
38.3863
11
8.8613805
21
39.0269272
0
LINE
8
DEFAULT_255_1_388
10
8.4276696
20
39.1001159
11
8.4276696
21
38.3863
0
LINE
8
DEFAULT_255_1_388
10
8.4276696
20
38.3863
11
8.2605102
21
38.3863
0
LINE
8
DEFAULT_255_1_388
10
8.2605102
20
38.3863
11
8.2605102
21
39.3639567
0
ARC
8
DEFAULT_255_1_388
10
8.6927714
20
39.0285947
40
0.3524116
50
93.0261693
51
139.913241
0
ARC
8
DEFAULT_255_1_388
10
8.7127789
20
38.8887673
40
0.493261
50
89.9515559
51
94.4896559
0
ARC
8
DEFAULT_255_1_388
10
8.7175267
20
38.9690293
40
0.4130214
50
75.8912256
51
90.6007843
0
ARC
8
DEFAULT_255_1_388
10
8.7586563
20
39.1207686
40
0.2558497
50
23.9940553
51
76.5407673
0
ARC
8
DEFAULT_255_1_388
10
9.2964998
20
39.0134138
40
0.3703589
50
118.5760068
51
145.1952627
0
ARC
8
DEFAULT_255_1_388
10
9.2821051
20
39.0409672
40
0.3392772
50
99.1481537
51
118.6669021
0
ARC
8
DEFAULT_255_1_388
10
9.3023764
20
38.9277244
40
0.454307
50
89.7792127
51
99.4015557
0
ARC
8
DEFAULT_255_1_388
10
9.3110877
20
38.9463109
40
0.4357727
50
73.2646335
51
90.9152299
0
ARC
8
DEFAULT_255_1_388
10
9.3604954
20
39.1141955
40
0.2607739
50
10.756495
51
73.0388383
0
ARC
8
DEFAULT_255_1_388
10
9.0915521
20
39.0384448
40
0.5396733
50
0.3120729
51
13.3293082
0
ARC
8
DEFAULT_255_1_388
10
9.0978
20
39.0335363
40
0.366264
50
359.6728567
51
8.7129231
0
ARC
8
DEFAULT_255_1_388
10
9.2324914
20
39.0549524
40
0.2298841
50
8.5221448
51
22.6803231
0
ARC
8
DEFAULT_255_1_388
10
9.3008614
20
39.0833786
40
0.1558403
50
22.7298708
51
42.2763259
0
ARC
8
DEFAULT_255_1_388
10
9.3147315
20
39.0921235
40
0.1397242
50
43.4492352
51
69.272112
0
ARC
8
DEFAULT_255_1_388
10
9.2801545
20
39.0057568
40
0.2327451
50
68.836098
51
81.9786568
0
ARC
8
DEFAULT_255_1_388
10
9.2575981
20
38.8547247
40
0.385449
50
81.7913044
51
90.3003404
0
LINE
8
DEFAULT_255_1_388
10
9.2555777
20
39.2401683
11
9.2553346
21
39.2401684
0
ARC
8
DEFAULT_255_1_388
10
9.2530155
20
38.9841083
40
0.2560706
50
89.4810922
51
106.5055613
0
ARC
8
DEFAULT_255_1_388
10
9.2402064
20
39.0312872
40
0.2071998
50
106.8160071
51
132.2750747
0
ARC
8
DEFAULT_255_1_388
10
9.2450587
20
39.0261017
40
0.2143007
50
132.3023562
51
166.9931148
0
ARC
8
DEFAULT_255_1_388
10
9.3178825
20
39.0052518
40
0.2899752
50
166.2176327
51
174.0999541
0
ARC
8
DEFAULT_255_1_388
10
8.5463954
20
39.031209
40
0.3150142
50
359.2211859
51
14.4876062
0
ARC
8
DEFAULT_255_1_388
10
8.6942177
20
39.0737235
40
0.1613108
50
13.0021013
51
76.7082612
0
ARC
8
DEFAULT_255_1_388
10
8.6565377
20
38.9406286
40
0.299565
50
75.5470628
51
90.7422407
0
ARC
8
DEFAULT_255_1_388
10
8.6489003
20
38.9440964
40
0.2960958
50
89.2730201
51
106.8379289
0
ARC
8
DEFAULT_255_1_388
10
8.6266408
20
39.0248973
40
0.2123216
50
107.4046439
51
156.621812
0
ARC
8
DEFAULT_255_1_388
10
8.7031222
20
38.9810952
40
0.3000669
50
154.7390611
51
156.6312403
0
LINE
8
DEFAULT_255_1_388
10
10.7091698
20
38.8796462
11
10.7091698
21
38.8642856
0
LINE
8
DEFAULT_255_1_388
10
10.0504713
20
38.4811743
11
10.0504713
21
38.0104172
0
LINE
8
DEFAULT_255_1_388
10
10.0504713
20
38.0104172
11
9.8833119
21
38.0104172
0
LINE
8
DEFAULT_255_1_388
10
9.8833119
20
38.0104172
11
9.8833119
21
39.3639567
0
LINE
8
DEFAULT_255_1_388
10
9.8833119
20
39.3639567
11
10.0360143
21
39.3639567
0
LINE
8
DEFAULT_255_1_388
10
10.0360143
20
39.3639567
11
10.0441464
21
39.255529
0
LINE
8
DEFAULT_255_1_388
10
10.0504713
20
39.1055373
11
10.0504713
21
38.6383945
0
ARC
8
DEFAULT_255_1_388
10
9.9138935
20
38.8593831
40
0.7952914
50
349.5457689
51
0.3531959
0
ARC
8
DEFAULT_255_1_388
10
10.1697713
20
38.8102711
40
0.5347531
50
331.7801944
51
349.7458841
0
ARC
8
DEFAULT_255_1_388
10
10.2514032
20
38.7705052
40
0.4440347
50
323.2239993
51
331.320727
0
ARC
8
DEFAULT_255_1_388
10
10.3440519
20
38.6919189
40
0.3228626
50
275.1519108
51
324.5512858
0
ARC
8
DEFAULT_255_1_388
10
10.3310891
20
38.7820763
40
0.4138479
50
269.929002
51
275.8184771
0
ARC
8
DEFAULT_255_1_388
10
10.3264254
20
38.8196586
40
0.451449
50
255.0666642
51
270.5268285
0
ARC
8
DEFAULT_255_1_388
10
10.2946746
20
38.7008476
40
0.3284686
50
221.9730059
51
255.0773797
0
ARC
8
DEFAULT_255_1_388
10
10.3040905
20
39.0477287
40
0.3327941
50
94.4346057
51
141.3610235
0
ARC
8
DEFAULT_255_1_388
10
10.3271435
20
38.9051867
40
0.4768419
50
89.913234
51
95.8721355
0
ARC
8
DEFAULT_255_1_388
10
10.3322973
20
39.0060946
40
0.3759596
50
70.3260364
51
90.6753935
0
ARC
8
DEFAULT_255_1_388
10
10.3436416
20
39.0527349
40
0.328261
50
36.7636238
51
69.44976
0
ARC
8
DEFAULT_255_1_388
10
10.2475025
20
38.9777455
40
0.4501685
50
16.0027939
51
37.086172
0
ARC
8
DEFAULT_255_1_388
10
10.0180792
20
38.9085013
40
0.6897988
50
4.5018317
51
16.2779312
0
ARC
8
DEFAULT_255_1_388
10
9.7398939
20
38.881276
40
0.9692771
50
359.9036593
51
4.8154966
0
ARC
8
DEFAULT_255_1_388
10
9.913423
20
38.8867646
40
0.6285971
50
359.6805954
51
9.1297647
0
ARC
8
DEFAULT_255_1_388
10
10.1281326
20
38.9225143
40
0.4109369
50
8.9584658
51
23.6939885
0
ARC
8
DEFAULT_255_1_388
10
10.2221084
20
38.9618721
40
0.3090717
50
24.0136272
51
36.1951724
0
ARC
8
DEFAULT_255_1_388
10
10.288668
20
39.0161253
40
0.2233637
50
35.0467028
51
84.5489768
0
ARC
8
DEFAULT_255_1_388
10
10.2785874
20
38.9494397
40
0.2907289
50
83.8197232
51
90.0823413
0
ARC
8
DEFAULT_255_1_388
10
10.2742005
20
38.9716874
40
0.2685104
50
89.1530367
51
112.3459134
0
ARC
8
DEFAULT_255_1_388
10
10.2691093
20
38.9975252
40
0.2427311
50
113.5532703
51
146.2373945
0
ARC
8
DEFAULT_255_1_388
10
10.341372
20
38.9420111
40
0.3337124
50
145.2086902
51
150.6580233
0
ARC
8
DEFAULT_255_1_388
10
10.2911197
20
38.7688753
40
0.273746
50
208.46678
51
230.7447697
0
ARC
8
DEFAULT_255_1_388
10
10.2671737
20
38.7473351
40
0.2419641
50
231.9080157
51
266.0622442
0
ARC
8
DEFAULT_255_1_388
10
10.2796249
20
38.8365434
40
0.3318765
50
264.9752933
51
270.060741
0
ARC
8
DEFAULT_255_1_388
10
10.2831849
20
38.7480683
40
0.2434225
50
269.2448363
51
292.3382162
0
ARC
8
DEFAULT_255_1_388
10
10.2851163
20
38.7322065
40
0.2280566
50
293.4040635
51
323.0231773
0
ARC
8
DEFAULT_255_1_388
10
10.2393412
20
38.7724037
40
0.2888399
50
322.1147526
51
323.3512864
0
ARC
8
DEFAULT_255_1_388
10
10.2212824
20
38.7812269
40
0.3086176
50
324.0383098
51
342.5340044
0
ARC
8
DEFAULT_255_1_388
10
10.034082
20
38.8425984
40
0.5056129
50
342.2670619
51
353.2817647
0
ARC
8
DEFAULT_255_1_388
10
9.7381477
20
38.879797
40
0.8038702
50
353.1162085
51
0.2468587
0
LINE
8
DEFAULT_255_1_388
10
11.70038
20
38.3863
11
11.5250885
21
38.3863
0
LINE
8
DEFAULT_255_1_388
10
11.3362436
20
38.9790383
11
11.4988852
21
38.9790383
0
LINE
8
DEFAULT_255_1_388
10
11.4988852
20
38.9790383
11
11.4988852
21
39.0558413
0
LINE
8
DEFAULT_255_1_388
10
11.0814384
20
39.0928874
11
10.9133754
21
39.0928874
0
LINE
8
DEFAULT_255_1_388
10
11.6660446
20
39.0648769
11
11.6660446
21
38.6149018
0
LINE
8
DEFAULT_255_1_388
10
11.70038
20
38.400757
11
11.70038
21
38.3863
0
LINE
8
DEFAULT_255_1_388
10
11.4988852
20
38.66008
11
11.4988852
21
38.8606713
0
LINE
8
DEFAULT_255_1_388
10
11.4988852
20
38.8606713
11
11.3678683
21
38.8606713
0
ARC
8
DEFAULT_255_1_388
10
11.6420035
20
38.44301
40
0.1299428
50
197.0784902
51
205.8758668
0
ARC
8
DEFAULT_255_1_388
10
11.7814621
20
38.4871959
40
0.2762313
50
192.2927663
51
197.3441989
0
ARC
8
DEFAULT_255_1_388
10
12.0010126
20
38.535976
40
0.5011345
50
189.1573793
51
192.3977084
0
ARC
8
DEFAULT_255_1_388
10
12.3174973
20
38.5875878
40
0.8217995
50
186.8686098
51
189.1982636
0
ARC
8
DEFAULT_255_1_388
10
11.2120064
20
38.761626
40
0.3975173
50
294.0079259
51
316.7603918
0
ARC
8
DEFAULT_255_1_388
10
11.2265246
20
38.7411902
40
0.3729755
50
269.5043226
51
293.2478373
0
ARC
8
DEFAULT_255_1_388
10
11.2198298
20
38.7862915
40
0.4180772
50
255.4034155
51
270.4753052
0
ARC
8
DEFAULT_255_1_388
10
11.1939512
20
38.6858652
40
0.3143705
50
228.6141063
51
255.3550831
0
ARC
8
DEFAULT_255_1_388
10
11.1565493
20
38.650054
40
0.2628114
50
181.8954381
51
229.5703134
0
ARC
8
DEFAULT_255_1_388
10
11.2230429
20
38.6572824
40
0.329546
50
179.9848815
51
182.7691528
0
ARC
8
DEFAULT_255_1_388
10
11.2137496
20
38.6611827
40
0.3202753
50
161.0342928
51
180.6822077
0
ARC
8
DEFAULT_255_1_388
10
11.1643111
20
38.6740422
40
0.2693695
50
125.0525065
51
160.2034058
0
ARC
8
DEFAULT_255_1_388
10
11.2387832
20
38.5724275
40
0.3953338
50
106.2670809
51
125.4300189
0
ARC
8
DEFAULT_255_1_388
10
11.3031874
20
38.3619795
40
0.6154041
50
95.4857579
51
106.5348562
0
ARC
8
DEFAULT_255_1_388
10
11.3339161
20
38.0807993
40
0.8982419
50
89.8515405
51
95.7222579
0
ARC
8
DEFAULT_255_1_388
10
11.2619742
20
39.0578925
40
0.2369198
50
359.5039339
51
14.3181205
0
ARC
8
DEFAULT_255_1_388
10
11.3265747
20
39.0746862
40
0.170173
50
14.2184556
51
45.2028524
0
ARC
8
DEFAULT_255_1_388
10
11.3306443
20
39.0762862
40
0.1661795
50
45.8098216
51
73.0032926
0
ARC
8
DEFAULT_255_1_388
10
11.3026269
20
38.990626
40
0.2562942
50
72.6112517
51
85.7231489
0
ARC
8
DEFAULT_255_1_388
10
11.2925054
20
38.8879339
40
0.3594635
50
85.335019
51
90.0855069
0
ARC
8
DEFAULT_255_1_388
10
11.2898487
20
38.9543472
40
0.2930574
50
89.5854741
51
103.459124
0
ARC
8
DEFAULT_255_1_388
10
11.2727026
20
39.0258134
40
0.2195632
50
103.448332
51
126.5403399
0
ARC
8
DEFAULT_255_1_388
10
11.2458002
20
39.0602224
40
0.1759039
50
126.1730306
51
141.5008224
0
ARC
8
DEFAULT_255_1_388
10
11.2032317
20
39.0936266
40
0.1217955
50
141.3332087
51
180.3477313
0
ARC
8
DEFAULT_255_1_388
10
11.1273741
20
39.0916904
40
0.214002
50
151.6373605
51
179.6795088
0
ARC
8
DEFAULT_255_1_388
10
11.1950976
20
39.0579768
40
0.2896224
50
142.4981529
51
152.1330509
0
ARC
8
DEFAULT_255_1_388
10
11.2308981
20
39.0298781
40
0.3351307
50
120.8284906
51
142.4132156
0
ARC
8
DEFAULT_255_1_388
10
11.2776956
20
38.9566185
40
0.4220297
50
113.9634885
51
121.1871733
0
ARC
8
DEFAULT_255_1_388
10
11.2930265
20
38.9192705
40
0.4623867
50
93.3784336
51
113.8197902
0
ARC
8
DEFAULT_255_1_388
10
11.3016648
20
38.8331549
40
0.5488732
50
89.9745993
51
93.7488475
0
ARC
8
DEFAULT_255_1_388
10
11.3055894
20
38.8372587
40
0.5447818
50
79.1327128
51
90.3871707
0
ARC
8
DEFAULT_255_1_388
10
11.3421658
20
39.0200597
40
0.3583662
50
60.1434453
51
79.365517
0
ARC
8
DEFAULT_255_1_388
10
11.3710424
20
39.0755195
40
0.2959028
50
48.6191018
51
59.6466565
0
ARC
8
DEFAULT_255_1_388
10
11.3764136
20
39.0826356
40
0.2870136
50
9.0349502
51
48.4845487
0
ARC
8
DEFAULT_255_1_388
10
11.2553434
20
39.0562084
40
0.4107927
50
1.2091359
51
10.0234369
0
ARC
8
DEFAULT_255_1_388
10
12.5250882
20
38.6121422
40
0.8590481
50
179.8159449
51
185.3205667
0
ARC
8
DEFAULT_255_1_388
10
12.2218728
20
38.5831945
40
0.5544553
50
185.2475628
51
192.7952551
0
ARC
8
DEFAULT_255_1_388
10
12.0236552
20
38.5377024
40
0.3510853
50
192.7195981
51
202.9584216
0
ARC
8
DEFAULT_255_1_388
10
11.2476588
20
38.8074895
40
0.2937869
50
270.006916
51
300.503478
0
ARC
8
DEFAULT_255_1_388
10
11.2614523
20
38.7930888
40
0.2744162
50
299.5482616
51
315.609538
0
ARC
8
DEFAULT_255_1_388
10
11.2940819
20
38.7597072
40
0.2277499
50
315.8682065
51
334.0592465
0
ARC
8
DEFAULT_255_1_388
10
11.3629792
20
38.07609
40
0.7845965
50
89.64297
51
97.2867877
0
ARC
8
DEFAULT_255_1_388
10
11.313339
20
38.4477936
40
0.4096042
50
96.9938706
51
109.7783917
0
ARC
8
DEFAULT_255_1_388
10
11.2384852
20
38.6481851
40
0.1957225
50
109.0087985
51
135.3265591
0
ARC
8
DEFAULT_255_1_388
10
11.2077272
20
38.6862764
40
0.1471704
50
137.4537784
51
182.1083946
0
ARC
8
DEFAULT_255_1_388
10
11.2497971
20
38.6790101
40
0.1891498
50
179.4390335
51
195.7201623
0
ARC
8
DEFAULT_255_1_388
10
11.2035006
20
38.6663585
40
0.1411576
50
195.8683556
51
230.157074
0
ARC
8
DEFAULT_255_1_388
10
11.2307729
20
38.6990228
40
0.1837102
50
230.1532486
51
259.7486257
0
ARC
8
DEFAULT_255_1_388
10
11.2463772
20
38.7725472
40
0.258848
50
259.2461118
51
270.2915316
0
LINE
8
DEFAULT_255_1_388
10
12.5506342
20
38.6944155
11
12.708758
21
38.6944155
0
LINE
8
DEFAULT_255_1_388
10
11.8847072
20
38.8660927
11
11.8847072
21
38.8941032
0
LINE
8
DEFAULT_255_1_388
10
12.708758
20
39.0278308
11
12.5506342
21
39.0278308
0
LINE
8
DEFAULT_255_1_388
10
12.0518666
20
38.8877783
11
12.0518666
21
38.8561535
0
ARC
8
DEFAULT_255_1_388
10
12.3242899
20
38.7454109
40
0.2407783
50
269.0327343
51
309.2224588
0
ARC
8
DEFAULT_255_1_388
10
12.3478902
20
38.721219
40
0.207135
50
308.3965377
51
329.6987678
0
ARC
8
DEFAULT_255_1_388
10
12.3633961
20
38.7094899
40
0.1878439
50
330.4013397
51
355.3970937
0
ARC
8
DEFAULT_255_1_388
10
12.4147945
20
38.7114312
40
0.2944555
50
329.2357424
51
356.6872018
0
ARC
8
DEFAULT_255_1_388
10
12.352984
20
38.7441153
40
0.3643032
50
324.8702872
51
329.7911998
0
ARC
8
DEFAULT_255_1_388
10
12.3441122
20
38.7517113
40
0.3759315
50
298.8769973
51
324.7015261
0
ARC
8
DEFAULT_255_1_388
10
12.3067666
20
38.811229
40
0.4461015
50
296.902888
51
299.3854973
0
ARC
8
DEFAULT_255_1_388
10
12.3213663
20
38.7788595
40
0.4106323
50
269.8407861
51
297.1298875
0
ARC
8
DEFAULT_255_1_388
10
12.3153659
20
38.8506354
40
0.4824312
50
253.3156606
51
270.5771301
0
ARC
8
DEFAULT_255_1_388
10
12.2875837
20
38.7500943
40
0.3781531
50
221.1002518
51
252.9743523
0
ARC
8
DEFAULT_255_1_388
10
12.3393307
20
38.7945131
40
0.4463481
50
194.5394284
51
221.0302764
0
ARC
8
DEFAULT_255_1_388
10
12.5473128
20
38.8524897
40
0.6622359
50
182.0498004
51
194.8774376
0
ARC
8
DEFAULT_255_1_388
10
12.7466218
20
38.8657778
40
0.8619146
50
179.9790673
51
182.4586753
0
ARC
8
DEFAULT_255_1_388
10
12.5509531
20
38.8974412
40
0.6662543
50
168.615001
51
180.2870547
0
ARC
8
DEFAULT_255_1_388
10
12.415744
20
38.9239636
40
0.5284705
50
154.9162417
51
168.5402053
0
ARC
8
DEFAULT_255_1_388
10
12.3120716
20
38.9751942
40
0.4128641
50
133.5745308
51
155.2559538
0
ARC
8
DEFAULT_255_1_388
10
12.2937559
20
38.9908116
40
0.3889328
50
122.0165845
51
133.2056002
0
ARC
8
DEFAULT_255_1_388
10
12.2977883
20
38.9808977
40
0.3994808
50
97.8732516
51
121.753124
0
ARC
8
DEFAULT_255_1_388
10
12.3179341
20
38.861959
40
0.5200708
50
89.8471322
51
98.2768545
0
ARC
8
DEFAULT_255_1_388
10
12.3234189
20
38.9305809
40
0.4514657
50
73.3760755
51
90.5199878
0
ARC
8
DEFAULT_255_1_388
10
12.3455105
20
39.011855
40
0.3672743
50
47.7085939
51
73.0510707
0
ARC
8
DEFAULT_255_1_388
10
12.3601208
20
39.0245231
40
0.3480795
50
3.7442743
51
48.0844373
0
ARC
8
DEFAULT_255_1_388
10
12.2489202
20
39.0067946
40
0.4603187
50
2.6192831
51
5.0424684
0
ARC
8
DEFAULT_255_1_388
10
12.3004673
20
39.0112986
40
0.2507126
50
3.78087
51
23.9354314
0
ARC
8
DEFAULT_255_1_388
10
12.3261932
20
39.0203644
40
0.2235311
50
24.4867863
51
46.9439952
0
ARC
8
DEFAULT_255_1_388
10
12.3262878
20
39.0229874
40
0.2215567
50
46.4987715
51
89.3298168
0
ARC
8
DEFAULT_255_1_388
10
12.3193537
20
38.9563742
40
0.2883121
50
88.1066411
51
90.0063536
0
ARC
8
DEFAULT_255_1_388
10
12.3162512
20
38.9621548
40
0.2825481
50
89.3773571
51
107.2070287
0
ARC
8
DEFAULT_255_1_388
10
12.3001781
20
39.0203667
40
0.2221946
50
107.688418
51
143.3582986
0
ARC
8
DEFAULT_255_1_388
10
12.3640075
20
38.9724064
40
0.3020337
50
143.2845866
51
162.9352432
0
ARC
8
DEFAULT_255_1_388
10
12.5334091
20
38.9180401
40
0.4799362
50
162.6652705
51
174.0802646
0
ARC
8
DEFAULT_255_1_388
10
12.7744572
20
38.8900287
40
0.7225942
50
173.8422673
51
180.1784414
0
ARC
8
DEFAULT_255_1_388
10
12.7128242
20
38.8527276
40
0.6609665
50
179.7030218
51
188.2277356
0
ARC
8
DEFAULT_255_1_388
10
12.476385
20
38.8173143
40
0.4218948
50
188.0630838
51
201.115837
0
ARC
8
DEFAULT_255_1_388
10
12.3528735
20
38.770173
40
0.2896941
50
201.2186162
51
216.9761863
0
ARC
8
DEFAULT_255_1_388
10
12.3020892
20
38.7321225
40
0.2262366
50
217.0136373
51
265.2055518
0
ARC
8
DEFAULT_255_1_388
10
12.3196229
20
38.8358503
40
0.3311837
50
263.6824874
51
270.1042034
0
LINE
8
DEFAULT_255_1_388
10
12.9563346
20
39.6006906
11
13.123494
21
39.6006906
0
LINE
8
DEFAULT_255_1_388
10
13.123494
20
39.6006906
11
13.123494
21
39.3639567
0
LINE
8
DEFAULT_255_1_388
10
13.123494
20
39.3639567
11
13.3060141
21
39.3639567
0
LINE
8
DEFAULT_255_1_388
10
13.3060141
20
39.3639567
11
13.3060141
21
39.234747
0
LINE
8
DEFAULT_255_1_388
10
13.3060141
20
39.234747
11
13.123494
21
39.234747
0
LINE
8
DEFAULT_255_1_388
10
13.123494
20
39.234747
11
13.123494
21
38.6284553
0
LINE
8
DEFAULT_255_1_388
10
13.3105319
20
38.5218347
11
13.3105319
21
38.3863
0
LINE
8
DEFAULT_255_1_388
10
12.9563346
20
38.6284553
11
12.9563346
21
39.234747
0
LINE
8
DEFAULT_255_1_388
10
12.9563346
20
39.234747
11
12.7783324
21
39.234747
0
LINE
8
DEFAULT_255_1_388
10
12.7783324
20
39.234747
11
12.7783324
21
39.3639567
0
LINE
8
DEFAULT_255_1_388
10
12.7783324
20
39.3639567
11
12.9563346
21
39.3639567
0
LINE
8
DEFAULT_255_1_388
10
12.9563346
20
39.3639567
11
12.9563346
21
39.6006906
0
ARC
8
DEFAULT_255_1_388
10
13.3493448
20
38.6272842
40
0.2258538
50
179.7029045
51
187.9180047
0
ARC
8
DEFAULT_255_1_388
10
13.2654022
20
38.6152019
40
0.1410477
50
187.7540838
51
200.2454047
0
ARC
8
DEFAULT_255_1_388
10
13.2180928
20
38.5975591
40
0.0905561
50
200.1304287
51
219.1733455
0
ARC
8
DEFAULT_255_1_388
10
13.2028094
20
38.5871695
40
0.0721626
50
220.4434631
51
249.6169985
0
ARC
8
DEFAULT_255_1_388
10
13.2202321
20
38.6309919
40
0.1193141
50
249.1038184
51
262.7745376
0
ARC
8
DEFAULT_255_1_388
10
13.2301502
20
38.7017481
40
0.1907583
50
262.4921618
51
270.2607019
0
ARC
8
DEFAULT_255_1_388
10
13.2298584
20
38.7259817
40
0.2149929
50
270.309081
51
275.6615459
0
ARC
8
DEFAULT_255_1_388
10
13.2137992
20
38.8948342
40
0.3846066
50
275.5607354
51
279.087751
0
ARC
8
DEFAULT_255_1_388
10
13.1765924
20
39.1309428
40
0.6236283
50
279.0369545
51
281.5000133
0
ARC
8
DEFAULT_255_1_388
10
13.1375192
20
39.3286499
40
0.825157
50
281.4217093
51
282.1031556
0
ARC
8
DEFAULT_255_1_388
10
13.1751167
20
38.8743229
40
0.5064619
50
275.2597791
51
285.5081125
0
ARC
8
DEFAULT_255_1_388
10
13.1820181
20
38.8117452
40
0.4435166
50
270.0268175
51
275.1130565
0
ARC
8
DEFAULT_255_1_388
10
13.1797633
20
38.6624367
40
0.2942182
50
257.3572424
51
270.4795428
0
ARC
8
DEFAULT_255_1_388
10
13.1557903
20
38.5613952
40
0.1903838
50
230.8036715
51
257.7414447
0
ARC
8
DEFAULT_255_1_388
10
13.1481399
20
38.5490723
40
0.1760087
50
219.9745381
51
230.1985446
0
ARC
8
DEFAULT_255_1_388
10
13.1854687
20
38.5776116
40
0.2229598
50
196.5081334
51
219.4319996
0
ARC
8
DEFAULT_255_1_388
10
13.2997298
20
38.6134617
40
0.3427033
50
184.6408645
51
196.8266009
0
ARC
8
DEFAULT_255_1_388
10
13.4398203
20
38.627601
40
0.4834863
50
179.8987586
51
184.9677262
0
LINE
8
DEFAULT_255_1_388
10
13.7017753
20
39.7018898
11
13.7017753
21
38.5281596
0
LINE
8
DEFAULT_255_1_388
10
13.7017753
20
38.5281596
11
14.3252348
21
38.5281596
0
LINE
8
DEFAULT_255_1_388
10
14.3252348
20
38.5281596
11
14.3252348
21
38.3863
0
LINE
8
DEFAULT_255_1_388
10
14.3252348
20
38.3863
11
13.5273874
21
38.3863
0
LINE
8
DEFAULT_255_1_388
10
13.5273874
20
38.3863
11
13.5273874
21
39.7018898
0
LINE
8
DEFAULT_255_1_388
10
13.5273874
20
39.7018898
11
13.7017753
21
39.7018898
0
LINE
8
DEFAULT_255_1_388
10
14.4526374
20
38.8724177
11
14.4526374
21
38.884164
0
LINE
8
DEFAULT_255_1_388
10
15.3426483
20
38.8760319
11
15.3426483
21
38.8642856
0
ARC
8
DEFAULT_255_1_388
10
15.0810818
20
38.887804
40
0.628455
50
166.3005265
51
180.3318609
0
ARC
8
DEFAULT_255_1_388
10
14.9840168
20
38.9095267
40
0.52901
50
153.8608648
51
166.0965672
0
ARC
8
DEFAULT_255_1_388
10
14.9091334
20
38.9496652
40
0.4441126
50
135.1317053
51
154.2534962
0
ARC
8
DEFAULT_255_1_388
10
14.8777984
20
38.9773431
40
0.4023863
50
121.7042632
51
134.7771455
0
ARC
8
DEFAULT_255_1_388
10
14.8853416
20
38.9628469
40
0.4186852
50
93.4001111
51
121.5399523
0
ARC
8
DEFAULT_255_1_388
10
14.896025
20
38.8698759
40
0.5121521
50
89.9706387
51
93.9763381
0
ARC
8
DEFAULT_255_1_388
10
14.9013235
20
38.9138563
40
0.4681988
50
71.3321659
51
90.6162917
0
ARC
8
DEFAULT_255_1_388
10
14.9196269
20
38.9816003
40
0.3981841
50
41.1813875
51
70.7072086
0
ARC
8
DEFAULT_255_1_388
10
14.8658985
20
38.932813
40
0.4707474
50
12.1971434
51
41.3446641
0
ARC
8
DEFAULT_255_1_388
10
14.6492249
20
38.8812328
40
0.6934429
50
359.5702713
51
12.5803533
0
ARC
8
DEFAULT_255_1_388
10
14.7024565
20
38.8607207
40
0.6402018
50
347.0196754
51
0.3190452
0
ARC
8
DEFAULT_255_1_388
10
14.8102618
20
38.8375189
40
0.5299421
50
334.350439
51
346.8460534
0
ARC
8
DEFAULT_255_1_388
10
14.9053864
20
38.7881244
40
0.4228234
50
310.4228125
51
334.8045131
0
ARC
8
DEFAULT_255_1_388
10
14.9145843
20
38.7809301
40
0.4113892
50
301.8488154
51
310.0972985
0
ARC
8
DEFAULT_255_1_388
10
14.9109583
20
38.7894573
40
0.4205483
50
274.3078723
51
301.6554173
0
ARC
8
DEFAULT_255_1_388
10
14.8985039
20
38.8881943
40
0.5199658
50
269.954904
51
274.859116
0
ARC
8
DEFAULT_255_1_388
10
14.8929863
20
38.8318239
40
0.4636233
50
250.8887647
51
270.6313164
0
ARC
8
DEFAULT_255_1_388
10
14.8761023
20
38.7689405
40
0.398705
50
221.1701369
51
250.2227012
0
ARC
8
DEFAULT_255_1_388
10
14.9305689
20
38.8185716
40
0.4723796
50
191.6263861
51
221.3526879
0
ARC
8
DEFAULT_255_1_388
10
15.1429534
20
38.8677203
40
0.6903321
50
179.6101251
51
192.0694841
0
ARC
8
DEFAULT_255_1_388
10
15.1905882
20
38.8606681
40
0.5698993
50
179.636304
51
190.6161344
0
ARC
8
DEFAULT_255_1_388
10
15.0058213
20
38.8246635
40
0.3816643
50
190.4136062
51
208.7168709
0
ARC
8
DEFAULT_255_1_388
10
14.9484248
20
38.7961905
40
0.3176572
50
209.187109
51
217.4221816
0
ARC
8
DEFAULT_255_1_388
10
14.8888718
20
38.7437729
40
0.2385702
50
216.1156863
51
265.2575395
0
ARC
8
DEFAULT_255_1_388
10
14.8977754
20
38.8082608
40
0.3035941
50
264.5891546
51
270.0602378
0
ARC
8
DEFAULT_255_1_388
10
14.9014951
20
38.7655539
40
0.2609091
50
269.2532353
51
291.8793864
0
ARC
8
DEFAULT_255_1_388
10
14.904783
20
38.7455359
40
0.241148
50
292.9269367
51
323.1777736
0
ARC
8
DEFAULT_255_1_388
10
14.8577115
20
38.7868762
40
0.3036446
50
322.25666
51
323.087958
0
ARC
8
DEFAULT_255_1_388
10
14.8274373
20
38.8051332
40
0.3388345
50
323.6941379
51
343.8493587
0
ARC
8
DEFAULT_255_1_388
10
14.6498809
20
38.8591698
40
0.5244204
50
343.5746655
51
355.008149
0
ARC
8
DEFAULT_255_1_388
10
14.4240501
20
38.8825797
40
0.7514406
50
354.728272
51
0.1208026
0
ARC
8
DEFAULT_255_1_388
10
14.6229527
20
38.8877947
40
0.5525482
50
359.6235211
51
11.2016685
0
ARC
8
DEFAULT_255_1_388
10
14.7955354
20
38.9233284
40
0.3763527
50
10.9991302
51
30.8317616
0
ARC
8
DEFAULT_255_1_388
10
14.8400657
20
38.9467988
40
0.3260975
50
31.3007463
51
37.395541
0
ARC
8
DEFAULT_255_1_388
10
14.8959377
20
38.9939773
40
0.253082
50
36.5918894
51
62.2439906
0
ARC
8
DEFAULT_255_1_388
10
14.9011668
20
38.9936378
40
0.2509927
50
63.3364883
51
89.7193846
0
ARC
8
DEFAULT_255_1_388
10
14.8963122
20
38.9288375
40
0.3158485
50
88.8962924
51
90.004475
0
ARC
8
DEFAULT_255_1_388
10
14.8927549
20
38.9941071
40
0.250604
50
89.1923115
51
114.7099029
0
ARC
8
DEFAULT_255_1_388
10
14.8959891
20
38.9983675
40
0.2481307
50
115.7996284
51
142.2901353
0
ARC
8
DEFAULT_255_1_388
10
14.9428162
20
38.9564752
40
0.310833
50
141.4607507
51
142.383894
0
ARC
8
DEFAULT_255_1_388
10
14.9576013
20
38.9496449
40
0.3267335
50
143.0176473
51
163.2340089
0
ARC
8
DEFAULT_255_1_388
10
15.1351302
20
38.8934553
40
0.5129308
50
162.9446504
51
174.3733893
0
ARC
8
DEFAULT_255_1_388
10
15.3765275
20
38.8663483
40
0.75583
50
174.1225809
51
180.1563667
0
LINE
8
DEFAULT_255_1_388
10
16.1775419
20
39.255529
11
16.185674
21
39.3639567
0
LINE
8
DEFAULT_255_1_388
10
16.185674
20
39.3639567
11
16.3383764
21
39.3639567
0
LINE
8
DEFAULT_255_1_388
10
16.3383764
20
39.3639567
11
16.3383764
21
38.4097927
0
LINE
8
DEFAULT_255_1_388
10
15.5622145
20
38.1703481
11
15.6489567
21
38.2706438
0
LINE
8
DEFAULT_255_1_388
10
16.1703134
20
38.3998535
11
16.1703134
21
38.483885
0
LINE
8
DEFAULT_255_1_388
10
16.1703134
20
38.6537551
11
16.1703134
21
39.1001159
0
ARC
8
DEFAULT_255_1_388
10
16.3164112
20
38.888122
40
0.8039074
50
169.8802333
51
180.3464902
0
ARC
8
DEFAULT_255_1_388
10
16.0516918
20
38.937287
40
0.5346711
50
152.8534324
51
170.0824729
0
ARC
8
DEFAULT_255_1_388
10
15.9579312
20
38.9816868
40
0.4309932
50
142.0147746
51
152.418569
0
ARC
8
DEFAULT_255_1_388
10
15.8862761
20
39.0469169
40
0.3344504
50
94.3317494
51
143.2674518
0
ARC
8
DEFAULT_255_1_388
10
15.897962
20
38.9588903
40
0.423138
50
89.9487512
51
95.0093077
0
ARC
8
DEFAULT_255_1_388
10
15.9026418
20
38.9768021
40
0.4052487
50
72.9496911
51
90.6081488
0
ARC
8
DEFAULT_255_1_388
10
15.9257141
20
39.0603718
40
0.3185963
50
37.7743532
51
72.5099202
0
ARC
8
DEFAULT_255_1_388
10
15.8222007
20
38.4054774
40
0.5161937
50
346.3655403
51
0.4789834
0
ARC
8
DEFAULT_255_1_388
10
15.9760841
20
38.3663644
40
0.3574311
50
314.3365584
51
346.6438898
0
ARC
8
DEFAULT_255_1_388
10
15.9645985
20
38.38249
40
0.3770042
50
280.7144
51
313.872307
0
ARC
8
DEFAULT_255_1_388
10
15.926872
20
38.5506099
40
0.5492378
50
269.6628653
51
281.3208129
0
ARC
8
DEFAULT_255_1_388
10
15.925038
20
38.5042105
40
0.5028309
50
245.5258654
51
269.8407328
0
ARC
8
DEFAULT_255_1_388
10
15.8821226
20
38.4237065
40
0.4118207
50
232.6664457
51
246.3200328
0
ARC
8
DEFAULT_255_1_388
10
15.827647
20
38.3514386
40
0.3213227
50
214.3036526
51
232.5750527
0
ARC
8
DEFAULT_255_1_388
10
15.9534502
20
38.5118259
40
0.3884393
50
218.381912
51
236.3657409
0
ARC
8
DEFAULT_255_1_388
10
15.9084272
20
38.4490326
40
0.3112322
50
236.8637655
51
270.6382272
0
ARC
8
DEFAULT_255_1_388
10
15.9145954
20
38.4862587
40
0.3484494
50
269.5557858
51
282.3972101
0
ARC
8
DEFAULT_255_1_388
10
15.941154
20
38.3720767
40
0.2312324
50
282.043923
51
308.3079272
0
ARC
8
DEFAULT_255_1_388
10
15.9507654
20
38.356747
40
0.2132542
50
308.8347234
51
315.2037678
0
ARC
8
DEFAULT_255_1_388
10
15.9419364
20
38.3632123
40
0.2240808
50
315.6213011
51
345.6795376
0
ARC
8
DEFAULT_255_1_388
10
15.8317789
20
38.3938736
40
0.3384084
50
345.2627538
51
358.6311244
0
ARC
8
DEFAULT_255_1_388
10
15.7319294
20
38.3997581
40
0.4383839
50
358.1739988
51
0.0124651
0
ARC
8
DEFAULT_255_1_388
10
15.921347
20
38.6991381
40
0.3291173
50
275.6950404
51
319.1537182
0
ARC
8
DEFAULT_255_1_388
10
15.8975101
20
38.8369049
40
0.4686772
50
269.8805882
51
276.9235205
0
ARC
8
DEFAULT_255_1_388
10
15.8915402
20
38.71199
40
0.3437976
50
244.0748846
51
270.8321697
0
ARC
8
DEFAULT_255_1_388
10
15.899991
20
38.7142423
40
0.3495805
50
217.781776
51
242.9905232
0
ARC
8
DEFAULT_255_1_388
10
15.9675341
20
38.7743567
40
0.4398355
50
217.5209891
51
218.58043
0
ARC
8
DEFAULT_255_1_388
10
15.999118
20
38.792913
40
0.4762087
50
195.3497149
51
216.9773048
0
ARC
8
DEFAULT_255_1_388
10
16.2267069
20
38.8590667
40
0.7131994
50
183.9387193
51
195.6348167
0
ARC
8
DEFAULT_255_1_388
10
16.4827263
20
38.8820646
40
0.9702086
50
179.929381
51
184.2551265
0
ARC
8
DEFAULT_255_1_388
10
16.334093
20
38.8608515
40
0.6535206
50
179.6989243
51
188.5749266
0
ARC
8
DEFAULT_255_1_388
10
16.107612
20
38.8254789
40
0.4242988
50
188.4117627
51
202.0559679
0
ARC
8
DEFAULT_255_1_388
10
15.9986381
20
38.7826952
40
0.3072368
50
202.2924994
51
215.4475859
0
ARC
8
DEFAULT_255_1_388
10
15.9261451
20
38.7265576
40
0.2156547
50
214.4673097
51
264.3362727
0
ARC
8
DEFAULT_255_1_388
10
15.937612
20
38.7981673
40
0.2880794
50
263.4723224
51
270.0965288
0
ARC
8
DEFAULT_255_1_388
10
15.9421355
20
38.7813896
40
0.2713313
50
269.1472473
51
291.7978484
0
ARC
8
DEFAULT_255_1_388
10
15.9491615
20
38.7500081
40
0.2396396
50
293.0243185
51
327.6232391
0
ARC
8
DEFAULT_255_1_388
10
15.8695049
20
38.8082435
40
0.3381603
50
326.5171836
51
332.8160011
0
ARC
8
DEFAULT_255_1_388
10
15.909023
20
38.9612272
40
0.29591
50
27.9928465
51
47.6314088
0
ARC
8
DEFAULT_255_1_388
10
15.9496935
20
38.9999256
40
0.2399437
50
48.5793547
51
88.6245273
0
ARC
8
DEFAULT_255_1_388
10
15.9400053
20
38.9159448
40
0.3242237
50
87.2690754
51
90.0178312
0
ARC
8
DEFAULT_255_1_388
10
15.9367753
20
38.9897957
40
0.2503923
50
89.2839515
51
110.1847982
0
ARC
8
DEFAULT_255_1_388
10
15.9298553
20
39.0197002
40
0.2199699
50
111.180781
51
145.0423499
0
ARC
8
DEFAULT_255_1_388
10
15.9659414
20
38.9884759
40
0.2674811
50
143.9895932
51
144.106678
0
ARC
8
DEFAULT_255_1_388
10
16.0029485
20
38.966319
40
0.3104736
50
144.7981654
51
162.8715843
0
ARC
8
DEFAULT_255_1_388
10
16.1936084
20
38.9050138
40
0.5107383
50
162.598526
51
173.3417416
0
ARC
8
DEFAULT_255_1_388
10
16.4937457
20
38.8677767
40
0.8131718
50
173.1877249
51
180.2459848
0
LINE
8
DEFAULT_255_1_388
10
16.7720873
20
39.3639567
11
16.7720873
21
38.3863
0
LINE
8
DEFAULT_255_1_388
10
16.7720873
20
38.3863
11
16.6049279
21
38.3863
0
LINE
8
DEFAULT_255_1_388
10
16.6049279
20
38.3863
11
16.6049279
21
39.3639567
0
LINE
8
DEFAULT_255_1_388
10
16.6049279
20
39.3639567
11
16.7720873
21
39.3639567
0
ARC
8
DEFAULT_255_1_388
10
16.7014641
20
39.6243428
40
0.1100948
50
161.4148232
51
180.5532607
0
ARC
8
DEFAULT_255_1_388
10
16.6874951
20
39.6281875
40
0.0956324
50
138.1830164
51
160.9307633
0
ARC
8
DEFAULT_255_1_388
10
16.6751138
20
39.6389313
40
0.0792417
50
104.6371663
51
138.0036136
0
ARC
8
DEFAULT_255_1_388
10
16.6871677
20
39.5976963
40
0.1221906
50
92.0601206
51
105.2198859
0
ARC
8
DEFAULT_255_1_388
10
16.6898041
20
39.5588583
40
0.161103
50
89.9790681
51
92.5006086
0
ARC
8
DEFAULT_255_1_388
10
16.6909217
20
39.5844998
40
0.1354654
50
78.0234649
51
90.4478111
0
ARC
8
DEFAULT_255_1_388
10
16.7012801
20
39.6310203
40
0.0878096
50
55.0521508
51
78.336297
0
ARC
8
DEFAULT_255_1_388
10
16.7069336
20
39.6405168
40
0.0767913
50
42.0506198
51
54.4508489
0
ARC
8
DEFAULT_255_1_388
10
16.6917369
20
39.6265821
40
0.0974091
50
1.7493657
51
42.1498724
0
ARC
8
DEFAULT_255_1_388
10
16.6631274
20
39.6233166
40
0.1261276
50
359.9832635
51
2.8353994
0
ARC
8
DEFAULT_255_1_388
10
16.6817684
20
39.6222412
40
0.1074916
50
342.1062453
51
0.5535864
0
ARC
8
DEFAULT_255_1_388
10
16.6978108
20
39.6178197
40
0.0908695
50
316.7110111
51
341.6513114
0
ARC
8
DEFAULT_255_1_388
10
16.705354
20
39.6110607
40
0.0807447
50
285.4398289
51
316.5320129
0
ARC
8
DEFAULT_255_1_388
10
16.6929711
20
39.6522023
40
0.1237022
50
272.3543902
51
285.8951677
0
ARC
8
DEFAULT_255_1_388
10
16.6899421
20
39.6937742
40
0.1653687
50
269.9725761
51
272.8112722
0
ARC
8
DEFAULT_255_1_388
10
16.6888473
20
39.6686727
40
0.1402709
50
258.8433431
51
270.4148607
0
ARC
8
DEFAULT_255_1_388
10
16.6787253
20
39.6196739
40
0.0902407
50
238.54281
51
259.1289544
0
ARC
8
DEFAULT_255_1_388
10
16.6710574
20
39.6057694
40
0.0743817
50
222.5056676
51
237.9918132
0
ARC
8
DEFAULT_255_1_388
10
16.6854168
20
39.6188295
40
0.0937918
50
184.1070774
51
222.4604165
0
ARC
8
DEFAULT_255_1_388
10
16.7156581
20
39.6231538
40
0.1242838
50
179.9419581
51
185.0970785
0
LINE
8
DEFAULT_255_1_388
10
17.1533915
20
39.3639567
11
17.3675363
21
39.0070488
0
LINE
8
DEFAULT_255_1_388
10
17.3675363
20
39.0070488
11
17.5843917
21
39.3639567
0
LINE
8
DEFAULT_255_1_388
10
17.5843917
20
39.3639567
11
17.7795617
21
39.3639567
0
LINE
8
DEFAULT_255_1_388
10
17.7795617
20
39.3639567
11
17.4596999
21
38.8805498
0
LINE
8
DEFAULT_255_1_388
10
17.4596999
20
38.8805498
11
17.7895009
21
38.3863
0
LINE
8
DEFAULT_255_1_388
10
17.7895009
20
38.3863
11
17.5961381
21
38.3863
0
LINE
8
DEFAULT_255_1_388
10
17.5961381
20
38.3863
11
17.370247
21
38.7522436
0
LINE
8
DEFAULT_255_1_388
10
17.370247
20
38.7522436
11
17.1443559
21
38.3863
0
LINE
8
DEFAULT_255_1_388
10
17.1443559
20
38.3863
11
16.9500895
21
38.3863
0
LINE
8
DEFAULT_255_1_388
10
16.9500895
20
38.3863
11
17.2798905
21
38.8805498
0
LINE
8
DEFAULT_255_1_388
10
17.2798905
20
38.8805498
11
16.9600287
21
39.3639567
0
LINE
8
DEFAULT_255_1_388
10
16.9600287
20
39.3639567
11
17.1533915
21
39.3639567
0
LINE
8
DEFAULT_255_1_388
10
18.6081303
20
39.0115666
11
18.4744027
21
39.0459021
0
LINE
8
DEFAULT_255_1_388
10
18.4744027
20
39.0459021
11
18.5412665
21
39.7018898
0
LINE
8
DEFAULT_255_1_388
10
18.5412665
20
39.7018898
11
19.2153256
21
39.7018898
0
LINE
8
DEFAULT_255_1_388
10
19.2153256
20
39.7018898
11
19.2153256
21
39.5473803
0
LINE
8
DEFAULT_255_1_388
10
19.2153256
20
39.5473803
11
18.6831261
21
39.5473803
0
LINE
8
DEFAULT_255_1_388
10
18.6831261
20
39.5473803
11
18.6433693
21
39.1886652
0
LINE
8
DEFAULT_255_1_388
10
18.4274174
20
38.7323652
11
18.5855412
21
38.7323652
0
LINE
8
DEFAULT_255_1_388
10
18.6524049
20
39.0477092
11
18.6081303
21
39.0115666
0
ARC
8
DEFAULT_255_1_388
10
18.8520306
20
38.8309241
40
0.4141476
50
93.7181681
51
120.253934
0
ARC
8
DEFAULT_255_1_388
10
18.8626359
20
38.7400284
40
0.5055616
50
89.9660471
51
94.2495185
0
ARC
8
DEFAULT_255_1_388
10
18.867218
20
38.8063154
40
0.4392953
50
73.8045384
51
90.5585736
0
ARC
8
DEFAULT_255_1_388
10
18.8936438
20
38.902852
40
0.3392225
50
41.3071072
51
73.543002
0
ARC
8
DEFAULT_255_1_388
10
18.8468258
20
38.8625461
40
0.4009977
50
13.5075837
51
41.2174839
0
ARC
8
DEFAULT_255_1_388
10
18.6621356
20
38.8141907
40
0.5918864
50
1.1330171
51
13.8830737
0
ARC
8
DEFAULT_255_1_388
10
18.5025001
20
38.8056522
40
0.7516787
50
359.9925091
51
1.5431298
0
ARC
8
DEFAULT_255_1_388
10
18.6469616
20
38.8010027
40
0.6072343
50
347.8572712
51
0.4294349
0
ARC
8
DEFAULT_255_1_388
10
18.8438751
20
38.7563898
40
0.4053482
50
323.6727442
51
348.1674594
0
ARC
8
DEFAULT_255_1_388
10
18.8769716
20
38.7362175
40
0.3667495
50
316.8171818
51
323.1486802
0
ARC
8
DEFAULT_255_1_388
10
18.8838839
20
38.7320612
40
0.358869
50
281.839603
51
316.5458142
0
ARC
8
DEFAULT_255_1_388
10
18.8416127
20
38.9070363
40
0.5388223
50
269.5770964
51
282.4214641
0
ARC
8
DEFAULT_255_1_388
10
18.8336048
20
38.882993
40
0.5147801
50
256.2425863
51
270.4486481
0
ARC
8
DEFAULT_255_1_388
10
18.7999575
20
38.7480124
40
0.3756708
50
228.9024379
51
256.33135
0
ARC
8
DEFAULT_255_1_388
10
18.7916556
20
38.7349054
40
0.360344
50
193.7536029
51
228.5272638
0
ARC
8
DEFAULT_255_1_388
10
18.9309121
20
38.7757463
40
0.5053599
50
184.9244437
51
194.4976052
0
ARC
8
DEFAULT_255_1_388
10
18.9525762
20
38.7797722
40
0.3700839
50
187.3596909
51
198.6733728
0
ARC
8
DEFAULT_255_1_388
10
18.8345005
20
38.7388373
40
0.2451195
50
198.4453795
51
217.7945479
0
ARC
8
DEFAULT_255_1_388
10
18.8012178
20
38.7152563
40
0.2043754
50
218.2887146
51
228.5613203
0
ARC
8
DEFAULT_255_1_388
10
18.8122185
20
38.7300902
40
0.2227819
50
228.9652423
51
258.1237049
0
ARC
8
DEFAULT_255_1_388
10
18.8353622
20
38.8291964
40
0.3245374
50
257.7260585
51
270.4013717
0
ARC
8
DEFAULT_255_1_388
10
18.840412
20
38.7791255
40
0.2744726
50
269.4204315
51
286.420998
0
ARC
8
DEFAULT_255_1_388
10
18.8571176
20
38.7184705
40
0.2115721
50
286.7250065
51
320.6004665
0
ARC
8
DEFAULT_255_1_388
10
18.8140091
20
38.7534527
40
0.2670878
50
320.6712228
51
344.5440474
0
ARC
8
DEFAULT_255_1_388
10
18.6838805
20
38.7916394
40
0.4026927
50
344.241448
51
356.735803
0
ARC
8
DEFAULT_255_1_388
10
18.5435112
20
38.8032656
40
0.5435085
50
356.3547471
51
0.0507222
0
ARC
8
DEFAULT_255_1_388
10
18.6937377
20
38.8067812
40
0.3932934
50
359.5579289
51
12.9534322
0
ARC
8
DEFAULT_255_1_388
10
18.8124217
20
38.8355586
40
0.2711827
50
12.6489751
51
41.608121
0
ARC
8
DEFAULT_255_1_388
10
18.8383377
20
38.8575946
40
0.2371737
50
41.7851122
51
85.9892156
0
ARC
8
DEFAULT_255_1_388
10
18.8244687
20
38.7660738
40
0.3295244
50
84.6965848
51
90.0672125
0
ARC
8
DEFAULT_255_1_388
10
18.8218255
20
38.6909118
40
0.4046926
50
89.6804991
51
99.161352
0
ARC
8
DEFAULT_255_1_388
10
18.7987264
20
38.8289848
40
0.2647044
50
98.9836248
51
113.8905702
0
ARC
8
DEFAULT_255_1_388
10
18.7728939
20
38.8899118
40
0.1985386
50
114.195234
51
127.3641866
0
LINE
8
DEFAULT_255_1_388
10
19.6797577
20
38.9889775
11
19.6797577
21
39.1254157
0
LINE
8
DEFAULT_255_1_388
10
19.6797577
20
39.1254157
11
19.8053532
21
39.1254157
0
LINE
8
DEFAULT_255_1_388
10
19.5912084
20
39.3567282
11
19.424049
21
39.3567282
0
LINE
8
DEFAULT_255_1_388
10
19.4123026
20
38.7332688
11
19.5803656
21
38.7332688
0
LINE
8
DEFAULT_255_1_388
10
19.8053532
20
38.9889775
11
19.6797577
21
38.9889775
0
ARC
8
DEFAULT_255_1_388
10
19.8020758
20
39.5070922
40
0.3816905
50
270.491971
51
281.8953028
0
ARC
8
DEFAULT_255_1_388
10
19.8292185
20
39.3831199
40
0.2547877
50
281.6690378
51
301.2943765
0
ARC
8
DEFAULT_255_1_388
10
19.8483636
20
39.3480926
40
0.2149197
50
301.7834992
51
311.754567
0
ARC
8
DEFAULT_255_1_388
10
19.8586678
20
39.336665
40
0.1995326
50
311.7325027
51
354.2803031
0
ARC
8
DEFAULT_255_1_388
10
19.7769094
20
39.350728
40
0.2823461
50
353.0941646
51
0.1174696
0
ARC
8
DEFAULT_255_1_388
10
19.7250652
20
39.3560874
40
0.3342238
50
359.1804452
51
15.0452323
0
ARC
8
DEFAULT_255_1_388
10
19.876471
20
39.4002546
40
0.1765747
50
13.957816
51
77.6713812
0
ARC
8
DEFAULT_255_1_388
10
19.8329946
20
39.2444464
40
0.3381982
50
76.111571
51
90.7028736
0
ARC
8
DEFAULT_255_1_388
10
19.8263358
20
39.275225
40
0.3074046
50
89.5321574
51
103.5319393
0
ARC
8
DEFAULT_255_1_388
10
19.8037742
20
39.3651443
40
0.2147041
50
103.2930114
51
133.5619756
0
ARC
8
DEFAULT_255_1_388
10
19.7987683
20
39.3718351
40
0.2064084
50
133.8349761
51
173.5343225
0
ARC
8
DEFAULT_255_1_388
10
19.8801341
20
39.3574144
40
0.2889266
50
172.5097183
51
180.1360699
0
ARC
8
DEFAULT_255_1_388
10
19.7731105
20
39.361288
40
0.3490913
50
155.3483706
51
180.7484035
0
ARC
8
DEFAULT_255_1_388
10
19.767608
20
39.3580519
40
0.3454798
50
131.5745177
51
154.4799474
0
ARC
8
DEFAULT_255_1_388
10
19.8028363
20
39.3224422
40
0.3955058
50
96.9874487
51
131.9690874
0
ARC
8
DEFAULT_255_1_388
10
19.8275255
20
39.1823407
40
0.537622
50
89.8592909
51
97.7827481
0
ARC
8
DEFAULT_255_1_388
10
19.8329364
20
39.152836
40
0.5671399
50
78.3654493
51
90.4132586
0
ARC
8
DEFAULT_255_1_388
10
19.8732006
20
39.3394918
40
0.3762034
50
56.6229818
51
78.6387103
0
ARC
8
DEFAULT_255_1_388
10
19.8973835
20
39.3817846
40
0.3275964
50
47.0254604
51
56.085558
0
ARC
8
DEFAULT_255_1_388
10
19.8996086
20
39.3862189
40
0.3228382
50
10.9207523
51
46.777927
0
ARC
8
DEFAULT_255_1_388
10
19.746168
20
39.3507401
40
0.4802559
50
359.6364235
51
11.6087615
0
ARC
8
DEFAULT_255_1_388
10
19.9525845
20
39.3490404
40
0.273833
50
332.3549969
51
359.7179765
0
ARC
8
DEFAULT_255_1_388
10
19.8794246
20
39.3837285
40
0.3547505
50
325.2332381
51
332.8746682
0
ARC
8
DEFAULT_255_1_388
10
19.8965829
20
39.3717763
40
0.3338396
50
292.9803892
51
325.2391113
0
ARC
8
DEFAULT_255_1_388
10
19.8655025
20
39.4322679
40
0.4016959
50
292.542178
51
293.6931461
0
ARC
8
DEFAULT_255_1_388
10
19.9098597
20
38.7057036
40
0.372079
50
57.643292
51
72.8626085
0
ARC
8
DEFAULT_255_1_388
10
19.9497431
20
38.7703273
40
0.2961455
50
36.7246661
51
57.4701329
0
ARC
8
DEFAULT_255_1_388
10
19.9484588
20
38.771747
40
0.2963321
50
8.054535
51
36.3561529
0
ARC
8
DEFAULT_255_1_388
10
19.8514261
20
38.7543073
40
0.3948682
50
359.8316595
51
8.5873361
0
ARC
8
DEFAULT_255_1_388
10
19.8091735
20
38.748897
40
0.4371398
50
343.9831631
51
0.557075
0
ARC
8
DEFAULT_255_1_388
10
19.9088784
20
38.7215963
40
0.3337749
50
311.6358204
51
343.7652116
0
ARC
8
DEFAULT_255_1_388
10
19.8663038
20
38.7695955
40
0.3979351
50
279.7829743
51
311.625622
0
ARC
8
DEFAULT_255_1_388
10
19.8324173
20
38.9312642
40
0.5630417
50
269.7285092
51
280.3857694
0
ARC
8
DEFAULT_255_1_388
10
19.8254486
20
38.9266241
40
0.5584119
50
256.6827433
51
270.4412869
0
ARC
8
DEFAULT_255_1_388
10
19.7873473
20
38.7708698
40
0.3980715
50
229.4223821
51
256.8554507
0
ARC
8
DEFAULT_255_1_388
10
19.7407026
20
38.7183683
40
0.3278564
50
181.8183354
51
229.6455015
0
ARC
8
DEFAULT_255_1_388
10
19.8576636
20
38.7330825
40
0.4453611
50
179.9760419
51
183.2330638
0
ARC
8
DEFAULT_255_1_388
10
19.8383188
20
38.7307781
40
0.2579652
50
179.4467996
51
196.2871626
0
ARC
8
DEFAULT_255_1_388
10
19.7834642
20
38.7157709
40
0.2011057
50
196.5661293
51
227.7059371
0
ARC
8
DEFAULT_255_1_388
10
19.8019249
20
38.7364155
40
0.2287994
50
227.7653015
51
257.8763321
0
ARC
8
DEFAULT_255_1_388
10
19.8272332
20
38.8424961
40
0.3378385
50
257.4583525
51
270.4267406
0
ARC
8
DEFAULT_255_1_388
10
19.8323582
20
38.875123
40
0.3704652
50
269.5965319
51
280.8788143
0
ARC
8
DEFAULT_255_1_388
10
19.858181
20
38.7461529
40
0.2389415
50
280.6347277
51
299.8594068
0
ARC
8
DEFAULT_255_1_388
10
19.8796579
20
38.7053736
40
0.19289
50
300.3575552
51
314.5515667
0
ARC
8
DEFAULT_255_1_388
10
19.8703255
20
38.7122025
40
0.204312
50
315.0730962
51
345.0429362
0
ARC
8
DEFAULT_255_1_388
10
19.7664762
20
38.7424539
40
0.31246
50
344.598526
51
357.9270698
0
ARC
8
DEFAULT_255_1_388
10
19.6655067
20
38.7493705
40
0.4136265
50
357.4755098
51
0.0224936
0
ARC
8
DEFAULT_255_1_388
10
19.7807945
20
38.7521099
40
0.2983498
50
359.5051035
51
13.4236939
0
ARC
8
DEFAULT_255_1_388
10
19.8783035
20
38.7770637
40
0.1977186
50
12.9497905
51
48.7550905
0
ARC
8
DEFAULT_255_1_388
10
19.8577957
20
38.7490373
40
0.2323321
50
49.509109
51
72.1832965
0
ARC
8
DEFAULT_255_1_388
10
19.8175425
20
38.6295632
40
0.358397
50
71.9008458
51
84.3555134
0
ARC
8
DEFAULT_255_1_388
10
19.799382
20
38.4763712
40
0.512641
50
84.019632
51
89.3326067
0
ARC
8
DEFAULT_255_1_388
10
20.9561485
20
39.355672
40
0.3175098
50
338.8762533
51
0.5167111
0
ARC
8
DEFAULT_255_1_388
10
20.9751079
20
39.35056
40
0.2979894
50
325.8415285
51
338.4793574
0
ARC
8
DEFAULT_255_1_388
10
20.9311713
20
39.3810242
40
0.351452
50
296.7587686
51
325.7536481
0
ARC
8
DEFAULT_255_1_388
10
20.898334
20
39.4364363
40
0.4157374
50
296.0927901
51
297.3613472
0
ARC
8
DEFAULT_255_1_388
10
20.9277536
20
38.6981593
40
0.395855
50
47.9007294
51
67.1948823
0
ARC
8
DEFAULT_255_1_388
10
20.9498178
20
38.7258599
40
0.360516
50
35.2363914
51
47.551141
0
ARC
8
DEFAULT_255_1_388
10
20.9792582
20
38.7455093
40
0.3251343
50
359.2759765
51
35.4014143
0
ARC
8
DEFAULT_255_1_388
10
20.8954508
20
38.7372787
40
0.4089365
50
343.1293083
51
0.5775513
0
ARC
8
DEFAULT_255_1_388
10
20.9769622
20
38.7148336
40
0.3244269
50
310.8496669
51
342.7449331
0
ARC
8
DEFAULT_255_1_388
10
20.9299496
20
38.7684913
40
0.3957651
50
281.5472888
51
310.9170406
0
ARC
8
DEFAULT_255_1_388
10
20.8898371
20
38.9431814
40
0.5749654
50
269.619248
51
281.9789564
0
ARC
8
DEFAULT_255_1_388
10
20.8817148
20
38.9432776
40
0.5750649
50
257.4585678
51
270.4285689
0
ARC
8
DEFAULT_255_1_388
10
20.8388669
20
38.7628741
40
0.389671
50
228.7554326
51
257.8484789
0
ARC
8
DEFAULT_255_1_388
10
20.8040154
20
38.7209228
40
0.335154
50
184.0104975
51
228.5071184
0
ARC
8
DEFAULT_255_1_388
10
20.9348547
20
38.740843
40
0.4671891
50
179.9315832
51
185.3253753
0
ARC
8
DEFAULT_255_1_388
10
20.8025059
20
38.7450592
40
0.33486
50
145.6796023
51
180.6259786
0
ARC
8
DEFAULT_255_1_388
10
20.8208825
20
38.7322271
40
0.3572723
50
115.5537685
51
145.6415986
0
ARC
8
DEFAULT_255_1_388
10
20.8591869
20
38.6636087
40
0.4357296
50
113.243307
51
116.2057839
0
ARC
8
DEFAULT_255_1_388
10
20.8420521
20
39.3833379
40
0.3549126
50
222.9549744
51
244.1370481
0
ARC
8
DEFAULT_255_1_388
10
20.8283164
20
39.3679378
40
0.3343711
50
213.3436887
51
222.6274467
0
ARC
8
DEFAULT_255_1_388
10
20.8067233
20
39.3532653
40
0.3082678
50
180.431584
51
213.271499
0
ARC
8
DEFAULT_255_1_388
10
20.8702232
20
39.3585296
40
0.3718363
50
179.9991191
51
181.1690594
0
ARC
8
DEFAULT_255_1_388
10
20.9174688
20
39.3624072
40
0.4190996
50
164.6186169
51
180.529336
0
ARC
8
DEFAULT_255_1_388
10
20.8164337
20
39.389578
40
0.3144772
50
132.2455553
51
164.5090724
0
ARC
8
DEFAULT_255_1_388
10
20.8487316
20
39.353007
40
0.3632644
50
100.7053914
51
132.1386381
0
ARC
8
DEFAULT_255_1_388
10
20.8830377
20
39.1980118
40
0.5219578
50
89.6730358
51
101.2451698
0
ARC
8
DEFAULT_255_1_388
10
20.8900368
20
39.2176648
40
0.5023124
50
76.287748
51
90.4586006
0
ARC
8
DEFAULT_255_1_388
10
20.924487
20
39.3551671
40
0.3605639
50
47.8240511
51
76.4266241
0
ARC
8
DEFAULT_255_1_388
10
20.9495254
20
39.3844599
40
0.3220463
50
6.9168387
51
47.6262497
0
ARC
8
DEFAULT_255_1_388
10
20.8160707
20
39.3598004
40
0.4575765
50
359.8415968
51
7.9697453
0
ARC
8
DEFAULT_255_1_388
10
20.8544977
20
38.7477519
40
0.2827228
50
359.445363
51
16.9256873
0
ARC
8
DEFAULT_255_1_388
10
20.9072411
20
38.7622781
40
0.2280396
50
17.2920767
51
45.4630727
0
ARC
8
DEFAULT_255_1_388
10
20.9011546
20
38.7570324
40
0.2360485
50
45.30305
51
83.1920945
0
ARC
8
DEFAULT_255_1_388
10
20.8850291
20
38.6668473
40
0.3275527
50
82.2612665
51
90.1434275
0
ARC
8
DEFAULT_255_1_388
10
20.8815567
20
38.6930869
40
0.3013237
50
89.4956434
51
104.8580688
0
ARC
8
DEFAULT_255_1_388
10
20.8616757
20
38.7684455
40
0.2233867
50
104.8856641
51
135.244616
0
ARC
8
DEFAULT_255_1_388
10
20.8672746
20
38.7634352
40
0.2308906
50
135.3399546
51
172.1044062
0
ARC
8
DEFAULT_255_1_388
10
20.958027
20
38.7460667
40
0.3232034
50
171.2645637
51
180.186429
0
ARC
8
DEFAULT_255_1_388
10
20.9390275
20
38.7424426
40
0.304213
50
179.5154935
51
193.6464289
0
ARC
8
DEFAULT_255_1_388
10
20.8471951
20
38.7190473
40
0.209456
50
193.3540274
51
225.8258581
0
ARC
8
DEFAULT_255_1_388
10
20.8517823
20
38.7270076
40
0.2183738
50
226.4180634
51
255.8552336
0
ARC
8
DEFAULT_255_1_388
10
20.880629
20
38.8323521
40
0.3275812
50
255.4654104
51
268.7987425
0
ARC
8
DEFAULT_255_1_388
10
20.8859466
20
38.9265545
40
0.4218877
50
268.3449238
51
270.0094605
0
ARC
8
DEFAULT_255_1_388
10
20.8885699
20
38.8497094
40
0.3450519
50
269.5759586
51
282.0820163
0
ARC
8
DEFAULT_255_1_388
10
20.9138736
20
38.7378363
40
0.2303642
50
281.752014
51
306.6056188
0
ARC
8
DEFAULT_255_1_388
10
20.9249544
20
38.7196802
40
0.2091906
50
307.1346085
51
314.027845
0
ARC
8
DEFAULT_255_1_388
10
20.9209056
20
38.7226459
40
0.2141385
50
314.2552483
51
350.1694025
0
ARC
8
DEFAULT_255_1_388
10
20.8251293
20
38.7434175
40
0.312082
50
349.4140529
51
0.2933014
0
ARC
8
DEFAULT_255_1_388
10
20.883657
20
39.3237924
40
0.2588377
50
89.477747
51
105.729729
0
ARC
8
DEFAULT_255_1_388
10
20.868349
20
39.3806367
40
0.1999733
50
105.9233417
51
135.1660906
0
ARC
8
DEFAULT_255_1_388
10
20.8706521
20
39.3790412
40
0.2027322
50
135.3052302
51
168.9883645
0
ARC
8
DEFAULT_255_1_388
10
20.9637537
20
39.3576996
40
0.2982129
50
168.3801673
51
180.3602268
0
ARC
8
DEFAULT_255_1_388
10
20.9380654
20
39.3534622
40
0.2725291
50
179.5033122
51
194.9125571
0
ARC
8
DEFAULT_255_1_388
10
20.8722061
20
39.3361427
40
0.204431
50
194.9720816
51
224.194444
0
ARC
8
DEFAULT_255_1_388
10
20.8690426
20
39.3335635
40
0.2003651
50
224.2962453
51
262.015664
0
ARC
8
DEFAULT_255_1_388
10
20.885043
20
39.4158315
40
0.2840925
50
261.1245923
51
270.1962896
0
ARC
8
DEFAULT_255_1_388
10
20.8883911
20
39.3947859
40
0.2630559
50
269.4827276
51
285.0987215
0
ARC
8
DEFAULT_255_1_388
10
20.9057347
20
39.3297175
40
0.1957162
50
285.1585357
51
315.9484501
0
ARC
8
DEFAULT_255_1_388
10
20.8957221
20
39.3389315
40
0.2093195
50
316.0413965
51
351.916092
0
ARC
8
DEFAULT_255_1_388
10
20.8132595
20
39.3548323
40
0.2932279
50
351.105835
51
0.1939062
0
ARC
8
DEFAULT_255_1_388
10
20.8428229
20
39.3582224
40
0.2636739
50
359.4789618
51
16.0678224
0
ARC
8
DEFAULT_255_1_388
10
20.8963701
20
39.3726721
40
0.2082215
50
16.3252067
51
44.7913869
0
ARC
8
DEFAULT_255_1_388
10
20.8943763
20
39.372732
40
0.2095992
50
44.3957814
51
88.2499162
0
ARC
8
DEFAULT_255_1_388
10
20.8861098
20
39.3039006
40
0.2787189
50
86.9833854
51
90.0192215
0
LINE
8
DEFAULT_255_1_388
10
22.3398515
20
39.164269
11
22.3398515
21
38.9474135
0
LINE
8
DEFAULT_255_1_388
10
21.5094757
20
38.9248244
11
21.5094757
21
39.1480048
0
LINE
8
DEFAULT_255_1_388
10
22.172692
20
38.9022353
11
22.172692
21
39.1760153
0
LINE
8
DEFAULT_255_1_388
10
21.6766352
20
39.1886652
11
21.6766352
21
38.9212102
0
ARC
8
DEFAULT_255_1_388
10
20.9620849
20
38.9419118
40
1.3777776
50
353.8440855
51
0.2287917
0
ARC
8
DEFAULT_255_1_388
10
21.4839866
20
38.8836414
40
0.852639
50
344.4934746
51
353.9763743
0
ARC
8
DEFAULT_255_1_388
10
21.8206673
20
38.7879191
40
0.5026273
50
329.2803599
51
344.7473406
0
ARC
8
DEFAULT_255_1_388
10
21.9322169
20
38.7267038
40
0.3754848
50
324.9361395
51
328.6153007
0
ARC
8
DEFAULT_255_1_388
10
21.9747819
20
38.6969586
40
0.3235566
50
280.5801797
51
324.9173226
0
ARC
8
DEFAULT_255_1_388
10
21.9296447
20
38.8849236
40
0.5167077
50
269.5979457
51
281.6732777
0
ARC
8
DEFAULT_255_1_388
10
21.9215351
20
38.8714113
40
0.5032026
50
256.6228565
51
270.5105488
0
ARC
8
DEFAULT_255_1_388
10
21.8763094
20
38.6972345
40
0.3233092
50
215.8618351
51
257.2787793
0
ARC
8
DEFAULT_255_1_388
10
21.9911801
20
38.7743106
40
0.4615831
50
197.9695203
51
215.2622745
0
ARC
8
DEFAULT_255_1_388
10
22.2707476
20
38.8686641
40
0.7566307
50
187.8816486
51
198.2346584
0
ARC
8
DEFAULT_255_1_388
10
22.7160715
20
38.9329453
40
1.2065653
50
180.8977266
51
188.0054894
0
ARC
8
DEFAULT_255_1_388
10
23.0210928
20
38.94444
40
1.5117443
50
180.7434591
51
181.152202
0
ARC
8
DEFAULT_255_1_388
10
22.8535924
20
39.1534371
40
1.3441277
50
173.7674302
51
180.2315596
0
ARC
8
DEFAULT_255_1_388
10
22.3453793
20
39.2108779
40
0.8326847
50
164.3058537
51
173.9000553
0
ARC
8
DEFAULT_255_1_388
10
22.0177793
20
39.3052652
40
0.4917711
50
148.7922028
51
164.5682288
0
ARC
8
DEFAULT_255_1_388
10
21.910853
20
39.3649457
40
0.3694204
50
144.5883979
51
148.1161588
0
ARC
8
DEFAULT_255_1_388
10
21.8721276
20
39.3919667
40
0.322202
50
101.6440149
51
144.5142619
0
ARC
8
DEFAULT_255_1_388
10
21.9199468
20
39.2019337
40
0.5180451
50
89.528284
51
102.5820197
0
ARC
8
DEFAULT_255_1_388
10
21.928846
20
39.1975376
40
0.5224441
50
77.0437914
51
90.508231
0
ARC
8
DEFAULT_255_1_388
10
21.9740714
20
39.3823272
40
0.3322297
50
48.2777708
51
77.4996087
0
ARC
8
DEFAULT_255_1_388
10
21.9822454
20
39.3968557
40
0.315966
50
36.3141586
51
47.6307332
0
ARC
8
DEFAULT_255_1_388
10
21.8845176
20
39.3310159
40
0.4337313
50
18.2931065
51
35.6770203
0
ARC
8
DEFAULT_255_1_388
10
21.5984017
20
39.2328107
40
0.7362203
50
8.0246996
51
18.5605636
0
ARC
8
DEFAULT_255_1_388
10
21.1300372
20
39.1636432
40
1.2096583
50
1.127539
51
8.1718423
0
ARC
8
DEFAULT_255_1_388
10
20.7651506
20
39.1493374
40
1.5747719
50
0.5432713
51
1.38669
0
ARC
8
DEFAULT_255_1_388
10
20.9708884
20
39.1800163
40
1.2018103
50
359.8092569
51
4.9408001
0
ARC
8
DEFAULT_255_1_388
10
21.4445466
20
39.22229
40
0.7262727
50
4.8364937
51
12.2906017
0
ARC
8
DEFAULT_255_1_388
10
21.754493
20
39.2913485
40
0.4087324
50
12.0806994
51
23.8171225
0
ARC
8
DEFAULT_255_1_388
10
21.8865326
20
39.3472508
40
0.2653719
50
24.2874621
51
31.3934353
0
ARC
8
DEFAULT_255_1_388
10
21.9455762
20
39.3858822
40
0.1948607
50
30.7407708
51
82.4658033
0
ARC
8
DEFAULT_255_1_388
10
21.9253423
20
39.2865017
40
0.2961198
50
81.1057101
51
90.2187368
0
ARC
8
DEFAULT_255_1_388
10
21.9213235
20
39.3155421
40
0.2670929
50
89.380395
51
105.6763916
0
ARC
8
DEFAULT_255_1_388
10
21.9006957
20
39.390532
40
0.1893189
50
105.7980655
51
149.7387869
0
ARC
8
DEFAULT_255_1_388
10
22.0204097
20
39.3185719
40
0.3289892
50
149.4208441
51
163.628295
0
ARC
8
DEFAULT_255_1_388
10
22.2556327
20
39.2468345
40
0.5749004
50
163.3764549
51
172.141138
0
ARC
8
DEFAULT_255_1_388
10
22.6269048
20
39.1936582
40
0.9499585
50
172.0258462
51
178.0705453
0
ARC
8
DEFAULT_255_1_388
10
22.9690601
20
39.1774682
40
1.2924734
50
177.8639301
51
179.5036263
0
ARC
8
DEFAULT_255_1_388
10
22.847162
20
38.9171151
40
1.170534
50
179.7995545
51
185.246089
0
ARC
8
DEFAULT_255_1_388
10
22.3923213
20
38.8740404
40
0.7136613
50
185.1411911
51
193.0082205
0
ARC
8
DEFAULT_255_1_388
10
22.0949473
20
38.8037441
40
0.4080987
50
192.7897338
51
205.2507384
0
ARC
8
DEFAULT_255_1_388
10
21.9771683
20
38.7511538
40
0.2791522
50
205.8001921
51
211.2545876
0
ARC
8
DEFAULT_255_1_388
10
21.9183222
20
38.7117132
40
0.2084074
50
210.3789935
51
238.4007996
0
ARC
8
DEFAULT_255_1_388
10
21.9161308
20
38.7169786
40
0.2117943
50
239.6521916
51
265.9793852
0
ARC
8
DEFAULT_255_1_388
10
21.9257157
20
38.7926358
40
0.2879689
50
265.1324455
51
270.0603288
0
ARC
8
DEFAULT_255_1_388
10
21.9289534
20
38.7561418
40
0.2514919
50
269.3314378
51
287.2180039
0
ARC
8
DEFAULT_255_1_388
10
21.9444617
20
38.6995291
40
0.1928357
50
287.7957942
51
329.0808983
0
ARC
8
DEFAULT_255_1_388
10
21.8367374
20
38.7667651
40
0.319808
50
328.6635261
51
343.3325043
0
ARC
8
DEFAULT_255_1_388
10
21.5922832
20
38.8429195
40
0.5758408
50
343.0498092
51
351.9392499
0
ARC
8
DEFAULT_255_1_388
10
21.2022154
20
38.9004205
40
0.9701202
50
351.8071632
51
357.7957897
0
ARC
8
DEFAULT_255_1_388
10
20.8387631
20
38.9192724
40
1.3340376
50
357.5870923
51
359.2682493
0
LINE
8
DEFAULT_255_2_778
10
11.0359959
20
41.3731531
11
10.9838959
21
41.7104531
0
LINE
8
DEFAULT_255_2_778
10
10.9838959
20
41.7104531
11
10.4068959
21
41.7104531
0
LINE
8
DEFAULT_255_2_778
10
10.4068959
20
41.7104531
11
10.2364959
21
41.3731531
0
LINE
8
DEFAULT_255_2_778
10
10.2364959
20
41.3731531
11
9.8694959
21
41.3731531
0
LINE
8
DEFAULT_255_2_778
10
9.8694959
20
41.3731531
11
10.7531959
21
43.0106531
0
LINE
8
DEFAULT_255_2_778
10
10.7531959
20
43.0106531
11
11.0608959
21
43.0106531
0
LINE
8
DEFAULT_255_2_778
10
11.0608959
20
43.0106531
11
11.3754959
21
41.3731531
0
LINE
8
DEFAULT_255_2_778
10
11.3754959
20
41.3731531
11
11.0357959
21
41.3731531
0
LINE
8
DEFAULT_255_2_778
10
11.0357959
20
41.3731531
11
11.0359959
21
41.3731531
0
LINE
8
DEFAULT_255_2_778
10
10.8486959
20
42.5934531
11
10.5430959
21
41.9838531
0
LINE
8
DEFAULT_255_2_778
10
10.5430959
20
41.9838531
11
10.9418959
21
41.9838531
0
LINE
8
DEFAULT_255_2_778
10
10.9418959
20
41.9838531
11
10.8486959
21
42.5934531
0
LINE
8
DEFAULT_255_2_778
10
10.8486959
20
42.5934531
11
10.8486959
21
42.5934531
0
LINE
8
DEFAULT_255_2_778
10
12.1615594
20
43.1006646
11
11.8593594
21
41.3729646
0
LINE
8
DEFAULT_255_2_778
10
11.8593594
20
41.3729646
11
11.5368594
21
41.3729646
0
LINE
8
DEFAULT_255_2_778
10
11.5368594
20
41.3729646
11
11.8400594
21
43.1006646
0
LINE
8
DEFAULT_255_2_778
10
11.8400594
20
43.1006646
11
12.1615594
21
43.1006646
0
LINE
8
DEFAULT_255_2_778
10
12.1615594
20
43.1006646
11
12.1615594
21
43.1006646
0
LINE
8
DEFAULT_255_2_778
10
12.7717594
20
43.1006646
11
12.4695594
21
41.3729646
0
LINE
8
DEFAULT_255_2_778
10
12.4695594
20
41.3729646
11
12.1470594
21
41.3729646
0
LINE
8
DEFAULT_255_2_778
10
12.1470594
20
41.3729646
11
12.4502594
21
43.1006646
0
LINE
8
DEFAULT_255_2_778
10
12.4502594
20
43.1006646
11
12.7717594
21
43.1006646
0
LINE
8
DEFAULT_255_2_778
10
12.7717594
20
43.1006646
11
12.7717594
21
43.1006646
0
ARC
8
DEFAULT_255_2_778
10
13.3179403
20
41.8882551
40
0.5378315
50
238.7482666
51
270.7109536
0
ARC
8
DEFAULT_255_2_778
10
13.2871171
20
41.8339616
40
0.4754286
50
204.0953248
51
238.5293175
0
ARC
8
DEFAULT_255_2_778
10
13.369978
20
41.8729489
40
0.5669891
50
179.4893674
51
204.2733579
0
ARC
8
DEFAULT_255_2_778
10
13.494221
20
41.8774975
40
0.6912099
50
175.122749
51
179.9581802
0
ARC
8
DEFAULT_255_2_778
10
13.585056
20
41.9125152
40
0.7790728
50
149.5392097
51
174.9446897
0
ARC
8
DEFAULT_255_2_778
10
13.4591921
20
41.9960212
40
0.628301
50
120.7003982
51
150.2846053
0
ARC
8
DEFAULT_255_2_778
10
13.4196932
20
42.0557024
40
0.556829
50
89.4236852
51
120.3409826
0
ARC
8
DEFAULT_255_2_778
10
13.4252434
20
41.9569671
40
0.6555361
50
88.4553682
51
89.9955718
0
ARC
8
DEFAULT_255_2_778
10
13.4483922
20
42.1426667
40
0.4696303
50
58.00918
51
90.668398
0
ARC
8
DEFAULT_255_2_778
10
13.4737568
20
42.2037652
40
0.4045188
50
35.6383534
51
56.4712999
0
ARC
8
DEFAULT_255_2_778
10
13.3641964
20
42.1307058
40
0.5361477
50
0.6851965
51
35.1616077
0
ARC
8
DEFAULT_255_2_778
10
13.1616394
20
42.1103229
40
0.7391521
50
359.9888194
51
2.0774415
0
ARC
8
DEFAULT_255_2_778
10
13.0480107
20
42.1120249
40
0.852783
50
353.383538
51
359.8759623
0
ARC
8
DEFAULT_255_2_778
10
13.5342292
20
41.8596119
40
0.4107176
50
177.8018731
51
179.9839782
0
ARC
8
DEFAULT_255_2_778
10
13.3756299
20
41.848124
40
0.2523852
50
177.3650374
51
219.8309448
0
ARC
8
DEFAULT_255_2_778
10
13.3461625
20
41.8347258
40
0.2213408
50
222.0539722
51
271.540726
0
ARC
8
DEFAULT_255_2_778
10
13.3631084
20
42.0396328
40
0.4263095
50
268.5221589
51
269.9980703
0
ARC
8
DEFAULT_255_2_778
10
13.3614702
20
42.0103275
40
0.3970076
50
270.2343536
51
318.5005279
0
ARC
8
DEFAULT_255_2_778
10
13.4310137
20
41.8267979
40
0.4555006
50
292.4982989
51
325.2807674
0
ARC
8
DEFAULT_255_2_778
10
13.3411048
20
42.0058078
40
0.6554523
50
269.6237067
51
293.7717535
0
ARC
8
DEFAULT_255_2_778
10
13.3368029
20
42.0912465
40
0.740877
50
269.0805119
51
269.999781
0
ARC
8
DEFAULT_255_2_778
10
13.420533
20
42.0851924
40
0.2651471
50
88.6426469
51
89.9972013
0
ARC
8
DEFAULT_255_2_778
10
13.4187474
20
42.1201021
40
0.2302444
50
89.5524386
51
130.4678957
0
ARC
8
DEFAULT_255_2_778
10
13.517348
20
42.0203327
40
0.370282
50
132.0556576
51
154.4346079
0
ARC
8
DEFAULT_255_2_778
10
13.918637
20
41.8027869
40
0.8264843
50
152.8348001
51
159.2008974
0
ARC
8
DEFAULT_255_2_778
10
13.2837231
20
42.1737268
40
0.3137404
50
351.1327381
51
359.8552777
0
ARC
8
DEFAULT_255_2_778
10
13.3301825
20
42.1733274
40
0.2672803
50
359.9157472
51
8.073482
0
ARC
8
DEFAULT_255_2_778
10
13.4328807
20
42.1886276
40
0.1634528
50
7.8192239
51
49.4174523
0
ARC
8
DEFAULT_255_2_778
10
13.4309417
20
42.1754377
40
0.174876
50
51.746929
51
91.3525911
0
LINE
8
DEFAULT_255_2_778
10
12.8055138
20
41.936265
11
12.8090138
21
41.981165
0
LINE
8
DEFAULT_255_2_778
10
13.8951138
20
42.013765
11
13.8768138
21
41.875365
0
LINE
8
DEFAULT_255_2_778
10
13.8768138
20
41.875365
11
13.1238138
21
41.875365
0
LINE
8
DEFAULT_255_2_778
10
13.6588138
20
41.747265
11
13.8054138
21
41.567365
0
LINE
8
DEFAULT_255_2_778
10
13.3249138
20
41.350465
11
13.3246138
21
41.350465
0
LINE
8
DEFAULT_255_2_778
10
13.1460138
20
42.096265
11
13.5868138
21
42.096265
0
LINE
8
DEFAULT_255_2_778
10
13.5868138
20
42.096265
11
13.5937138
21
42.125365
0
LINE
8
DEFAULT_255_2_778
10
13.4268138
20
42.350265
11
13.4268138
21
42.350265
0
ARC
8
DEFAULT_255_2_778
10
14.7973588
20
42.1688783
40
0.4439397
50
89.8554796
51
141.1589213
0
ARC
8
DEFAULT_255_2_778
10
14.7984572
20
42.107943
40
0.5048737
50
88.7717605
51
89.9975792
0
ARC
8
DEFAULT_255_2_778
10
14.8178417
20
42.2968406
40
0.315976
50
50.4893295
51
91.5528058
0
ARC
8
DEFAULT_255_2_778
10
14.8339359
20
42.3312178
40
0.2793745
50
33.8414583
51
48.5499238
0
ARC
8
DEFAULT_255_2_778
10
14.731985
20
42.2723286
40
0.3969262
50
4.3932888
51
32.7062485
0
ARC
8
DEFAULT_255_2_778
10
14.4819065
20
42.2369301
40
0.6491822
50
359.8769204
51
5.8177478
0
ARC
8
DEFAULT_255_2_778
10
14.2701804
20
42.2378881
40
0.8609097
50
353.9399056
51
359.8434284
0
ARC
8
DEFAULT_255_2_778
10
14.4164047
20
42.2035967
40
0.3954956
50
352.2407688
51
359.7520116
0
ARC
8
DEFAULT_255_2_778
10
14.5201997
20
42.2024041
40
0.2916973
50
359.8980094
51
5.448398
0
ARC
8
DEFAULT_255_2_778
10
14.6814536
20
42.2195865
40
0.129553
50
4.6550554
51
97.2610773
0
ARC
8
DEFAULT_255_2_778
10
14.655996
20
42.0938531
40
0.2544097
50
87.9539208
51
89.9945997
0
ARC
8
DEFAULT_255_2_778
10
14.6629447
20
42.0782668
40
0.2700847
50
91.4691634
51
141.078713
0
ARC
8
DEFAULT_255_2_778
10
14.7966376
20
41.9364301
40
0.4639576
50
137.8219849
51
140.394746
0
ARC
8
DEFAULT_255_2_778
10
16.9661161
20
41.983211
40
1.026426
50
77.5141066
51
90.4821212
0
ARC
8
DEFAULT_255_2_778
10
17.0845798
20
42.4924611
40
0.5036389
50
52.814306
51
78.1469212
0
ARC
8
DEFAULT_255_2_778
10
17.1732245
20
42.6207438
40
0.3479303
50
357.5432245
51
51.6759047
0
ARC
8
DEFAULT_255_2_778
10
16.9814613
20
42.6061938
40
0.5393738
50
356.248244
51
359.9613012
0
ARC
8
DEFAULT_255_2_778
10
17.128092
20
42.5935882
40
0.3922439
50
295.0867564
51
356.6841236
0
ARC
8
DEFAULT_255_2_778
10
16.9599154
20
42.8563279
40
0.7026958
50
292.6018649
51
298.4245718
0
ARC
8
DEFAULT_255_2_778
10
17.1412835
20
41.943675
40
0.2784307
50
29.5992916
51
71.4243751
0
ARC
8
DEFAULT_255_2_778
10
17.0686219
20
41.9014727
40
0.3624559
50
358.8250622
51
29.7265593
0
ARC
8
DEFAULT_255_2_778
10
16.932071
20
41.8943262
40
0.4989307
50
356.3312443
51
359.9671937
0
ARC
8
DEFAULT_255_2_778
10
16.9581925
20
41.8755387
40
0.4719696
50
307.6792206
51
358.4048608
0
ARC
8
DEFAULT_255_2_778
10
16.8807048
20
41.9963643
40
0.6150877
50
279.1080464
51
306.5123219
0
ARC
8
DEFAULT_255_2_778
10
16.7961448
20
42.4184116
40
1.0453321
50
269.63465
51
280.0226117
0
ARC
8
DEFAULT_255_2_778
10
16.8094212
20
41.9835308
40
0.3407431
50
267.9747348
51
304.6141501
0
ARC
8
DEFAULT_255_2_778
10
16.8661516
20
41.8973067
40
0.2375665
50
305.166569
51
352.3059676
0
ARC
8
DEFAULT_255_2_778
10
16.775822
20
41.9183166
40
0.3300111
50
350.7906063
51
359.6837465
0
ARC
8
DEFAULT_255_2_778
10
16.9356152
20
41.9239465
40
0.170376
50
357.4933304
51
35.754963
0
ARC
8
DEFAULT_255_2_778
10
16.9423472
20
41.9096963
40
0.1739313
50
40.8670445
51
88.9145542
0
ARC
8
DEFAULT_255_2_778
10
16.9113357
20
41.7244792
40
0.360752
50
84.5431107
51
87.5464559
0
ARC
8
DEFAULT_255_2_778
10
16.8864523
20
42.6965688
40
0.3741259
50
268.9933192
51
299.9063201
0
ARC
8
DEFAULT_255_2_778
10
16.9296435
20
42.6037438
40
0.2722705
50
301.7671328
51
305.0688299
0
ARC
8
DEFAULT_255_2_778
10
16.9572403
20
42.5676463
40
0.2268776
50
304.6024496
51
352.3134516
0
ARC
8
DEFAULT_255_2_778
10
16.9035208
20
42.5783322
40
0.2815642
50
351.6205962
51
359.745937
0
ARC
8
DEFAULT_255_2_778
10
17.0391775
20
42.5844083
40
0.1460884
50
357.1260689
51
87.9509322
0
ARC
8
DEFAULT_255_2_778
10
16.9733166
20
42.3050677
40
0.4312349
50
80.5121161
51
90.1776895
0
ARC
8
DEFAULT_255_2_778
10
18.304359
20
41.6332308
40
0.6634375
50
79.3314563
51
88.7113465
0
ARC
8
DEFAULT_255_2_778
10
18.3079683
20
41.8666839
40
0.4299655
50
88.4925657
51
89.9946723
0
ARC
8
DEFAULT_255_2_778
10
18.2982438
20
41.9867608
40
0.3100425
50
88.1952228
51
143.885382
0
ARC
8
DEFAULT_255_2_778
10
18.4077805
20
42.2317129
40
0.3980768
50
117.0828142
51
147.9763761
0
ARC
8
DEFAULT_255_2_778
10
18.3544747
20
42.3150295
40
0.2997784
50
89.5977622
51
115.2613452
0
ARC
8
DEFAULT_255_2_778
10
18.3464621
20
42.1428482
40
0.4720608
50
75.0830674
51
88.7719532
0
ARC
8
DEFAULT_255_2_778
10
19.3883565
20
41.4600588
40
0.303463
50
178.9513385
51
196.6911244
0
ARC
8
DEFAULT_255_2_778
10
19.5567182
20
41.4654238
40
0.4717738
50
177.8405456
51
179.9770623
0
ARC
8
DEFAULT_255_2_778
10
18.7787325
20
41.7700947
40
0.4198561
50
270.5473861
51
316.8967404
0
ARC
8
DEFAULT_255_2_778
10
18.7827705
20
41.7804581
40
0.4302003
50
268.5226571
51
269.9964175
0
ARC
8
DEFAULT_255_2_778
10
18.7647216
20
41.7285252
40
0.3781887
50
226.455184
51
271.0541416
0
ARC
8
DEFAULT_255_2_778
10
18.7161161
20
41.6831869
40
0.311866
50
179.0506747
51
227.1894377
0
ARC
8
DEFAULT_255_2_778
10
18.7977006
20
41.6882683
40
0.3934079
50
177.4603384
51
179.9875271
0
ARC
8
DEFAULT_255_2_778
10
18.7677222
20
41.7042892
40
0.3630457
50
122.3464314
51
179.7772632
0
ARC
8
DEFAULT_255_2_778
10
18.9127921
20
41.4771577
40
0.6325515
50
98.6956815
51
122.4402135
0
ARC
8
DEFAULT_255_2_778
10
18.9977072
20
41.0221789
40
1.0952432
50
89.6404969
51
99.4883828
0
ARC
8
DEFAULT_255_2_778
10
18.91142
20
42.237456
40
0.2635833
50
349.2520325
51
359.7979352
0
ARC
8
DEFAULT_255_2_778
10
18.9485896
20
42.2366836
40
0.2264121
50
359.9602232
51
5.7075699
0
ARC
8
DEFAULT_255_2_778
10
19.0517084
20
42.2508244
40
0.1224577
50
3.9221136
51
47.9806675
0
ARC
8
DEFAULT_255_2_778
10
19.0461009
20
42.2334028
40
0.1393558
50
51.0640414
51
91.6537281
0
ARC
8
DEFAULT_255_2_778
10
19.0343864
20
42.0992856
40
0.2735232
50
88.3883484
51
89.9950272
0
ARC
8
DEFAULT_255_2_778
10
19.0289472
20
42.1771996
40
0.1956856
50
88.4002709
51
125.6558116
0
ARC
8
DEFAULT_255_2_778
10
19.0229477
20
42.1954867
40
0.1774238
50
127.5242925
51
170.6536699
0
ARC
8
DEFAULT_255_2_778
10
18.8789596
20
42.2092573
40
0.3527561
50
122.7014157
51
177.7346919
0
ARC
8
DEFAULT_255_2_778
10
19.030198
20
42.0042043
40
0.6072396
50
91.7146868
51
124.2570002
0
ARC
8
DEFAULT_255_2_778
10
19.05893
20
41.7473064
40
0.865138
50
89.9735854
51
93.1077226
0
ARC
8
DEFAULT_255_2_778
10
19.0592938
20
41.690756
40
0.9216883
50
89.4414218
51
89.9978259
0
ARC
8
DEFAULT_255_2_778
10
19.0704714
20
42.0922068
40
0.5201984
50
63.6868659
51
90.2414521
0
ARC
8
DEFAULT_255_2_778
10
19.1244671
20
42.2201249
40
0.3816898
50
44.805062
51
62.4405121
0
ARC
8
DEFAULT_255_2_778
10
19.1511934
20
42.2443957
40
0.3456276
50
358.4368244
51
45.0725574
0
ARC
8
DEFAULT_255_2_778
10
18.9988451
20
42.2357092
40
0.4978477
50
354.0151208
51
359.9146153
0
ARC
8
DEFAULT_255_2_778
10
19.916384
20
41.5134006
40
0.5223437
50
178.2666392
51
179.9853875
0
ARC
8
DEFAULT_255_2_778
10
19.7189724
20
41.5055635
40
0.3250299
50
178.5948625
51
200.018038
0
ARC
8
DEFAULT_255_2_778
10
18.8607749
20
41.8944835
40
0.2979407
50
268.1351457
51
269.9967975
0
ARC
8
DEFAULT_255_2_778
10
18.8555143
20
41.8919809
40
0.2954847
50
271.0168715
51
323.4470831
0
ARC
8
DEFAULT_255_2_778
10
19.0185177
20
41.5324003
40
0.3950093
50
89.6139406
51
115.9632081
0
ARC
8
DEFAULT_255_2_778
10
18.9568146
20
41.6735476
40
0.2411766
50
117.4642621
51
142.4598629
0
ARC
8
DEFAULT_255_2_778
10
18.9147894
20
41.7104762
40
0.1853888
50
143.595728
51
174.110017
0
ARC
8
DEFAULT_255_2_778
10
18.8922711
20
41.7049244
40
0.1637466
50
171.368069
51
179.7835889
0
ARC
8
DEFAULT_255_2_778
10
18.8267207
20
41.7018088
40
0.098266
50
177.8221965
51
224.0379617
0
ARC
8
DEFAULT_255_2_778
10
18.8464576
20
41.7268517
40
0.1299333
50
225.9269812
51
272.0384171
0
ARC
8
DEFAULT_255_2_778
10
20.216987
20
42.2619976
40
0.3515032
50
37.8132465
51
89.9360651
0
ARC
8
DEFAULT_255_2_778
10
20.0346749
20
41.7717418
40
0.4267183
50
285.291584
51
321.0175046
0
ARC
8
DEFAULT_255_2_778
10
20.0570669
20
41.7255225
40
0.3763475
50
269.8450062
51
283.8588709
0
ARC
8
DEFAULT_255_2_778
10
20.0560587
20
41.7582286
40
0.4090522
50
268.5880369
51
269.9986183
0
ARC
8
DEFAULT_255_2_778
10
20.0420305
20
41.7050487
40
0.3557701
50
236.3475668
51
270.6359501
0
ARC
8
DEFAULT_255_2_778
10
20.0598141
20
41.7165321
40
0.3752788
50
201.8435891
51
235.058908
0
ARC
8
DEFAULT_255_2_778
10
20.3322211
20
41.8355871
40
0.6724873
50
181.1917384
51
202.6233367
0
ARC
8
DEFAULT_255_2_778
10
20.6351677
20
41.8686339
40
0.9764219
50
180.0156472
51
182.7609519
0
ARC
8
DEFAULT_255_2_778
10
20.5470549
20
41.8692658
40
0.8883095
50
174.2087211
51
180.0579587
0
ARC
8
DEFAULT_255_2_778
10
20.6346038
20
41.8821468
40
0.9727968
50
152.6606942
51
172.4775279
0
ARC
8
DEFAULT_255_2_778
10
20.4685375
20
41.9566269
40
0.7911386
50
151.1967159
51
151.9287309
0
ARC
8
DEFAULT_255_2_778
10
20.2724416
20
42.0806657
40
0.559722
50
125.8155177
51
152.6517649
0
ARC
8
DEFAULT_255_2_778
10
20.1926864
20
42.1751789
40
0.4365104
50
121.2895022
51
124.5859333
0
ARC
8
DEFAULT_255_2_778
10
20.2005174
20
42.1608255
40
0.4528439
50
89.3885498
51
121.1930117
0
ARC
8
DEFAULT_255_2_778
10
20.205315
20
42.0790492
40
0.5345942
50
88.6747242
51
89.9962477
0
ARC
8
DEFAULT_255_2_778
10
21.0229427
20
41.8416181
40
1.044966
50
173.5557888
51
179.5636493
0
ARC
8
DEFAULT_255_2_778
10
20.5582157
20
41.848589
40
0.5802095
50
179.9025124
51
183.3187157
0
ARC
8
DEFAULT_255_2_778
10
20.270534
20
41.819649
40
0.2915917
50
180.9134286
51
207.6247443
0
ARC
8
DEFAULT_255_2_778
10
20.135005
20
41.7552881
40
0.1417894
50
209.9763709
51
272.172214
0
ARC
8
DEFAULT_255_2_778
10
20.1512082
20
41.8790383
40
0.2656585
50
267.6638236
51
269.9934853
0
ARC
8
DEFAULT_255_2_778
10
20.1452669
20
41.8828962
40
0.2695812
50
271.2564257
51
323.4819236
0
ARC
8
DEFAULT_255_2_778
10
20.0042443
20
42.0217425
40
0.4663623
50
320.0808185
51
322.7722781
0
ARC
8
DEFAULT_255_2_778
10
20.2905955
20
42.1680938
40
0.1811681
50
17.7085133
51
91.4917236
0
ARC
8
DEFAULT_255_2_778
10
20.2776466
20
42.0673302
40
0.2819906
50
88.3270304
51
89.9962875
0
ARC
8
DEFAULT_255_2_778
10
20.2751839
20
42.1154886
40
0.2338453
50
89.3920923
51
141.8934507
0
ARC
8
DEFAULT_255_2_778
10
20.4150372
20
42.0058724
40
0.411538
50
141.9009784
51
164.0634131
0
ARC
8
DEFAULT_255_2_778
10
20.9401614
20
41.8381385
40
0.9626867
50
163.0454941
51
172.7936709
0
LINE
8
DEFAULT_255_2_778
10
14.1790793
20
42.5902006
11
14.4788793
21
42.5913006
0
LINE
8
DEFAULT_255_2_778
10
14.4788793
20
42.5913006
11
14.4515793
21
42.4473006
0
LINE
8
DEFAULT_255_2_778
10
15.1262793
20
42.1470006
11
14.9968793
21
41.3731006
0
LINE
8
DEFAULT_255_2_778
10
14.9968793
20
41.3731006
11
14.6764793
21
41.3731006
0
LINE
8
DEFAULT_255_2_778
10
14.6764793
20
41.3731006
11
14.8082793
21
42.1502006
0
LINE
8
DEFAULT_255_2_778
10
14.4391793
20
42.2322006
11
14.2856793
21
41.3729006
0
LINE
8
DEFAULT_255_2_778
10
14.2856793
20
41.3729006
11
13.9652793
21
41.3729006
0
LINE
8
DEFAULT_255_2_778
10
13.9652793
20
41.3729006
11
14.1787793
21
42.5900006
0
LINE
8
DEFAULT_255_2_778
10
14.1787793
20
42.5900006
11
14.1790793
21
42.5902006
0
LINE
8
DEFAULT_255_2_778
10
16.0157793
20
42.2053006
11
15.9692793
21
41.9433006
0
LINE
8
DEFAULT_255_2_778
10
15.9692793
20
41.9433006
11
15.3466793
21
41.9433006
0
LINE
8
DEFAULT_255_2_778
10
15.3466793
20
41.9433006
11
15.3921793
21
42.2053006
0
LINE
8
DEFAULT_255_2_778
10
15.3921793
20
42.2053006
11
16.0157793
21
42.2053006
0
LINE
8
DEFAULT_255_2_778
10
16.0157793
20
42.2053006
11
16.0157793
21
42.2053006
0
LINE
8
DEFAULT_255_2_778
10
16.7894793
20
41.3731006
11
16.1544793
21
41.3731006
0
LINE
8
DEFAULT_255_2_778
10
16.1544793
20
41.3731006
11
16.4417793
21
43.0106006
0
LINE
8
DEFAULT_255_2_778
10
16.4417793
20
43.0106006
11
16.9574793
21
43.0096006
0
LINE
8
DEFAULT_255_2_778
10
16.7894793
20
41.3731006
11
16.7894793
21
41.3731006
0
LINE
8
DEFAULT_255_2_778
10
16.9267793
20
42.0851006
11
16.6131793
21
42.0862006
0
LINE
8
DEFAULT_255_2_778
10
16.6131793
20
42.0862006
11
16.5348793
21
41.6441006
0
LINE
8
DEFAULT_255_2_778
10
16.5348793
20
41.6441006
11
16.7973793
21
41.6430006
0
LINE
8
DEFAULT_255_2_778
10
16.9267793
20
42.0849006
11
16.9267793
21
42.0851006
0
LINE
8
DEFAULT_255_2_778
10
16.7267793
20
42.7376006
11
16.6539793
21
42.3248006
0
LINE
8
DEFAULT_255_2_778
10
16.6539793
20
42.3248006
11
16.8798793
21
42.3225006
0
LINE
8
DEFAULT_255_2_778
10
16.9719793
20
42.7363006
11
16.7267793
21
42.7373006
0
LINE
8
DEFAULT_255_2_778
10
16.7267793
20
42.7373006
11
16.7267793
21
42.7376006
0
LINE
8
DEFAULT_255_2_778
10
18.4681793
20
42.5990006
11
18.4271793
21
42.2852006
0
LINE
8
DEFAULT_255_2_778
10
18.0477793
20
42.1695006
11
17.9056793
21
41.3731006
0
LINE
8
DEFAULT_255_2_778
10
17.9056793
20
41.3731006
11
17.5852793
21
41.3731006
0
LINE
8
DEFAULT_255_2_778
10
17.5852793
20
41.3731006
11
17.7987793
21
42.5902006
0
LINE
8
DEFAULT_255_2_778
10
17.7987793
20
42.5902006
11
18.0998793
21
42.5913006
0
LINE
8
DEFAULT_255_2_778
10
18.0998793
20
42.5913006
11
18.0702793
21
42.4428006
0
LINE
8
DEFAULT_255_2_778
10
18.4679793
20
42.5990006
11
18.4681793
21
42.5990006
0
LINE
8
DEFAULT_255_2_778
10
19.4122793
20
41.3729006
11
19.0976793
21
41.3729006
0
LINE
8
DEFAULT_255_2_778
10
19.0045793
20
42.1174006
11
19.1545793
21
42.1153006
0
LINE
8
DEFAULT_255_2_778
10
19.1545793
20
42.1153006
11
19.1703793
21
42.1883006
0
LINE
8
DEFAULT_255_2_778
10
18.8478793
20
42.2243006
11
18.5264793
21
42.2232006
0
LINE
8
DEFAULT_255_2_778
10
19.4939793
20
42.1838006
11
19.3997793
21
41.6012006
0
LINE
8
DEFAULT_255_2_778
10
19.3997793
20
41.6012006
11
19.3942793
21
41.5292006
0
LINE
8
DEFAULT_255_2_778
10
19.4135793
20
41.3943006
11
19.4124793
21
41.3729006
0
LINE
8
DEFAULT_255_2_778
10
19.4124793
20
41.3729006
11
19.4122793
21
41.3729006
0
LINE
8
DEFAULT_255_2_778
10
19.0928793
20
41.7160006
11
19.1325793
21
41.9264006
0
LINE
8
DEFAULT_255_2_778
10
19.1325793
20
41.9264006
11
19.0211793
21
41.9274006
0
LINE
8
DEFAULT_255_2_778
10
18.8510793
20
41.5970006
11
18.8510793
21
41.5967006
0
LINE
8
DEFAULT_255_2_778
10
20.4946793
20
42.4775006
11
20.6150793
21
43.1006006
0
LINE
8
DEFAULT_255_2_778
10
20.6150793
20
43.1006006
11
20.9364793
21
43.1006006
0
LINE
8
DEFAULT_255_2_778
10
20.9364793
20
43.1006006
11
20.6343793
21
41.3729006
0
LINE
8
DEFAULT_255_2_778
10
20.6343793
20
41.3729006
11
20.3480793
21
41.3729006
0
LINE
8
DEFAULT_255_2_778
10
20.3480793
20
41.3729006
11
20.3663793
21
41.5033006
0
LINE
8
DEFAULT_255_2_778
10
19.6632793
20
41.9589006
11
19.6701793
21
42.0095006
0
LINE
8
DEFAULT_255_2_778
10
20.2176793
20
42.6135006
11
20.2173793
21
42.6135006
0
LINE
8
DEFAULT_255_2_778
10
20.3755793
20
41.7396006
11
20.4631793
21
42.2232006
0
LINE
8
DEFAULT_255_2_778
10
19.9850793
20
41.9589006
11
19.9845793
21
41.9589006
0
LINE
8
DEFAULT_255_2_778
10
21.5304594
20
43.1006646
11
21.2282594
21
41.3729646
0
LINE
8
DEFAULT_255_2_778
10
21.2282594
20
41.3729646
11
20.9057594
21
41.3729646
0
LINE
8
DEFAULT_255_2_778
10
20.9057594
20
41.3729646
11
21.2089594
21
43.1006646
0
LINE
8
DEFAULT_255_2_778
10
21.2089594
20
43.1006646
11
21.5304594
21
43.1006646
0
LINE
8
DEFAULT_255_2_778
10
21.5304594
20
43.1006646
11
21.5304594
21
43.1006646
0
ARC
8
DEFAULT_255_2_778
10
22.0768767
20
41.8887764
40
0.5383522
50
238.763891
51
270.7055166
0
ARC
8
DEFAULT_255_2_778
10
22.0455625
20
41.833452
40
0.4748131
50
204.061185
51
238.5328679
0
ARC
8
DEFAULT_255_2_778
10
22.1281681
20
41.8730331
40
0.5663841
50
179.4896096
51
204.3103027
0
ARC
8
DEFAULT_255_2_778
10
22.2521843
20
41.8775727
40
0.6903781
50
175.123126
51
179.9580366
0
ARC
8
DEFAULT_255_2_778
10
22.3438479
20
41.9125152
40
0.7790728
50
149.5392097
51
174.9446897
0
ARC
8
DEFAULT_255_2_778
10
22.217984
20
41.9960212
40
0.628301
50
120.7003982
51
150.2846053
0
ARC
8
DEFAULT_255_2_778
10
22.1784851
20
42.0557024
40
0.556829
50
89.4236852
51
120.3409826
0
ARC
8
DEFAULT_255_2_778
10
22.1840352
20
41.9569671
40
0.6555361
50
88.4553682
51
89.9955718
0
ARC
8
DEFAULT_255_2_778
10
22.2069363
20
42.1411369
40
0.4711572
50
58.4514404
51
90.636095
0
ARC
8
DEFAULT_255_2_778
10
22.2332403
20
42.2045423
40
0.403504
50
35.6058989
51
56.9235594
0
ARC
8
DEFAULT_255_2_778
10
22.1229882
20
42.1307058
40
0.5361477
50
0.6851965
51
35.1616077
0
ARC
8
DEFAULT_255_2_778
10
21.9204313
20
42.1103229
40
0.7391521
50
359.9888194
51
2.0774415
0
ARC
8
DEFAULT_255_2_778
10
21.8068025
20
42.1120249
40
0.852783
50
353.383538
51
359.8759623
0
ARC
8
DEFAULT_255_2_778
10
22.293021
20
41.8596119
40
0.4107176
50
177.8018731
51
179.9839782
0
ARC
8
DEFAULT_255_2_778
10
22.1344217
20
41.848124
40
0.2523852
50
177.3650374
51
219.8309448
0
ARC
8
DEFAULT_255_2_778
10
22.1050068
20
41.8348401
40
0.2214564
50
222.0668323
51
271.55222
0
ARC
8
DEFAULT_255_2_778
10
22.1220002
20
42.0396289
40
0.4263057
50
268.5221572
51
269.9980687
0
ARC
8
DEFAULT_255_2_778
10
22.1204001
20
42.0100217
40
0.3967017
50
270.2290309
51
318.5203973
0
ARC
8
DEFAULT_255_2_778
10
22.1898056
20
41.8267979
40
0.4555006
50
292.4982989
51
325.2807674
0
ARC
8
DEFAULT_255_2_778
10
22.0999907
20
42.0053545
40
0.6549996
50
269.6158853
51
293.7802026
0
ARC
8
DEFAULT_255_2_778
10
22.0956026
20
42.092233
40
0.7418635
50
269.0811303
51
269.9997673
0
ARC
8
DEFAULT_255_2_778
10
22.1793249
20
42.0851977
40
0.2651417
50
88.6426435
51
89.9971979
0
ARC
8
DEFAULT_255_2_778
10
22.1775009
20
42.1204788
40
0.2298681
50
89.5421073
51
130.5025885
0
ARC
8
DEFAULT_255_2_778
10
22.2762398
20
42.0203327
40
0.370282
50
132.0556576
51
154.4346079
0
ARC
8
DEFAULT_255_2_778
10
22.6775288
20
41.8027869
40
0.8264843
50
152.8348001
51
159.2008974
0
ARC
8
DEFAULT_255_2_778
10
22.042515
20
42.1737268
40
0.3137404
50
351.1327381
51
359.8552777
0
ARC
8
DEFAULT_255_2_778
10
22.0889744
20
42.1733274
40
0.2672803
50
359.9157472
51
8.073482
0
ARC
8
DEFAULT_255_2_778
10
22.1916726
20
42.1886276
40
0.1634528
50
7.8192239
51
49.4174523
0
ARC
8
DEFAULT_255_2_778
10
22.1897336
20
42.1754377
40
0.174876
50
51.746929
51
91.3525911
0
LINE
8
DEFAULT_255_2_778
10
21.5643056
20
41.936265
11
21.5678056
21
41.981165
0
LINE
8
DEFAULT_255_2_778
10
22.6539056
20
42.013765
11
22.6356056
21
41.875365
0
LINE
8
DEFAULT_255_2_778
10
22.6356056
20
41.875365
11
21.8826056
21
41.875365
0
LINE
8
DEFAULT_255_2_778
10
22.4176056
20
41.747265
11
22.5642056
21
41.567365
0
LINE
8
DEFAULT_255_2_778
10
22.0837056
20
41.350465
11
22.0835056
21
41.350465
0
LINE
8
DEFAULT_255_2_778
10
21.9049056
20
42.096265
11
22.3456056
21
42.096265
0
LINE
8
DEFAULT_255_2_778
10
22.3456056
20
42.096265
11
22.3525056
21
42.125365
0
LINE
8
DEFAULT_255_2_778
10
22.1856056
20
42.350265
11
22.1856056
21
42.350265
0
ARC
8
DEFAULT_255_2_778
10
22.5732251
20
41.4893848
40
0.7187609
50
318.1171527
51
335.3457065
0
ARC
8
DEFAULT_255_2_778
10
22.7861338
20
41.3072586
40
0.4387075
50
306.2044829
51
317.2623563
0
ARC
8
DEFAULT_255_2_778
10
22.8118587
20
41.2765063
40
0.3987066
50
269.0092455
51
305.8318035
0
ARC
8
DEFAULT_255_2_778
10
22.8209703
20
41.4411254
40
0.5634934
50
257.9736769
51
268.3723286
0
ARC
8
DEFAULT_255_2_778
10
22.976467
20
42.2953273
40
1.431581
50
256.8370098
51
259.0102636
0
ARC
8
DEFAULT_255_2_778
10
22.7299218
20
41.543381
40
0.396887
50
268.3457775
51
269.9906226
0
ARC
8
DEFAULT_255_2_778
10
22.744688
20
41.3839479
40
0.2379166
50
266.425992
51
328.6474802
0
LINE
8
DEFAULT_255_2_778
10
23.1491646
20
42.5899594
11
23.2378646
21
41.8364594
0
LINE
8
DEFAULT_255_2_778
10
23.2378646
20
41.8364594
11
23.5889646
21
42.5899594
0
LINE
8
DEFAULT_255_2_778
10
23.5889646
20
42.5899594
11
23.9453646
21
42.5899594
0
LINE
8
DEFAULT_255_2_778
10
23.9453646
20
42.5899594
11
23.2264646
21
41.1895594
0
LINE
8
DEFAULT_255_2_778
10
22.6504646
20
40.9013594
11
22.6742646
21
41.1487594
0
LINE
8
DEFAULT_255_2_778
10
22.6742646
20
41.1487594
11
22.7184646
21
41.1466594
0
LINE
8
DEFAULT_255_2_778
10
22.9478646
20
41.2601594
11
23.0182646
21
41.3895594
0
LINE
8
DEFAULT_255_2_778
10
23.0182646
20
41.3895594
11
22.8171646
21
42.5896594
0
LINE
8
DEFAULT_255_2_778
10
22.8171646
20
42.5896594
11
23.1489646
21
42.5896594
0
LINE
8
DEFAULT_255_2_778
10
23.1489646
20
42.5896594
11
23.1491646
21
42.5899594
0
LINE
8
DEFAULT_255_2_778
10
5.4244542
20
42.9894666
11
5.4244542
21
41.8041666
0
LINE
8
DEFAULT_255_2_778
10
5.4244542
20
41.8041666
11
8.3507542
21
41.7671666
0
LINE
8
DEFAULT_255_2_778
10
8.3507542
20
41.7671666
11
8.3507542
21
42.9894666
0
LINE
8
DEFAULT_255_2_778
10
8.3507542
20
42.9894666
11
7.4246542
21
43.8414666
0
LINE
8
DEFAULT_255_2_778
10
7.4246542
20
43.8414666
11
6.2764542
21
43.8414666
0
LINE
8
DEFAULT_255_2_778
10
6.2764542
20
43.8414666
11
5.4244542
21
42.9894666
0
LINE
8
DEFAULT_255_2_778
10
5.5726542
20
41.5819666
11
8.2025542
21
41.5819666
0
LINE
8
DEFAULT_255_2_778
10
8.2025542
20
41.5819666
11
7.4617542
21
40.8781666
0
LINE
8
DEFAULT_255_2_778
10
7.4617542
20
40.8781666
11
6.3504542
21
40.8781666
0
LINE
8
DEFAULT_255_2_778
10
6.3504542
20
40.8781666
11
5.5726542
21
41.5819666
0
ARC
8
DEFAULT_255_2_778
10
7.8458226
20
42.1310768
40
0.1423419
50
264.5115721
51
318.4176283
0
ARC
8
DEFAULT_255_2_778
10
7.8189879
20
42.1281225
40
0.1616977
50
325.5297452
51
3.3557414
0
ARC
8
DEFAULT_255_2_778
10
7.8389795
20
42.4846157
40
0.142084
50
354.4959081
51
48.5537602
0
ARC
8
DEFAULT_255_2_778
10
7.8416444
20
42.4574068
40
0.1619557
50
55.6500697
51
93.3401169
0
ARC
8
DEFAULT_255_2_778
10
7.8414709
20
42.683925
40
0.0654958
50
261.8698976
51
8.1301024
0
ARC
8
DEFAULT_255_2_778
10
7.7988672
20
43.0666455
40
0.1074847
50
358.3696885
51
95.9524071
0
ARC
8
DEFAULT_255_2_778
10
7.7588839
20
42.8382916
40
0.3364968
50
85.0838783
51
90.1320543
0
LINE
8
DEFAULT_255_2_778
10
5.6838084
20
41.9893875
11
6.1283084
21
43.2117875
0
LINE
8
DEFAULT_255_2_778
10
6.1283084
20
43.2117875
11
6.3876084
21
43.2117875
0
LINE
8
DEFAULT_255_2_778
10
6.3876084
20
43.2117875
11
6.8691084
21
42.0264875
0
LINE
8
DEFAULT_255_2_778
10
6.8691084
20
42.0264875
11
6.5358084
21
42.0264875
0
LINE
8
DEFAULT_255_2_778
10
6.5358084
20
42.0264875
11
6.4246084
21
42.2857875
0
LINE
8
DEFAULT_255_2_778
10
6.4246084
20
42.2857875
11
6.0913084
21
42.2857875
0
LINE
8
DEFAULT_255_2_778
10
6.0913084
20
42.2857875
11
6.0913084
21
42.4338875
0
LINE
8
DEFAULT_255_2_778
10
6.0913084
20
42.4338875
11
6.3876084
21
42.4338875
0
LINE
8
DEFAULT_255_2_778
10
6.3876084
20
42.4338875
11
6.2024084
21
42.8783875
0
LINE
8
DEFAULT_255_2_778
10
6.2024084
20
42.8783875
11
5.8690084
21
41.9893875
0
LINE
8
DEFAULT_255_2_778
10
5.8690084
20
41.9893875
11
5.6838084
21
41.9893875
0
LINE
8
DEFAULT_255_2_778
10
5.6838084
20
41.9893875
11
5.6838084
21
41.9893875
0
LINE
8
DEFAULT_255_2_778
10
6.7580084
20
42.6561875
11
6.9062084
21
42.6561875
0
LINE
8
DEFAULT_255_2_778
10
6.9062084
20
42.6561875
11
6.9062084
21
42.5079875
0
LINE
8
DEFAULT_255_2_778
10
6.9062084
20
42.5079875
11
6.7580084
21
42.5079875
0
LINE
8
DEFAULT_255_2_778
10
6.7580084
20
42.5079875
11
6.7580084
21
42.6561875
0
LINE
8
DEFAULT_255_2_778
10
7.2766084
20
42.9895875
11
7.6100084
21
42.9895875
0
LINE
8
DEFAULT_255_2_778
10
7.6100084
20
42.9895875
11
7.6100084
21
42.6190875
0
LINE
8
DEFAULT_255_2_778
10
7.6100084
20
42.6190875
11
7.3507084
21
42.6190875
0
LINE
8
DEFAULT_255_2_778
10
7.3507084
20
42.6190875
11
7.3507084
21
42.4709875
0
LINE
8
DEFAULT_255_2_778
10
7.3507084
20
42.4709875
11
7.6840084
21
42.4709875
0
LINE
8
DEFAULT_255_2_778
10
7.6840084
20
42.4709875
11
7.6840084
21
42.1375875
0
LINE
8
DEFAULT_255_2_778
10
7.6840084
20
42.1375875
11
7.2766084
21
42.1375875
0
LINE
8
DEFAULT_255_2_778
10
7.2766084
20
42.1375875
11
7.2766084
21
42.9895875
0
LINE
8
DEFAULT_255_2_778
10
7.2766084
20
42.9895875
11
7.2766084
21
42.9895875
0
LINE
8
DEFAULT_255_2_778
10
6.9803084
20
43.1747875
11
6.9803084
21
41.9893875
0
LINE
8
DEFAULT_255_2_778
10
6.9803084
20
41.9893875
11
7.8322084
21
41.9893875
0
LINE
8
DEFAULT_255_2_778
10
7.9804084
20
42.1375875
11
7.9804084
21
42.4709875
0
LINE
8
DEFAULT_255_2_778
10
7.9063084
20
42.6931875
11
7.9063084
21
43.0635875
0
LINE
8
DEFAULT_255_2_778
10
7.7581084
20
43.1747875
11
6.9803084
21
43.1747875
0
LINE
8
DEFAULT_255_2_778
10
6.9803084
20
43.1747875
11
6.9803084
21
43.1747875
0
LINE
8
DEFAULT_255_2_778
10
6.3394427
20
41.1990198
11
6.3367427
21
41.1990198
0
ARC
8
DEFAULT_255_2_778
10
6.3340483
20
41.3240854
40
0.1250946
50
247.1356448
51
271.2341787
0
ARC
8
DEFAULT_255_2_778
10
6.3160916
20
41.2817164
40
0.0790776
50
215.0349981
51
247.1960091
0
ARC
8
DEFAULT_255_2_778
10
6.3109464
20
41.2763964
40
0.0718243
50
178.625123
51
213.9163394
0
ARC
8
DEFAULT_255_2_778
10
6.3131693
20
41.3934391
40
0.0740421
50
147.0420611
51
181.175799
0
ARC
8
DEFAULT_255_2_778
10
6.3147919
20
41.3895628
40
0.0775487
50
112.4780918
51
145.2909011
0
ARC
8
DEFAULT_255_2_778
10
6.333917
20
41.3451534
40
0.1258981
50
88.7138988
51
112.7934617
0
ARC
8
DEFAULT_255_2_778
10
6.339481
20
41.3456878
40
0.1253619
50
67.159311
51
91.2516049
0
ARC
8
DEFAULT_255_2_778
10
6.3569794
20
41.3876852
40
0.0798654
50
35.1978461
51
67.0331611
0
ARC
8
DEFAULT_255_2_778
10
6.3626391
20
41.3936431
40
0.0718243
50
358.625123
51
33.9163394
0
ARC
8
DEFAULT_255_2_778
10
6.3604162
20
41.2766004
40
0.0740421
50
327.0420611
51
1.175799
0
ARC
8
DEFAULT_255_2_778
10
6.361381
20
41.2778218
40
0.0739133
50
291.6436853
51
325.8406333
0
ARC
8
DEFAULT_255_2_778
10
6.3401809
20
41.286874
40
0.0482768
50
265.9160158
51
308.3617549
0
ARC
8
DEFAULT_255_2_778
10
6.3451719
20
41.2758207
40
0.036631
50
312.9754563
51
3.2850623
0
ARC
8
DEFAULT_255_2_778
10
6.3448152
20
41.393502
40
0.0369754
50
357.082104
51
47.4006092
0
ARC
8
DEFAULT_255_2_778
10
6.339634
20
41.3833686
40
0.0480383
50
51.0349629
51
93.4505724
0
ARC
8
DEFAULT_255_2_778
10
6.3340455
20
41.383049
40
0.0483461
50
86.8017862
51
128.8135095
0
ARC
8
DEFAULT_255_2_778
10
6.3287702
20
41.393502
40
0.0369754
50
132.5993908
51
182.917896
0
ARC
8
DEFAULT_255_2_778
10
6.3284135
20
41.2758207
40
0.036631
50
176.7149377
51
227.0245437
0
ARC
8
DEFAULT_255_2_778
10
6.3334908
20
41.287186
40
0.0485752
50
231.7867693
51
273.8385805
0
ARC
8
DEFAULT_255_2_778
10
6.5570034
20
41.2755567
40
0.0766655
50
226.2029837
51
273.3195937
0
ARC
8
DEFAULT_255_2_778
10
6.5622798
20
41.2735746
40
0.0790566
50
176.8492311
51
222.4458356
0
ARC
8
DEFAULT_255_2_778
10
6.5699928
20
41.2754647
40
0.043631
50
176.5112098
51
217.639275
0
ARC
8
DEFAULT_255_2_778
10
6.5593879
20
41.2703664
40
0.0322122
50
221.9818643
51
273.6574471
0
ARC
8
DEFAULT_255_2_778
10
6.5632217
20
41.2708151
40
0.0326438
50
266.8760675
51
317.6392064
0
ARC
8
DEFAULT_255_2_778
10
6.5527926
20
41.2754647
40
0.043631
50
322.360725
51
3.4887902
0
ARC
8
DEFAULT_255_2_778
10
6.5605056
20
41.2735746
40
0.0790566
50
317.5541644
51
3.1507689
0
ARC
8
DEFAULT_255_2_778
10
6.5656687
20
41.2758223
40
0.0769357
50
266.6274163
51
313.7210327
0
LINE
8
DEFAULT_255_2_778
10
6.4394427
20
41.1374198
11
6.3828427
21
41.1374198
0
LINE
8
DEFAULT_255_2_778
10
6.3828427
20
41.1374198
11
6.3394427
21
41.1990198
0
LINE
8
DEFAULT_255_2_778
10
6.2391427
20
41.2781198
11
6.2391427
21
41.3919198
0
LINE
8
DEFAULT_255_2_778
10
6.4344427
20
41.3919198
11
6.4344427
21
41.2781198
0
LINE
8
DEFAULT_255_2_778
10
6.3886427
20
41.2091198
11
6.4394427
21
41.1376198
0
LINE
8
DEFAULT_255_2_778
10
6.4394427
20
41.1376198
11
6.4394427
21
41.1374198
0
LINE
8
DEFAULT_255_2_778
10
6.3817427
20
41.2779198
11
6.3817427
21
41.3916198
0
LINE
8
DEFAULT_255_2_778
10
6.2918427
20
41.3916198
11
6.2918427
21
41.2779198
0
LINE
8
DEFAULT_255_2_778
10
6.3367427
20
41.2387198
11
6.3367427
21
41.2387198
0
LINE
8
DEFAULT_255_2_778
10
6.4833427
20
41.2779198
11
6.4833427
21
41.4670198
0
LINE
8
DEFAULT_255_2_778
10
6.4833427
20
41.4670198
11
6.5264427
21
41.4670198
0
LINE
8
DEFAULT_255_2_778
10
6.5264427
20
41.4670198
11
6.5264427
21
41.2781198
0
LINE
8
DEFAULT_255_2_778
10
6.5963427
20
41.2781198
11
6.5963427
21
41.4670198
0
LINE
8
DEFAULT_255_2_778
10
6.5963427
20
41.4670198
11
6.6394427
21
41.4670198
0
LINE
8
DEFAULT_255_2_778
10
6.6394427
20
41.4670198
11
6.6394427
21
41.2779198
0
LINE
8
DEFAULT_255_2_778
10
6.5611427
20
41.1990198
11
6.5614427
21
41.1990198
0
ARC
8
DEFAULT_255_2_778
10
12.1641553
20
42.5021635
40
5.5033955
50
191.4837585
51
191.8239227
0
ARC
8
DEFAULT_255_2_778
10
8.3589245
20
41.6983972
40
1.6145995
50
189.6626565
51
190.4158531
0
ARC
8
DEFAULT_255_2_778
10
6.1197449
20
41.5312409
40
0.6557616
50
349.0334606
51
350.8880298
0
ARC
8
DEFAULT_255_2_778
10
6.0674183
20
41.5348866
40
0.7078549
50
346.9283592
51
349.5494987
0
ARC
8
DEFAULT_255_2_778
10
7.2958769
20
41.3040243
40
0.1856762
50
15.5793022
51
22.5708948
0
ARC
8
DEFAULT_255_2_778
10
7.3328007
20
41.3088058
40
0.1489195
50
11.1061152
51
17.6230497
0
ARC
8
DEFAULT_255_2_778
10
8.063214
20
41.1930593
40
0.6018696
50
164.5010167
51
166.1150622
0
ARC
8
DEFAULT_255_2_778
10
7.6620856
20
41.3040243
40
0.1856762
50
157.4291052
51
164.4206978
0
LINE
8
DEFAULT_255_2_778
10
6.7201313
20
41.2024917
11
6.6762313
21
41.2024917
0
LINE
8
DEFAULT_255_2_778
10
6.6762313
20
41.2024917
11
6.7392313
21
41.4670917
0
LINE
8
DEFAULT_255_2_778
10
6.7392313
20
41.4670917
11
6.7942313
21
41.4670917
0
LINE
8
DEFAULT_255_2_778
10
6.7942313
20
41.4670917
11
6.8577313
21
41.2024917
0
LINE
8
DEFAULT_255_2_778
10
6.8577313
20
41.2024917
11
6.8138313
21
41.2024917
0
LINE
8
DEFAULT_255_2_778
10
6.8138313
20
41.2024917
11
6.8000313
21
41.2664917
0
LINE
8
DEFAULT_255_2_778
10
6.8000313
20
41.2664917
11
6.7336313
21
41.2664917
0
LINE
8
DEFAULT_255_2_778
10
6.7336313
20
41.2664917
11
6.7199313
21
41.2024917
0
LINE
8
DEFAULT_255_2_778
10
6.7199313
20
41.2024917
11
6.7201313
21
41.2024917
0
LINE
8
DEFAULT_255_2_778
10
6.7569313
20
41.3749917
11
6.7418313
21
41.3035917
0
LINE
8
DEFAULT_255_2_778
10
6.7418313
20
41.3035917
11
6.7926313
21
41.3035917
0
LINE
8
DEFAULT_255_2_778
10
6.7926313
20
41.3035917
11
6.7775313
21
41.3744917
0
LINE
8
DEFAULT_255_2_778
10
6.7569313
20
41.3747917
11
6.7569313
21
41.3749917
0
LINE
8
DEFAULT_255_2_778
10
7.0231313
20
41.2024917
11
6.8741313
21
41.2024917
0
LINE
8
DEFAULT_255_2_778
10
6.8741313
20
41.2024917
11
6.8741313
21
41.4670917
0
LINE
8
DEFAULT_255_2_778
10
6.8741313
20
41.4670917
11
6.9170313
21
41.4670917
0
LINE
8
DEFAULT_255_2_778
10
6.9170313
20
41.4670917
11
6.9170313
21
41.2434917
0
LINE
8
DEFAULT_255_2_778
10
6.9170313
20
41.2434917
11
7.0231313
21
41.2434917
0
LINE
8
DEFAULT_255_2_778
10
7.0231313
20
41.2434917
11
7.0231313
21
41.2024917
0
LINE
8
DEFAULT_255_2_778
10
7.0231313
20
41.2024917
11
7.0231313
21
41.2024917
0
LINE
8
DEFAULT_255_2_778
10
7.1760313
20
41.2024917
11
7.0321313
21
41.2024917
0
LINE
8
DEFAULT_255_2_778
10
7.0321313
20
41.2024917
11
7.0321313
21
41.2434917
0
LINE
8
DEFAULT_255_2_778
10
7.0321313
20
41.2434917
11
7.0823313
21
41.2434917
0
LINE
8
DEFAULT_255_2_778
10
7.0823313
20
41.2434917
11
7.0823313
21
41.4260917
0
LINE
8
DEFAULT_255_2_778
10
7.0823313
20
41.4260917
11
7.0321313
21
41.4260917
0
LINE
8
DEFAULT_255_2_778
10
7.0321313
20
41.4260917
11
7.0321313
21
41.4670917
0
LINE
8
DEFAULT_255_2_778
10
7.0321313
20
41.4670917
11
7.1760313
21
41.4670917
0
LINE
8
DEFAULT_255_2_778
10
7.1760313
20
41.4670917
11
7.1760313
21
41.4260917
0
LINE
8
DEFAULT_255_2_778
10
7.1760313
20
41.4260917
11
7.1257313
21
41.4260917
0
LINE
8
DEFAULT_255_2_778
10
7.1257313
20
41.4260917
11
7.1257313
21
41.2434917
0
LINE
8
DEFAULT_255_2_778
10
7.1257313
20
41.2434917
11
7.1760313
21
41.2434917
0
LINE
8
DEFAULT_255_2_778
10
7.1760313
20
41.2434917
11
7.1760313
21
41.2024917
0
LINE
8
DEFAULT_255_2_778
10
7.1760313
20
41.2024917
11
7.1760313
21
41.2024917
0
LINE
8
DEFAULT_255_2_778
10
7.2940313
20
41.2024917
11
7.2509313
21
41.2024917
0
LINE
8
DEFAULT_255_2_778
10
7.2509313
20
41.2024917
11
7.2509313
21
41.4260917
0
LINE
8
DEFAULT_255_2_778
10
7.2509313
20
41.4260917
11
7.1855313
21
41.4260917
0
LINE
8
DEFAULT_255_2_778
10
7.1855313
20
41.4260917
11
7.1855313
21
41.4670917
0
LINE
8
DEFAULT_255_2_778
10
7.1855313
20
41.4670917
11
7.3596313
21
41.4670917
0
LINE
8
DEFAULT_255_2_778
10
7.3596313
20
41.4670917
11
7.3596313
21
41.4260917
0
LINE
8
DEFAULT_255_2_778
10
7.3596313
20
41.4260917
11
7.2943313
21
41.4260917
0
LINE
8
DEFAULT_255_2_778
10
7.2943313
20
41.4260917
11
7.2943313
21
41.2024917
0
LINE
8
DEFAULT_255_2_778
10
7.2943313
20
41.2024917
11
7.2940313
21
41.2024917
0
LINE
8
DEFAULT_255_2_778
10
7.4996313
20
41.2024917
11
7.4565313
21
41.2024917
0
LINE
8
DEFAULT_255_2_778
10
7.4565313
20
41.2024917
11
7.4565313
21
41.2985917
0
LINE
8
DEFAULT_255_2_778
10
7.4565313
20
41.2985917
11
7.3832313
21
41.4670917
0
LINE
8
DEFAULT_255_2_778
10
7.3832313
20
41.4670917
11
7.4281313
21
41.4670917
0
LINE
8
DEFAULT_255_2_778
10
7.4281313
20
41.4670917
11
7.4673313
21
41.3752917
0
LINE
8
DEFAULT_255_2_778
10
7.4906313
20
41.3752917
11
7.5287313
21
41.4670917
0
LINE
8
DEFAULT_255_2_778
10
7.5287313
20
41.4670917
11
7.5731313
21
41.4670917
0
LINE
8
DEFAULT_255_2_778
10
7.5731313
20
41.4670917
11
7.4998313
21
41.2985917
0
LINE
8
DEFAULT_255_2_778
10
7.4998313
20
41.2985917
11
7.4998313
21
41.2024917
0
LINE
8
DEFAULT_255_2_778
10
7.4998313
20
41.2024917
11
7.4996313
21
41.2024917
0
LINE
8
DEFAULT_255_1_388
10
4.827768
20
37.7174898
11
5.002156
21
37.7174898
0
LINE
8
DEFAULT_255_1_388
10
5.002156
20
37.7174898
11
5.002156
21
36.822961
0
LINE
8
DEFAULT_255_1_388
10
4.5702521
20
36.3856358
11
4.5241704
21
36.3838287
0
LINE
8
DEFAULT_255_1_388
10
4.049799
20
36.8211539
11
4.049799
21
37.7174898
0
LINE
8
DEFAULT_255_1_388
10
4.049799
20
37.7174898
11
4.2214763
21
37.7174898
0
LINE
8
DEFAULT_255_1_388
10
4.2214763
20
37.7174898
11
4.2214763
21
36.8265753
0
LINE
8
DEFAULT_255_1_388
10
4.827768
20
36.8256717
11
4.827768
21
37.7174898
0
ARC
8
DEFAULT_255_1_388
10
4.5124358
20
36.820727
40
0.4897252
50
343.0897723
51
0.2613727
0
ARC
8
DEFAULT_255_1_388
10
4.6056329
20
36.794727
40
0.3930016
50
315.3344451
51
342.7642569
0
ARC
8
DEFAULT_255_1_388
10
4.5804825
20
36.8208085
40
0.4292244
50
284.6605441
51
315.2183439
0
ARC
8
DEFAULT_255_1_388
10
4.5292605
20
36.9947508
40
0.6104926
50
273.8500371
51
285.1796441
0
ARC
8
DEFAULT_255_1_388
10
4.5193669
20
37.0331762
40
0.6493653
50
257.6315393
51
270.4238259
0
ARC
8
DEFAULT_255_1_388
10
4.4715753
20
36.8282915
40
0.4390079
50
230.6086859
51
257.9965362
0
ARC
8
DEFAULT_255_1_388
10
4.4569811
20
36.8053643
40
0.4120404
50
227.745033
51
230.1538266
0
ARC
8
DEFAULT_255_1_388
10
4.441634
20
36.7869253
40
0.3880742
50
189.2524335
51
227.5915299
0
ARC
8
DEFAULT_255_1_388
10
4.6128211
20
36.8237735
40
0.5630282
50
180.2665782
51
190.1525221
0
ARC
8
DEFAULT_255_1_388
10
4.6377939
20
36.8234254
40
0.4163296
50
179.566507
51
191.9954402
0
ARC
8
DEFAULT_255_1_388
10
4.4996628
20
36.7926151
40
0.274815
50
191.6974619
51
215.1403758
0
ARC
8
DEFAULT_255_1_388
10
4.472902
20
36.7766689
40
0.2437647
50
215.6958251
51
224.8509274
0
ARC
8
DEFAULT_255_1_388
10
4.4791496
20
36.7856016
40
0.2545012
50
225.2846515
51
255.0110023
0
ARC
8
DEFAULT_255_1_388
10
4.5155943
20
36.9109017
40
0.384974
50
254.5945979
51
267.9129427
0
ARC
8
DEFAULT_255_1_388
10
4.5239636
20
37.0326444
40
0.506956
50
267.4687563
51
270.0233681
0
ARC
8
DEFAULT_255_1_388
10
4.5273631
20
36.9666288
40
0.440952
50
269.5851384
51
281.1845308
0
ARC
8
DEFAULT_255_1_388
10
4.5587235
20
36.8144469
40
0.2855802
50
280.9345159
51
300.9740496
0
ARC
8
DEFAULT_255_1_388
10
4.5826415
20
36.7704128
40
0.2355257
50
301.4982546
51
315.1468616
0
ARC
8
DEFAULT_255_1_388
10
4.5663912
20
36.7837488
40
0.2564594
50
315.5952932
51
345.6679188
0
ARC
8
DEFAULT_255_1_388
10
4.4404469
20
36.8188235
40
0.3871766
50
345.2525685
51
358.6303941
0
ARC
8
DEFAULT_255_1_388
10
4.3260859
20
36.8255695
40
0.5016822
50
358.1723541
51
0.0116795
0
LINE
8
DEFAULT_255_1_388
10
6.1487792
20
37.3370892
11
5.9743913
21
37.3370892
0
LINE
8
DEFAULT_255_1_388
10
5.1955188
20
36.7832042
11
5.3699067
21
36.7832042
0
ARC
8
DEFAULT_255_1_388
10
6.048464
20
38.3434821
40
1.4087688
50
248.9196578
51
254.1442424
0
ARC
8
DEFAULT_255_1_388
10
5.859452
20
37.8568805
40
0.8867498
50
241.6337352
51
249.0064643
0
ARC
8
DEFAULT_255_1_388
10
5.6874833
20
37.5417764
40
0.5277799
50
230.4982261
51
241.8087583
0
ARC
8
DEFAULT_255_1_388
10
5.5992605
20
37.4293686
40
0.3849419
50
227.4062979
51
229.9877433
0
ARC
8
DEFAULT_255_1_388
10
5.5443951
20
37.3758155
40
0.3084129
50
200.6782127
51
228.1765252
0
ARC
8
DEFAULT_255_1_388
10
5.552532
20
37.3741277
40
0.315461
50
179.506278
51
199.8695278
0
ARC
8
DEFAULT_255_1_388
10
5.5514909
20
37.3824671
40
0.3144584
50
132.4834401
51
181.0242352
0
ARC
8
DEFAULT_255_1_388
10
5.6184113
20
37.3192788
40
0.4063094
50
129.2526113
51
133.4249077
0
ARC
8
DEFAULT_255_1_388
10
5.6349706
20
37.2944619
40
0.436014
50
101.9878945
51
128.8741833
0
ARC
8
DEFAULT_255_1_388
10
5.6798121
20
37.100836
40
0.6347415
50
89.5906376
51
102.3170567
0
ARC
8
DEFAULT_255_1_388
10
5.6877432
20
37.1366586
40
0.5989122
50
77.2359491
51
90.3248968
0
ARC
8
DEFAULT_255_1_388
10
5.7110363
20
37.2454554
40
0.4876594
50
63.8379856
51
77.0808925
0
ARC
8
DEFAULT_255_1_388
10
5.7422897
20
37.3036882
40
0.4216191
50
45.9863127
51
64.1608798
0
ARC
8
DEFAULT_255_1_388
10
5.7716291
20
37.337199
40
0.3771394
50
32.2747934
51
45.6544796
0
ARC
8
DEFAULT_255_1_388
10
5.7791097
20
37.3393426
40
0.3696765
50
359.6507495
51
32.6129943
0
ARC
8
DEFAULT_255_1_388
10
5.673028
20
37.3398788
40
0.3013762
50
359.469654
51
14.983205
0
ARC
8
DEFAULT_255_1_388
10
5.7523532
20
37.3611288
40
0.2192542
50
14.9781954
51
48.2004799
0
ARC
8
DEFAULT_255_1_388
10
5.7338643
20
37.3378937
40
0.2489048
50
48.5926661
51
74.1242559
0
ARC
8
DEFAULT_255_1_388
10
5.6963445
20
37.2140607
40
0.3782845
50
73.7889321
51
86.6653996
0
ARC
8
DEFAULT_255_1_388
10
5.684826
20
37.0782955
40
0.5145025
50
86.2642725
51
90.0533288
0
ARC
8
DEFAULT_255_1_388
10
5.6816353
20
37.1227376
40
0.4700681
50
89.669455
51
99.2313411
0
ARC
8
DEFAULT_255_1_388
10
5.6543512
20
37.2852401
40
0.3052945
50
99.0695987
51
113.7659242
0
ARC
8
DEFAULT_255_1_388
10
5.6235507
20
37.3578772
40
0.226407
50
114.0402885
51
127.9848946
0
ARC
8
DEFAULT_255_1_388
10
5.5964983
20
37.3911884
40
0.1835045
50
127.7287217
51
176.7106493
0
ARC
8
DEFAULT_255_1_388
10
5.6728648
20
37.379821
40
0.2604907
50
175.1780759
51
180.0581213
0
ARC
8
DEFAULT_255_1_388
10
5.5779992
20
37.3784411
40
0.1656287
50
179.6140658
51
228.124674
0
ARC
8
DEFAULT_255_1_388
10
5.6277349
20
37.424494
40
0.2332038
50
226.5785315
51
230.8792476
0
ARC
8
DEFAULT_255_1_388
10
5.6806836
20
37.4947908
40
0.3211664
50
231.4636401
51
241.9261664
0
ARC
8
DEFAULT_255_1_388
10
5.8153619
20
37.7426349
40
0.6032345
50
241.7177136
51
248.3259138
0
ARC
8
DEFAULT_255_1_388
10
5.9712214
20
38.1287771
40
1.0196417
50
248.2007377
51
252.4527713
0
ARC
8
DEFAULT_255_1_388
10
6.106574
20
38.5472092
40
1.4594143
50
252.3388938
51
254.347037
0
ARC
8
DEFAULT_255_1_388
10
5.2581041
20
35.5124095
40
1.6917621
50
71.0197462
51
74.4085467
0
ARC
8
DEFAULT_255_1_388
10
5.4488129
20
36.0629144
40
1.1091618
50
66.1845203
51
71.086519
0
ARC
8
DEFAULT_255_1_388
10
5.6238678
20
36.4570439
40
0.6779073
50
59.3537334
51
66.269255
0
ARC
8
DEFAULT_255_1_388
10
5.7238404
20
36.6261777
40
0.4814366
50
49.1021732
51
59.3294421
0
ARC
8
DEFAULT_255_1_388
10
5.8159392
20
36.7311575
40
0.3417875
50
32.7924183
51
49.2503526
0
ARC
8
DEFAULT_255_1_388
10
5.8509006
20
36.7561311
40
0.2988789
50
31.121225
51
32.3977355
0
ARC
8
DEFAULT_255_1_388
10
5.8421184
20
36.7528728
40
0.3080861
50
8.1116803
51
30.7958224
0
ARC
8
DEFAULT_255_1_388
10
5.750953
20
36.7373437
40
0.4005385
50
359.8390945
51
8.4707348
0
ARC
8
DEFAULT_255_1_388
10
5.8213578
20
36.7318751
40
0.3301608
50
337.4732479
51
0.7538283
0
ARC
8
DEFAULT_255_1_388
10
5.8414603
20
36.7296554
40
0.3107929
50
307.5917028
51
336.4313755
0
ARC
8
DEFAULT_255_1_388
10
5.790366
20
36.7864509
40
0.3870096
50
307.6560665
51
308.4561779
0
ARC
8
DEFAULT_255_1_388
10
5.7637877
20
36.8272832
40
0.435591
50
284.3733666
51
307.1426212
0
ARC
8
DEFAULT_255_1_388
10
5.7080771
20
37.0322391
40
0.6479685
50
272.4384566
51
284.6464689
0
ARC
8
DEFAULT_255_1_388
10
5.6938156
20
37.2346434
40
0.8508149
50
269.9708517
51
272.8180721
0
ARC
8
DEFAULT_255_1_388
10
5.6889839
20
37.0054283
40
0.6216151
50
248.2707343
51
270.4054609
0
ARC
8
DEFAULT_255_1_388
10
5.682871
20
36.9839673
40
0.5994203
50
246.1380358
51
248.054058
0
ARC
8
DEFAULT_255_1_388
10
5.6357853
20
36.8850705
40
0.4899388
50
233.1671897
51
246.4951656
0
ARC
8
DEFAULT_255_1_388
10
5.5734488
20
36.8009137
40
0.3852115
50
215.3403381
51
233.084328
0
ARC
8
DEFAULT_255_1_388
10
5.5427852
20
36.7786093
40
0.3472969
50
179.2419235
51
215.2648426
0
ARC
8
DEFAULT_255_1_388
10
5.6291403
20
36.7801979
40
0.259251
50
179.3355796
51
199.1045873
0
ARC
8
DEFAULT_255_1_388
10
5.5917545
20
36.7704223
40
0.2207454
50
199.8830064
51
232.7061328
0
ARC
8
DEFAULT_255_1_388
10
5.6448819
20
36.8372456
40
0.306101
50
232.3736206
51
255.5136621
0
ARC
8
DEFAULT_255_1_388
10
5.6832325
20
36.9772177
40
0.4512213
50
255.2447928
51
267.5318292
0
ARC
8
DEFAULT_255_1_388
10
5.6930792
20
37.1158709
40
0.5901825
50
267.1564563
51
270.0294721
0
ARC
8
DEFAULT_255_1_388
10
5.6962117
20
37.0659623
40
0.5402814
50
269.6999944
51
278.1662446
0
ARC
8
DEFAULT_255_1_388
10
5.7250145
20
36.8712974
40
0.3435003
50
278.0229022
51
290.6255326
0
ARC
8
DEFAULT_255_1_388
10
5.7641311
20
36.7669547
40
0.2320666
50
290.6616368
51
307.0374127
0
ARC
8
DEFAULT_255_1_388
10
5.7979211
20
36.725504
40
0.1786372
50
306.3942078
51
355.303191
0
ARC
8
DEFAULT_255_1_388
10
5.7403504
20
36.7341186
40
0.2367516
50
354.3662092
51
0.0709489
0
ARC
8
DEFAULT_255_1_388
10
5.7563373
20
36.7366561
40
0.2207761
50
359.4175379
51
16.1975911
0
ARC
8
DEFAULT_255_1_388
10
5.8075491
20
36.7506954
40
0.1676828
50
16.4721294
51
52.6261798
0
ARC
8
DEFAULT_255_1_388
10
5.7151998
20
36.6287606
40
0.3206412
50
52.7381828
51
62.4979144
0
ARC
8
DEFAULT_255_1_388
10
5.5593751
20
36.3355236
40
0.6527035
50
62.2517425
51
68.1219454
0
ARC
8
DEFAULT_255_1_388
10
5.3659239
20
35.8600951
40
1.1659797
50
68.006043
51
71.8055127
0
ARC
8
DEFAULT_255_1_388
10
5.1639147
20
35.2542723
40
1.8045908
50
71.718361
51
73.9260743
0
LINE
8
DEFAULT_255_1_388
10
6.8300668
20
36.4019
11
6.3737668
21
36.4019
0
LINE
8
DEFAULT_255_1_388
10
6.3737668
20
36.4019
11
6.3737668
21
37.7174898
0
LINE
8
DEFAULT_255_1_388
10
6.3737668
20
37.7174898
11
6.8038635
21
37.7174898
0
LINE
8
DEFAULT_255_1_388
10
6.8363918
20
37.0172274
11
6.5472512
21
37.0172274
0
LINE
8
DEFAULT_255_1_388
10
6.5472512
20
37.0172274
11
6.5472512
21
36.5437596
0
LINE
8
DEFAULT_255_1_388
10
6.5472512
20
36.5437596
11
6.8336811
21
36.5437596
0
LINE
8
DEFAULT_255_1_388
10
6.5472512
20
37.5747267
11
6.5472512
21
37.1563763
0
LINE
8
DEFAULT_255_1_388
10
6.5472512
20
37.1563763
11
6.8092849
21
37.1563763
0
LINE
8
DEFAULT_255_1_388
10
6.8038635
20
37.5747267
11
6.5472512
21
37.5747267
0
ARC
8
DEFAULT_255_1_388
10
6.8081055
20
36.8886824
40
0.8288183
50
82.1256322
51
90.2932506
0
ARC
8
DEFAULT_255_1_388
10
6.851863
20
37.194459
40
0.5199321
50
69.9044202
51
82.2857574
0
ARC
8
DEFAULT_255_1_388
10
6.9160623
20
37.3679993
40
0.3348993
50
51.1840204
51
70.018125
0
ARC
8
DEFAULT_255_1_388
10
6.9447455
20
37.4096945
40
0.2844579
50
12.1018086
51
50.421322
0
ARC
8
DEFAULT_255_1_388
10
6.7890326
20
37.3705937
40
0.4449429
50
359.5252354
51
12.8212369
0
ARC
8
DEFAULT_255_1_388
10
6.9667756
20
37.3627943
40
0.2672162
50
323.4907456
51
0.8818258
0
ARC
8
DEFAULT_255_1_388
10
6.9197169
20
37.3991523
40
0.3266736
50
298.6824053
51
323.2758285
0
ARC
8
DEFAULT_255_1_388
10
6.8790461
20
37.4667509
40
0.4055105
50
293.1994739
51
299.139634
0
ARC
8
DEFAULT_255_1_388
10
6.954741
20
36.7821651
40
0.3229926
50
54.0009997
51
74.9168635
0
ARC
8
DEFAULT_255_1_388
10
6.9678337
20
36.8043511
40
0.2973581
50
36.3578854
51
53.5293172
0
ARC
8
DEFAULT_255_1_388
10
6.9535705
20
36.794185
40
0.3148715
50
4.8189348
51
36.3090187
0
ARC
8
DEFAULT_255_1_388
10
6.8658729
20
36.7818383
40
0.4033265
50
359.9373213
51
5.5201284
0
ARC
8
DEFAULT_255_1_388
10
6.8294059
20
36.7772733
40
0.4398126
50
344.7479357
51
0.5372278
0
ARC
8
DEFAULT_255_1_388
10
6.9408958
20
36.7472205
40
0.3243441
50
311.1785587
51
344.6887681
0
ARC
8
DEFAULT_255_1_388
10
6.9080501
20
36.7881084
40
0.3767511
50
286.0417804
51
310.8440924
0
ARC
8
DEFAULT_255_1_388
10
6.850991
20
36.9733885
40
0.5705957
50
274.1044074
51
286.4070149
0
ARC
8
DEFAULT_255_1_388
10
6.8311126
20
37.1851901
40
0.7832907
50
269.9235077
51
274.4458593
0
ARC
8
DEFAULT_255_1_388
10
6.8362844
20
36.9220462
40
0.3782955
50
269.6057074
51
281.3740795
0
ARC
8
DEFAULT_255_1_388
10
6.8622342
20
36.7990569
40
0.2526069
50
281.105298
51
302.5134029
0
ARC
8
DEFAULT_255_1_388
10
6.878773
20
36.7693944
40
0.2187131
50
303.0365425
51
311.8818034
0
ARC
8
DEFAULT_255_1_388
10
6.8867907
20
36.7598602
40
0.2062624
50
311.9916937
51
351.7143773
0
ARC
8
DEFAULT_255_1_388
10
6.7948932
20
36.7784271
40
0.2999202
50
350.7343295
51
0.2221526
0
ARC
8
DEFAULT_255_1_388
10
6.782802
20
36.784787
40
0.3120525
50
359.045729
51
17.2295312
0
ARC
8
DEFAULT_255_1_388
10
6.899705
20
36.8195155
40
0.1901144
50
17.6685208
51
78.9940245
0
ARC
8
DEFAULT_255_1_388
10
6.8415411
20
36.6107011
40
0.4065575
50
76.565218
51
90.7103392
0
LINE
8
DEFAULT_255_1_388
10
6.8365008
20
37.0172274
11
6.8363918
21
37.0172274
0
ARC
8
DEFAULT_255_1_388
10
6.8118237
20
37.5259949
40
0.3696273
50
269.6064514
51
281.4533785
0
ARC
8
DEFAULT_255_1_388
10
6.8368878
20
37.4077283
40
0.2487412
50
281.2044438
51
302.5143998
0
ARC
8
DEFAULT_255_1_388
10
6.8523132
20
37.3799576
40
0.2170405
50
303.0211308
51
309.8378766
0
ARC
8
DEFAULT_255_1_388
10
6.8729249
20
37.3568486
40
0.1860946
50
309.5229446
51
356.9509628
0
ARC
8
DEFAULT_255_1_388
10
6.7983375
20
37.3675831
40
0.2612347
50
355.4699226
51
0.0498632
0
ARC
8
DEFAULT_255_1_388
10
6.7669049
20
37.3700789
40
0.2926762
50
359.5558955
51
11.2092924
0
ARC
8
DEFAULT_255_1_388
10
6.8746016
20
37.3923667
40
0.1827036
50
10.9185717
51
31.322519
0
ARC
8
DEFAULT_255_1_388
10
6.9067564
20
37.4102571
40
0.1459418
50
31.8850633
51
52.1415586
0
ARC
8
DEFAULT_255_1_388
10
6.8758993
20
37.3666674
40
0.1993088
50
52.8283418
51
71.9850132
0
ARC
8
DEFAULT_255_1_388
10
6.8336154
20
37.2422158
40
0.3307407
50
71.686634
51
82.8453416
0
ARC
8
DEFAULT_255_1_388
10
6.8066801
20
37.0386892
40
0.536039
50
82.6981895
51
90.1730083
0
ARC
8
DEFAULT_255_1_388
10
6.8041633
20
37.1265836
40
0.4481429
50
89.8851568
51
90.0383283
0
LINE
8
DEFAULT_255_1_388
10
4.8677457
20
5.5870892
11
4.6933577
21
5.5870892
0
LINE
8
DEFAULT_255_1_388
10
3.9144852
20
5.0332042
11
4.0888731
21
5.0332042
0
ARC
8
DEFAULT_255_1_388
10
4.7674304
20
6.5934821
40
1.4087688
50
248.9196578
51
254.1442424
0
ARC
8
DEFAULT_255_1_388
10
4.5784184
20
6.1068805
40
0.8867498
50
241.6337352
51
249.0064643
0
ARC
8
DEFAULT_255_1_388
10
4.4064498
20
5.7917764
40
0.5277799
50
230.4982261
51
241.8087583
0
ARC
8
DEFAULT_255_1_388
10
4.3182269
20
5.6793686
40
0.3849419
50
227.4062979
51
229.9877433
0
ARC
8
DEFAULT_255_1_388
10
4.2633615
20
5.6258155
40
0.3084129
50
200.6782127
51
228.1765252
0
ARC
8
DEFAULT_255_1_388
10
4.2714984
20
5.6241277
40
0.315461
50
179.506278
51
199.8695278
0
ARC
8
DEFAULT_255_1_388
10
4.2704573
20
5.6324671
40
0.3144584
50
132.4834401
51
181.0242352
0
ARC
8
DEFAULT_255_1_388
10
4.3373777
20
5.5692788
40
0.4063094
50
129.2526113
51
133.4249077
0
ARC
8
DEFAULT_255_1_388
10
4.353937
20
5.5444619
40
0.436014
50
101.9878945
51
128.8741833
0
ARC
8
DEFAULT_255_1_388
10
4.3987785
20
5.350836
40
0.6347415
50
89.5906376
51
102.3170567
0
ARC
8
DEFAULT_255_1_388
10
4.4067097
20
5.3866586
40
0.5989122
50
77.2359491
51
90.3248968
0
ARC
8
DEFAULT_255_1_388
10
4.4300028
20
5.4954554
40
0.4876594
50
63.8379856
51
77.0808925
0
ARC
8
DEFAULT_255_1_388
10
4.4612561
20
5.5536882
40
0.4216191
50
45.9863127
51
64.1608798
0
ARC
8
DEFAULT_255_1_388
10
4.4905955
20
5.587199
40
0.3771394
50
32.2747934
51
45.6544796
0
ARC
8
DEFAULT_255_1_388
10
4.4980761
20
5.5893426
40
0.3696765
50
359.6507495
51
32.6129943
0
ARC
8
DEFAULT_255_1_388
10
4.3919944
20
5.5898788
40
0.3013762
50
359.469654
51
14.983205
0
ARC
8
DEFAULT_255_1_388
10
4.4713196
20
5.6111288
40
0.2192542
50
14.9781954
51
48.2004799
0
ARC
8
DEFAULT_255_1_388
10
4.4528307
20
5.5878937
40
0.2489048
50
48.5926661
51
74.1242559
0
ARC
8
DEFAULT_255_1_388
10
4.4153109
20
5.4640607
40
0.3782845
50
73.7889321
51
86.6653996
0
ARC
8
DEFAULT_255_1_388
10
4.4037924
20
5.3282955
40
0.5145025
50
86.2642725
51
90.0533288
0
ARC
8
DEFAULT_255_1_388
10
4.4006017
20
5.3727376
40
0.4700681
50
89.669455
51
99.2313411
0
ARC
8
DEFAULT_255_1_388
10
4.3733176
20
5.5352401
40
0.3052945
50
99.0695987
51
113.7659242
0
ARC
8
DEFAULT_255_1_388
10
4.3425171
20
5.6078772
40
0.226407
50
114.0402885
51
127.9848946
0
ARC
8
DEFAULT_255_1_388
10
4.3154647
20
5.6411884
40
0.1835045
50
127.7287217
51
176.7106493
0
ARC
8
DEFAULT_255_1_388
10
4.3918312
20
5.629821
40
0.2604907
50
175.1780759
51
180.0581213
0
ARC
8
DEFAULT_255_1_388
10
4.2969656
20
5.6284411
40
0.1656287
50
179.6140658
51
228.124674
0
ARC
8
DEFAULT_255_1_388
10
4.3467013
20
5.674494
40
0.2332038
50
226.5785315
51
230.8792476
0
ARC
8
DEFAULT_255_1_388
10
4.39965
20
5.7447908
40
0.3211664
50
231.4636401
51
241.9261664
0
ARC
8
DEFAULT_255_1_388
10
4.5343283
20
5.9926349
40
0.6032345
50
241.7177136
51
248.3259138
0
ARC
8
DEFAULT_255_1_388
10
4.6901878
20
6.3787771
40
1.0196417
50
248.2007377
51
252.4527713
0
ARC
8
DEFAULT_255_1_388
10
4.8255405
20
6.7972092
40
1.4594143
50
252.3388938
51
254.347037
0
ARC
8
DEFAULT_255_1_388
10
3.9770705
20
3.7624095
40
1.6917621
50
71.0197462
51
74.4085467
0
ARC
8
DEFAULT_255_1_388
10
4.1677793
20
4.3129144
40
1.1091618
50
66.1845203
51
71.086519
0
ARC
8
DEFAULT_255_1_388
10
4.3428342
20
4.7070439
40
0.6779073
50
59.3537334
51
66.269255
0
ARC
8
DEFAULT_255_1_388
10
4.4428068
20
4.8761777
40
0.4814366
50
49.1021732
51
59.3294421
0
ARC
8
DEFAULT_255_1_388
10
4.5349056
20
4.9811575
40
0.3417875
50
32.7924183
51
49.2503526
0
ARC
8
DEFAULT_255_1_388
10
4.569867
20
5.0061311
40
0.2988789
50
31.121225
51
32.3977355
0
ARC
8
DEFAULT_255_1_388
10
4.5610848
20
5.0028728
40
0.3080861
50
8.1116803
51
30.7958224
0
ARC
8
DEFAULT_255_1_388
10
4.4699194
20
4.9873437
40
0.4005385
50
359.8390945
51
8.4707348
0
ARC
8
DEFAULT_255_1_388
10
4.5403242
20
4.9818751
40
0.3301608
50
337.4732479
51
0.7538283
0
ARC
8
DEFAULT_255_1_388
10
4.5604267
20
4.9796554
40
0.3107929
50
307.5917028
51
336.4313755
0
ARC
8
DEFAULT_255_1_388
10
4.5093324
20
5.0364509
40
0.3870096
50
307.6560665
51
308.4561779
0
ARC
8
DEFAULT_255_1_388
10
4.4827541
20
5.0772832
40
0.435591
50
284.3733666
51
307.1426212
0
ARC
8
DEFAULT_255_1_388
10
4.4270435
20
5.2822391
40
0.6479685
50
272.4384566
51
284.6464689
0
ARC
8
DEFAULT_255_1_388
10
4.412782
20
5.4846434
40
0.8508149
50
269.9708517
51
272.8180721
0
ARC
8
DEFAULT_255_1_388
10
4.4079503
20
5.2554283
40
0.6216151
50
248.2707343
51
270.4054609
0
ARC
8
DEFAULT_255_1_388
10
4.4018374
20
5.2339673
40
0.5994203
50
246.1380358
51
248.054058
0
ARC
8
DEFAULT_255_1_388
10
4.3547517
20
5.1350705
40
0.4899388
50
233.1671897
51
246.4951656
0
ARC
8
DEFAULT_255_1_388
10
4.2924152
20
5.0509137
40
0.3852115
50
215.3403381
51
233.084328
0
ARC
8
DEFAULT_255_1_388
10
4.2617516
20
5.0286093
40
0.3472969
50
179.2419235
51
215.2648426
0
ARC
8
DEFAULT_255_1_388
10
4.3481067
20
5.0301979
40
0.259251
50
179.3355796
51
199.1045873
0
ARC
8
DEFAULT_255_1_388
10
4.3107209
20
5.0204223
40
0.2207454
50
199.8830064
51
232.7061328
0
ARC
8
DEFAULT_255_1_388
10
4.3638483
20
5.0872456
40
0.306101
50
232.3736206
51
255.5136621
0
ARC
8
DEFAULT_255_1_388
10
4.4021989
20
5.2272177
40
0.4512213
50
255.2447928
51
267.5318292
0
ARC
8
DEFAULT_255_1_388
10
4.4120456
20
5.3658709
40
0.5901825
50
267.1564563
51
270.0294721
0
ARC
8
DEFAULT_255_1_388
10
4.4151781
20
5.3159623
40
0.5402814
50
269.6999944
51
278.1662446
0
ARC
8
DEFAULT_255_1_388
10
4.4439809
20
5.1212974
40
0.3435003
50
278.0229022
51
290.6255326
0
ARC
8
DEFAULT_255_1_388
10
4.4830975
20
5.0169547
40
0.2320666
50
290.6616368
51
307.0374127
0
ARC
8
DEFAULT_255_1_388
10
4.5168875
20
4.975504
40
0.1786372
50
306.3942078
51
355.303191
0
ARC
8
DEFAULT_255_1_388
10
4.4593168
20
4.9841186
40
0.2367516
50
354.3662092
51
0.0709489
0
ARC
8
DEFAULT_255_1_388
10
4.4753037
20
4.9866561
40
0.2207761
50
359.4175379
51
16.1975911
0
ARC
8
DEFAULT_255_1_388
10
4.5265155
20
5.0006954
40
0.1676828
50
16.4721294
51
52.6261798
0
ARC
8
DEFAULT_255_1_388
10
4.4341662
20
4.8787606
40
0.3206412
50
52.7381828
51
62.4979144
0
ARC
8
DEFAULT_255_1_388
10
4.2783415
20
4.5855236
40
0.6527035
50
62.2517425
51
68.1219454
0
ARC
8
DEFAULT_255_1_388
10
4.0848903
20
4.1100951
40
1.1659797
50
68.006043
51
71.8055127
0
ARC
8
DEFAULT_255_1_388
10
3.8828811
20
3.5042723
40
1.8045908
50
71.718361
51
73.9260743
0
LINE
8
DEFAULT_255_1_388
10
5.9447945
20
4.6519
11
5.819199
21
4.9952545
0
LINE
8
DEFAULT_255_1_388
10
5.819199
20
4.9952545
11
5.2680247
21
4.9952545
0
LINE
8
DEFAULT_255_1_388
10
5.2680247
20
4.9952545
11
5.1442364
21
4.6519
0
LINE
8
DEFAULT_255_1_388
10
5.1442364
20
4.6519
11
4.9653306
21
4.6519
0
LINE
8
DEFAULT_255_1_388
10
4.9653306
20
4.6519
11
5.4677125
21
5.9674898
0
LINE
8
DEFAULT_255_1_388
10
5.4677125
20
5.9674898
11
5.6195113
21
5.9674898
0
LINE
8
DEFAULT_255_1_388
10
5.6195113
20
5.9674898
11
6.1227967
21
4.6519
0
LINE
8
DEFAULT_255_1_388
10
6.1227967
20
4.6519
11
5.9447945
21
4.6519
0
LINE
8
DEFAULT_255_1_388
10
5.5436119
20
5.7533451
11
5.3204314
21
5.1380177
0
LINE
8
DEFAULT_255_1_388
10
5.3204314
20
5.1380177
11
5.7676958
21
5.1380177
0
LINE
8
DEFAULT_255_1_388
10
5.7676958
20
5.1380177
11
5.5436119
21
5.7533451
0
LINE
8
DEFAULT_255_1_388
10
6.7525811
20
5.7415987
11
6.7525811
21
5.3575838
0
LINE
8
DEFAULT_255_1_388
10
6.7525811
20
5.3575838
11
7.1194283
21
5.3575838
0
LINE
8
DEFAULT_255_1_388
10
7.1194283
20
5.3575838
11
7.1194283
21
5.1994601
0
LINE
8
DEFAULT_255_1_388
10
7.1194283
20
5.1994601
11
6.7525811
21
5.1994601
0
LINE
8
DEFAULT_255_1_388
10
6.7525811
20
5.1994601
11
6.7525811
21
4.7838204
0
LINE
8
DEFAULT_255_1_388
10
6.7525811
20
4.7838204
11
6.5845181
21
4.7838204
0
LINE
8
DEFAULT_255_1_388
10
6.5845181
20
4.7838204
11
6.5845181
21
5.1994601
0
LINE
8
DEFAULT_255_1_388
10
6.5845181
20
5.1994601
11
6.2176709
21
5.1994601
0
LINE
8
DEFAULT_255_1_388
10
6.2176709
20
5.1994601
11
6.2176709
21
5.3575838
0
LINE
8
DEFAULT_255_1_388
10
6.2176709
20
5.3575838
11
6.5845181
21
5.3575838
0
LINE
8
DEFAULT_255_1_388
10
6.5845181
20
5.3575838
11
6.5845181
21
5.7415987
0
LINE
8
DEFAULT_255_1_388
10
6.5845181
20
5.7415987
11
6.7525811
21
5.7415987
0
LINE
8
DEFAULT_255_1_388
10
4.8677457
20
13.5245892
11
4.6933577
21
13.5245892
0
LINE
8
DEFAULT_255_1_388
10
3.9144852
20
12.9707042
11
4.0888731
21
12.9707042
0
ARC
8
DEFAULT_255_1_388
10
4.7674304
20
14.5309821
40
1.4087688
50
248.9196578
51
254.1442424
0
ARC
8
DEFAULT_255_1_388
10
4.5784184
20
14.0443805
40
0.8867498
50
241.6337352
51
249.0064643
0
ARC
8
DEFAULT_255_1_388
10
4.4064498
20
13.7292764
40
0.5277799
50
230.4982261
51
241.8087583
0
ARC
8
DEFAULT_255_1_388
10
4.3182269
20
13.6168686
40
0.3849419
50
227.4062979
51
229.9877433
0
ARC
8
DEFAULT_255_1_388
10
4.2633615
20
13.5633155
40
0.3084129
50
200.6782127
51
228.1765252
0
ARC
8
DEFAULT_255_1_388
10
4.2714984
20
13.5616277
40
0.315461
50
179.506278
51
199.8695278
0
ARC
8
DEFAULT_255_1_388
10
4.2704573
20
13.5699671
40
0.3144584
50
132.4834401
51
181.0242352
0
ARC
8
DEFAULT_255_1_388
10
4.3373777
20
13.5067788
40
0.4063094
50
129.2526113
51
133.4249077
0
ARC
8
DEFAULT_255_1_388
10
4.353937
20
13.4819619
40
0.436014
50
101.9878945
51
128.8741833
0
ARC
8
DEFAULT_255_1_388
10
4.3987785
20
13.288336
40
0.6347415
50
89.5906376
51
102.3170567
0
ARC
8
DEFAULT_255_1_388
10
4.4067097
20
13.3241586
40
0.5989122
50
77.2359491
51
90.3248968
0
ARC
8
DEFAULT_255_1_388
10
4.4300028
20
13.4329554
40
0.4876594
50
63.8379856
51
77.0808925
0
ARC
8
DEFAULT_255_1_388
10
4.4612561
20
13.4911882
40
0.4216191
50
45.9863127
51
64.1608798
0
ARC
8
DEFAULT_255_1_388
10
4.4905955
20
13.524699
40
0.3771394
50
32.2747934
51
45.6544796
0
ARC
8
DEFAULT_255_1_388
10
4.4980761
20
13.5268426
40
0.3696765
50
359.6507495
51
32.6129943
0
ARC
8
DEFAULT_255_1_388
10
4.3919944
20
13.5273788
40
0.3013762
50
359.469654
51
14.983205
0
ARC
8
DEFAULT_255_1_388
10
4.4713196
20
13.5486288
40
0.2192542
50
14.9781954
51
48.2004799
0
ARC
8
DEFAULT_255_1_388
10
4.4528307
20
13.5253937
40
0.2489048
50
48.5926661
51
74.1242559
0
ARC
8
DEFAULT_255_1_388
10
4.4153109
20
13.4015607
40
0.3782845
50
73.7889321
51
86.6653996
0
ARC
8
DEFAULT_255_1_388
10
4.4037924
20
13.2657955
40
0.5145025
50
86.2642725
51
90.0533288
0
ARC
8
DEFAULT_255_1_388
10
4.4006017
20
13.3102376
40
0.4700681
50
89.669455
51
99.2313411
0
ARC
8
DEFAULT_255_1_388
10
4.3733176
20
13.4727401
40
0.3052945
50
99.0695987
51
113.7659242
0
ARC
8
DEFAULT_255_1_388
10
4.3425171
20
13.5453772
40
0.226407
50
114.0402885
51
127.9848946
0
ARC
8
DEFAULT_255_1_388
10
4.3154647
20
13.5786884
40
0.1835045
50
127.7287217
51
176.7106493
0
ARC
8
DEFAULT_255_1_388
10
4.3918312
20
13.567321
40
0.2604907
50
175.1780759
51
180.0581213
0
ARC
8
DEFAULT_255_1_388
10
4.2969656
20
13.5659411
40
0.1656287
50
179.6140658
51
228.124674
0
ARC
8
DEFAULT_255_1_388
10
4.3467013
20
13.611994
40
0.2332038
50
226.5785315
51
230.8792476
0
ARC
8
DEFAULT_255_1_388
10
4.39965
20
13.6822908
40
0.3211664
50
231.4636401
51
241.9261664
0
ARC
8
DEFAULT_255_1_388
10
4.5343283
20
13.9301349
40
0.6032345
50
241.7177136
51
248.3259138
0
ARC
8
DEFAULT_255_1_388
10
4.6901878
20
14.3162771
40
1.0196417
50
248.2007377
51
252.4527713
0
ARC
8
DEFAULT_255_1_388
10
4.8255405
20
14.7347092
40
1.4594143
50
252.3388938
51
254.347037
0
ARC
8
DEFAULT_255_1_388
10
3.9770705
20
11.6999095
40
1.6917621
50
71.0197462
51
74.4085467
0
ARC
8
DEFAULT_255_1_388
10
4.1677793
20
12.2504144
40
1.1091618
50
66.1845203
51
71.086519
0
ARC
8
DEFAULT_255_1_388
10
4.3428342
20
12.6445439
40
0.6779073
50
59.3537334
51
66.269255
0
ARC
8
DEFAULT_255_1_388
10
4.4428068
20
12.8136777
40
0.4814366
50
49.1021732
51
59.3294421
0
ARC
8
DEFAULT_255_1_388
10
4.5349056
20
12.9186575
40
0.3417875
50
32.7924183
51
49.2503526
0
ARC
8
DEFAULT_255_1_388
10
4.569867
20
12.9436311
40
0.2988789
50
31.121225
51
32.3977355
0
ARC
8
DEFAULT_255_1_388
10
4.5610848
20
12.9403728
40
0.3080861
50
8.1116803
51
30.7958224
0
ARC
8
DEFAULT_255_1_388
10
4.4699194
20
12.9248437
40
0.4005385
50
359.8390945
51
8.4707348
0
ARC
8
DEFAULT_255_1_388
10
4.5403242
20
12.9193751
40
0.3301608
50
337.4732479
51
0.7538283
0
ARC
8
DEFAULT_255_1_388
10
4.5604267
20
12.9171554
40
0.3107929
50
307.5917028
51
336.4313755
0
ARC
8
DEFAULT_255_1_388
10
4.5093324
20
12.9739509
40
0.3870096
50
307.6560665
51
308.4561779
0
ARC
8
DEFAULT_255_1_388
10
4.4827541
20
13.0147832
40
0.435591
50
284.3733666
51
307.1426212
0
ARC
8
DEFAULT_255_1_388
10
4.4270435
20
13.2197391
40
0.6479685
50
272.4384566
51
284.6464689
0
ARC
8
DEFAULT_255_1_388
10
4.412782
20
13.4221434
40
0.8508149
50
269.9708517
51
272.8180721
0
ARC
8
DEFAULT_255_1_388
10
4.4079503
20
13.1929283
40
0.6216151
50
248.2707343
51
270.4054609
0
ARC
8
DEFAULT_255_1_388
10
4.4018374
20
13.1714673
40
0.5994203
50
246.1380358
51
248.054058
0
ARC
8
DEFAULT_255_1_388
10
4.3547517
20
13.0725705
40
0.4899388
50
233.1671897
51
246.4951656
0
ARC
8
DEFAULT_255_1_388
10
4.2924152
20
12.9884137
40
0.3852115
50
215.3403381
51
233.084328
0
ARC
8
DEFAULT_255_1_388
10
4.2617516
20
12.9661093
40
0.3472969
50
179.2419235
51
215.2648426
0
ARC
8
DEFAULT_255_1_388
10
4.3481067
20
12.9676979
40
0.259251
50
179.3355796
51
199.1045873
0
ARC
8
DEFAULT_255_1_388
10
4.3107209
20
12.9579223
40
0.2207454
50
199.8830064
51
232.7061328
0
ARC
8
DEFAULT_255_1_388
10
4.3638483
20
13.0247456
40
0.306101
50
232.3736206
51
255.5136621
0
ARC
8
DEFAULT_255_1_388
10
4.4021989
20
13.1647177
40
0.4512213
50
255.2447928
51
267.5318292
0
ARC
8
DEFAULT_255_1_388
10
4.4120456
20
13.3033709
40
0.5901825
50
267.1564563
51
270.0294721
0
ARC
8
DEFAULT_255_1_388
10
4.4151781
20
13.2534623
40
0.5402814
50
269.6999944
51
278.1662446
0
ARC
8
DEFAULT_255_1_388
10
4.4439809
20
13.0587974
40
0.3435003
50
278.0229022
51
290.6255326
0
ARC
8
DEFAULT_255_1_388
10
4.4830975
20
12.9544547
40
0.2320666
50
290.6616368
51
307.0374127
0
ARC
8
DEFAULT_255_1_388
10
4.5168875
20
12.913004
40
0.1786372
50
306.3942078
51
355.303191
0
ARC
8
DEFAULT_255_1_388
10
4.4593168
20
12.9216186
40
0.2367516
50
354.3662092
51
0.0709489
0
ARC
8
DEFAULT_255_1_388
10
4.4753037
20
12.9241561
40
0.2207761
50
359.4175379
51
16.1975911
0
ARC
8
DEFAULT_255_1_388
10
4.5265155
20
12.9381954
40
0.1676828
50
16.4721294
51
52.6261798
0
ARC
8
DEFAULT_255_1_388
10
4.4341662
20
12.8162606
40
0.3206412
50
52.7381828
51
62.4979144
0
ARC
8
DEFAULT_255_1_388
10
4.2783415
20
12.5230236
40
0.6527035
50
62.2517425
51
68.1219454
0
ARC
8
DEFAULT_255_1_388
10
4.0848903
20
12.0475951
40
1.1659797
50
68.006043
51
71.8055127
0
ARC
8
DEFAULT_255_1_388
10
3.8828811
20
11.4417723
40
1.8045908
50
71.718361
51
73.9260743
0
LINE
8
DEFAULT_255_1_388
10
5.9447945
20
12.5894
11
5.819199
21
12.9327545
0
LINE
8
DEFAULT_255_1_388
10
5.819199
20
12.9327545
11
5.2680247
21
12.9327545
0
LINE
8
DEFAULT_255_1_388
10
5.2680247
20
12.9327545
11
5.1442364
21
12.5894
0
LINE
8
DEFAULT_255_1_388
10
5.1442364
20
12.5894
11
4.9653306
21
12.5894
0
LINE
8
DEFAULT_255_1_388
10
4.9653306
20
12.5894
11
5.4677125
21
13.9049898
0
LINE
8
DEFAULT_255_1_388
10
5.4677125
20
13.9049898
11
5.6195113
21
13.9049898
0
LINE
8
DEFAULT_255_1_388
10
5.6195113
20
13.9049898
11
6.1227967
21
12.5894
0
LINE
8
DEFAULT_255_1_388
10
6.1227967
20
12.5894
11
5.9447945
21
12.5894
0
LINE
8
DEFAULT_255_1_388
10
5.5436119
20
13.6908451
11
5.3204314
21
13.0755177
0
LINE
8
DEFAULT_255_1_388
10
5.3204314
20
13.0755177
11
5.7676958
21
13.0755177
0
LINE
8
DEFAULT_255_1_388
10
5.7676958
20
13.0755177
11
5.5436119
21
13.6908451
0
LINE
8
DEFAULT_255_1_388
10
6.7525811
20
13.6790987
11
6.7525811
21
13.2950838
0
LINE
8
DEFAULT_255_1_388
10
6.7525811
20
13.2950838
11
7.1194283
21
13.2950838
0
LINE
8
DEFAULT_255_1_388
10
7.1194283
20
13.2950838
11
7.1194283
21
13.1369601
0
LINE
8
DEFAULT_255_1_388
10
7.1194283
20
13.1369601
11
6.7525811
21
13.1369601
0
LINE
8
DEFAULT_255_1_388
10
6.7525811
20
13.1369601
11
6.7525811
21
12.7213204
0
LINE
8
DEFAULT_255_1_388
10
6.7525811
20
12.7213204
11
6.5845181
21
12.7213204
0
LINE
8
DEFAULT_255_1_388
10
6.5845181
20
12.7213204
11
6.5845181
21
13.1369601
0
LINE
8
DEFAULT_255_1_388
10
6.5845181
20
13.1369601
11
6.2176709
21
13.1369601
0
LINE
8
DEFAULT_255_1_388
10
6.2176709
20
13.1369601
11
6.2176709
21
13.2950838
0
LINE
8
DEFAULT_255_1_388
10
6.2176709
20
13.2950838
11
6.5845181
21
13.2950838
0
LINE
8
DEFAULT_255_1_388
10
6.5845181
20
13.2950838
11
6.5845181
21
13.6790987
0
LINE
8
DEFAULT_255_1_388
10
6.5845181
20
13.6790987
11
6.7525811
21
13.6790987
0
LINE
8
DEFAULT_255_1_388
10
3.9957024
20
21.8424898
11
4.2197864
21
21.8424898
0
LINE
8
DEFAULT_255_1_388
10
4.2197864
20
21.8424898
11
4.6498831
21
20.7690553
0
LINE
8
DEFAULT_255_1_388
10
4.6498831
20
20.7690553
11
5.0799797
21
21.8424898
0
LINE
8
DEFAULT_255_1_388
10
5.0799797
20
21.8424898
11
5.3049673
21
21.8424898
0
LINE
8
DEFAULT_255_1_388
10
5.3049673
20
21.8424898
11
5.3049673
21
20.5269
0
LINE
8
DEFAULT_255_1_388
10
5.3049673
20
20.5269
11
5.1314829
21
20.5269
0
LINE
8
DEFAULT_255_1_388
10
5.1314829
20
20.5269
11
5.1314829
21
21.039221
0
LINE
8
DEFAULT_255_1_388
10
5.1314829
20
21.039221
11
5.1477471
21
21.5922025
0
LINE
8
DEFAULT_255_1_388
10
5.1477471
20
21.5922025
11
4.7158433
21
20.5269
0
LINE
8
DEFAULT_255_1_388
10
4.7158433
20
20.5269
11
4.5830193
21
20.5269
0
LINE
8
DEFAULT_255_1_388
10
4.5830193
20
20.5269
11
4.152019
21
21.5894918
0
LINE
8
DEFAULT_255_1_388
10
4.152019
20
21.5894918
11
4.1691868
21
21.039221
0
LINE
8
DEFAULT_255_1_388
10
4.1691868
20
21.039221
11
4.1691868
21
20.5269
0
LINE
8
DEFAULT_255_1_388
10
4.1691868
20
20.5269
11
3.9957024
21
20.5269
0
LINE
8
DEFAULT_255_1_388
10
3.9957024
20
20.5269
11
3.9957024
21
21.8424898
0
LINE
8
DEFAULT_255_1_388
10
6.6232678
20
21.2253553
11
6.6232678
21
21.1422274
0
LINE
8
DEFAULT_255_1_388
10
5.5651938
20
21.1304811
11
5.5651938
21
21.2253553
0
LINE
8
DEFAULT_255_1_388
10
6.450687
20
21.1295775
11
6.450687
21
21.2271625
0
LINE
8
DEFAULT_255_1_388
10
5.7377747
20
21.2389088
11
5.7377747
21
21.1422274
0
ARC
8
DEFAULT_255_1_388
10
5.6510417
20
21.1377726
40
0.9722364
50
350.4878118
51
0.2625322
0
ARC
8
DEFAULT_255_1_388
10
5.9090377
20
21.0933994
40
0.7104556
50
336.0277991
51
350.5787241
0
ARC
8
DEFAULT_255_1_388
10
6.0603483
20
21.0250243
40
0.544417
50
319.887443
51
336.1331163
0
ARC
8
DEFAULT_255_1_388
10
6.1281296
20
20.9707733
40
0.4576311
50
302.4806296
51
319.6144102
0
ARC
8
DEFAULT_255_1_388
10
6.1151917
20
20.9957067
40
0.4856183
50
275.8196423
51
302.1885521
0
ARC
8
DEFAULT_255_1_388
10
6.0964778
20
21.1242466
40
0.6154183
50
269.9169897
51
276.339506
0
ARC
8
DEFAULT_255_1_388
10
6.0914379
20
21.047068
40
0.5382553
50
252.5221437
51
270.441579
0
ARC
8
DEFAULT_255_1_388
10
6.0752629
20
20.9864046
40
0.4755426
50
237.5349961
51
252.1858334
0
ARC
8
DEFAULT_255_1_388
10
6.0853005
20
20.999212
40
0.4917393
50
209.0632754
51
237.3492577
0
ARC
8
DEFAULT_255_1_388
10
6.1832331
20
21.0607104
40
0.6072464
50
205.118533
51
209.6465345
0
ARC
8
DEFAULT_255_1_388
10
6.2728333
20
21.0987174
40
0.7045164
50
188.7216633
51
204.8239753
0
ARC
8
DEFAULT_255_1_388
10
6.4975109
20
21.1365387
40
0.9323368
50
180.3722704
51
188.9253909
0
ARC
8
DEFAULT_255_1_388
10
6.494467
20
21.2298416
40
0.929284
50
169.5253055
51
180.2766048
0
ARC
8
DEFAULT_255_1_388
10
6.2804469
20
21.2692024
40
0.7116745
50
155.8314601
51
169.5088611
0
ARC
8
DEFAULT_255_1_388
10
6.1363932
20
21.3360312
40
0.5528904
50
139.6259579
51
156.0379072
0
ARC
8
DEFAULT_255_1_388
10
6.0700466
20
21.3894143
40
0.4677708
50
122.6414784
51
139.3431662
0
ARC
8
DEFAULT_255_1_388
10
6.0813721
20
21.3687787
40
0.4912586
50
93.0224537
51
122.4556091
0
ARC
8
DEFAULT_255_1_388
10
6.0935242
20
21.2601776
40
0.6003837
50
89.9756766
51
93.6340839
0
ARC
8
DEFAULT_255_1_388
10
6.0978839
20
21.3050879
40
0.5554884
50
73.7463329
51
90.4234008
0
ARC
8
DEFAULT_255_1_388
10
6.1176313
20
21.3815772
40
0.4765353
50
57.663051
51
73.4516911
0
ARC
8
DEFAULT_255_1_388
10
6.116735
20
21.3840108
40
0.4749629
50
29.1441355
51
57.4146687
0
ARC
8
DEFAULT_255_1_388
10
6.0115162
20
21.3183046
40
0.5988917
50
24.0985653
51
29.732054
0
ARC
8
DEFAULT_255_1_388
10
5.8952793
20
21.2701154
40
0.7246823
50
8.6654943
51
23.8241215
0
ARC
8
DEFAULT_255_1_388
10
5.6439212
20
21.2291037
40
0.9793537
50
359.7807044
51
8.8218476
0
ARC
8
DEFAULT_255_1_388
10
5.5148916
20
21.2319731
40
0.9358078
50
359.7054632
51
8.0359751
0
ARC
8
DEFAULT_255_1_388
10
5.8523968
20
21.2811252
40
0.5947474
50
7.8926278
51
20.2962188
0
ARC
8
DEFAULT_255_1_388
10
6.0354818
20
21.3486367
40
0.3996117
50
20.3231056
51
36.4990255
0
ARC
8
DEFAULT_255_1_388
10
6.1126115
20
21.4080399
40
0.3022818
50
36.1436715
51
85.6627846
0
ARC
8
DEFAULT_255_1_388
10
6.0943371
20
21.2910881
40
0.4203853
50
84.3845912
51
90.076054
0
ARC
8
DEFAULT_255_1_388
10
6.0895725
20
21.3653416
40
0.346157
50
89.3037228
51
109.9046209
0
ARC
8
DEFAULT_255_1_388
10
6.0791558
20
21.4083379
40
0.3022217
50
110.8229774
51
143.917961
0
ARC
8
DEFAULT_255_1_388
10
6.1841918
20
21.3281455
40
0.434348
50
143.5289166
51
163.2980252
0
ARC
8
DEFAULT_255_1_388
10
6.3988205
20
21.2606685
40
0.659321
50
163.0418884
51
174.3139873
0
ARC
8
DEFAULT_255_1_388
10
6.669317
20
21.2294378
40
0.9315905
50
174.050934
51
179.4174954
0
ARC
8
DEFAULT_255_1_388
10
6.6125114
20
21.1375382
40
0.8747493
50
179.6928582
51
188.7908948
0
ARC
8
DEFAULT_255_1_388
10
6.3128913
20
21.0896086
40
0.5713262
50
188.6328449
51
202.5630732
0
ARC
8
DEFAULT_255_1_388
10
6.171775
20
21.0329142
40
0.4192612
50
202.8078931
51
216.1195888
0
ARC
8
DEFAULT_255_1_388
10
6.0807267
20
20.9596479
40
0.3025752
50
215.0755613
51
264.6379773
0
ARC
8
DEFAULT_255_1_388
10
6.0950105
20
21.0531376
40
0.3970284
50
263.8464302
51
270.0830805
0
ARC
8
DEFAULT_255_1_388
10
6.099665
20
21.0240808
40
0.3679937
50
269.3649295
51
287.5149684
0
ARC
8
DEFAULT_255_1_388
10
6.119709
20
20.9512714
40
0.2925408
50
288.0629019
51
323.8115617
0
ARC
8
DEFAULT_255_1_388
10
6.0217067
20
21.0243754
40
0.4148018
50
323.6546541
51
342.6591359
0
ARC
8
DEFAULT_255_1_388
10
5.7931724
20
21.098728
40
0.6551163
50
342.4092446
51
353.6451501
0
ARC
8
DEFAULT_255_1_388
10
5.4746518
20
21.1383565
40
0.9760748
50
353.4027553
51
359.4846611
0
LINE
8
DEFAULT_255_1_388
10
7.2476309
20
20.5269
11
6.8834944
21
20.5269
0
LINE
8
DEFAULT_255_1_388
10
6.8834944
20
20.5269
11
6.8834944
21
21.8424898
0
LINE
8
DEFAULT_255_1_388
10
6.8834944
20
21.8424898
11
7.2548594
21
21.8424898
0
LINE
8
DEFAULT_255_1_388
10
7.8349478
20
21.2289696
11
7.8349478
21
21.1449381
0
LINE
8
DEFAULT_255_1_388
10
7.2593772
20
21.6997267
11
7.0569788
21
21.6997267
0
LINE
8
DEFAULT_255_1_388
10
7.0569788
20
21.6997267
11
7.0569788
21
20.6687596
0
LINE
8
DEFAULT_255_1_388
10
7.0569788
20
20.6687596
11
7.2394988
21
20.6687596
0
LINE
8
DEFAULT_255_1_388
10
7.6632705
20
21.1485523
11
7.6632705
21
21.2253553
0
ARC
8
DEFAULT_255_1_388
10
7.2592389
20
21.1826436
40
0.6598608
50
75.4100343
51
90.3802731
0
ARC
8
DEFAULT_255_1_388
10
7.2850634
20
21.2902691
40
0.5492049
50
60.1455157
51
75.1889627
0
ARC
8
DEFAULT_255_1_388
10
7.3029225
20
21.3213914
40
0.5133226
50
26.525419
51
60.1451222
0
ARC
8
DEFAULT_255_1_388
10
7.1769012
20
21.2545642
40
0.6559324
50
7.4029944
51
26.832209
0
ARC
8
DEFAULT_255_1_388
10
6.9975409
20
21.2266229
40
0.8374103
50
0.1605597
51
7.7176135
0
ARC
8
DEFAULT_255_1_388
10
7.0159809
20
21.1406321
40
0.8189782
50
348.7289744
51
0.30125
0
ARC
8
DEFAULT_255_1_388
10
7.2023273
20
21.1036156
40
0.628991
50
333.0706936
51
348.7181455
0
ARC
8
DEFAULT_255_1_388
10
7.3110901
20
21.0445449
40
0.5052808
50
299.2531435
51
333.4571133
0
ARC
8
DEFAULT_255_1_388
10
7.2704932
20
21.1216629
40
0.5924066
50
278.1072193
51
299.0340218
0
ARC
8
DEFAULT_255_1_388
10
7.2416981
20
21.2912979
40
0.7644209
50
270.4446841
51
278.4508355
0
ARC
8
DEFAULT_255_1_388
10
7.2440464
20
21.18673
40
0.5179903
50
269.4969684
51
284.0204874
0
ARC
8
DEFAULT_255_1_388
10
7.2840183
20
21.0331415
40
0.3592968
50
283.7699076
51
318.1557121
0
ARC
8
DEFAULT_255_1_388
10
7.2460728
20
21.0615399
40
0.4065308
50
318.7417595
51
343.687252
0
ARC
8
DEFAULT_255_1_388
10
7.0431307
20
21.1249275
40
0.6191194
50
343.3324891
51
355.8548594
0
ARC
8
DEFAULT_255_1_388
10
6.8070344
20
21.1473719
40
0.856237
50
355.4988754
51
0.0789913
0
ARC
8
DEFAULT_255_1_388
10
6.8951144
20
21.230108
40
0.7681709
50
359.6455047
51
9.8607559
0
ARC
8
DEFAULT_255_1_388
10
7.1606867
20
21.2780664
40
0.498312
50
9.6573037
51
26.1931522
0
ARC
8
DEFAULT_255_1_388
10
7.2650942
20
21.3265587
40
0.3832303
50
26.5777895
51
40.1533752
0
ARC
8
DEFAULT_255_1_388
10
7.2938607
20
21.349002
40
0.3467742
50
40.3839958
51
80.1430923
0
ARC
8
DEFAULT_255_1_388
10
7.2570862
20
21.1859486
40
0.5137832
50
79.2153636
51
89.7445174
0
LINE
8
DEFAULT_255_1_388
10
8.5496672
20
21.6165987
11
8.5496672
21
21.2325838
0
LINE
8
DEFAULT_255_1_388
10
8.5496672
20
21.2325838
11
8.9165144
21
21.2325838
0
LINE
8
DEFAULT_255_1_388
10
8.9165144
20
21.2325838
11
8.9165144
21
21.0744601
0
LINE
8
DEFAULT_255_1_388
10
8.9165144
20
21.0744601
11
8.5496672
21
21.0744601
0
LINE
8
DEFAULT_255_1_388
10
8.5496672
20
21.0744601
11
8.5496672
21
20.6588204
0
LINE
8
DEFAULT_255_1_388
10
8.5496672
20
20.6588204
11
8.3816042
21
20.6588204
0
LINE
8
DEFAULT_255_1_388
10
8.3816042
20
20.6588204
11
8.3816042
21
21.0744601
0
LINE
8
DEFAULT_255_1_388
10
8.3816042
20
21.0744601
11
8.0147571
21
21.0744601
0
LINE
8
DEFAULT_255_1_388
10
8.0147571
20
21.0744601
11
8.0147571
21
21.2325838
0
LINE
8
DEFAULT_255_1_388
10
8.0147571
20
21.2325838
11
8.3816042
21
21.2325838
0
LINE
8
DEFAULT_255_1_388
10
8.3816042
20
21.2325838
11
8.3816042
21
21.6165987
0
LINE
8
DEFAULT_255_1_388
10
8.3816042
20
21.6165987
11
8.5496672
21
21.6165987
0
LINE
8
DEFAULT_255_1_388
10
3.9957024
20
29.7799898
11
4.2197864
21
29.7799898
0
LINE
8
DEFAULT_255_1_388
10
4.2197864
20
29.7799898
11
4.6498831
21
28.7065553
0
LINE
8
DEFAULT_255_1_388
10
4.6498831
20
28.7065553
11
5.0799797
21
29.7799898
0
LINE
8
DEFAULT_255_1_388
10
5.0799797
20
29.7799898
11
5.3049673
21
29.7799898
0
LINE
8
DEFAULT_255_1_388
10
5.3049673
20
29.7799898
11
5.3049673
21
28.4644
0
LINE
8
DEFAULT_255_1_388
10
5.3049673
20
28.4644
11
5.1314829
21
28.4644
0
LINE
8
DEFAULT_255_1_388
10
5.1314829
20
28.4644
11
5.1314829
21
28.976721
0
LINE
8
DEFAULT_255_1_388
10
5.1314829
20
28.976721
11
5.1477471
21
29.5297025
0
LINE
8
DEFAULT_255_1_388
10
5.1477471
20
29.5297025
11
4.7158433
21
28.4644
0
LINE
8
DEFAULT_255_1_388
10
4.7158433
20
28.4644
11
4.5830193
21
28.4644
0
LINE
8
DEFAULT_255_1_388
10
4.5830193
20
28.4644
11
4.152019
21
29.5269918
0
LINE
8
DEFAULT_255_1_388
10
4.152019
20
29.5269918
11
4.1691868
21
28.976721
0
LINE
8
DEFAULT_255_1_388
10
4.1691868
20
28.976721
11
4.1691868
21
28.4644
0
LINE
8
DEFAULT_255_1_388
10
4.1691868
20
28.4644
11
3.9957024
21
28.4644
0
LINE
8
DEFAULT_255_1_388
10
3.9957024
20
28.4644
11
3.9957024
21
29.7799898
0
LINE
8
DEFAULT_255_1_388
10
6.6232678
20
29.1628553
11
6.6232678
21
29.0797274
0
LINE
8
DEFAULT_255_1_388
10
5.5651938
20
29.0679811
11
5.5651938
21
29.1628553
0
LINE
8
DEFAULT_255_1_388
10
6.450687
20
29.0670775
11
6.450687
21
29.1646625
0
LINE
8
DEFAULT_255_1_388
10
5.7377747
20
29.1764088
11
5.7377747
21
29.0797274
0
ARC
8
DEFAULT_255_1_388
10
5.6510417
20
29.0752726
40
0.9722364
50
350.4878118
51
0.2625322
0
ARC
8
DEFAULT_255_1_388
10
5.9090377
20
29.0308994
40
0.7104556
50
336.0277991
51
350.5787241
0
ARC
8
DEFAULT_255_1_388
10
6.0603483
20
28.9625243
40
0.544417
50
319.887443
51
336.1331163
0
ARC
8
DEFAULT_255_1_388
10
6.1281296
20
28.9082733
40
0.4576311
50
302.4806296
51
319.6144102
0
ARC
8
DEFAULT_255_1_388
10
6.1151917
20
28.9332067
40
0.4856183
50
275.8196423
51
302.1885521
0
ARC
8
DEFAULT_255_1_388
10
6.0964778
20
29.0617466
40
0.6154183
50
269.9169897
51
276.339506
0
ARC
8
DEFAULT_255_1_388
10
6.0914379
20
28.984568
40
0.5382553
50
252.5221437
51
270.441579
0
ARC
8
DEFAULT_255_1_388
10
6.0752629
20
28.9239046
40
0.4755426
50
237.5349961
51
252.1858334
0
ARC
8
DEFAULT_255_1_388
10
6.0853005
20
28.936712
40
0.4917393
50
209.0632754
51
237.3492577
0
ARC
8
DEFAULT_255_1_388
10
6.1832331
20
28.9982104
40
0.6072464
50
205.118533
51
209.6465345
0
ARC
8
DEFAULT_255_1_388
10
6.2728333
20
29.0362174
40
0.7045164
50
188.7216633
51
204.8239753
0
ARC
8
DEFAULT_255_1_388
10
6.4975109
20
29.0740387
40
0.9323368
50
180.3722704
51
188.9253909
0
ARC
8
DEFAULT_255_1_388
10
6.494467
20
29.1673416
40
0.929284
50
169.5253055
51
180.2766048
0
ARC
8
DEFAULT_255_1_388
10
6.2804469
20
29.2067024
40
0.7116745
50
155.8314601
51
169.5088611
0
ARC
8
DEFAULT_255_1_388
10
6.1363932
20
29.2735312
40
0.5528904
50
139.6259579
51
156.0379072
0
ARC
8
DEFAULT_255_1_388
10
6.0700466
20
29.3269143
40
0.4677708
50
122.6414784
51
139.3431662
0
ARC
8
DEFAULT_255_1_388
10
6.0813721
20
29.3062787
40
0.4912586
50
93.0224537
51
122.4556091
0
ARC
8
DEFAULT_255_1_388
10
6.0935242
20
29.1976776
40
0.6003837
50
89.9756766
51
93.6340839
0
ARC
8
DEFAULT_255_1_388
10
6.0978839
20
29.2425879
40
0.5554884
50
73.7463329
51
90.4234008
0
ARC
8
DEFAULT_255_1_388
10
6.1176313
20
29.3190772
40
0.4765353
50
57.663051
51
73.4516911
0
ARC
8
DEFAULT_255_1_388
10
6.116735
20
29.3215108
40
0.4749629
50
29.1441355
51
57.4146687
0
ARC
8
DEFAULT_255_1_388
10
6.0115162
20
29.2558046
40
0.5988917
50
24.0985653
51
29.732054
0
ARC
8
DEFAULT_255_1_388
10
5.8952793
20
29.2076154
40
0.7246823
50
8.6654943
51
23.8241215
0
ARC
8
DEFAULT_255_1_388
10
5.6439212
20
29.1666037
40
0.9793537
50
359.7807044
51
8.8218476
0
ARC
8
DEFAULT_255_1_388
10
5.5148916
20
29.1694731
40
0.9358078
50
359.7054632
51
8.0359751
0
ARC
8
DEFAULT_255_1_388
10
5.8523968
20
29.2186252
40
0.5947474
50
7.8926278
51
20.2962188
0
ARC
8
DEFAULT_255_1_388
10
6.0354818
20
29.2861367
40
0.3996117
50
20.3231056
51
36.4990255
0
ARC
8
DEFAULT_255_1_388
10
6.1126115
20
29.3455399
40
0.3022818
50
36.1436715
51
85.6627846
0
ARC
8
DEFAULT_255_1_388
10
6.0943371
20
29.2285881
40
0.4203853
50
84.3845912
51
90.076054
0
ARC
8
DEFAULT_255_1_388
10
6.0895725
20
29.3028416
40
0.346157
50
89.3037228
51
109.9046209
0
ARC
8
DEFAULT_255_1_388
10
6.0791558
20
29.3458379
40
0.3022217
50
110.8229774
51
143.917961
0
ARC
8
DEFAULT_255_1_388
10
6.1841918
20
29.2656455
40
0.434348
50
143.5289166
51
163.2980252
0
ARC
8
DEFAULT_255_1_388
10
6.3988205
20
29.1981685
40
0.659321
50
163.0418884
51
174.3139873
0
ARC
8
DEFAULT_255_1_388
10
6.669317
20
29.1669378
40
0.9315905
50
174.050934
51
179.4174954
0
ARC
8
DEFAULT_255_1_388
10
6.6125114
20
29.0750382
40
0.8747493
50
179.6928582
51
188.7908948
0
ARC
8
DEFAULT_255_1_388
10
6.3128913
20
29.0271086
40
0.5713262
50
188.6328449
51
202.5630732
0
ARC
8
DEFAULT_255_1_388
10
6.171775
20
28.9704142
40
0.4192612
50
202.8078931
51
216.1195888
0
ARC
8
DEFAULT_255_1_388
10
6.0807267
20
28.8971479
40
0.3025752
50
215.0755613
51
264.6379773
0
ARC
8
DEFAULT_255_1_388
10
6.0950105
20
28.9906376
40
0.3970284
50
263.8464302
51
270.0830805
0
ARC
8
DEFAULT_255_1_388
10
6.099665
20
28.9615808
40
0.3679937
50
269.3649295
51
287.5149684
0
ARC
8
DEFAULT_255_1_388
10
6.119709
20
28.8887714
40
0.2925408
50
288.0629019
51
323.8115617
0
ARC
8
DEFAULT_255_1_388
10
6.0217067
20
28.9618754
40
0.4148018
50
323.6546541
51
342.6591359
0
ARC
8
DEFAULT_255_1_388
10
5.7931724
20
29.036228
40
0.6551163
50
342.4092446
51
353.6451501
0
ARC
8
DEFAULT_255_1_388
10
5.4746518
20
29.0758565
40
0.9760748
50
353.4027553
51
359.4846611
0
LINE
8
DEFAULT_255_1_388
10
7.2476309
20
28.4644
11
6.8834944
21
28.4644
0
LINE
8
DEFAULT_255_1_388
10
6.8834944
20
28.4644
11
6.8834944
21
29.7799898
0
LINE
8
DEFAULT_255_1_388
10
6.8834944
20
29.7799898
11
7.2548594
21
29.7799898
0
LINE
8
DEFAULT_255_1_388
10
7.8349478
20
29.1664696
11
7.8349478
21
29.0824381
0
LINE
8
DEFAULT_255_1_388
10
7.2593772
20
29.6372267
11
7.0569788
21
29.6372267
0
LINE
8
DEFAULT_255_1_388
10
7.0569788
20
29.6372267
11
7.0569788
21
28.6062596
0
LINE
8
DEFAULT_255_1_388
10
7.0569788
20
28.6062596
11
7.2394988
21
28.6062596
0
LINE
8
DEFAULT_255_1_388
10
7.6632705
20
29.0860523
11
7.6632705
21
29.1628553
0
ARC
8
DEFAULT_255_1_388
10
7.2592389
20
29.1201436
40
0.6598608
50
75.4100343
51
90.3802731
0
ARC
8
DEFAULT_255_1_388
10
7.2850634
20
29.2277691
40
0.5492049
50
60.1455157
51
75.1889627
0
ARC
8
DEFAULT_255_1_388
10
7.3029225
20
29.2588914
40
0.5133226
50
26.525419
51
60.1451222
0
ARC
8
DEFAULT_255_1_388
10
7.1769012
20
29.1920642
40
0.6559324
50
7.4029944
51
26.832209
0
ARC
8
DEFAULT_255_1_388
10
6.9975409
20
29.1641229
40
0.8374103
50
0.1605597
51
7.7176135
0
ARC
8
DEFAULT_255_1_388
10
7.0159809
20
29.0781321
40
0.8189782
50
348.7289744
51
0.30125
0
ARC
8
DEFAULT_255_1_388
10
7.2023273
20
29.0411156
40
0.628991
50
333.0706936
51
348.7181455
0
ARC
8
DEFAULT_255_1_388
10
7.3110901
20
28.9820449
40
0.5052808
50
299.2531435
51
333.4571133
0
ARC
8
DEFAULT_255_1_388
10
7.2704932
20
29.0591629
40
0.5924066
50
278.1072193
51
299.0340218
0
ARC
8
DEFAULT_255_1_388
10
7.2416981
20
29.2287979
40
0.7644209
50
270.4446841
51
278.4508355
0
ARC
8
DEFAULT_255_1_388
10
7.2440464
20
29.12423
40
0.5179903
50
269.4969684
51
284.0204874
0
ARC
8
DEFAULT_255_1_388
10
7.2840183
20
28.9706415
40
0.3592968
50
283.7699076
51
318.1557121
0
ARC
8
DEFAULT_255_1_388
10
7.2460728
20
28.9990399
40
0.4065308
50
318.7417595
51
343.687252
0
ARC
8
DEFAULT_255_1_388
10
7.0431307
20
29.0624275
40
0.6191194
50
343.3324891
51
355.8548594
0
ARC
8
DEFAULT_255_1_388
10
6.8070344
20
29.0848719
40
0.856237
50
355.4988754
51
0.0789913
0
ARC
8
DEFAULT_255_1_388
10
6.8951144
20
29.167608
40
0.7681709
50
359.6455047
51
9.8607559
0
ARC
8
DEFAULT_255_1_388
10
7.1606867
20
29.2155664
40
0.498312
50
9.6573037
51
26.1931522
0
ARC
8
DEFAULT_255_1_388
10
7.2650942
20
29.2640587
40
0.3832303
50
26.5777895
51
40.1533752
0
ARC
8
DEFAULT_255_1_388
10
7.2938607
20
29.286502
40
0.3467742
50
40.3839958
51
80.1430923
0
ARC
8
DEFAULT_255_1_388
10
7.2570862
20
29.1234486
40
0.5137832
50
79.2153636
51
89.7445174
0
LINE
8
DEFAULT_255_1_388
10
8.5496672
20
29.5540987
11
8.5496672
21
29.1700838
0
LINE
8
DEFAULT_255_1_388
10
8.5496672
20
29.1700838
11
8.9165144
21
29.1700838
0
LINE
8
DEFAULT_255_1_388
10
8.9165144
20
29.1700838
11
8.9165144
21
29.0119601
0
LINE
8
DEFAULT_255_1_388
10
8.9165144
20
29.0119601
11
8.5496672
21
29.0119601
0
LINE
8
DEFAULT_255_1_388
10
8.5496672
20
29.0119601
11
8.5496672
21
28.5963204
0
LINE
8
DEFAULT_255_1_388
10
8.5496672
20
28.5963204
11
8.3816042
21
28.5963204
0
LINE
8
DEFAULT_255_1_388
10
8.3816042
20
28.5963204
11
8.3816042
21
29.0119601
0
LINE
8
DEFAULT_255_1_388
10
8.3816042
20
29.0119601
11
8.0147571
21
29.0119601
0
LINE
8
DEFAULT_255_1_388
10
8.0147571
20
29.0119601
11
8.0147571
21
29.1700838
0
LINE
8
DEFAULT_255_1_388
10
8.0147571
20
29.1700838
11
8.3816042
21
29.1700838
0
LINE
8
DEFAULT_255_1_388
10
8.3816042
20
29.1700838
11
8.3816042
21
29.5540987
0
LINE
8
DEFAULT_255_1_388
10
8.3816042
20
29.5540987
11
8.5496672
21
29.5540987
0
LINE
8
DEFAULT_255_1_388
10
19.8742024
20
37.7174898
11
20.0982864
21
37.7174898
0
LINE
8
DEFAULT_255_1_388
10
20.0982864
20
37.7174898
11
20.5283831
21
36.6440553
0
LINE
8
DEFAULT_255_1_388
10
20.5283831
20
36.6440553
11
20.9584797
21
37.7174898
0
LINE
8
DEFAULT_255_1_388
10
20.9584797
20
37.7174898
11
21.1834673
21
37.7174898
0
LINE
8
DEFAULT_255_1_388
10
21.1834673
20
37.7174898
11
21.1834673
21
36.4019
0
LINE
8
DEFAULT_255_1_388
10
21.1834673
20
36.4019
11
21.0099829
21
36.4019
0
LINE
8
DEFAULT_255_1_388
10
21.0099829
20
36.4019
11
21.0099829
21
36.914221
0
LINE
8
DEFAULT_255_1_388
10
21.0099829
20
36.914221
11
21.0262471
21
37.4672025
0
LINE
8
DEFAULT_255_1_388
10
21.0262471
20
37.4672025
11
20.5943433
21
36.4019
0
LINE
8
DEFAULT_255_1_388
10
20.5943433
20
36.4019
11
20.4615193
21
36.4019
0
LINE
8
DEFAULT_255_1_388
10
20.4615193
20
36.4019
11
20.030519
21
37.4644918
0
LINE
8
DEFAULT_255_1_388
10
20.030519
20
37.4644918
11
20.0476868
21
36.914221
0
LINE
8
DEFAULT_255_1_388
10
20.0476868
20
36.914221
11
20.0476868
21
36.4019
0
LINE
8
DEFAULT_255_1_388
10
20.0476868
20
36.4019
11
19.8742024
21
36.4019
0
LINE
8
DEFAULT_255_1_388
10
19.8742024
20
36.4019
11
19.8742024
21
37.7174898
0
LINE
8
DEFAULT_255_1_388
10
22.5017678
20
37.1003553
11
22.5017678
21
37.0172274
0
LINE
8
DEFAULT_255_1_388
10
21.4436938
20
37.0054811
11
21.4436938
21
37.1003553
0
LINE
8
DEFAULT_255_1_388
10
22.329187
20
37.0045775
11
22.329187
21
37.1021625
0
LINE
8
DEFAULT_255_1_388
10
21.6162747
20
37.1139088
11
21.6162747
21
37.0172274
0
ARC
8
DEFAULT_255_1_388
10
21.5295417
20
37.0127726
40
0.9722364
50
350.4878118
51
0.2625322
0
ARC
8
DEFAULT_255_1_388
10
21.7875377
20
36.9683994
40
0.7104556
50
336.0277991
51
350.5787241
0
ARC
8
DEFAULT_255_1_388
10
21.9388483
20
36.9000243
40
0.544417
50
319.887443
51
336.1331163
0
ARC
8
DEFAULT_255_1_388
10
22.0066296
20
36.8457733
40
0.4576311
50
302.4806296
51
319.6144102
0
ARC
8
DEFAULT_255_1_388
10
21.9936917
20
36.8707067
40
0.4856183
50
275.8196423
51
302.1885521
0
ARC
8
DEFAULT_255_1_388
10
21.9749778
20
36.9992466
40
0.6154183
50
269.9169897
51
276.339506
0
ARC
8
DEFAULT_255_1_388
10
21.9699379
20
36.922068
40
0.5382553
50
252.5221437
51
270.441579
0
ARC
8
DEFAULT_255_1_388
10
21.9537629
20
36.8614046
40
0.4755426
50
237.5349961
51
252.1858334
0
ARC
8
DEFAULT_255_1_388
10
21.9638005
20
36.874212
40
0.4917393
50
209.0632754
51
237.3492577
0
ARC
8
DEFAULT_255_1_388
10
22.0617331
20
36.9357104
40
0.6072464
50
205.118533
51
209.6465345
0
ARC
8
DEFAULT_255_1_388
10
22.1513333
20
36.9737174
40
0.7045164
50
188.7216633
51
204.8239753
0
ARC
8
DEFAULT_255_1_388
10
22.3760109
20
37.0115387
40
0.9323368
50
180.3722704
51
188.9253909
0
ARC
8
DEFAULT_255_1_388
10
22.372967
20
37.1048416
40
0.929284
50
169.5253055
51
180.2766048
0
ARC
8
DEFAULT_255_1_388
10
22.1589469
20
37.1442024
40
0.7116745
50
155.8314601
51
169.5088611
0
ARC
8
DEFAULT_255_1_388
10
22.0148932
20
37.2110312
40
0.5528904
50
139.6259579
51
156.0379072
0
ARC
8
DEFAULT_255_1_388
10
21.9485466
20
37.2644143
40
0.4677708
50
122.6414784
51
139.3431662
0
ARC
8
DEFAULT_255_1_388
10
21.9598721
20
37.2437787
40
0.4912586
50
93.0224537
51
122.4556091
0
ARC
8
DEFAULT_255_1_388
10
21.9720242
20
37.1351776
40
0.6003837
50
89.9756766
51
93.6340839
0
ARC
8
DEFAULT_255_1_388
10
21.9763839
20
37.1800879
40
0.5554884
50
73.7463329
51
90.4234008
0
ARC
8
DEFAULT_255_1_388
10
21.9961313
20
37.2565772
40
0.4765353
50
57.663051
51
73.4516911
0
ARC
8
DEFAULT_255_1_388
10
21.995235
20
37.2590108
40
0.4749629
50
29.1441355
51
57.4146687
0
ARC
8
DEFAULT_255_1_388
10
21.8900162
20
37.1933046
40
0.5988917
50
24.0985653
51
29.732054
0
ARC
8
DEFAULT_255_1_388
10
21.7737793
20
37.1451154
40
0.7246823
50
8.6654943
51
23.8241215
0
ARC
8
DEFAULT_255_1_388
10
21.5224212
20
37.1041037
40
0.9793537
50
359.7807044
51
8.8218476
0
ARC
8
DEFAULT_255_1_388
10
21.3933916
20
37.1069731
40
0.9358078
50
359.7054632
51
8.0359751
0
ARC
8
DEFAULT_255_1_388
10
21.7308968
20
37.1561252
40
0.5947474
50
7.8926278
51
20.2962188
0
ARC
8
DEFAULT_255_1_388
10
21.9139818
20
37.2236367
40
0.3996117
50
20.3231056
51
36.4990255
0
ARC
8
DEFAULT_255_1_388
10
21.9911115
20
37.2830399
40
0.3022818
50
36.1436715
51
85.6627846
0
ARC
8
DEFAULT_255_1_388
10
21.9728371
20
37.1660881
40
0.4203853
50
84.3845912
51
90.076054
0
ARC
8
DEFAULT_255_1_388
10
21.9680725
20
37.2403416
40
0.346157
50
89.3037228
51
109.9046209
0
ARC
8
DEFAULT_255_1_388
10
21.9576558
20
37.2833379
40
0.3022217
50
110.8229774
51
143.917961
0
ARC
8
DEFAULT_255_1_388
10
22.0626918
20
37.2031455
40
0.434348
50
143.5289166
51
163.2980252
0
ARC
8
DEFAULT_255_1_388
10
22.2773205
20
37.1356685
40
0.659321
50
163.0418884
51
174.3139873
0
ARC
8
DEFAULT_255_1_388
10
22.547817
20
37.1044378
40
0.9315905
50
174.050934
51
179.4174954
0
ARC
8
DEFAULT_255_1_388
10
22.4910114
20
37.0125382
40
0.8747493
50
179.6928582
51
188.7908948
0
ARC
8
DEFAULT_255_1_388
10
22.1913913
20
36.9646086
40
0.5713262
50
188.6328449
51
202.5630732
0
ARC
8
DEFAULT_255_1_388
10
22.050275
20
36.9079142
40
0.4192612
50
202.8078931
51
216.1195888
0
ARC
8
DEFAULT_255_1_388
10
21.9592267
20
36.8346479
40
0.3025752
50
215.0755613
51
264.6379773
0
ARC
8
DEFAULT_255_1_388
10
21.9735105
20
36.9281376
40
0.3970284
50
263.8464302
51
270.0830805
0
ARC
8
DEFAULT_255_1_388
10
21.978165
20
36.8990808
40
0.3679937
50
269.3649295
51
287.5149684
0
ARC
8
DEFAULT_255_1_388
10
21.998209
20
36.8262714
40
0.2925408
50
288.0629019
51
323.8115617
0
ARC
8
DEFAULT_255_1_388
10
21.9002067
20
36.8993754
40
0.4148018
50
323.6546541
51
342.6591359
0
ARC
8
DEFAULT_255_1_388
10
21.6716724
20
36.973728
40
0.6551163
50
342.4092446
51
353.6451501
0
ARC
8
DEFAULT_255_1_388
10
21.3531518
20
37.0133565
40
0.9760748
50
353.4027553
51
359.4846611
0
LINE
8
DEFAULT_255_1_388
10
23.1261309
20
36.4019
11
22.7619944
21
36.4019
0
LINE
8
DEFAULT_255_1_388
10
22.7619944
20
36.4019
11
22.7619944
21
37.7174898
0
LINE
8
DEFAULT_255_1_388
10
22.7619944
20
37.7174898
11
23.1333594
21
37.7174898
0
LINE
8
DEFAULT_255_1_388
10
23.7134478
20
37.1039696
11
23.7134478
21
37.0199381
0
LINE
8
DEFAULT_255_1_388
10
23.1378772
20
37.5747267
11
22.9354788
21
37.5747267
0
LINE
8
DEFAULT_255_1_388
10
22.9354788
20
37.5747267
11
22.9354788
21
36.5437596
0
LINE
8
DEFAULT_255_1_388
10
22.9354788
20
36.5437596
11
23.1179988
21
36.5437596
0
LINE
8
DEFAULT_255_1_388
10
23.5417705
20
37.0235523
11
23.5417705
21
37.1003553
0
ARC
8
DEFAULT_255_1_388
10
23.1377389
20
37.0576436
40
0.6598608
50
75.4100343
51
90.3802731
0
ARC
8
DEFAULT_255_1_388
10
23.1635634
20
37.1652691
40
0.5492049
50
60.1455157
51
75.1889627
0
ARC
8
DEFAULT_255_1_388
10
23.1814225
20
37.1963914
40
0.5133226
50
26.525419
51
60.1451222
0
ARC
8
DEFAULT_255_1_388
10
23.0554012
20
37.1295642
40
0.6559324
50
7.4029944
51
26.832209
0
ARC
8
DEFAULT_255_1_388
10
22.8760409
20
37.1016229
40
0.8374103
50
0.1605597
51
7.7176135
0
ARC
8
DEFAULT_255_1_388
10
22.8944809
20
37.0156321
40
0.8189782
50
348.7289744
51
0.30125
0
ARC
8
DEFAULT_255_1_388
10
23.0808273
20
36.9786156
40
0.628991
50
333.0706936
51
348.7181455
0
ARC
8
DEFAULT_255_1_388
10
23.1895901
20
36.9195449
40
0.5052808
50
299.2531435
51
333.4571133
0
ARC
8
DEFAULT_255_1_388
10
23.1489932
20
36.9966629
40
0.5924066
50
278.1072193
51
299.0340218
0
ARC
8
DEFAULT_255_1_388
10
23.1201981
20
37.1662979
40
0.7644209
50
270.4446841
51
278.4508355
0
ARC
8
DEFAULT_255_1_388
10
23.1225464
20
37.06173
40
0.5179903
50
269.4969684
51
284.0204874
0
ARC
8
DEFAULT_255_1_388
10
23.1625183
20
36.9081415
40
0.3592968
50
283.7699076
51
318.1557121
0
ARC
8
DEFAULT_255_1_388
10
23.1245728
20
36.9365399
40
0.4065308
50
318.7417595
51
343.687252
0
ARC
8
DEFAULT_255_1_388
10
22.9216307
20
36.9999275
40
0.6191194
50
343.3324891
51
355.8548594
0
ARC
8
DEFAULT_255_1_388
10
22.6855344
20
37.0223719
40
0.856237
50
355.4988754
51
0.0789913
0
ARC
8
DEFAULT_255_1_388
10
22.7736144
20
37.105108
40
0.7681709
50
359.6455047
51
9.8607559
0
ARC
8
DEFAULT_255_1_388
10
23.0391867
20
37.1530664
40
0.498312
50
9.6573037
51
26.1931522
0
ARC
8
DEFAULT_255_1_388
10
23.1435942
20
37.2015587
40
0.3832303
50
26.5777895
51
40.1533752
0
ARC
8
DEFAULT_255_1_388
10
23.1723607
20
37.224002
40
0.3467742
50
40.3839958
51
80.1430923
0
ARC
8
DEFAULT_255_1_388
10
23.1355862
20
37.0609486
40
0.5137832
50
79.2153636
51
89.7445174
0
LINE
8
DEFAULT_255_1_388
10
24.2971504
20
37.0289737
11
24.2971504
21
36.8925355
0
LINE
8
DEFAULT_255_1_388
10
24.2971504
20
36.8925355
11
23.8562109
21
36.8925355
0
LINE
8
DEFAULT_255_1_388
10
23.8562109
20
36.8925355
11
23.8562109
21
37.0289737
0
LINE
8
DEFAULT_255_1_388
10
23.8562109
20
37.0289737
11
24.2971504
21
37.0289737
0
LINE
8
DEFAULT_255_1_388
10
21.7517342
20
5.3069842
11
21.7517342
21
4.8244808
0
LINE
8
DEFAULT_255_1_388
10
20.7379349
20
5.2464454
11
20.7379349
21
5.3611981
0
LINE
8
DEFAULT_255_1_388
10
21.7517342
20
5.5816678
11
21.5782498
21
5.5816678
0
LINE
8
DEFAULT_255_1_388
10
20.9123228
20
5.3657159
11
20.9123228
21
5.2581917
0
LINE
8
DEFAULT_255_1_388
10
21.5791534
20
4.8705626
11
21.5791534
21
5.1660282
0
LINE
8
DEFAULT_255_1_388
10
21.5791534
20
5.1660282
11
21.2746521
21
5.1660282
0
LINE
8
DEFAULT_255_1_388
10
21.2746521
20
5.1660282
11
21.2746521
21
5.3069842
0
LINE
8
DEFAULT_255_1_388
10
21.2746521
20
5.3069842
11
21.7517342
21
5.3069842
0
ARC
8
DEFAULT_255_1_388
10
21.4331942
20
5.0487284
40
0.3895571
50
295.8437277
51
324.8549962
0
ARC
8
DEFAULT_255_1_388
10
21.3864325
20
5.1333619
40
0.4861381
50
291.5691164
51
296.4556269
0
ARC
8
DEFAULT_255_1_388
10
21.3289327
20
5.2869801
40
0.6501442
50
278.6622213
51
291.3047061
0
ARC
8
DEFAULT_255_1_388
10
21.2907359
20
5.5286557
40
0.8948168
50
270.0200506
51
278.7494673
0
ARC
8
DEFAULT_255_1_388
10
21.2863563
20
5.7132453
40
1.0794166
50
270.0022372
51
270.2490917
0
ARC
8
DEFAULT_255_1_388
10
21.2821456
20
5.2173827
40
0.5835695
50
253.5785313
51
270.4175629
0
ARC
8
DEFAULT_255_1_388
10
21.2626452
20
5.1418625
40
0.5056241
50
238.8203954
51
253.2788387
0
ARC
8
DEFAULT_255_1_388
10
21.2604367
20
5.1361224
40
0.4995712
50
206.7883476
51
238.696262
0
ARC
8
DEFAULT_255_1_388
10
21.3479763
20
5.1885847
40
0.6014056
50
206.1137778
51
207.4912776
0
ARC
8
DEFAULT_255_1_388
10
21.4146599
20
5.2169284
40
0.6737692
50
188.6922336
51
205.782076
0
ARC
8
DEFAULT_255_1_388
10
21.6234958
20
5.2524455
40
0.8855812
50
180.3881972
51
188.9218085
0
ARC
8
DEFAULT_255_1_388
10
21.7616116
20
5.3675622
40
1.0236965
50
170.2024645
51
180.3561986
0
ARC
8
DEFAULT_255_1_388
10
21.4057266
20
5.4312101
40
0.6621746
50
154.2856519
51
170.3893388
0
ARC
8
DEFAULT_255_1_388
10
21.261523
20
5.4972192
40
0.5036209
50
139.8400879
51
153.9334639
0
ARC
8
DEFAULT_255_1_388
10
21.2211133
20
5.5295716
40
0.4518751
50
98.4190017
51
139.6707015
0
ARC
8
DEFAULT_255_1_388
10
21.2638101
20
5.3219755
40
0.6635912
50
89.7660128
51
99.4415389
0
ARC
8
DEFAULT_255_1_388
10
21.2711497
20
5.3293517
40
0.6562258
50
78.0552044
51
90.4042252
0
ARC
8
DEFAULT_255_1_388
10
21.3166561
20
5.5339661
40
0.4466287
50
54.6380186
51
78.3338577
0
ARC
8
DEFAULT_255_1_388
10
21.3380859
20
5.5700444
40
0.4048184
50
50.0313964
51
54.1562739
0
ARC
8
DEFAULT_255_1_388
10
21.3259753
20
5.5591798
40
0.4209308
50
18.1092229
51
49.7179911
0
ARC
8
DEFAULT_255_1_388
10
21.1620833
20
5.4991399
40
0.5953982
50
7.967396
51
18.698492
0
ARC
8
DEFAULT_255_1_388
10
21.1790094
20
5.5130236
40
0.4050986
50
9.7558763
51
27.3214087
0
ARC
8
DEFAULT_255_1_388
10
21.3058559
20
5.5764087
40
0.2633168
50
27.736147
51
84.5257861
0
ARC
8
DEFAULT_255_1_388
10
21.2689968
20
5.3914988
40
0.4513019
50
82.1064239
51
90.1997295
0
ARC
8
DEFAULT_255_1_388
10
21.2633985
20
5.4486501
40
0.3941684
50
89.4148952
51
105.5824837
0
ARC
8
DEFAULT_255_1_388
10
21.2344865
20
5.5539043
40
0.2850167
50
105.6678541
51
144.2649156
0
ARC
8
DEFAULT_255_1_388
10
21.3349758
20
5.4824024
40
0.4083468
50
144.3560675
51
162.8564185
0
ARC
8
DEFAULT_255_1_388
10
21.56942
20
5.4071083
40
0.6545749
50
162.6076338
51
173.6779811
0
ARC
8
DEFAULT_255_1_388
10
21.9138315
20
5.3652422
40
1.0015089
50
173.4670996
51
179.9729015
0
ARC
8
DEFAULT_255_1_388
10
21.6991186
20
5.2534636
40
0.78681
50
179.6556955
51
190.007958
0
ARC
8
DEFAULT_255_1_388
10
21.4385468
20
5.205666
40
0.5218997
50
189.8117884
51
206.6795375
0
ARC
8
DEFAULT_255_1_388
10
21.3434914
20
5.1613514
40
0.4170788
50
207.1031171
51
217.7074698
0
ARC
8
DEFAULT_255_1_388
10
21.2721344
20
5.0992596
40
0.3226945
50
216.7345117
51
265.6812141
0
ARC
8
DEFAULT_255_1_388
10
21.2868486
20
5.201003
40
0.4253149
50
264.7367524
51
270.0610826
0
ARC
8
DEFAULT_255_1_388
10
21.2894672
20
5.5205173
40
0.7448321
50
269.8334494
51
276.0538364
0
ARC
8
DEFAULT_255_1_388
10
21.3127534
20
5.3065924
40
0.5296446
50
275.9894423
51
284.4615914
0
ARC
8
DEFAULT_255_1_388
10
21.3349047
20
5.213357
40
0.4338353
50
284.7038488
51
286.4938196
0
ARC
8
DEFAULT_255_1_388
10
21.3808196
20
5.0654371
40
0.2789738
50
286.0770429
51
304.2629628
0
ARC
8
DEFAULT_255_1_388
10
21.3958354
20
5.040868
40
0.2502188
50
304.5886247
51
317.1074126
0
LINE
8
DEFAULT_255_1_388
10
23.0519634
20
5.9674898
11
23.0519634
21
4.6519
0
LINE
8
DEFAULT_255_1_388
10
23.0519634
20
4.6519
11
22.8775755
21
4.6519
0
LINE
8
DEFAULT_255_1_388
10
22.8775755
20
4.6519
11
22.2152627
21
5.6656993
0
LINE
8
DEFAULT_255_1_388
10
22.2152627
20
5.6656993
11
22.2152627
21
4.6519
0
LINE
8
DEFAULT_255_1_388
10
22.2152627
20
4.6519
11
22.0408748
21
4.6519
0
LINE
8
DEFAULT_255_1_388
10
22.0408748
20
4.6519
11
22.0408748
21
5.9674898
0
LINE
8
DEFAULT_255_1_388
10
22.0408748
20
5.9674898
11
22.2152627
21
5.9674898
0
LINE
8
DEFAULT_255_1_388
10
22.2152627
20
5.9674898
11
22.8793826
21
4.9491727
0
LINE
8
DEFAULT_255_1_388
10
22.8793826
20
4.9491727
11
22.8793826
21
5.9674898
0
LINE
8
DEFAULT_255_1_388
10
22.8793826
20
5.9674898
11
23.0519634
21
5.9674898
0
LINE
8
DEFAULT_255_1_388
10
23.7242154
20
4.6519
11
23.3600789
21
4.6519
0
LINE
8
DEFAULT_255_1_388
10
23.3600789
20
4.6519
11
23.3600789
21
5.9674898
0
LINE
8
DEFAULT_255_1_388
10
23.3600789
20
5.9674898
11
23.7314439
21
5.9674898
0
LINE
8
DEFAULT_255_1_388
10
24.3115323
20
5.3539696
11
24.3115323
21
5.2699381
0
LINE
8
DEFAULT_255_1_388
10
23.7359617
20
5.8247267
11
23.5335633
21
5.8247267
0
LINE
8
DEFAULT_255_1_388
10
23.5335633
20
5.8247267
11
23.5335633
21
4.7937596
0
LINE
8
DEFAULT_255_1_388
10
23.5335633
20
4.7937596
11
23.7160833
21
4.7937596
0
LINE
8
DEFAULT_255_1_388
10
24.139855
20
5.2735523
11
24.139855
21
5.3503553
0
ARC
8
DEFAULT_255_1_388
10
23.7358234
20
5.3076436
40
0.6598608
50
75.4100343
51
90.3802731
0
ARC
8
DEFAULT_255_1_388
10
23.7616479
20
5.4152691
40
0.5492049
50
60.1455157
51
75.1889627
0
ARC
8
DEFAULT_255_1_388
10
23.7795071
20
5.4463914
40
0.5133226
50
26.525419
51
60.1451222
0
ARC
8
DEFAULT_255_1_388
10
23.6534857
20
5.3795642
40
0.6559324
50
7.4029944
51
26.832209
0
ARC
8
DEFAULT_255_1_388
10
23.4741254
20
5.3516229
40
0.8374103
50
0.1605597
51
7.7176135
0
ARC
8
DEFAULT_255_1_388
10
23.4925654
20
5.2656321
40
0.8189782
50
348.7289744
51
0.30125
0
ARC
8
DEFAULT_255_1_388
10
23.6789118
20
5.2286156
40
0.628991
50
333.0706936
51
348.7181455
0
ARC
8
DEFAULT_255_1_388
10
23.7876747
20
5.1695449
40
0.5052808
50
299.2531435
51
333.4571133
0
ARC
8
DEFAULT_255_1_388
10
23.7470777
20
5.2466629
40
0.5924066
50
278.1072193
51
299.0340218
0
ARC
8
DEFAULT_255_1_388
10
23.7182826
20
5.4162979
40
0.7644209
50
270.4446841
51
278.4508355
0
ARC
8
DEFAULT_255_1_388
10
23.720631
20
5.31173
40
0.5179903
50
269.4969684
51
284.0204874
0
ARC
8
DEFAULT_255_1_388
10
23.7606028
20
5.1581415
40
0.3592968
50
283.7699076
51
318.1557121
0
ARC
8
DEFAULT_255_1_388
10
23.7226573
20
5.1865399
40
0.4065308
50
318.7417595
51
343.687252
0
ARC
8
DEFAULT_255_1_388
10
23.5197152
20
5.2499275
40
0.6191194
50
343.3324891
51
355.8548594
0
ARC
8
DEFAULT_255_1_388
10
23.283619
20
5.2723719
40
0.856237
50
355.4988754
51
0.0789913
0
ARC
8
DEFAULT_255_1_388
10
23.3716989
20
5.355108
40
0.7681709
50
359.6455047
51
9.8607559
0
ARC
8
DEFAULT_255_1_388
10
23.6372712
20
5.4030664
40
0.498312
50
9.6573037
51
26.1931522
0
ARC
8
DEFAULT_255_1_388
10
23.7416787
20
5.4515587
40
0.3832303
50
26.5777895
51
40.1533752
0
ARC
8
DEFAULT_255_1_388
10
23.7704452
20
5.474002
40
0.3467742
50
40.3839958
51
80.1430923
0
ARC
8
DEFAULT_255_1_388
10
23.7336708
20
5.3109486
40
0.5137832
50
79.2153636
51
89.7445174
0
LINE
8
DEFAULT_255_1_388
10
22.5430457
20
13.5245892
11
22.3686577
21
13.5245892
0
LINE
8
DEFAULT_255_1_388
10
21.5897852
20
12.9707042
11
21.7641731
21
12.9707042
0
ARC
8
DEFAULT_255_1_388
10
22.4427304
20
14.5309821
40
1.4087688
50
248.9196578
51
254.1442424
0
ARC
8
DEFAULT_255_1_388
10
22.2537184
20
14.0443805
40
0.8867498
50
241.6337352
51
249.0064643
0
ARC
8
DEFAULT_255_1_388
10
22.0817498
20
13.7292764
40
0.5277799
50
230.4982261
51
241.8087583
0
ARC
8
DEFAULT_255_1_388
10
21.9935269
20
13.6168686
40
0.3849419
50
227.4062979
51
229.9877433
0
ARC
8
DEFAULT_255_1_388
10
21.9386615
20
13.5633155
40
0.3084129
50
200.6782127
51
228.1765252
0
ARC
8
DEFAULT_255_1_388
10
21.9467984
20
13.5616277
40
0.315461
50
179.506278
51
199.8695278
0
ARC
8
DEFAULT_255_1_388
10
21.9457573
20
13.5699671
40
0.3144584
50
132.4834401
51
181.0242352
0
ARC
8
DEFAULT_255_1_388
10
22.0126777
20
13.5067788
40
0.4063094
50
129.2526113
51
133.4249077
0
ARC
8
DEFAULT_255_1_388
10
22.029237
20
13.4819619
40
0.436014
50
101.9878945
51
128.8741833
0
ARC
8
DEFAULT_255_1_388
10
22.0740785
20
13.288336
40
0.6347415
50
89.5906376
51
102.3170567
0
ARC
8
DEFAULT_255_1_388
10
22.0820097
20
13.3241586
40
0.5989122
50
77.2359491
51
90.3248968
0
ARC
8
DEFAULT_255_1_388
10
22.1053028
20
13.4329554
40
0.4876594
50
63.8379856
51
77.0808925
0
ARC
8
DEFAULT_255_1_388
10
22.1365561
20
13.4911882
40
0.4216191
50
45.9863127
51
64.1608798
0
ARC
8
DEFAULT_255_1_388
10
22.1658955
20
13.524699
40
0.3771394
50
32.2747934
51
45.6544796
0
ARC
8
DEFAULT_255_1_388
10
22.1733761
20
13.5268426
40
0.3696765
50
359.6507495
51
32.6129943
0
ARC
8
DEFAULT_255_1_388
10
22.0672944
20
13.5273788
40
0.3013762
50
359.469654
51
14.983205
0
ARC
8
DEFAULT_255_1_388
10
22.1466196
20
13.5486288
40
0.2192542
50
14.9781954
51
48.2004799
0
ARC
8
DEFAULT_255_1_388
10
22.1281307
20
13.5253937
40
0.2489048
50
48.5926661
51
74.1242559
0
ARC
8
DEFAULT_255_1_388
10
22.0906109
20
13.4015607
40
0.3782845
50
73.7889321
51
86.6653996
0
ARC
8
DEFAULT_255_1_388
10
22.0790924
20
13.2657955
40
0.5145025
50
86.2642725
51
90.0533288
0
ARC
8
DEFAULT_255_1_388
10
22.0759017
20
13.3102376
40
0.4700681
50
89.669455
51
99.2313411
0
ARC
8
DEFAULT_255_1_388
10
22.0486176
20
13.4727401
40
0.3052945
50
99.0695987
51
113.7659242
0
ARC
8
DEFAULT_255_1_388
10
22.0178171
20
13.5453772
40
0.226407
50
114.0402885
51
127.9848946
0
ARC
8
DEFAULT_255_1_388
10
21.9907647
20
13.5786884
40
0.1835045
50
127.7287217
51
176.7106493
0
ARC
8
DEFAULT_255_1_388
10
22.0671312
20
13.567321
40
0.2604907
50
175.1780759
51
180.0581213
0
ARC
8
DEFAULT_255_1_388
10
21.9722656
20
13.5659411
40
0.1656287
50
179.6140658
51
228.124674
0
ARC
8
DEFAULT_255_1_388
10
22.0220013
20
13.611994
40
0.2332038
50
226.5785315
51
230.8792476
0
ARC
8
DEFAULT_255_1_388
10
22.07495
20
13.6822908
40
0.3211664
50
231.4636401
51
241.9261664
0
ARC
8
DEFAULT_255_1_388
10
22.2096283
20
13.9301349
40
0.6032345
50
241.7177136
51
248.3259138
0
ARC
8
DEFAULT_255_1_388
10
22.3654878
20
14.3162771
40
1.0196417
50
248.2007377
51
252.4527713
0
ARC
8
DEFAULT_255_1_388
10
22.5008405
20
14.7347092
40
1.4594143
50
252.3388938
51
254.347037
0
ARC
8
DEFAULT_255_1_388
10
21.6523705
20
11.6999095
40
1.6917621
50
71.0197462
51
74.4085467
0
ARC
8
DEFAULT_255_1_388
10
21.8430793
20
12.2504144
40
1.1091618
50
66.1845203
51
71.086519
0
ARC
8
DEFAULT_255_1_388
10
22.0181342
20
12.6445439
40
0.6779073
50
59.3537334
51
66.269255
0
ARC
8
DEFAULT_255_1_388
10
22.1181068
20
12.8136777
40
0.4814366
50
49.1021732
51
59.3294421
0
ARC
8
DEFAULT_255_1_388
10
22.2102056
20
12.9186575
40
0.3417875
50
32.7924183
51
49.2503526
0
ARC
8
DEFAULT_255_1_388
10
22.245167
20
12.9436311
40
0.2988789
50
31.121225
51
32.3977355
0
ARC
8
DEFAULT_255_1_388
10
22.2363848
20
12.9403728
40
0.3080861
50
8.1116803
51
30.7958224
0
ARC
8
DEFAULT_255_1_388
10
22.1452194
20
12.9248437
40
0.4005385
50
359.8390945
51
8.4707348
0
ARC
8
DEFAULT_255_1_388
10
22.2156242
20
12.9193751
40
0.3301608
50
337.4732479
51
0.7538283
0
ARC
8
DEFAULT_255_1_388
10
22.2357267
20
12.9171554
40
0.3107929
50
307.5917028
51
336.4313755
0
ARC
8
DEFAULT_255_1_388
10
22.1846324
20
12.9739509
40
0.3870096
50
307.6560665
51
308.4561779
0
ARC
8
DEFAULT_255_1_388
10
22.1580541
20
13.0147832
40
0.435591
50
284.3733666
51
307.1426212
0
ARC
8
DEFAULT_255_1_388
10
22.1023435
20
13.2197391
40
0.6479685
50
272.4384566
51
284.6464689
0
ARC
8
DEFAULT_255_1_388
10
22.088082
20
13.4221434
40
0.8508149
50
269.9708517
51
272.8180721
0
ARC
8
DEFAULT_255_1_388
10
22.0832503
20
13.1929283
40
0.6216151
50
248.2707343
51
270.4054609
0
ARC
8
DEFAULT_255_1_388
10
22.0771374
20
13.1714673
40
0.5994203
50
246.1380358
51
248.054058
0
ARC
8
DEFAULT_255_1_388
10
22.0300517
20
13.0725705
40
0.4899388
50
233.1671897
51
246.4951656
0
ARC
8
DEFAULT_255_1_388
10
21.9677152
20
12.9884137
40
0.3852115
50
215.3403381
51
233.084328
0
ARC
8
DEFAULT_255_1_388
10
21.9370516
20
12.9661093
40
0.3472969
50
179.2419235
51
215.2648426
0
ARC
8
DEFAULT_255_1_388
10
22.0234067
20
12.9676979
40
0.259251
50
179.3355796
51
199.1045873
0
ARC
8
DEFAULT_255_1_388
10
21.9860209
20
12.9579223
40
0.2207454
50
199.8830064
51
232.7061328
0
ARC
8
DEFAULT_255_1_388
10
22.0391483
20
13.0247456
40
0.306101
50
232.3736206
51
255.5136621
0
ARC
8
DEFAULT_255_1_388
10
22.0774989
20
13.1647177
40
0.4512213
50
255.2447928
51
267.5318292
0
ARC
8
DEFAULT_255_1_388
10
22.0873456
20
13.3033709
40
0.5901825
50
267.1564563
51
270.0294721
0
ARC
8
DEFAULT_255_1_388
10
22.0904781
20
13.2534623
40
0.5402814
50
269.6999944
51
278.1662446
0
ARC
8
DEFAULT_255_1_388
10
22.1192809
20
13.0587974
40
0.3435003
50
278.0229022
51
290.6255326
0
ARC
8
DEFAULT_255_1_388
10
22.1583975
20
12.9544547
40
0.2320666
50
290.6616368
51
307.0374127
0
ARC
8
DEFAULT_255_1_388
10
22.1921875
20
12.913004
40
0.1786372
50
306.3942078
51
355.303191
0
ARC
8
DEFAULT_255_1_388
10
22.1346168
20
12.9216186
40
0.2367516
50
354.3662092
51
0.0709489
0
ARC
8
DEFAULT_255_1_388
10
22.1506037
20
12.9241561
40
0.2207761
50
359.4175379
51
16.1975911
0
ARC
8
DEFAULT_255_1_388
10
22.2018155
20
12.9381954
40
0.1676828
50
16.4721294
51
52.6261798
0
ARC
8
DEFAULT_255_1_388
10
22.1094662
20
12.8162606
40
0.3206412
50
52.7381828
51
62.4979144
0
ARC
8
DEFAULT_255_1_388
10
21.9536415
20
12.5230236
40
0.6527035
50
62.2517425
51
68.1219454
0
ARC
8
DEFAULT_255_1_388
10
21.7601903
20
12.0475951
40
1.1659797
50
68.006043
51
71.8055127
0
ARC
8
DEFAULT_255_1_388
10
21.5581811
20
11.4417723
40
1.8045908
50
71.718361
51
73.9260743
0
LINE
8
DEFAULT_255_1_388
10
23.6200945
20
12.5894
11
23.494499
21
12.9327545
0
LINE
8
DEFAULT_255_1_388
10
23.494499
20
12.9327545
11
22.9433247
21
12.9327545
0
LINE
8
DEFAULT_255_1_388
10
22.9433247
20
12.9327545
11
22.8195364
21
12.5894
0
LINE
8
DEFAULT_255_1_388
10
22.8195364
20
12.5894
11
22.6406306
21
12.5894
0
LINE
8
DEFAULT_255_1_388
10
22.6406306
20
12.5894
11
23.1430125
21
13.9049898
0
LINE
8
DEFAULT_255_1_388
10
23.1430125
20
13.9049898
11
23.2948113
21
13.9049898
0
LINE
8
DEFAULT_255_1_388
10
23.2948113
20
13.9049898
11
23.7980967
21
12.5894
0
LINE
8
DEFAULT_255_1_388
10
23.7980967
20
12.5894
11
23.6200945
21
12.5894
0
LINE
8
DEFAULT_255_1_388
10
23.2189119
20
13.6908451
11
22.9957314
21
13.0755177
0
LINE
8
DEFAULT_255_1_388
10
22.9957314
20
13.0755177
11
23.4429958
21
13.0755177
0
LINE
8
DEFAULT_255_1_388
10
23.4429958
20
13.0755177
11
23.2189119
21
13.6908451
0
LINE
8
DEFAULT_255_1_388
10
24.2968643
20
13.2164737
11
24.2968643
21
13.0800355
0
LINE
8
DEFAULT_255_1_388
10
24.2968643
20
13.0800355
11
23.8559248
21
13.0800355
0
LINE
8
DEFAULT_255_1_388
10
23.8559248
20
13.0800355
11
23.8559248
21
13.2164737
0
LINE
8
DEFAULT_255_1_388
10
23.8559248
20
13.2164737
11
24.2968643
21
13.2164737
0
LINE
8
DEFAULT_255_1_388
10
22.5430457
20
21.4620892
11
22.3686577
21
21.4620892
0
LINE
8
DEFAULT_255_1_388
10
21.5897852
20
20.9082042
11
21.7641731
21
20.9082042
0
ARC
8
DEFAULT_255_1_388
10
22.4427304
20
22.4684821
40
1.4087688
50
248.9196578
51
254.1442424
0
ARC
8
DEFAULT_255_1_388
10
22.2537184
20
21.9818805
40
0.8867498
50
241.6337352
51
249.0064643
0
ARC
8
DEFAULT_255_1_388
10
22.0817498
20
21.6667764
40
0.5277799
50
230.4982261
51
241.8087583
0
ARC
8
DEFAULT_255_1_388
10
21.9935269
20
21.5543686
40
0.3849419
50
227.4062979
51
229.9877433
0
ARC
8
DEFAULT_255_1_388
10
21.9386615
20
21.5008155
40
0.3084129
50
200.6782127
51
228.1765252
0
ARC
8
DEFAULT_255_1_388
10
21.9467984
20
21.4991277
40
0.315461
50
179.506278
51
199.8695278
0
ARC
8
DEFAULT_255_1_388
10
21.9457573
20
21.5074671
40
0.3144584
50
132.4834401
51
181.0242352
0
ARC
8
DEFAULT_255_1_388
10
22.0126777
20
21.4442788
40
0.4063094
50
129.2526113
51
133.4249077
0
ARC
8
DEFAULT_255_1_388
10
22.029237
20
21.4194619
40
0.436014
50
101.9878945
51
128.8741833
0
ARC
8
DEFAULT_255_1_388
10
22.0740785
20
21.225836
40
0.6347415
50
89.5906376
51
102.3170567
0
ARC
8
DEFAULT_255_1_388
10
22.0820097
20
21.2616586
40
0.5989122
50
77.2359491
51
90.3248968
0
ARC
8
DEFAULT_255_1_388
10
22.1053028
20
21.3704554
40
0.4876594
50
63.8379856
51
77.0808925
0
ARC
8
DEFAULT_255_1_388
10
22.1365561
20
21.4286882
40
0.4216191
50
45.9863127
51
64.1608798
0
ARC
8
DEFAULT_255_1_388
10
22.1658955
20
21.462199
40
0.3771394
50
32.2747934
51
45.6544796
0
ARC
8
DEFAULT_255_1_388
10
22.1733761
20
21.4643426
40
0.3696765
50
359.6507495
51
32.6129943
0
ARC
8
DEFAULT_255_1_388
10
22.0672944
20
21.4648788
40
0.3013762
50
359.469654
51
14.983205
0
ARC
8
DEFAULT_255_1_388
10
22.1466196
20
21.4861288
40
0.2192542
50
14.9781954
51
48.2004799
0
ARC
8
DEFAULT_255_1_388
10
22.1281307
20
21.4628937
40
0.2489048
50
48.5926661
51
74.1242559
0
ARC
8
DEFAULT_255_1_388
10
22.0906109
20
21.3390607
40
0.3782845
50
73.7889321
51
86.6653996
0
ARC
8
DEFAULT_255_1_388
10
22.0790924
20
21.2032955
40
0.5145025
50
86.2642725
51
90.0533288
0
ARC
8
DEFAULT_255_1_388
10
22.0759017
20
21.2477376
40
0.4700681
50
89.669455
51
99.2313411
0
ARC
8
DEFAULT_255_1_388
10
22.0486176
20
21.4102401
40
0.3052945
50
99.0695987
51
113.7659242
0
ARC
8
DEFAULT_255_1_388
10
22.0178171
20
21.4828772
40
0.226407
50
114.0402885
51
127.9848946
0
ARC
8
DEFAULT_255_1_388
10
21.9907647
20
21.5161884
40
0.1835045
50
127.7287217
51
176.7106493
0
ARC
8
DEFAULT_255_1_388
10
22.0671312
20
21.504821
40
0.2604907
50
175.1780759
51
180.0581213
0
ARC
8
DEFAULT_255_1_388
10
21.9722656
20
21.5034411
40
0.1656287
50
179.6140658
51
228.124674
0
ARC
8
DEFAULT_255_1_388
10
22.0220013
20
21.549494
40
0.2332038
50
226.5785315
51
230.8792476
0
ARC
8
DEFAULT_255_1_388
10
22.07495
20
21.6197908
40
0.3211664
50
231.4636401
51
241.9261664
0
ARC
8
DEFAULT_255_1_388
10
22.2096283
20
21.8676349
40
0.6032345
50
241.7177136
51
248.3259138
0
ARC
8
DEFAULT_255_1_388
10
22.3654878
20
22.2537771
40
1.0196417
50
248.2007377
51
252.4527713
0
ARC
8
DEFAULT_255_1_388
10
22.5008405
20
22.6722092
40
1.4594143
50
252.3388938
51
254.347037
0
ARC
8
DEFAULT_255_1_388
10
21.6523705
20
19.6374095
40
1.6917621
50
71.0197462
51
74.4085467
0
ARC
8
DEFAULT_255_1_388
10
21.8430793
20
20.1879144
40
1.1091618
50
66.1845203
51
71.086519
0
ARC
8
DEFAULT_255_1_388
10
22.0181342
20
20.5820439
40
0.6779073
50
59.3537334
51
66.269255
0
ARC
8
DEFAULT_255_1_388
10
22.1181068
20
20.7511777
40
0.4814366
50
49.1021732
51
59.3294421
0
ARC
8
DEFAULT_255_1_388
10
22.2102056
20
20.8561575
40
0.3417875
50
32.7924183
51
49.2503526
0
ARC
8
DEFAULT_255_1_388
10
22.245167
20
20.8811311
40
0.2988789
50
31.121225
51
32.3977355
0
ARC
8
DEFAULT_255_1_388
10
22.2363848
20
20.8778728
40
0.3080861
50
8.1116803
51
30.7958224
0
ARC
8
DEFAULT_255_1_388
10
22.1452194
20
20.8623437
40
0.4005385
50
359.8390945
51
8.4707348
0
ARC
8
DEFAULT_255_1_388
10
22.2156242
20
20.8568751
40
0.3301608
50
337.4732479
51
0.7538283
0
ARC
8
DEFAULT_255_1_388
10
22.2357267
20
20.8546554
40
0.3107929
50
307.5917028
51
336.4313755
0
ARC
8
DEFAULT_255_1_388
10
22.1846324
20
20.9114509
40
0.3870096
50
307.6560665
51
308.4561779
0
ARC
8
DEFAULT_255_1_388
10
22.1580541
20
20.9522832
40
0.435591
50
284.3733666
51
307.1426212
0
ARC
8
DEFAULT_255_1_388
10
22.1023435
20
21.1572391
40
0.6479685
50
272.4384566
51
284.6464689
0
ARC
8
DEFAULT_255_1_388
10
22.088082
20
21.3596434
40
0.8508149
50
269.9708517
51
272.8180721
0
ARC
8
DEFAULT_255_1_388
10
22.0832503
20
21.1304283
40
0.6216151
50
248.2707343
51
270.4054609
0
ARC
8
DEFAULT_255_1_388
10
22.0771374
20
21.1089673
40
0.5994203
50
246.1380358
51
248.054058
0
ARC
8
DEFAULT_255_1_388
10
22.0300517
20
21.0100705
40
0.4899388
50
233.1671897
51
246.4951656
0
ARC
8
DEFAULT_255_1_388
10
21.9677152
20
20.9259137
40
0.3852115
50
215.3403381
51
233.084328
0
ARC
8
DEFAULT_255_1_388
10
21.9370516
20
20.9036093
40
0.3472969
50
179.2419235
51
215.2648426
0
ARC
8
DEFAULT_255_1_388
10
22.0234067
20
20.9051979
40
0.259251
50
179.3355796
51
199.1045873
0
ARC
8
DEFAULT_255_1_388
10
21.9860209
20
20.8954223
40
0.2207454
50
199.8830064
51
232.7061328
0
ARC
8
DEFAULT_255_1_388
10
22.0391483
20
20.9622456
40
0.306101
50
232.3736206
51
255.5136621
0
ARC
8
DEFAULT_255_1_388
10
22.0774989
20
21.1022177
40
0.4512213
50
255.2447928
51
267.5318292
0
ARC
8
DEFAULT_255_1_388
10
22.0873456
20
21.2408709
40
0.5901825
50
267.1564563
51
270.0294721
0
ARC
8
DEFAULT_255_1_388
10
22.0904781
20
21.1909623
40
0.5402814
50
269.6999944
51
278.1662446
0
ARC
8
DEFAULT_255_1_388
10
22.1192809
20
20.9962974
40
0.3435003
50
278.0229022
51
290.6255326
0
ARC
8
DEFAULT_255_1_388
10
22.1583975
20
20.8919547
40
0.2320666
50
290.6616368
51
307.0374127
0
ARC
8
DEFAULT_255_1_388
10
22.1921875
20
20.850504
40
0.1786372
50
306.3942078
51
355.303191
0
ARC
8
DEFAULT_255_1_388
10
22.1346168
20
20.8591186
40
0.2367516
50
354.3662092
51
0.0709489
0
ARC
8
DEFAULT_255_1_388
10
22.1506037
20
20.8616561
40
0.2207761
50
359.4175379
51
16.1975911
0
ARC
8
DEFAULT_255_1_388
10
22.2018155
20
20.8756954
40
0.1676828
50
16.4721294
51
52.6261798
0
ARC
8
DEFAULT_255_1_388
10
22.1094662
20
20.7537606
40
0.3206412
50
52.7381828
51
62.4979144
0
ARC
8
DEFAULT_255_1_388
10
21.9536415
20
20.4605236
40
0.6527035
50
62.2517425
51
68.1219454
0
ARC
8
DEFAULT_255_1_388
10
21.7601903
20
19.9850951
40
1.1659797
50
68.006043
51
71.8055127
0
ARC
8
DEFAULT_255_1_388
10
21.5581811
20
19.3792723
40
1.8045908
50
71.718361
51
73.9260743
0
LINE
8
DEFAULT_255_1_388
10
23.6200945
20
20.5269
11
23.494499
21
20.8702545
0
LINE
8
DEFAULT_255_1_388
10
23.494499
20
20.8702545
11
22.9433247
21
20.8702545
0
LINE
8
DEFAULT_255_1_388
10
22.9433247
20
20.8702545
11
22.8195364
21
20.5269
0
LINE
8
DEFAULT_255_1_388
10
22.8195364
20
20.5269
11
22.6406306
21
20.5269
0
LINE
8
DEFAULT_255_1_388
10
22.6406306
20
20.5269
11
23.1430125
21
21.8424898
0
LINE
8
DEFAULT_255_1_388
10
23.1430125
20
21.8424898
11
23.2948113
21
21.8424898
0
LINE
8
DEFAULT_255_1_388
10
23.2948113
20
21.8424898
11
23.7980967
21
20.5269
0
LINE
8
DEFAULT_255_1_388
10
23.7980967
20
20.5269
11
23.6200945
21
20.5269
0
LINE
8
DEFAULT_255_1_388
10
23.2189119
20
21.6283451
11
22.9957314
21
21.0130177
0
LINE
8
DEFAULT_255_1_388
10
22.9957314
20
21.0130177
11
23.4429958
21
21.0130177
0
LINE
8
DEFAULT_255_1_388
10
23.4429958
20
21.0130177
11
23.2189119
21
21.6283451
0
LINE
8
DEFAULT_255_1_388
10
24.2968643
20
21.1539737
11
24.2968643
21
21.0175355
0
LINE
8
DEFAULT_255_1_388
10
24.2968643
20
21.0175355
11
23.8559248
21
21.0175355
0
LINE
8
DEFAULT_255_1_388
10
23.8559248
20
21.0175355
11
23.8559248
21
21.1539737
0
LINE
8
DEFAULT_255_1_388
10
23.8559248
20
21.1539737
11
24.2968643
21
21.1539737
0
LINE
8
DEFAULT_255_1_388
10
19.8742024
20
29.7799898
11
20.0982864
21
29.7799898
0
LINE
8
DEFAULT_255_1_388
10
20.0982864
20
29.7799898
11
20.5283831
21
28.7065553
0
LINE
8
DEFAULT_255_1_388
10
20.5283831
20
28.7065553
11
20.9584797
21
29.7799898
0
LINE
8
DEFAULT_255_1_388
10
20.9584797
20
29.7799898
11
21.1834673
21
29.7799898
0
LINE
8
DEFAULT_255_1_388
10
21.1834673
20
29.7799898
11
21.1834673
21
28.4644
0
LINE
8
DEFAULT_255_1_388
10
21.1834673
20
28.4644
11
21.0099829
21
28.4644
0
LINE
8
DEFAULT_255_1_388
10
21.0099829
20
28.4644
11
21.0099829
21
28.976721
0
LINE
8
DEFAULT_255_1_388
10
21.0099829
20
28.976721
11
21.0262471
21
29.5297025
0
LINE
8
DEFAULT_255_1_388
10
21.0262471
20
29.5297025
11
20.5943433
21
28.4644
0
LINE
8
DEFAULT_255_1_388
10
20.5943433
20
28.4644
11
20.4615193
21
28.4644
0
LINE
8
DEFAULT_255_1_388
10
20.4615193
20
28.4644
11
20.030519
21
29.5269918
0
LINE
8
DEFAULT_255_1_388
10
20.030519
20
29.5269918
11
20.0476868
21
28.976721
0
LINE
8
DEFAULT_255_1_388
10
20.0476868
20
28.976721
11
20.0476868
21
28.4644
0
LINE
8
DEFAULT_255_1_388
10
20.0476868
20
28.4644
11
19.8742024
21
28.4644
0
LINE
8
DEFAULT_255_1_388
10
19.8742024
20
28.4644
11
19.8742024
21
29.7799898
0
LINE
8
DEFAULT_255_1_388
10
22.5017678
20
29.1628553
11
22.5017678
21
29.0797274
0
LINE
8
DEFAULT_255_1_388
10
21.4436938
20
29.0679811
11
21.4436938
21
29.1628553
0
LINE
8
DEFAULT_255_1_388
10
22.329187
20
29.0670775
11
22.329187
21
29.1646625
0
LINE
8
DEFAULT_255_1_388
10
21.6162747
20
29.1764088
11
21.6162747
21
29.0797274
0
ARC
8
DEFAULT_255_1_388
10
21.5295417
20
29.0752726
40
0.9722364
50
350.4878118
51
0.2625322
0
ARC
8
DEFAULT_255_1_388
10
21.7875377
20
29.0308994
40
0.7104556
50
336.0277991
51
350.5787241
0
ARC
8
DEFAULT_255_1_388
10
21.9388483
20
28.9625243
40
0.544417
50
319.887443
51
336.1331163
0
ARC
8
DEFAULT_255_1_388
10
22.0066296
20
28.9082733
40
0.4576311
50
302.4806296
51
319.6144102
0
ARC
8
DEFAULT_255_1_388
10
21.9936917
20
28.9332067
40
0.4856183
50
275.8196423
51
302.1885521
0
ARC
8
DEFAULT_255_1_388
10
21.9749778
20
29.0617466
40
0.6154183
50
269.9169897
51
276.339506
0
ARC
8
DEFAULT_255_1_388
10
21.9699379
20
28.984568
40
0.5382553
50
252.5221437
51
270.441579
0
ARC
8
DEFAULT_255_1_388
10
21.9537629
20
28.9239046
40
0.4755426
50
237.5349961
51
252.1858334
0
ARC
8
DEFAULT_255_1_388
10
21.9638005
20
28.936712
40
0.4917393
50
209.0632754
51
237.3492577
0
ARC
8
DEFAULT_255_1_388
10
22.0617331
20
28.9982104
40
0.6072464
50
205.118533
51
209.6465345
0
ARC
8
DEFAULT_255_1_388
10
22.1513333
20
29.0362174
40
0.7045164
50
188.7216633
51
204.8239753
0
ARC
8
DEFAULT_255_1_388
10
22.3760109
20
29.0740387
40
0.9323368
50
180.3722704
51
188.9253909
0
ARC
8
DEFAULT_255_1_388
10
22.372967
20
29.1673416
40
0.929284
50
169.5253055
51
180.2766048
0
ARC
8
DEFAULT_255_1_388
10
22.1589469
20
29.2067024
40
0.7116745
50
155.8314601
51
169.5088611
0
ARC
8
DEFAULT_255_1_388
10
22.0148932
20
29.2735312
40
0.5528904
50
139.6259579
51
156.0379072
0
ARC
8
DEFAULT_255_1_388
10
21.9485466
20
29.3269143
40
0.4677708
50
122.6414784
51
139.3431662
0
ARC
8
DEFAULT_255_1_388
10
21.9598721
20
29.3062787
40
0.4912586
50
93.0224537
51
122.4556091
0
ARC
8
DEFAULT_255_1_388
10
21.9720242
20
29.1976776
40
0.6003837
50
89.9756766
51
93.6340839
0
ARC
8
DEFAULT_255_1_388
10
21.9763839
20
29.2425879
40
0.5554884
50
73.7463329
51
90.4234008
0
ARC
8
DEFAULT_255_1_388
10
21.9961313
20
29.3190772
40
0.4765353
50
57.663051
51
73.4516911
0
ARC
8
DEFAULT_255_1_388
10
21.995235
20
29.3215108
40
0.4749629
50
29.1441355
51
57.4146687
0
ARC
8
DEFAULT_255_1_388
10
21.8900162
20
29.2558046
40
0.5988917
50
24.0985653
51
29.732054
0
ARC
8
DEFAULT_255_1_388
10
21.7737793
20
29.2076154
40
0.7246823
50
8.6654943
51
23.8241215
0
ARC
8
DEFAULT_255_1_388
10
21.5224212
20
29.1666037
40
0.9793537
50
359.7807044
51
8.8218476
0
ARC
8
DEFAULT_255_1_388
10
21.3933916
20
29.1694731
40
0.9358078
50
359.7054632
51
8.0359751
0
ARC
8
DEFAULT_255_1_388
10
21.7308968
20
29.2186252
40
0.5947474
50
7.8926278
51
20.2962188
0
ARC
8
DEFAULT_255_1_388
10
21.9139818
20
29.2861367
40
0.3996117
50
20.3231056
51
36.4990255
0
ARC
8
DEFAULT_255_1_388
10
21.9911115
20
29.3455399
40
0.3022818
50
36.1436715
51
85.6627846
0
ARC
8
DEFAULT_255_1_388
10
21.9728371
20
29.2285881
40
0.4203853
50
84.3845912
51
90.076054
0
ARC
8
DEFAULT_255_1_388
10
21.9680725
20
29.3028416
40
0.346157
50
89.3037228
51
109.9046209
0
ARC
8
DEFAULT_255_1_388
10
21.9576558
20
29.3458379
40
0.3022217
50
110.8229774
51
143.917961
0
ARC
8
DEFAULT_255_1_388
10
22.0626918
20
29.2656455
40
0.434348
50
143.5289166
51
163.2980252
0
ARC
8
DEFAULT_255_1_388
10
22.2773205
20
29.1981685
40
0.659321
50
163.0418884
51
174.3139873
0
ARC
8
DEFAULT_255_1_388
10
22.547817
20
29.1669378
40
0.9315905
50
174.050934
51
179.4174954
0
ARC
8
DEFAULT_255_1_388
10
22.4910114
20
29.0750382
40
0.8747493
50
179.6928582
51
188.7908948
0
ARC
8
DEFAULT_255_1_388
10
22.1913913
20
29.0271086
40
0.5713262
50
188.6328449
51
202.5630732
0
ARC
8
DEFAULT_255_1_388
10
22.050275
20
28.9704142
40
0.4192612
50
202.8078931
51
216.1195888
0
ARC
8
DEFAULT_255_1_388
10
21.9592267
20
28.8971479
40
0.3025752
50
215.0755613
51
264.6379773
0
ARC
8
DEFAULT_255_1_388
10
21.9735105
20
28.9906376
40
0.3970284
50
263.8464302
51
270.0830805
0
ARC
8
DEFAULT_255_1_388
10
21.978165
20
28.9615808
40
0.3679937
50
269.3649295
51
287.5149684
0
ARC
8
DEFAULT_255_1_388
10
21.998209
20
28.8887714
40
0.2925408
50
288.0629019
51
323.8115617
0
ARC
8
DEFAULT_255_1_388
10
21.9002067
20
28.9618754
40
0.4148018
50
323.6546541
51
342.6591359
0
ARC
8
DEFAULT_255_1_388
10
21.6716724
20
29.036228
40
0.6551163
50
342.4092446
51
353.6451501
0
ARC
8
DEFAULT_255_1_388
10
21.3531518
20
29.0758565
40
0.9760748
50
353.4027553
51
359.4846611
0
LINE
8
DEFAULT_255_1_388
10
23.1261309
20
28.4644
11
22.7619944
21
28.4644
0
LINE
8
DEFAULT_255_1_388
10
22.7619944
20
28.4644
11
22.7619944
21
29.7799898
0
LINE
8
DEFAULT_255_1_388
10
22.7619944
20
29.7799898
11
23.1333594
21
29.7799898
0
LINE
8
DEFAULT_255_1_388
10
23.7134478
20
29.1664696
11
23.7134478
21
29.0824381
0
LINE
8
DEFAULT_255_1_388
10
23.1378772
20
29.6372267
11
22.9354788
21
29.6372267
0
LINE
8
DEFAULT_255_1_388
10
22.9354788
20
29.6372267
11
22.9354788
21
28.6062596
0
LINE
8
DEFAULT_255_1_388
10
22.9354788
20
28.6062596
11
23.1179988
21
28.6062596
0
LINE
8
DEFAULT_255_1_388
10
23.5417705
20
29.0860523
11
23.5417705
21
29.1628553
0
ARC
8
DEFAULT_255_1_388
10
23.1377389
20
29.1201436
40
0.6598608
50
75.4100343
51
90.3802731
0
ARC
8
DEFAULT_255_1_388
10
23.1635634
20
29.2277691
40
0.5492049
50
60.1455157
51
75.1889627
0
ARC
8
DEFAULT_255_1_388
10
23.1814225
20
29.2588914
40
0.5133226
50
26.525419
51
60.1451222
0
ARC
8
DEFAULT_255_1_388
10
23.0554012
20
29.1920642
40
0.6559324
50
7.4029944
51
26.832209
0
ARC
8
DEFAULT_255_1_388
10
22.8760409
20
29.1641229
40
0.8374103
50
0.1605597
51
7.7176135
0
ARC
8
DEFAULT_255_1_388
10
22.8944809
20
29.0781321
40
0.8189782
50
348.7289744
51
0.30125
0
ARC
8
DEFAULT_255_1_388
10
23.0808273
20
29.0411156
40
0.628991
50
333.0706936
51
348.7181455
0
ARC
8
DEFAULT_255_1_388
10
23.1895901
20
28.9820449
40
0.5052808
50
299.2531435
51
333.4571133
0
ARC
8
DEFAULT_255_1_388
10
23.1489932
20
29.0591629
40
0.5924066
50
278.1072193
51
299.0340218
0
ARC
8
DEFAULT_255_1_388
10
23.1201981
20
29.2287979
40
0.7644209
50
270.4446841
51
278.4508355
0
ARC
8
DEFAULT_255_1_388
10
23.1225464
20
29.12423
40
0.5179903
50
269.4969684
51
284.0204874
0
ARC
8
DEFAULT_255_1_388
10
23.1625183
20
28.9706415
40
0.3592968
50
283.7699076
51
318.1557121
0
ARC
8
DEFAULT_255_1_388
10
23.1245728
20
28.9990399
40
0.4065308
50
318.7417595
51
343.687252
0
ARC
8
DEFAULT_255_1_388
10
22.9216307
20
29.0624275
40
0.6191194
50
343.3324891
51
355.8548594
0
ARC
8
DEFAULT_255_1_388
10
22.6855344
20
29.0848719
40
0.856237
50
355.4988754
51
0.0789913
0
ARC
8
DEFAULT_255_1_388
10
22.7736144
20
29.167608
40
0.7681709
50
359.6455047
51
9.8607559
0
ARC
8
DEFAULT_255_1_388
10
23.0391867
20
29.2155664
40
0.498312
50
9.6573037
51
26.1931522
0
ARC
8
DEFAULT_255_1_388
10
23.1435942
20
29.2640587
40
0.3832303
50
26.5777895
51
40.1533752
0
ARC
8
DEFAULT_255_1_388
10
23.1723607
20
29.286502
40
0.3467742
50
40.3839958
51
80.1430923
0
ARC
8
DEFAULT_255_1_388
10
23.1355862
20
29.1234486
40
0.5137832
50
79.2153636
51
89.7445174
0
LINE
8
DEFAULT_255_1_388
10
24.2971504
20
29.0914737
11
24.2971504
21
28.9550355
0
LINE
8
DEFAULT_255_1_388
10
24.2971504
20
28.9550355
11
23.8562109
21
28.9550355
0
LINE
8
DEFAULT_255_1_388
10
23.8562109
20
28.9550355
11
23.8562109
21
29.0914737
0
LINE
8
DEFAULT_255_1_388
10
23.8562109
20
29.0914737
11
24.2971504
21
29.0914737
0
ENDSEC
0
EOF