0
SECTION
2
HEADER
9
$MEASUREMENT
70
1
0
ENDSEC
0
SECTION
2
TABLES
0
TABLE
2
LTYPE
0
LTYPE
72
65
70
64
2
CONTINUOUS
3
______
73
0
40
0
0
ENDTAB
0
TABLE
2
LAYER
0
LAYER
2
DEFAULT_255_2_778
70
0
62
255
6
CONTINUOUS
0
ENDTAB
0
ENDSEC
0
SECTION
2
ENTITIES
0
ARC
8
DEFAULT_255_2_778
10
99.0640531
20
112.4343271
40
1.4385811
50
74.7661035
51
90.0039177
0
ARC
8
DEFAULT_255_2_778
10
99.0638561
20
112.4343297
40
1.4385785
50
89.9960713
51
105.2339138
0
ARC
8
DEFAULT_255_2_778
10
99.0745695
20
112.4456047
40
1.4223602
50
344.6447015
51
359.9981281
0
ARC
8
DEFAULT_255_2_778
10
99.0745695
20
112.4455117
40
1.4223602
50
0.0018719
51
15.3552985
0
ARC
8
DEFAULT_255_2_778
10
99.0560913
20
112.4457196
40
0.9228116
50
166.6396352
51
180.0007071
0
ARC
8
DEFAULT_255_2_778
10
99.0560913
20
112.4456968
40
0.9228116
50
179.9992929
51
193.3603648
0
ARC
8
DEFAULT_255_2_778
10
99.0533399
20
112.4456047
40
1.4223602
50
180.0018719
51
195.3552985
0
ARC
8
DEFAULT_255_2_778
10
99.0533399
20
112.4455117
40
1.4223602
50
164.6447015
51
179.9981281
0
ARC
8
DEFAULT_255_2_778
10
99.0636354
20
112.4403759
40
0.9318823
50
89.998046
51
103.2748208
0
ARC
8
DEFAULT_255_2_778
10
99.0641275
20
112.7662433
40
0.6060151
50
89.8693677
51
90.0435188
0
ARC
8
DEFAULT_255_2_778
10
99.0636628
20
112.4394215
40
0.9328367
50
76.7319948
51
89.8865941
0
ARC
8
DEFAULT_255_2_778
10
99.0717556
20
112.445169
40
0.9225742
50
346.6379087
51
0.0001059
0
ARC
8
DEFAULT_255_2_778
10
99.1230746
20
112.445264
40
0.8712551
50
359.9938617
51
0.1166294
0
ARC
8
DEFAULT_255_2_778
10
99.0707936
20
112.4451341
40
0.9235362
50
0.1180903
51
13.3551402
0
ARC
8
DEFAULT_255_2_778
10
99.063974
20
112.4499405
40
0.9318823
50
269.998046
51
283.2748208
0
ARC
8
DEFAULT_255_2_778
10
99.0634819
20
112.1240731
40
0.6060151
50
269.8693677
51
270.0435188
0
ARC
8
DEFAULT_255_2_778
10
99.0639466
20
112.4508949
40
0.9328367
50
256.7319948
51
269.8865941
0
ARC
8
DEFAULT_255_2_778
10
99.0641584
20
112.4539743
40
1.4365411
50
254.7438584
51
269.949183
0
LINE
8
DEFAULT_255_2_778
10
99.0628843
20
111.0174338
11
99.0642422
21
111.0174332
0
ARC
8
DEFAULT_255_2_778
10
99.0643613
20
112.4531492
40
1.435716
50
269.9952468
51
285.2605592
0
ARC
8
DEFAULT_255_2_778
10
99.0639535
20
112.4487215
40
3.9910006
50
164.5470103
51
180.0554619
0
ARC
8
DEFAULT_255_2_778
10
99.0282655
20
112.4542903
40
3.9551212
50
137.3291435
51
164.4870157
0
ARC
8
DEFAULT_255_2_778
10
99.0497338
20
112.4388238
40
3.9813902
50
108.1183087
51
137.374893
0
ARC
8
DEFAULT_255_2_778
10
99.0567897
20
112.407421
40
4.0134314
50
92.2282074
51
108.0746292
0
ARC
8
DEFAULT_255_2_778
10
99.0640191
20
112.3061612
40
4.1148969
50
89.9981124
51
92.2739763
0
ARC
8
DEFAULT_255_2_778
10
99.0680123
20
112.3848005
40
4.0362595
50
75.0141322
51
90.0547591
0
ARC
8
DEFAULT_255_2_778
10
99.080752
20
112.4427929
40
3.9769461
50
50.5816745
51
74.9753882
0
ARC
8
DEFAULT_255_2_778
10
99.0908105
20
112.4492263
40
3.9655908
50
17.4504649
51
50.6349226
0
ARC
8
DEFAULT_255_2_778
10
99.0776416
20
112.4507391
40
3.9777037
50
1.316406
51
17.3727937
0
ARC
8
DEFAULT_255_2_778
10
98.9789951
20
112.4449042
40
4.0764596
50
359.9993531
51
1.3665421
0
ARC
8
DEFAULT_255_2_778
10
99.0647623
20
112.4409971
40
3.9906943
50
344.5463931
51
0.0554348
0
ARC
8
DEFAULT_255_2_778
10
99.1002808
20
112.4354807
40
3.9549921
50
317.3280223
51
344.486312
0
ARC
8
DEFAULT_255_2_778
10
99.0786459
20
112.4511025
40
3.9814888
50
288.1175144
51
317.37376
0
ARC
8
DEFAULT_255_2_778
10
99.0715256
20
112.4826859
40
4.0137216
50
272.2280663
51
288.0739169
0
ARC
8
DEFAULT_255_2_778
10
99.0642903
20
112.5840196
40
4.1152613
50
269.9981124
51
272.2738756
0
ARC
8
DEFAULT_255_2_778
10
99.0603022
20
112.5047505
40
4.0359942
50
255.0136607
51
270.0546908
0
ARC
8
DEFAULT_255_2_778
10
99.047632
20
112.4469879
40
3.9769207
50
230.5455338
51
254.974797
0
ARC
8
DEFAULT_255_2_778
10
99.0375429
20
112.440552
40
3.9655418
50
197.4385056
51
230.5989984
0
ARC
8
DEFAULT_255_2_778
10
99.0505759
20
112.4389922
40
3.9775121
50
181.3156074
51
197.360807
0
ARC
8
DEFAULT_255_2_778
10
99.1487995
20
112.4448124
40
4.0758449
50
179.9993567
51
181.365701
0
ARC
8
DEFAULT_255_2_778
10
99.0608861
20
112.4485916
40
3.4881334
50
163.4803869
51
180.0613252
0
ARC
8
DEFAULT_255_2_778
10
99.0486637
20
112.4440349
40
3.4777199
50
109.5982482
51
163.3511552
0
ARC
8
DEFAULT_255_2_778
10
99.0569795
20
112.4163745
40
3.5065675
50
92.4143279
51
109.5746561
0
ARC
8
DEFAULT_255_2_778
10
99.0640173
20
112.3243009
40
3.5988571
50
89.9978121
51
92.464524
0
ARC
8
DEFAULT_255_2_778
10
99.0680258
20
112.3970787
40
3.5260817
50
73.6009958
51
90.0629021
0
ARC
8
DEFAULT_255_2_778
10
99.0775234
20
112.4404643
40
3.481781
50
43.6777346
51
73.5493631
0
ARC
8
DEFAULT_255_2_778
10
99.0953833
20
112.4532041
40
3.4600673
50
14.671617
51
43.7294025
0
ARC
8
DEFAULT_255_2_778
10
99.0610474
20
112.4479798
40
3.4946088
50
359.9488202
51
14.611896
0
ARC
8
DEFAULT_255_2_778
10
99.0678308
20
112.4411269
40
3.4878259
50
343.4796192
51
0.0612949
0
ARC
8
DEFAULT_255_2_778
10
99.0797788
20
112.4457965
40
3.4777079
50
289.5968956
51
343.3498883
0
ARC
8
DEFAULT_255_2_778
10
99.0713375
20
112.4737167
40
3.5068421
50
272.4141433
51
289.5738236
0
ARC
8
DEFAULT_255_2_778
10
99.0642922
20
112.5658842
40
3.5992258
50
269.9978121
51
272.464396
0
ARC
8
DEFAULT_255_2_778
10
99.0602898
20
112.4924843
40
3.5258282
50
253.6004371
51
270.0628055
0
ARC
8
DEFAULT_255_2_778
10
99.0508664
20
112.4493256
40
3.4817662
50
223.677678
51
253.5486816
0
ARC
8
DEFAULT_255_2_778
10
99.0329831
20
112.4365832
40
3.4600338
50
194.6722841
51
223.7295822
0
ARC
8
DEFAULT_255_2_778
10
99.0670831
20
112.4417391
40
3.4943296
50
179.9488565
51
194.6124452
0
ARC
8
DEFAULT_255_2_778
10
99.0564198
20
112.4485613
40
2.9923674
50
161.7027598
51
180.0709037
0
ARC
8
DEFAULT_255_2_778
10
99.0513083
20
112.4430898
40
2.9892398
50
105.176999
51
161.5724311
0
ARC
8
DEFAULT_255_2_778
10
99.0610079
20
112.3998002
40
3.0335595
50
89.944343
51
105.1397532
0
ARC
8
DEFAULT_255_2_778
10
99.0676614
20
112.4082009
40
3.0251596
50
72.1871759
51
90.0702036
0
ARC
8
DEFAULT_255_2_778
10
99.077096
20
112.4436776
40
2.9884981
50
15.7534311
51
72.1513183
0
ARC
8
DEFAULT_255_2_778
10
99.0656872
20
112.4477955
40
2.9983689
50
359.9438717
51
15.6185092
0
ARC
8
DEFAULT_255_2_778
10
99.0723566
20
112.4411777
40
2.9917004
50
341.7006078
51
0.0704869
0
ARC
8
DEFAULT_255_2_778
10
99.076613
20
112.4469776
40
2.9894881
50
285.177137
51
341.569455
0
ARC
8
DEFAULT_255_2_778
10
99.066904
20
112.4902619
40
3.0338051
50
269.9443003
51
285.1400905
0
ARC
8
DEFAULT_255_2_778
10
99.0602062
20
112.4821457
40
3.0256898
50
252.1893665
51
270.0709843
0
ARC
8
DEFAULT_255_2_778
10
99.0504109
20
112.4455006
40
2.9878056
50
195.746303
51
252.1532599
0
ARC
8
DEFAULT_255_2_778
10
99.0632104
20
112.441905
40
2.9991571
50
179.943583
51
195.6138324
0
ARC
8
DEFAULT_255_2_778
10
99.0560652
20
112.4484495
40
2.8459128
50
161.3477257
51
180.0723022
0
ARC
8
DEFAULT_255_2_778
10
99.0525527
20
112.4428839
40
2.8443719
50
103.9756967
51
161.2188739
0
ARC
8
DEFAULT_255_2_778
10
99.0616891
20
112.3988466
40
2.8893127
50
89.9511065
51
103.9406074
0
ARC
8
DEFAULT_255_2_778
10
99.0679177
20
112.411213
40
2.8769477
50
71.4860021
51
90.0749412
0
ARC
8
DEFAULT_255_2_778
10
99.0776442
20
112.4451588
40
2.8416706
50
14.1712929
51
71.454632
0
ARC
8
DEFAULT_255_2_778
10
99.0595976
20
112.4472715
40
2.8586583
50
359.9516303
51
14.0416825
0
ARC
8
DEFAULT_255_2_778
10
99.0721175
20
112.4412406
40
2.8461395
50
341.3484087
51
0.0728251
0
ARC
8
DEFAULT_255_2_778
10
99.0761627
20
112.4466769
40
2.8440528
50
283.969682
51
341.2185808
0
ARC
8
DEFAULT_255_2_778
10
99.0666284
20
112.4918174
40
2.8901604
50
269.9509614
51
283.9370708
0
ARC
8
DEFAULT_255_2_778
10
99.0603993
20
112.4783615
40
2.8767057
50
251.4852667
51
270.0747962
0
ARC
8
DEFAULT_255_2_778
10
99.0507558
20
112.4446468
40
2.8416743
50
194.1723161
51
251.4537793
0
ARC
8
DEFAULT_255_2_778
10
99.0685315
20
112.4424471
40
2.8583777
50
179.9516701
51
194.0423263
0
LINE
8
DEFAULT_255_2_778
10
99.4565547
20
113.1910582
11
99.4420547
21
113.8223582
0
LINE
8
DEFAULT_255_2_778
10
98.6858547
20
113.8223582
11
98.6712547
21
113.1910582
0
LINE
8
DEFAULT_255_2_778
10
98.5651547
20
111.9487582
11
98.6712547
21
111.6998582
0
LINE
8
DEFAULT_255_2_778
10
99.4420547
20
113.8223582
11
99.2779547
21
113.3476582
0
LINE
8
DEFAULT_255_2_778
10
98.8498547
20
113.3476582
11
98.6858547
21
113.8223582
0
LINE
8
DEFAULT_255_2_778
10
97.6817547
20
112.8221582
11
98.1582547
21
112.6586582
0
LINE
8
DEFAULT_255_2_778
10
98.1582547
20
112.2321582
11
97.6817547
21
112.0686582
0
LINE
8
DEFAULT_255_2_778
10
98.6858547
20
111.0685582
11
98.8498547
21
111.5431582
0
LINE
8
DEFAULT_255_2_778
10
99.2779547
20
111.5431582
11
99.4420547
21
111.0685582
0
LINE
8
DEFAULT_255_2_778
10
100.4461547
20
112.0686582
11
99.9695547
21
112.2321582
0
LINE
8
DEFAULT_255_2_778
10
99.9695547
20
112.6586582
11
100.4461547
21
112.8221582
0
LINE
8
DEFAULT_255_2_778
10
98.8498547
20
113.1558582
11
98.6715547
21
113.1912582
0
LINE
8
DEFAULT_255_2_778
10
98.6715547
20
113.1912582
11
98.5654547
21
112.9423582
0
LINE
8
DEFAULT_255_2_778
10
99.8124547
20
112.0546582
11
100.4461547
21
112.0689582
0
LINE
8
DEFAULT_255_2_778
10
100.4461547
20
112.8221582
11
99.8124547
21
112.8364582
0
LINE
8
DEFAULT_255_2_778
10
98.7038547
20
112.8041582
11
98.5654547
21
112.9420582
0
LINE
8
DEFAULT_255_2_778
10
98.5654547
20
112.9420582
11
98.3154547
21
112.8364582
0
LINE
8
DEFAULT_255_2_778
10
99.4240547
20
112.0866582
11
99.5624547
21
111.9487582
0
LINE
8
DEFAULT_255_2_778
10
99.5624547
20
111.9487582
11
99.4563547
21
111.6998582
0
LINE
8
DEFAULT_255_2_778
10
99.4563547
20
111.6998582
11
99.2779547
21
111.7352582
0
LINE
8
DEFAULT_255_2_778
10
99.4240547
20
112.8044582
11
99.7767547
21
112.6589582
0
LINE
8
DEFAULT_255_2_778
10
98.7035547
20
112.0869582
11
98.3508547
21
112.2324582
0
LINE
8
DEFAULT_255_2_778
10
98.3508547
20
112.6589582
11
98.1582547
21
112.6589582
0
LINE
8
DEFAULT_255_2_778
10
98.1582547
20
112.2324582
11
98.3508547
21
112.2324582
0
LINE
8
DEFAULT_255_2_778
10
98.3508547
20
112.2324582
11
98.3154547
21
112.0546582
0
LINE
8
DEFAULT_255_2_778
10
98.3154547
20
112.0546582
11
97.6817547
21
112.0689582
0
LINE
8
DEFAULT_255_2_778
10
97.6817547
20
112.8221582
11
98.3154547
21
112.8364582
0
LINE
8
DEFAULT_255_2_778
10
98.3154547
20
112.8364582
11
98.3508547
21
112.6586582
0
LINE
8
DEFAULT_255_2_778
10
98.3508547
20
112.6586582
11
98.7035547
21
112.8041582
0
LINE
8
DEFAULT_255_2_778
10
98.7035547
20
112.8041582
11
98.8496547
21
113.1555582
0
LINE
8
DEFAULT_255_2_778
10
98.8496547
20
113.1555582
11
98.8496547
21
113.3473582
0
LINE
8
DEFAULT_255_2_778
10
99.2777547
20
113.3473582
11
99.2777547
21
113.1555582
0
LINE
8
DEFAULT_255_2_778
10
99.2777547
20
113.1555582
11
99.4560547
21
113.1910582
0
LINE
8
DEFAULT_255_2_778
10
99.4560547
20
113.1910582
11
99.5621547
21
112.9420582
0
LINE
8
DEFAULT_255_2_778
10
99.5621547
20
112.9420582
11
99.4237547
21
112.8041582
0
LINE
8
DEFAULT_255_2_778
10
99.4237547
20
112.8041582
11
99.2777547
21
113.1555582
0
LINE
8
DEFAULT_255_2_778
10
99.7767547
20
112.2319582
11
99.9693547
21
112.2319582
0
LINE
8
DEFAULT_255_2_778
10
99.9693547
20
112.6584582
11
99.7767547
21
112.6584582
0
LINE
8
DEFAULT_255_2_778
10
99.7767547
20
112.6584582
11
99.8121547
21
112.8362582
0
LINE
8
DEFAULT_255_2_778
10
99.8121547
20
112.8362582
11
99.5621547
21
112.9417582
0
LINE
8
DEFAULT_255_2_778
10
98.8496547
20
111.7347582
11
98.7035547
21
112.0861582
0
LINE
8
DEFAULT_255_2_778
10
98.7035547
20
112.0861582
11
98.5651547
21
111.9482582
0
LINE
8
DEFAULT_255_2_778
10
98.5651547
20
111.9482582
11
98.3151547
21
112.0538582
0
LINE
8
DEFAULT_255_2_778
10
99.5621547
20
111.9482582
11
99.8121547
21
112.0538582
0
LINE
8
DEFAULT_255_2_778
10
99.8121547
20
112.0538582
11
99.7767547
21
112.2316582
0
LINE
8
DEFAULT_255_2_778
10
99.7767547
20
112.2316582
11
99.4240547
21
112.0861582
0
LINE
8
DEFAULT_255_2_778
10
99.4240547
20
112.0861582
11
99.2779547
21
111.7347582
0
LINE
8
DEFAULT_255_2_778
10
99.2779547
20
111.7347582
11
99.2779547
21
111.5429582
0
LINE
8
DEFAULT_255_2_778
10
98.8498547
20
111.5429582
11
98.8498547
21
111.7347582
0
LINE
8
DEFAULT_255_2_778
10
98.8498547
20
111.7347582
11
98.6715547
21
111.6992582
0
LINE
8
DEFAULT_255_2_778
10
98.6715547
20
111.6992582
11
98.6861547
21
111.0680582
0
LINE
8
DEFAULT_255_2_778
10
99.4422547
20
111.0680582
11
99.4568547
21
111.6992582
0
LINE
8
DEFAULT_255_2_778
10
95.0729547
20
112.4448582
11
95.0729547
21
112.4448582
0
LINE
8
DEFAULT_255_2_778
10
95.5727547
20
112.4448582
11
95.5727547
21
112.4448582
0
LINE
8
DEFAULT_255_2_778
10
96.0640547
20
112.4448582
11
96.0640547
21
112.4448582
0
LINE
8
DEFAULT_255_2_778
10
96.2101547
20
112.4448582
11
96.2101547
21
112.4448582
0
ARC
8
DEFAULT_255_2_778
10
84.0138948
20
73.0495039
40
1.7019927
50
153.608451
51
180.1084694
0
ARC
8
DEFAULT_255_2_778
10
84.0198352
20
73.0439194
40
1.7097978
50
100.3161893
51
153.5293006
0
ARC
8
DEFAULT_255_2_778
10
84.0254933
20
73.0099916
40
1.7441904
50
89.9700432
51
100.2994631
0
ARC
8
DEFAULT_255_2_778
10
84.029763
20
73.0342951
40
1.71989
50
64.471039
51
90.1118615
0
ARC
8
DEFAULT_255_2_778
10
84.0364915
20
73.0481406
40
1.7044965
50
8.3757838
51
64.4745547
0
ARC
8
DEFAULT_255_2_778
10
84.0115386
20
73.0468925
40
1.7293667
50
359.9797661
51
8.2962688
0
ARC
8
DEFAULT_255_2_778
10
84.0391494
20
73.0430854
40
1.7017588
50
333.5834375
51
0.1076195
0
ARC
8
DEFAULT_255_2_778
10
84.0327925
20
73.0488375
40
1.7100126
50
280.3166425
51
333.5055924
0
ARC
8
DEFAULT_255_2_778
10
84.0273099
20
73.0821402
40
1.7437588
50
269.9702754
51
280.29791
0
ARC
8
DEFAULT_255_2_778
10
84.0230367
20
73.0582566
40
1.7198781
50
244.4696323
51
270.1122175
0
ARC
8
DEFAULT_255_2_778
10
84.0163447
20
73.0444362
40
1.7045229
50
188.3753431
51
244.4723951
0
ARC
8
DEFAULT_255_2_778
10
84.0412566
20
73.0456774
40
1.7293514
50
179.9799739
51
188.2958049
0
ARC
8
DEFAULT_255_2_778
10
84.0139909
20
73.0494006
40
1.5750887
50
152.1833845
51
180.1134512
0
ARC
8
DEFAULT_255_2_778
10
84.0204235
20
73.043939
40
1.5833277
50
99.7117828
51
152.1172081
0
ARC
8
DEFAULT_255_2_778
10
84.0256459
20
73.0114486
40
1.6162336
50
89.9730822
51
99.6999653
0
ARC
8
DEFAULT_255_2_778
10
84.0297032
20
73.0362429
40
1.5914423
50
63.0757727
51
90.118737
0
ARC
8
DEFAULT_255_2_778
10
84.0361035
20
73.0482543
40
1.5778349
50
7.9330788
51
63.0854897
0
ARC
8
DEFAULT_255_2_778
10
84.011514
20
73.0467976
40
1.6023913
50
359.9815584
51
7.8633185
0
ARC
8
DEFAULT_255_2_778
10
84.0389121
20
73.0431842
40
1.5749961
50
332.1825528
51
0.1126864
0
ARC
8
DEFAULT_255_2_778
10
84.0323049
20
73.0487036
40
1.5834165
50
279.7142442
51
332.1174838
0
ARC
8
DEFAULT_255_2_778
10
84.0271634
20
73.0809215
40
1.61604
50
269.9731186
51
279.7011789
0
ARC
8
DEFAULT_255_2_778
10
84.0231166
20
73.0562073
40
1.5913289
50
243.0733183
51
270.1184058
0
ARC
8
DEFAULT_255_2_778
10
84.0168096
20
73.0444007
40
1.5779462
50
187.9350803
51
243.0833612
0
ARC
8
DEFAULT_255_2_778
10
84.041016
20
73.0457681
40
1.6021109
50
179.9816293
51
187.8640064
0
LINE
8
DEFAULT_255_2_778
10
82.3119052
20
73.0462818
11
82.3119052
21
73.0462818
0
LINE
8
DEFAULT_255_2_778
10
82.4389052
20
73.0462818
11
82.4389052
21
73.0462818
0
ARC
8
DEFAULT_255_2_778
10
129.5514163
20
21.2940089
40
1.4206059
50
180.0013205
51
195.3762457
0
ARC
8
DEFAULT_255_2_778
10
129.5514163
20
21.2939434
40
1.4206059
50
164.6237543
51
179.9986795
0
ARC
8
DEFAULT_255_2_778
10
129.5762044
20
21.2937089
40
1.4206059
50
344.6237543
51
359.9986795
0
ARC
8
DEFAULT_255_2_778
10
129.5762044
20
21.2936434
40
1.4206059
50
0.0013205
51
15.3762457
0
ARC
8
DEFAULT_255_2_778
10
129.5639521
20
21.284478
40
1.4365732
50
74.7440216
51
90.003661
0
ARC
8
DEFAULT_255_2_778
10
129.5637686
20
21.284478
40
1.4365732
50
89.9963393
51
105.2559783
0
ARC
8
DEFAULT_255_2_778
10
129.5638031
20
21.2850683
40
0.9352829
50
76.7695047
51
89.9995539
0
ARC
8
DEFAULT_255_2_778
10
129.5638176
20
21.2850683
40
0.9352829
50
90.0004461
51
103.2304953
0
ARC
8
DEFAULT_255_2_778
10
129.5638176
20
21.3017841
40
0.9352829
50
256.7695047
51
269.9995539
0
ARC
8
DEFAULT_255_2_778
10
129.5638031
20
21.3017841
40
0.9352829
50
270.0004461
51
283.2304953
0
ARC
8
DEFAULT_255_2_778
10
129.5636521
20
21.3023744
40
1.4365732
50
269.9963393
51
285.2559783
0
ARC
8
DEFAULT_255_2_778
10
129.5634686
20
21.3023747
40
1.4365736
50
254.7440227
51
270.0036579
0
ARC
8
DEFAULT_255_2_778
10
129.5556969
20
21.2932648
40
0.9228116
50
179.9992929
51
193.3603648
0
ARC
8
DEFAULT_255_2_778
10
129.5556969
20
21.2932876
40
0.9228116
50
166.6396352
51
180.0007071
0
ARC
8
DEFAULT_255_2_778
10
129.5719238
20
21.2932648
40
0.9228116
50
346.6396352
51
0.0007071
0
ARC
8
DEFAULT_255_2_778
10
129.5719238
20
21.2932876
40
0.9228116
50
359.9992929
51
13.3603648
0
ARC
8
DEFAULT_255_2_778
10
129.5608441
20
21.2970265
40
3.4529858
50
163.4804344
51
180.0614005
0
ARC
8
DEFAULT_255_2_778
10
129.5486849
20
21.2925132
40
3.4426206
50
109.3449866
51
163.3508776
0
ARC
8
DEFAULT_255_2_778
10
129.5574585
20
21.2627153
40
3.4736428
50
91.9217342
51
109.3187201
0
ARC
8
DEFAULT_255_2_778
10
129.5639799
20
21.1702297
40
3.5662966
50
89.9987077
51
91.9766196
0
ARC
8
DEFAULT_255_2_778
10
129.5678853
20
21.246077
40
3.4904513
50
73.6010883
51
90.0627864
0
ARC
8
DEFAULT_255_2_778
10
129.5771966
20
21.2887748
40
3.4468631
50
43.3975762
51
73.5491917
0
ARC
8
DEFAULT_255_2_778
10
129.5953303
20
21.3017087
40
3.4248023
50
14.5752986
51
43.4487868
0
ARC
8
DEFAULT_255_2_778
10
129.5607876
20
21.296388
40
3.4595742
50
359.9492912
51
14.5166157
0
ARC
8
DEFAULT_255_2_778
10
129.5672718
20
21.2896252
40
3.4530906
50
343.4801852
51
0.0614082
0
ARC
8
DEFAULT_255_2_778
10
129.5794283
20
21.2941513
40
3.4427317
50
289.3446721
51
343.3504416
0
ARC
8
DEFAULT_255_2_778
10
129.5706561
20
21.3239207
40
3.4737266
50
271.9217894
51
289.3185427
0
ARC
8
DEFAULT_255_2_778
10
129.5641408
20
21.4163266
40
3.5663006
50
269.998708
51
271.9766199
0
ARC
8
DEFAULT_255_2_778
10
129.5602301
20
21.3403686
40
3.4903445
50
253.6008093
51
270.0628761
0
ARC
8
DEFAULT_255_2_778
10
129.5508886
20
21.2975539
40
3.4466357
50
223.3957154
51
253.5488377
0
ARC
8
DEFAULT_255_2_778
10
129.5329905
20
21.2848232
40
3.4248854
50
194.5735494
51
223.4466742
0
ARC
8
DEFAULT_255_2_778
10
129.567917
20
21.2902595
40
3.4600579
50
179.9492178
51
194.5151467
0
ARC
8
DEFAULT_255_2_778
10
129.563574
20
21.2971858
40
3.9907155
50
164.5464563
51
180.0554139
0
ARC
8
DEFAULT_255_2_778
10
129.5280807
20
21.3026954
40
3.9550395
50
137.3284942
51
164.4863795
0
ARC
8
DEFAULT_255_2_778
10
129.5496462
20
21.287148
40
3.9814348
50
108.1182012
51
137.3743382
0
ARC
8
DEFAULT_255_2_778
10
129.5566972
20
21.2557589
40
4.0134613
50
92.2282174
51
108.0745177
0
ARC
8
DEFAULT_255_2_778
10
129.5639248
20
21.1545292
40
4.1148969
50
89.9981124
51
92.2739763
0
ARC
8
DEFAULT_255_2_778
10
129.5679164
20
21.2331458
40
4.0362822
50
75.0141966
51
90.0547377
0
ARC
8
DEFAULT_255_2_778
10
129.5806485
20
21.2911124
40
3.9769957
50
50.5820927
51
74.9754432
0
ARC
8
DEFAULT_255_2_778
10
129.5907745
20
21.2976136
40
3.9655453
50
17.4511877
51
50.6354747
0
ARC
8
DEFAULT_255_2_778
10
129.577816
20
21.299201
40
3.977435
50
1.3165189
51
17.3733915
0
ARC
8
DEFAULT_255_2_778
10
129.4792685
20
21.2933722
40
4.0760919
50
359.9993531
51
1.3666041
0
ARC
8
DEFAULT_255_2_778
10
129.5643828
20
21.2894615
40
3.9909794
50
344.5469471
51
0.0554829
0
ARC
8
DEFAULT_255_2_778
10
129.600096
20
21.2838859
40
3.9550738
50
317.3286717
51
344.4869482
0
ARC
8
DEFAULT_255_2_778
10
129.5785583
20
21.2994266
40
3.9814441
50
288.1176219
51
317.3743147
0
ARC
8
DEFAULT_255_2_778
10
129.5714331
20
21.3310238
40
4.0136916
50
272.2280563
51
288.0740283
0
ARC
8
DEFAULT_255_2_778
10
129.5641959
20
21.4323876
40
4.1152613
50
269.9981124
51
272.2738756
0
ARC
8
DEFAULT_255_2_778
10
129.5602064
20
21.3530958
40
4.0359715
50
255.0135962
51
270.0547122
0
ARC
8
DEFAULT_255_2_778
10
129.5475286
20
21.2953076
40
3.9768713
50
230.5451163
51
254.974742
0
ARC
8
DEFAULT_255_2_778
10
129.5375055
20
21.2889386
40
3.9655858
50
197.4377795
51
230.598456
0
ARC
8
DEFAULT_255_2_778
10
129.5507481
20
21.2874539
40
3.9777785
50
181.3154921
51
197.3602165
0
ARC
8
DEFAULT_255_2_778
10
129.6490478
20
21.2932803
40
4.0761876
50
179.9993545
51
181.3656453
0
ARC
8
DEFAULT_255_2_778
10
129.5605121
20
21.2970554
40
3.4878538
50
163.4797203
51
180.0612612
0
ARC
8
DEFAULT_255_2_778
10
129.5485501
20
21.2923985
40
3.4777186
50
109.5979212
51
163.3501256
0
ARC
8
DEFAULT_255_2_778
10
129.5568868
20
21.2647173
40
3.5065927
50
92.414338
51
109.5745384
0
ARC
8
DEFAULT_255_2_778
10
129.5639229
20
21.1726689
40
3.5988571
50
89.9978121
51
92.464524
0
ARC
8
DEFAULT_255_2_778
10
129.5679294
20
21.2454183
40
3.5261099
50
73.6010966
51
90.0628685
0
ARC
8
DEFAULT_255_2_778
10
129.5774207
20
21.2887852
40
3.4818291
50
43.6783636
51
73.549453
0
ARC
8
DEFAULT_255_2_778
10
129.5953773
20
21.3016086
40
3.4599878
50
14.6723576
51
43.7301426
0
ARC
8
DEFAULT_255_2_778
10
129.5612441
20
21.2964445
40
3.4943177
50
359.9488689
51
14.6125091
0
ARC
8
DEFAULT_255_2_778
10
129.5674568
20
21.2895907
40
3.4881055
50
343.4802858
51
0.0613589
0
ARC
8
DEFAULT_255_2_778
10
129.5796652
20
21.2941602
40
3.4777092
50
289.5972226
51
343.3509178
0
ARC
8
DEFAULT_255_2_778
10
129.5712448
20
21.3220595
40
3.5068168
50
272.4141332
51
289.5739413
0
ARC
8
DEFAULT_255_2_778
10
129.5641978
20
21.4142522
40
3.5992258
50
269.9978121
51
272.464396
0
ARC
8
DEFAULT_255_2_778
10
129.5601934
20
21.340824
40
3.5257999
50
253.6003364
51
270.062839
0
ARC
8
DEFAULT_255_2_778
10
129.5507636
20
21.2976465
40
3.4817181
50
223.677049
51
253.5485916
0
ARC
8
DEFAULT_255_2_778
10
129.5329771
20
21.2849876
40
3.4601134
50
194.6715434
51
223.728842
0
ARC
8
DEFAULT_255_2_778
10
129.5672798
20
21.2902038
40
3.4946207
50
179.9488078
51
194.6118322
0
ARC
8
DEFAULT_255_2_778
10
129.5560559
20
21.2970241
40
2.9920978
50
161.7019295
51
180.0708109
0
ARC
8
DEFAULT_255_2_778
10
129.5512024
20
21.2914454
40
2.989249
50
105.1767201
51
161.5712016
0
ARC
8
DEFAULT_255_2_778
10
129.5609128
20
21.248157
40
3.0335706
50
89.9443291
51
105.1396822
0
ARC
8
DEFAULT_255_2_778
10
129.5675711
20
21.2563965
40
3.025332
50
72.1883063
51
90.0702773
0
ARC
8
DEFAULT_255_2_778
10
129.5771271
20
21.2921436
40
2.9883759
50
15.7539801
51
72.15309
0
ARC
8
DEFAULT_255_2_778
10
129.5656748
20
21.2962671
40
2.9982868
50
359.9438013
51
15.6187239
0
ARC
8
DEFAULT_255_2_778
10
129.5719926
20
21.2896405
40
2.99197
50
341.7014382
51
0.0705797
0
ARC
8
DEFAULT_255_2_778
10
129.5765075
20
21.2953332
40
2.9894786
50
285.1774085
51
341.5706821
0
ARC
8
DEFAULT_255_2_778
10
129.5668089
20
21.3386187
40
3.0337941
50
269.9443142
51
285.1401616
0
ARC
8
DEFAULT_255_2_778
10
129.5601118
20
21.3304978
40
3.025674
50
252.1892702
51
270.0709842
0
ARC
8
DEFAULT_255_2_778
10
129.5503344
20
21.2938642
40
2.9878062
50
195.7450726
51
252.1529028
0
ARC
8
DEFAULT_255_2_778
10
129.563401
20
21.2903694
40
2.9994421
50
179.9435188
51
195.6130872
0
ARC
8
DEFAULT_255_2_778
10
129.5557018
20
21.2969122
40
2.8456437
50
161.3468356
51
180.0722037
0
ARC
8
DEFAULT_255_2_778
10
129.5524542
20
21.2912318
40
2.8443907
50
103.833535
51
161.2174997
0
ARC
8
DEFAULT_255_2_778
10
129.5616347
20
21.2467248
40
2.8898023
50
89.9519065
51
103.7992843
0
ARC
8
DEFAULT_255_2_778
10
129.5678209
20
21.2595517
40
2.8769769
50
71.4861473
51
90.0748931
0
ARC
8
DEFAULT_255_2_778
10
129.5775724
20
21.2935274
40
2.8416637
50
14.172582
51
71.4550638
0
ARC
8
DEFAULT_255_2_778
10
129.5597967
20
21.2957365
40
2.8583648
50
359.9516859
51
14.0424076
0
ARC
8
DEFAULT_255_2_778
10
129.571754
20
21.2897034
40
2.8464086
50
341.3492987
51
0.0729235
0
ARC
8
DEFAULT_255_2_778
10
129.576059
20
21.2950306
40
2.8440407
50
283.9699343
51
341.2198775
0
ARC
8
DEFAULT_255_2_778
10
129.5665348
20
21.3401723
40
2.8901472
50
269.9509454
51
283.9371195
0
ARC
8
DEFAULT_255_2_778
10
129.5603026
20
21.3267002
40
2.8766765
50
251.4851214
51
270.0748442
0
ARC
8
DEFAULT_255_2_778
10
129.550684
20
21.2930154
40
2.8416812
50
194.171027
51
251.4533476
0
ARC
8
DEFAULT_255_2_778
10
129.5687306
20
21.2909121
40
2.8586712
50
179.9516146
51
194.0416013
0
ARC
8
DEFAULT_255_2_778
10
17.3495538
20
118.4026075
40
0.1998813
50
225.0178107
51
270.0018768
0
ARC
8
DEFAULT_255_2_778
10
17.3475689
20
118.4019404
40
0.1980085
50
179.97518
51
225.2876229
0
ARC
8
DEFAULT_255_2_778
10
17.3465476
20
122.98529
40
0.1967887
50
179.157336
51
180.222391
0
ARC
8
DEFAULT_255_2_778
10
17.3465973
20
122.9852968
40
0.1968384
50
134.6516496
51
179.1595324
0
ARC
8
DEFAULT_255_2_778
10
17.3495533
20
122.9839459
40
0.1998801
50
89.9979752
51
134.9823027
0
ARC
8
DEFAULT_255_2_778
10
21.0512616
20
122.9823141
40
0.2012177
50
90.0000645
51
90.4274677
0
ARC
8
DEFAULT_255_2_778
10
21.0512597
20
122.9848514
40
0.1986804
50
45.1578531
51
89.9995221
0
ARC
8
DEFAULT_255_2_778
10
21.0511418
20
122.9850541
40
0.1986199
50
0.0064327
51
45.0925003
0
ARC
8
DEFAULT_255_2_778
10
21.015101
20
122.9851392
40
0.2346608
50
359.8014929
51
359.9846758
0
ARC
8
DEFAULT_255_2_778
10
21.0661502
20
118.4006092
40
0.1833135
50
359.9900246
51
0.3491173
0
ARC
8
DEFAULT_255_2_778
10
21.0575064
20
118.400562
40
0.1919574
50
359.2556215
51
0.004552
0
ARC
8
DEFAULT_255_2_778
10
21.0526913
20
118.4008358
40
0.1967758
50
314.6828188
51
359.1941344
0
ARC
8
DEFAULT_255_2_778
10
21.0497693
20
118.4026443
40
0.200118
50
270.362498
51
314.9135464
0
ARC
8
DEFAULT_255_2_778
10
21.0497603
20
118.4057661
40
0.2032399
50
270.0000017
51
270.3594444
0
ARC
8
DEFAULT_255_2_778
10
21.0586106
20
118.5122288
40
0.8335832
50
271.1926118
51
273.5974698
0
ARC
8
DEFAULT_255_2_778
10
21.0690196
20
118.4181292
40
0.7390295
50
273.2498216
51
291.8157729
0
ARC
8
DEFAULT_255_2_778
10
21.0805695
20
118.3733348
40
0.6931765
50
292.3054308
51
314.993115
0
ARC
8
DEFAULT_255_2_778
10
21.0834494
20
118.3738406
40
0.6915021
50
314.7947344
51
337.5100387
0
ARC
8
DEFAULT_255_2_778
10
21.0283282
20
118.3861332
40
0.7471966
50
338.2559606
51
359.2479622
0
ARC
8
DEFAULT_255_2_778
10
21.075665
20
123.0091822
40
0.201344
50
45.3116208
51
90.0013275
0
ARC
8
DEFAULT_255_2_778
10
21.0771337
20
123.0116937
40
0.198527
50
0.0024775
51
45.1032248
0
ARC
8
DEFAULT_255_2_778
10
21.0988797
20
123.0116083
40
0.1767811
50
359.9085691
51
0.0304749
0
ARC
8
DEFAULT_255_2_778
10
17.3683431
20
118.3859845
40
0.7451454
50
180.7426697
51
201.794643
0
ARC
8
DEFAULT_255_2_778
10
17.3138842
20
118.3726288
40
0.6896648
50
202.4442009
51
225.2161075
0
ARC
8
DEFAULT_255_2_778
10
17.3187415
20
118.3742216
40
0.694221
50
225.0241764
51
247.6772732
0
ARC
8
DEFAULT_255_2_778
10
17.3338337
20
118.4346964
40
0.7559497
50
248.360076
51
269.1682663
0
ARC
8
DEFAULT_255_2_778
10
17.3402322
20
122.8730169
40
0.8353899
50
91.1915432
51
93.2520094
0
ARC
8
DEFAULT_255_2_778
10
17.3303135
20
122.9665283
40
0.7414808
50
92.896712
51
111.7909351
0
ARC
8
DEFAULT_255_2_778
10
17.3178531
20
123.0141654
40
0.6926489
50
112.2966759
51
135.00187
0
ARC
8
DEFAULT_255_2_778
10
17.3138874
20
123.0144213
40
0.6896687
50
134.7839483
51
157.5557269
0
ARC
8
DEFAULT_255_2_778
10
17.3683434
20
123.0010678
40
0.7451456
50
158.2053589
51
179.2573244
0
ARC
8
DEFAULT_255_2_778
10
21.1007628
20
118.3760454
40
0.1751978
50
359.9693948
51
0.0918216
0
ARC
8
DEFAULT_255_2_778
10
21.0775099
20
118.3760266
40
0.1984508
50
314.8468953
51
359.9784088
0
ARC
8
DEFAULT_255_2_778
10
21.0762076
20
118.3776365
40
0.2005108
50
270.037026
51
314.7863046
0
LINE
8
DEFAULT_255_2_778
10
21.0763372
20
118.1771258
11
21.0759603
21
118.1771262
0
ARC
8
DEFAULT_255_2_778
10
17.3229873
20
123.0095917
40
0.2009345
50
89.9791696
51
134.7363667
0
ARC
8
DEFAULT_255_2_778
10
17.3216849
20
123.0115534
40
0.1986249
50
134.8677768
51
179.9575572
0
ARC
8
DEFAULT_255_2_778
10
17.2982571
20
123.0116069
40
0.1751971
50
179.9693948
51
180.0918217
0
ARC
8
DEFAULT_255_2_778
10
17.2982579
20
118.3760454
40
0.1751978
50
179.9081784
51
180.0306052
0
ARC
8
DEFAULT_255_2_778
10
17.3215108
20
118.3760266
40
0.1984508
50
180.0215912
51
225.1531047
0
ARC
8
DEFAULT_255_2_778
10
17.3228131
20
118.3776365
40
0.2005108
50
225.2136954
51
269.962974
0
LINE
8
DEFAULT_255_2_778
10
17.3226835
20
118.1771258
11
17.3230603
21
118.1771262
0
ARC
8
DEFAULT_255_2_778
10
21.0312101
20
123.0016702
40
0.7446129
50
0.7430191
51
21.802543
0
ARC
8
DEFAULT_255_2_778
10
21.0851335
20
123.014922
40
0.6896681
50
22.4442243
51
45.2160231
0
ARC
8
DEFAULT_255_2_778
10
21.0811648
20
123.0146619
40
0.6926534
50
44.998167
51
67.7032148
0
ARC
8
DEFAULT_255_2_778
10
21.0656206
20
122.9550405
40
0.7537593
50
68.3294763
51
89.1988129
0
ARC
8
DEFAULT_255_2_778
10
43.0229541
20
5.2490668
40
2.4514963
50
159.2212975
51
180.0827499
0
ARC
8
DEFAULT_255_2_778
10
43.0243775
20
5.2430579
40
2.4549642
50
101.914032
51
159.1019656
0
ARC
8
DEFAULT_255_2_778
10
43.0323124
20
5.1997117
40
2.499015
50
89.9622159
51
101.8868711
0
ARC
8
DEFAULT_255_2_778
10
43.0376157
20
5.2203922
40
2.4783367
50
69.7239251
51
90.0845077
0
ARC
8
DEFAULT_255_2_778
10
43.0466165
20
5.2470269
40
2.4502332
50
10.1934254
51
69.7055207
0
ARC
8
DEFAULT_255_2_778
10
43.0185274
20
5.2467459
40
2.4779332
50
359.9717977
51
10.0848798
0
ARC
8
DEFAULT_255_2_778
10
43.0444735
20
5.2419523
40
2.4519894
50
339.2453562
51
0.0835118
0
ARC
8
DEFAULT_255_2_778
10
43.043827
20
5.2477094
40
2.4546396
50
281.912619
51
339.1250418
0
ARC
8
DEFAULT_255_2_778
10
43.0356139
20
5.2918796
40
2.4995541
50
269.962096
51
281.8878307
0
ARC
8
DEFAULT_255_2_778
10
43.0303005
20
5.2708078
40
2.4784844
50
249.7252964
51
270.0846048
0
ARC
8
DEFAULT_255_2_778
10
43.021199
20
5.2439292
40
2.4501173
50
190.1922429
51
249.7071388
0
ARC
8
DEFAULT_255_2_778
10
43.0496531
20
5.2443034
40
2.478193
50
179.9717289
51
190.0843497
0
ARC
8
DEFAULT_255_2_778
10
43.0223888
20
5.2489992
40
2.2474312
50
158.1614995
51
180.0885413
0
ARC
8
DEFAULT_255_2_778
10
43.0249993
20
5.2431117
40
2.2520488
50
101.593132
51
158.047166
0
ARC
8
DEFAULT_255_2_778
10
43.0325092
20
5.2017889
40
2.2940378
50
89.9637557
51
101.5694664
0
ARC
8
DEFAULT_255_2_778
10
43.0375459
20
5.2238408
40
2.2719882
50
68.6720324
51
90.0904218
0
ARC
8
DEFAULT_255_2_778
10
43.0460961
20
5.2471793
40
2.2471383
50
9.4853201
51
68.6586784
0
ARC
8
DEFAULT_255_2_778
10
43.0178453
20
5.2465182
40
2.2751153
50
359.9750167
51
9.3844972
0
ARC
8
DEFAULT_255_2_778
10
43.0455319
20
5.2420531
40
2.2474312
50
338.1614995
51
0.0885413
0
ARC
8
DEFAULT_255_2_778
10
43.0429214
20
5.2479407
40
2.2520488
50
281.593132
51
338.047166
0
ARC
8
DEFAULT_255_2_778
10
43.0354115
20
5.2892634
40
2.2940378
50
269.9637557
51
281.5694664
0
ARC
8
DEFAULT_255_2_778
10
43.0303748
20
5.2672116
40
2.2719882
50
248.6720324
51
270.0904218
0
ARC
8
DEFAULT_255_2_778
10
43.0218246
20
5.243873
40
2.2471383
50
189.4853201
51
248.6586784
0
ARC
8
DEFAULT_255_2_778
10
43.0500754
20
5.2445341
40
2.2751153
50
179.9750167
51
189.3844972
0
ARC
8
DEFAULT_255_2_778
10
43.0222185
20
5.2486253
40
1.5527612
50
152.1885218
51
180.1143553
0
ARC
8
DEFAULT_255_2_778
10
43.0280381
20
5.2435283
40
1.5602878
50
99.5239084
51
152.1226783
0
ARC
8
DEFAULT_255_2_778
10
43.0332322
20
5.2109471
40
1.5932792
50
89.9738153
51
99.5142602
0
ARC
8
DEFAULT_255_2_778
10
43.0372657
20
5.2361391
40
1.5680905
50
62.7261864
51
90.1207731
0
ARC
8
DEFAULT_255_2_778
10
43.0434955
20
5.2476847
40
1.5549738
50
7.8829172
51
62.7352689
0
ARC
8
DEFAULT_255_2_778
10
43.0184012
20
5.2460274
40
1.5800593
50
359.9818233
51
7.8176451
0
ARC
8
DEFAULT_255_2_778
10
43.0460867
20
5.2423986
40
1.5523768
50
332.1850046
51
0.1154354
0
ARC
8
DEFAULT_255_2_778
10
43.0401211
20
5.2476882
40
1.5601226
50
279.5786935
51
332.1154191
0
ARC
8
DEFAULT_255_2_778
10
43.0346977
20
5.280894
40
1.5937681
50
269.973492
51
279.5723023
0
ARC
8
DEFAULT_255_2_778
10
43.0306622
20
5.2553071
40
1.5681844
50
242.72766
51
270.120501
0
ARC
8
DEFAULT_255_2_778
10
43.0242453
20
5.2435683
40
1.5548103
50
187.761923
51
242.7396225
0
ARC
8
DEFAULT_255_2_778
10
43.0488374
20
5.2450404
40
1.579377
50
179.9823788
51
187.694351
0
ARC
8
DEFAULT_255_2_778
10
43.0222765
20
5.2483961
40
1.3385192
50
148.6892876
51
180.1228495
0
ARC
8
DEFAULT_255_2_778
10
43.0290453
20
5.2434031
40
1.3468971
50
98.4572035
51
148.6574563
0
ARC
8
DEFAULT_255_2_778
10
43.0334517
20
5.2138169
40
1.3768095
50
89.9788317
51
98.4575032
0
ARC
8
DEFAULT_255_2_778
10
43.0371133
20
5.2389164
40
1.3517135
50
59.599365
51
90.1336442
0
ARC
8
DEFAULT_255_2_778
10
43.0430262
20
5.2477763
40
1.3410796
50
6.7518771
51
59.6257018
0
ARC
8
DEFAULT_255_2_778
10
43.0183087
20
5.2458559
40
1.3658516
50
359.9861696
51
6.7099738
0
ARC
8
DEFAULT_255_2_778
10
43.0453762
20
5.2426153
40
1.3387873
50
328.692497
51
0.124575
0
ARC
8
DEFAULT_255_2_778
10
43.0389524
20
5.2474465
40
1.3467863
50
278.4545923
51
328.6588998
0
ARC
8
DEFAULT_255_2_778
10
43.034469
20
5.2773547
40
1.3770286
50
269.9788377
51
278.4561503
0
ARC
8
DEFAULT_255_2_778
10
43.0308176
20
5.2519077
40
1.3515852
50
239.5956802
51
270.1332275
0
ARC
8
DEFAULT_255_2_778
10
43.0250559
20
5.2432965
40
1.3412424
50
186.7519981
51
239.6217884
0
ARC
8
DEFAULT_255_2_778
10
43.0496522
20
5.2451973
40
1.3658918
50
179.986203
51
186.7098722
0
ARC
8
DEFAULT_255_2_778
10
43.0227367
20
5.2481903
40
1.1889794
50
145.5540224
51
180.1283813
0
ARC
8
DEFAULT_255_2_778
10
43.0294355
20
5.243533
40
1.1971379
50
96.4264965
51
145.5515514
0
ARC
8
DEFAULT_255_2_778
10
43.0333825
20
5.2138078
40
1.2271183
50
89.9870257
51
96.4542823
0
ARC
8
DEFAULT_255_2_778
10
43.0366332
20
5.240819
40
1.2001109
50
56.8208642
51
90.1419283
0
ARC
8
DEFAULT_255_2_778
10
43.0421817
20
5.2477179
40
1.1913004
50
5.5018386
51
56.8626306
0
ARC
8
DEFAULT_255_2_778
10
43.0177453
20
5.2457282
40
1.2158151
50
359.9904785
51
5.4847619
0
ARC
8
DEFAULT_255_2_778
10
43.0444281
20
5.2428266
40
1.1891353
50
325.9054362
51
0.1300745
0
ARC
8
DEFAULT_255_2_778
10
43.0380409
20
5.2473699
40
1.1969715
50
276.6892347
51
325.8967255
0
ARC
8
DEFAULT_255_2_778
10
43.0339606
20
5.2772078
40
1.2270816
50
269.9859824
51
276.716175
0
ARC
8
DEFAULT_255_2_778
10
43.0307012
20
5.2502616
40
1.2001391
50
236.8234895
51
270.1412748
0
ARC
8
DEFAULT_255_2_778
10
43.0251005
20
5.2433155
40
1.1912608
50
185.5018673
51
236.8661332
0
ARC
8
DEFAULT_255_2_778
10
43.0496231
20
5.2453211
40
1.2158628
50
179.9903341
51
185.4851461
0
ARC
8
DEFAULT_255_2_778
10
44.2397716
20
7.7607125
40
0.1009895
50
331.3072897
51
359.7808347
0
ARC
8
DEFAULT_255_2_778
10
44.2406606
20
7.7615927
40
0.1006394
50
301.9791283
51
330.6246549
0
ARC
8
DEFAULT_255_2_778
10
44.2401863
20
7.7632045
40
0.1022589
50
273.4053242
51
301.7262989
0
ARC
8
DEFAULT_255_2_778
10
46.2040752
20
5.4352461
40
0.6828151
50
180.0436304
51
180.3994969
0
ARC
8
DEFAULT_255_2_778
10
48.5825385
20
5.450115
40
3.0613247
50
180.367394
51
180.3982094
0
ARC
8
DEFAULT_255_2_778
10
44.6880913
20
5.4219229
40
0.8332253
50
0.093185
51
0.4755665
0
ARC
8
DEFAULT_255_2_778
10
45.4975442
20
5.421623
40
0.0238288
50
350.8690697
51
3.9827633
0
ARC
8
DEFAULT_255_2_778
10
45.5232215
20
5.4190388
40
0.0024613
50
180.2944713
51
209.1065369
0
ARC
8
DEFAULT_255_2_778
10
44.2884331
20
5.2462079
40
1.2445277
50
359.9548017
51
6.2514081
0
ARC
8
DEFAULT_255_2_778
10
43.0489026
20
5.244431
40
2.4780162
50
4.0402738
51
48.2657333
0
ARC
8
DEFAULT_255_2_778
10
42.428625
20
7.9677163
40
0.1003874
50
220.121092
51
270.0268106
0
ARC
8
DEFAULT_255_2_778
10
42.4286708
20
7.9679826
40
0.1006537
50
270.0006663
51
276.4504793
0
ARC
8
DEFAULT_255_2_778
10
42.4286188
20
7.9684021
40
0.1010763
50
276.4530715
51
282.2473399
0
ARC
8
DEFAULT_255_2_778
10
42.4196648
20
7.9661505
40
0.3024238
50
276.4521075
51
282.5269789
0
ARC
8
DEFAULT_255_2_778
10
42.4197973
20
7.9650489
40
0.3013142
50
270.0005791
51
276.450615
0
ARC
8
DEFAULT_255_2_778
10
42.4198054
20
7.9653044
40
0.3015696
50
220.256683
51
269.9990471
0
ARC
8
DEFAULT_255_2_778
10
43.0336169
20
5.2325389
40
2.4940239
50
114.7249378
51
122.5577247
0
ARC
8
DEFAULT_255_2_778
10
41.7718742
20
6.9997927
40
0.6429671
50
114.998445
51
125.8995137
0
ARC
8
DEFAULT_255_2_778
10
41.0254178
20
7.180406
40
0.2973024
50
0.4259409
51
40.1808339
0
ARC
8
DEFAULT_255_2_778
10
41.0226991
20
7.180216
40
0.3000224
50
0.0000035
51
0.4583618
0
ARC
8
DEFAULT_255_2_778
10
41.0248315
20
7.1800342
40
0.2978901
50
315.8188838
51
0.0349786
0
ARC
8
DEFAULT_255_2_778
10
41.0159749
20
7.1768811
40
0.2976937
50
315.9840811
51
0.0382719
0
ARC
8
DEFAULT_255_2_778
10
41.0143376
20
7.1770544
40
0.299331
50
0.0048862
51
0.4541039
0
ARC
8
DEFAULT_255_2_778
10
41.016363
20
7.1772681
40
0.2973042
50
0.4160198
51
40.1648818
0
ARC
8
DEFAULT_255_2_778
10
43.0019079
20
5.1921301
40
2.5479553
50
48.2525402
51
53.5455681
0
ARC
8
DEFAULT_255_2_778
10
44.2388085
20
7.7607845
40
0.299144
50
244.6138342
51
269.548573
0
ARC
8
DEFAULT_255_2_778
10
44.2387196
20
7.760655
40
0.2990138
50
269.5654024
51
269.9948839
0
ARC
8
DEFAULT_255_2_778
10
44.2387235
20
7.7525616
40
0.2909203
50
269.9939713
51
273.6335037
0
ARC
8
DEFAULT_255_2_778
10
44.2388003
20
7.7630952
40
0.3014287
50
273.4920469
51
330.7751454
0
ARC
8
DEFAULT_255_2_778
10
44.2368818
20
7.7625752
40
0.3028524
50
331.0382129
51
355.772912
0
ARC
8
DEFAULT_255_2_778
10
44.2520769
20
7.7610437
40
0.2875859
50
355.8540609
51
359.757426
0
ARC
8
DEFAULT_255_2_778
10
43.0192807
20
5.2436105
40
2.4865995
50
136.0102948
51
153.8183934
0
ARC
8
DEFAULT_255_2_778
10
43.0197041
20
5.2448073
40
2.4864517
50
153.8474475
51
180.0047974
0
ARC
8
DEFAULT_255_2_778
10
43.0186092
20
5.2445874
40
2.4853566
50
179.9997319
51
181.7775683
0
ARC
8
DEFAULT_255_2_778
10
43.0104732
20
5.2439394
40
2.4772045
50
181.7684243
51
200.7154302
0
ARC
8
DEFAULT_255_2_778
10
43.0238319
20
5.2495934
40
2.4916995
50
200.7283801
51
210.8672252
0
ARC
8
DEFAULT_255_2_778
10
43.0205748
20
5.245553
40
2.4868315
50
210.8258205
51
233.3493635
0
ARC
8
DEFAULT_255_2_778
10
43.0337193
20
5.2646317
40
2.5099846
50
233.3686079
51
269.9825011
0
ARC
8
DEFAULT_255_2_778
10
43.0329212
20
5.2564551
40
2.5018079
50
270.0007228
51
277.5174695
0
ARC
8
DEFAULT_255_2_778
10
43.0310376
20
5.2697402
40
2.5152251
50
277.5204146
51
284.3535791
0
ARC
8
DEFAULT_255_2_778
10
43.0274544
20
5.2847903
40
2.5306936
50
284.3477009
51
285.3287343
0
ARC
8
DEFAULT_255_2_778
10
43.0437106
20
5.2438804
40
2.4869464
50
285.2166964
51
310.828711
0
ARC
8
DEFAULT_255_2_778
10
43.0404349
20
5.2489643
40
2.4929351
50
310.8092841
51
353.5428296
0
ARC
8
DEFAULT_255_2_778
10
43.0298788
20
5.2485988
40
2.5033835
50
353.5783126
51
359.9296753
0
ARC
8
DEFAULT_255_2_778
10
45.8991488
20
10.7670309
40
0.9291048
50
265.158948
51
269.9822137
0
ARC
8
DEFAULT_255_2_778
10
45.9070052
20
10.8356646
40
0.9981588
50
229.8844483
51
265.042063
0
ARC
8
DEFAULT_255_2_778
10
45.9287376
20
10.8406086
40
1.0160314
50
188.1867248
51
229.1268476
0
ARC
8
DEFAULT_255_2_778
10
43.0185649
20
5.2376445
40
2.779483
50
25.5681538
51
48.2199128
0
ARC
8
DEFAULT_255_2_778
10
42.9955104
20
5.242569
40
2.7770286
50
114.680045
51
122.5600446
0
ARC
8
DEFAULT_255_2_778
10
43.0336762
20
5.2267279
40
2.7063971
50
92.091918
51
102.4359143
0
ARC
8
DEFAULT_255_2_778
10
43.0336698
20
5.2266699
40
2.7064549
50
89.9999437
51
92.0917384
0
ARC
8
DEFAULT_255_2_778
10
43.0337258
20
5.2264959
40
2.7066288
50
64.5328118
51
90.0011298
0
ARC
8
DEFAULT_255_2_778
10
43.0338195
20
5.2278828
40
2.5061224
50
64.5347642
51
90.0041487
0
ARC
8
DEFAULT_255_2_778
10
43.0336408
20
5.226463
40
2.5075422
50
90.000064
51
92.1316353
0
ARC
8
DEFAULT_255_2_778
10
43.0336012
20
5.2274002
40
2.5066042
50
92.1315267
51
102.4324024
0
ARC
8
DEFAULT_255_2_778
10
42.4290362
20
7.9696007
40
0.301449
50
276.6512446
51
282.4374523
0
ARC
8
DEFAULT_255_2_778
10
42.4291667
20
7.9685542
40
0.3003943
50
270.0004239
51
276.6496364
0
ARC
8
DEFAULT_255_2_778
10
42.4290797
20
7.9684607
40
0.3003008
50
220.1258472
51
270.0170249
0
LINE
8
DEFAULT_255_2_778
10
128.8507603
20
21.0808262
11
128.8153603
21
20.9030262
0
LINE
8
DEFAULT_255_2_778
10
128.8153603
20
20.9030262
11
128.1816603
21
20.9173262
0
LINE
8
DEFAULT_255_2_778
10
128.1816603
20
21.6706262
11
128.8153603
21
21.6848262
0
LINE
8
DEFAULT_255_2_778
10
130.3123603
20
20.9027262
11
130.9459603
21
20.9170262
0
LINE
8
DEFAULT_255_2_778
10
130.9459603
20
21.6703262
11
130.3123603
21
21.6846262
0
LINE
8
DEFAULT_255_2_778
10
129.9564603
20
22.0391262
11
129.9419603
21
22.6704262
0
LINE
8
DEFAULT_255_2_778
10
129.1857603
20
22.6704262
11
129.1711603
21
22.0391262
0
LINE
8
DEFAULT_255_2_778
10
129.0650603
20
20.7969262
11
129.1711603
21
20.5479262
0
LINE
8
DEFAULT_255_2_778
10
129.9419603
20
22.6704262
11
129.7778603
21
22.1957262
0
LINE
8
DEFAULT_255_2_778
10
129.3497603
20
22.1957262
11
129.1857603
21
22.6704262
0
LINE
8
DEFAULT_255_2_778
10
128.1816603
20
21.6703262
11
128.6581603
21
21.5068262
0
LINE
8
DEFAULT_255_2_778
10
128.6581603
20
21.0803262
11
128.1816603
21
20.9168262
0
LINE
8
DEFAULT_255_2_778
10
129.1857603
20
19.9166262
11
129.3497603
21
20.3913262
0
LINE
8
DEFAULT_255_2_778
10
129.7778603
20
20.3913262
11
129.9419603
21
19.9166262
0
LINE
8
DEFAULT_255_2_778
10
130.9459603
20
20.9168262
11
130.4694603
21
21.0803262
0
LINE
8
DEFAULT_255_2_778
10
130.4694603
20
21.5068262
11
130.9459603
21
21.6703262
0
LINE
8
DEFAULT_255_2_778
10
129.2037603
20
20.9347262
11
129.0653603
21
20.7969262
0
LINE
8
DEFAULT_255_2_778
10
129.0653603
20
20.7969262
11
128.8153603
21
20.9025262
0
LINE
8
DEFAULT_255_2_778
10
129.9241603
20
20.9347262
11
129.7781603
21
20.5834262
0
LINE
8
DEFAULT_255_2_778
10
129.2037603
20
21.6526262
11
129.3497603
21
22.0039262
0
LINE
8
DEFAULT_255_2_778
10
130.2768603
20
21.5068262
11
130.3123603
21
21.6846262
0
LINE
8
DEFAULT_255_2_778
10
130.3123603
20
21.6846262
11
130.0622603
21
21.7901262
0
LINE
8
DEFAULT_255_2_778
10
129.7778603
20
22.0037262
11
129.7778603
21
22.1955262
0
LINE
8
DEFAULT_255_2_778
10
129.3497603
20
22.1955262
11
129.3497603
21
22.0037262
0
LINE
8
DEFAULT_255_2_778
10
129.3497603
20
22.0037262
11
129.1714603
21
22.0391262
0
LINE
8
DEFAULT_255_2_778
10
129.1714603
20
22.0391262
11
129.0653603
21
21.7901262
0
LINE
8
DEFAULT_255_2_778
10
129.3497603
20
20.5831262
11
129.3497603
21
20.3913262
0
LINE
8
DEFAULT_255_2_778
10
129.7778603
20
20.3913262
11
129.7778603
21
20.5831262
0
LINE
8
DEFAULT_255_2_778
10
129.7778603
20
20.5831262
11
129.9561603
21
20.5477262
0
LINE
8
DEFAULT_255_2_778
10
129.9561603
20
20.5477262
11
129.9416603
21
19.9164262
0
LINE
8
DEFAULT_255_2_778
10
129.1854603
20
19.9164262
11
129.1709603
21
20.5477262
0
LINE
8
DEFAULT_255_2_778
10
129.1709603
20
20.5477262
11
129.3492603
21
20.5831262
0
LINE
8
DEFAULT_255_2_778
10
129.3492603
20
20.5831262
11
129.2031603
21
20.9345262
0
LINE
8
DEFAULT_255_2_778
10
129.2031603
20
20.9345262
11
128.8504603
21
21.0800262
0
LINE
8
DEFAULT_255_2_778
10
128.8504603
20
21.0800262
11
128.6578603
21
21.0800262
0
LINE
8
DEFAULT_255_2_778
10
128.6578603
20
21.5065262
11
128.8504603
21
21.5065262
0
LINE
8
DEFAULT_255_2_778
10
128.8504603
20
21.5065262
11
128.8150603
21
21.6843262
0
LINE
8
DEFAULT_255_2_778
10
128.8150603
20
21.6843262
11
129.0650603
21
21.7899262
0
LINE
8
DEFAULT_255_2_778
10
129.0650603
20
21.7899262
11
129.2034603
21
21.6520262
0
LINE
8
DEFAULT_255_2_778
10
129.2034603
20
21.6520262
11
128.8507603
21
21.5065262
0
LINE
8
DEFAULT_255_2_778
10
130.2768603
20
21.0800262
11
129.9241603
21
20.9345262
0
LINE
8
DEFAULT_255_2_778
10
129.9241603
20
20.9345262
11
130.0625603
21
20.7966262
0
LINE
8
DEFAULT_255_2_778
10
130.0625603
20
20.7966262
11
129.9564603
21
20.5477262
0
LINE
8
DEFAULT_255_2_778
10
130.0625603
20
20.7966262
11
130.3125603
21
20.9022262
0
LINE
8
DEFAULT_255_2_778
10
130.3125603
20
20.9022262
11
130.2771603
21
21.0800262
0
LINE
8
DEFAULT_255_2_778
10
130.2771603
20
21.0800262
11
130.4697603
21
21.0800262
0
LINE
8
DEFAULT_255_2_778
10
130.4697603
20
21.5065262
11
130.2771603
21
21.5065262
0
LINE
8
DEFAULT_255_2_778
10
130.2771603
20
21.5065262
11
129.9244603
21
21.6520262
0
LINE
8
DEFAULT_255_2_778
10
129.9244603
20
21.6520262
11
129.7783603
21
22.0034262
0
LINE
8
DEFAULT_255_2_778
10
129.7783603
20
22.0034262
11
129.9567603
21
22.0389262
0
LINE
8
DEFAULT_255_2_778
10
129.9567603
20
22.0389262
11
130.0628603
21
21.7899262
0
LINE
8
DEFAULT_255_2_778
10
130.0628603
20
21.7899262
11
129.9244603
21
21.6520262
0
LINE
8
DEFAULT_255_2_778
10
126.1078603
20
21.2933262
11
126.1078603
21
21.2933262
0
LINE
8
DEFAULT_255_2_778
10
125.5728603
20
21.2933262
11
125.5728603
21
21.2933262
0
LINE
8
DEFAULT_255_2_778
10
126.0726603
20
21.2933262
11
126.0726603
21
21.2933262
0
LINE
8
DEFAULT_255_2_778
10
126.5639603
20
21.2933262
11
126.5639603
21
21.2933262
0
LINE
8
DEFAULT_255_2_778
10
126.7100603
20
21.2933262
11
126.7100603
21
21.2933262
0
LINE
8
DEFAULT_255_2_778
10
17.2495603
20
122.8686262
11
17.2495603
21
118.5184262
0
LINE
8
DEFAULT_255_2_778
10
17.1495603
20
118.4020262
11
17.1497603
21
122.9845262
0
LINE
8
DEFAULT_255_2_778
10
17.3495603
20
123.1838262
11
21.0497603
21
123.1835262
0
LINE
8
DEFAULT_255_2_778
10
21.2497603
20
122.9843262
11
21.2494603
21
118.4017262
0
LINE
8
DEFAULT_255_2_778
10
21.0497603
20
118.2025262
11
17.3495603
21
118.2027262
0
LINE
8
DEFAULT_255_2_778
10
18.2496603
20
118.5705262
11
18.2496603
21
122.8165262
0
LINE
8
DEFAULT_255_2_778
10
18.2496603
20
119.6974262
11
20.2496603
21
119.6974262
0
LINE
8
DEFAULT_255_2_778
10
20.2496603
20
119.6974262
11
20.2496603
21
121.6897262
0
LINE
8
DEFAULT_255_2_778
10
20.2496603
20
121.6897262
11
18.2496603
21
121.6897262
0
LINE
8
DEFAULT_255_2_778
10
17.1439603
20
122.8742262
11
20.7496603
21
122.6858262
0
LINE
8
DEFAULT_255_2_778
10
20.7496603
20
122.6858262
11
20.7496603
21
118.7012262
0
LINE
8
DEFAULT_255_2_778
10
20.7496603
20
118.7012262
11
17.1439603
21
118.5128262
0
LINE
8
DEFAULT_255_2_778
10
20.5647603
20
118.2030262
11
20.5647603
21
118.7012262
0
LINE
8
DEFAULT_255_2_778
10
20.5647603
20
122.6858262
11
20.5647603
21
123.1840262
0
LINE
8
DEFAULT_255_2_778
10
21.2756603
20
123.0113262
11
21.7754603
21
123.0113262
0
LINE
8
DEFAULT_255_2_778
10
21.7754603
20
123.0113262
11
21.7754603
21
118.3763262
0
LINE
8
DEFAULT_255_2_778
10
21.7754603
20
118.3763262
11
21.2756603
21
118.3763262
0
LINE
8
DEFAULT_255_2_778
10
21.2756603
20
118.3763262
11
21.2756603
21
123.0113262
0
LINE
8
DEFAULT_255_2_778
10
16.6232603
20
123.0107262
11
17.1230603
21
123.0107262
0
LINE
8
DEFAULT_255_2_778
10
17.1230603
20
123.0107262
11
17.1230603
21
118.3758262
0
LINE
8
DEFAULT_255_2_778
10
17.1230603
20
118.3758262
11
16.6232603
21
118.3758262
0
LINE
8
DEFAULT_255_2_778
10
16.6232603
20
118.3758262
11
16.6232603
21
123.0113262
0
LINE
8
DEFAULT_255_2_778
10
21.0759603
20
118.1771262
11
17.3230603
21
118.1771262
0
LINE
8
DEFAULT_255_2_778
10
17.3230603
20
118.1771262
11
17.3230603
21
117.6791262
0
LINE
8
DEFAULT_255_2_778
10
17.3230603
20
117.6791262
11
21.0759603
21
117.6791262
0
LINE
8
DEFAULT_255_2_778
10
21.0759603
20
117.6791262
11
21.0759603
21
118.1771262
0
LINE
8
DEFAULT_255_2_778
10
20.7494603
20
122.3188262
11
21.2494603
21
122.3101262
0
LINE
8
DEFAULT_255_2_778
10
21.0761603
20
123.7087262
11
17.3230603
21
123.7087262
0
LINE
8
DEFAULT_255_2_778
10
17.3230603
20
123.7087262
11
17.3230603
21
123.2108262
0
LINE
8
DEFAULT_255_2_778
10
17.3230603
20
123.2108262
11
21.0759603
21
123.2108262
0
LINE
8
DEFAULT_255_2_778
10
21.0759603
20
123.2108262
11
21.0759603
21
123.7087262
0
LINE
8
DEFAULT_255_2_778
10
40.5714603
20
5.2455262
11
40.5714603
21
5.2455262
0
LINE
8
DEFAULT_255_2_778
10
40.7749603
20
5.2455262
11
40.7749603
21
5.2455262
0
LINE
8
DEFAULT_255_2_778
10
41.4694603
20
5.2455262
11
41.4694603
21
5.2455262
0
LINE
8
DEFAULT_255_2_778
10
41.6837603
20
5.2455262
11
41.6837603
21
5.2455262
0
LINE
8
DEFAULT_255_2_778
10
41.8337603
20
5.2455262
11
41.8337603
21
5.2455262
0
LINE
8
DEFAULT_255_2_778
10
41.2392603
20
6.9732262
11
41.2419603
21
6.9753262
0
LINE
8
DEFAULT_255_2_778
10
41.2419603
20
6.9753262
11
41.2482603
21
6.9812262
0
LINE
8
DEFAULT_255_2_778
10
41.2482603
20
6.9812262
11
41.2583603
21
6.9907262
0
LINE
8
DEFAULT_255_2_778
10
41.2583603
20
6.9907262
11
41.2718603
21
7.0036262
0
LINE
8
DEFAULT_255_2_778
10
41.2718603
20
7.0036262
11
41.3099603
21
7.0394262
0
LINE
8
DEFAULT_255_2_778
10
41.3099603
20
7.0394262
11
41.3623603
21
7.0870262
0
LINE
8
DEFAULT_255_2_778
10
41.3623603
20
7.0870262
11
41.4289603
21
7.1441262
0
LINE
8
DEFAULT_255_2_778
10
41.4289603
20
7.1441262
11
41.5083603
21
7.2074262
0
LINE
8
DEFAULT_255_2_778
10
41.5083603
20
7.2074262
11
41.6922603
21
7.3362262
0
LINE
8
DEFAULT_255_2_778
10
41.9912603
20
7.4995262
11
42.1753603
21
7.5757262
0
LINE
8
DEFAULT_255_2_778
10
42.1753603
20
7.5757262
11
42.2581603
21
7.6048262
0
LINE
8
DEFAULT_255_2_778
10
42.2581603
20
7.6048262
11
42.3317603
21
7.6281262
0
LINE
8
DEFAULT_255_2_778
10
42.3317603
20
7.6281262
11
42.3936603
21
7.6461262
0
LINE
8
DEFAULT_255_2_778
10
42.3936603
20
7.6461262
11
42.4415603
21
7.6590262
0
LINE
8
DEFAULT_255_2_778
10
42.4415603
20
7.6590262
11
42.4730603
21
7.6675262
0
LINE
8
DEFAULT_255_2_778
10
42.4730603
20
7.6675262
11
42.4860603
21
7.6714262
0
LINE
8
DEFAULT_255_2_778
10
44.2462603
20
7.6611262
11
44.1973603
21
7.6707262
0
LINE
8
DEFAULT_255_2_778
10
45.5260603
20
6.4374262
11
45.5255603
21
6.1694262
0
LINE
8
DEFAULT_255_2_778
10
45.5255603
20
6.1694262
11
45.5244603
21
5.9061262
0
LINE
8
DEFAULT_255_2_778
10
45.5244603
20
5.9061262
11
45.5239603
21
5.7765262
0
LINE
8
DEFAULT_255_2_778
10
45.5239603
20
5.7765262
11
45.5231603
21
5.6484262
0
LINE
8
DEFAULT_255_2_778
10
45.5231603
20
5.6484262
11
45.5226603
21
5.5852262
0
LINE
8
DEFAULT_255_2_778
10
45.5226603
20
5.5852262
11
45.5220603
21
5.5228262
0
LINE
8
DEFAULT_255_2_778
10
45.5220603
20
5.5228262
11
45.5215603
21
5.4624262
0
LINE
8
DEFAULT_255_2_778
10
45.5215603
20
5.4624262
11
45.5212603
21
5.4347262
0
LINE
8
DEFAULT_255_2_778
10
45.5255603
20
5.3817262
11
45.5207603
21
5.4190262
0
LINE
8
DEFAULT_255_2_778
10
42.4500603
20
7.8696262
11
42.4931603
21
7.6752262
0
LINE
8
DEFAULT_255_2_778
10
42.4931603
20
7.6752262
11
42.4852603
21
7.6709262
0
LINE
8
DEFAULT_255_2_778
10
42.1896603
20
7.7704262
11
42.1764603
21
7.7728262
0
LINE
8
DEFAULT_255_2_778
10
42.1764603
20
7.7728262
11
42.1483603
21
7.7767262
0
LINE
8
DEFAULT_255_2_778
10
42.1483603
20
7.7767262
11
42.1095603
21
7.7802262
0
LINE
8
DEFAULT_255_2_778
10
42.1095603
20
7.7802262
11
42.0631603
21
7.7823262
0
LINE
8
DEFAULT_255_2_778
10
42.0631603
20
7.7823262
11
41.9552603
21
7.7802262
0
LINE
8
DEFAULT_255_2_778
10
41.9552603
20
7.7802262
11
41.8351603
21
7.7648262
0
LINE
8
DEFAULT_255_2_778
10
41.8351603
20
7.7648262
11
41.8859603
21
7.6601262
0
LINE
8
DEFAULT_255_2_778
10
41.8859603
20
7.6601262
11
41.9105603
21
7.6132262
0
LINE
8
DEFAULT_255_2_778
10
41.9105603
20
7.6132262
11
41.9332603
21
7.5725262
0
LINE
8
DEFAULT_255_2_778
10
41.9332603
20
7.5725262
11
41.9533603
21
7.5394262
0
LINE
8
DEFAULT_255_2_778
10
41.9533603
20
7.5394262
11
41.9700603
21
7.5153262
0
LINE
8
DEFAULT_255_2_778
10
41.9700603
20
7.5153262
11
41.9824603
21
7.5013262
0
LINE
8
DEFAULT_255_2_778
10
41.9824603
20
7.5013262
11
41.9904603
21
7.4979262
0
LINE
8
DEFAULT_255_2_778
10
41.6914603
20
7.3346262
11
41.6832603
21
7.3373262
0
LINE
8
DEFAULT_255_2_778
10
41.6832603
20
7.3373262
11
41.6689603
21
7.3497262
0
LINE
8
DEFAULT_255_2_778
10
41.6689603
20
7.3497262
11
41.6491603
21
7.3717262
0
LINE
8
DEFAULT_255_2_778
10
41.6491603
20
7.3717262
11
41.6245603
21
7.4024262
0
LINE
8
DEFAULT_255_2_778
10
41.6245603
20
7.4024262
11
41.5962603
21
7.4405262
0
LINE
8
DEFAULT_255_2_778
10
41.5962603
20
7.4405262
11
41.5652603
21
7.4844262
0
LINE
8
DEFAULT_255_2_778
10
41.5652603
20
7.4844262
11
41.5001603
21
7.5825262
0
LINE
8
DEFAULT_255_2_778
10
41.3948603
20
7.5206262
11
41.3506603
21
7.4857262
0
LINE
8
DEFAULT_255_2_778
10
41.3506603
20
7.4857262
11
41.3144603
21
7.4518262
0
LINE
8
DEFAULT_255_2_778
10
41.3144603
20
7.4518262
11
41.2863603
21
7.4214262
0
LINE
8
DEFAULT_255_2_778
10
41.2863603
20
7.4214262
11
41.2668603
21
7.3968262
0
LINE
8
DEFAULT_255_2_778
10
41.2668603
20
7.3968262
11
41.2554603
21
7.3801262
0
LINE
8
DEFAULT_255_2_778
10
41.2554603
20
7.3801262
11
41.2527603
21
7.3751262
0
LINE
8
DEFAULT_255_2_778
10
41.2527603
20
7.3751262
11
41.2525603
21
7.3722262
0
LINE
8
DEFAULT_255_2_778
10
41.2384603
20
6.9724262
11
41.2300603
21
6.9700262
0
LINE
8
DEFAULT_255_2_778
10
45.5853603
20
5.2473262
11
45.6512603
21
5.1338262
0
LINE
8
DEFAULT_255_2_778
10
44.5404603
20
9.8376262
11
44.5396603
21
7.7596262
0
LINE
8
DEFAULT_255_2_778
10
44.5396603
20
7.7596262
11
44.5420603
21
7.7582262
0
LINE
8
DEFAULT_255_2_778
10
44.5420603
20
7.7582262
11
44.5457603
21
7.7540262
0
LINE
8
DEFAULT_255_2_778
10
44.5457603
20
7.7540262
11
44.5508603
21
7.7476262
0
LINE
8
DEFAULT_255_2_778
10
44.5508603
20
7.7476262
11
44.5571603
21
7.7400262
0
LINE
8
DEFAULT_255_2_778
10
44.5571603
20
7.7400262
11
44.5727603
21
7.7225262
0
LINE
8
DEFAULT_255_2_778
10
44.5727603
20
7.7225262
11
44.5918603
21
7.7019262
0
LINE
8
DEFAULT_255_2_778
10
44.5918603
20
7.7019262
11
44.6132603
21
7.6781262
0
LINE
8
DEFAULT_255_2_778
10
44.6132603
20
7.6781262
11
44.6362603
21
7.6513262
0
LINE
8
DEFAULT_255_2_778
10
44.6362603
20
7.6513262
11
44.6844603
21
7.5913262
0
LINE
8
DEFAULT_255_2_778
10
44.6844603
20
7.5913262
11
44.7333603
21
7.5257262
0
LINE
8
DEFAULT_255_2_778
10
44.7333603
20
7.5257262
11
44.7810603
21
7.4566262
0
LINE
8
DEFAULT_255_2_778
10
44.7810603
20
7.4566262
11
44.8262603
21
7.3846262
0
LINE
8
DEFAULT_255_2_778
10
44.8262603
20
7.3846262
11
44.8693603
21
7.3111262
0
LINE
8
DEFAULT_255_2_778
10
44.8693603
20
7.3111262
11
44.7989603
21
7.2309262
0
LINE
8
DEFAULT_255_2_778
10
44.7989603
20
7.2309262
11
44.7685603
21
7.1944262
0
LINE
8
DEFAULT_255_2_778
10
44.7685603
20
7.1944262
11
44.7426603
21
7.1619262
0
LINE
8
DEFAULT_255_2_778
10
44.7426603
20
7.1619262
11
44.7219603
21
7.1346262
0
LINE
8
DEFAULT_255_2_778
10
44.7219603
20
7.1346262
11
44.7074603
21
7.1137262
0
LINE
8
DEFAULT_255_2_778
10
44.7074603
20
7.1137262
11
44.6995603
21
7.0997262
0
LINE
8
DEFAULT_255_2_778
10
44.6995603
20
7.0997262
11
44.6984603
21
7.0931262
0
LINE
8
DEFAULT_255_2_778
10
44.5158603
20
7.2415262
11
44.3298603
21
7.3672262
0
LINE
8
DEFAULT_255_2_778
10
44.3298603
20
7.3672262
11
44.2468603
21
7.4164262
0
LINE
8
DEFAULT_255_2_778
10
44.2468603
20
7.4164262
11
44.1785603
21
7.4540262
0
LINE
8
DEFAULT_255_2_778
10
44.1785603
20
7.4540262
11
44.1317603
21
7.4788262
0
LINE
8
DEFAULT_255_2_778
10
44.1317603
20
7.4788262
11
44.1105603
21
7.4905262
0
LINE
8
DEFAULT_255_2_778
10
44.5396603
20
7.7598262
11
44.3402603
21
7.7598262
0
LINE
8
DEFAULT_255_2_778
10
44.3402603
20
7.7598262
11
44.3425603
21
9.8376262
0
LINE
8
DEFAULT_255_2_778
10
45.5332603
20
5.2455262
11
45.5332603
21
9.8379262
0
LINE
8
DEFAULT_255_2_778
10
44.8669603
20
9.8376262
11
44.8704603
21
7.3103262
0
LINE
8
DEFAULT_255_2_778
10
45.5258603
20
6.4372262
11
45.5265603
21
9.8376262
0
LINE
8
DEFAULT_255_2_778
10
39.1802603
20
9.8376262
11
41.2527603
21
7.3725262
0
LINE
8
DEFAULT_255_2_778
10
41.2527603
20
7.3725262
11
41.2437603
21
7.3696262
0
LINE
8
DEFAULT_255_2_778
10
41.2437603
20
7.3696262
11
39.1649603
21
9.8376262
0
LINE
8
DEFAULT_255_2_778
10
40.4616603
20
9.8376262
11
42.1991603
21
7.7749262
0
LINE
8
DEFAULT_255_2_778
10
42.1991603
20
7.7749262
11
42.3523603
21
7.9030262
0
LINE
8
DEFAULT_255_2_778
10
42.3523603
20
7.9030262
11
40.7228603
21
9.8376262
0
LINE
8
DEFAULT_255_2_778
10
40.0843603
20
9.8376262
11
41.8359603
21
7.7659262
0
LINE
8
DEFAULT_255_2_778
10
41.5009603
20
7.5831262
11
39.6054603
21
9.8376262
0
LINE
8
DEFAULT_255_2_778
10
44.1975603
20
7.6701262
11
44.1113603
21
7.4905262
0
LINE
8
DEFAULT_255_2_778
10
42.1994603
20
7.7749262
11
42.1907603
21
7.7704262
0
LINE
8
DEFAULT_255_2_778
10
42.1907603
20
7.7704262
11
40.4428603
21
9.8373262
0
LINE
8
DEFAULT_255_2_778
10
45.5834603
20
9.8373262
11
45.5834603
21
5.2450262
0
LINE
8
DEFAULT_255_2_778
10
45.5834603
20
5.2450262
11
45.6546603
21
5.2450262
0
LINE
8
DEFAULT_255_2_778
10
45.6546603
20
5.2450262
11
45.6554603
21
9.8373262
0
ARC
8
DEFAULT_255_2_778
10
37.8172288
20
4.6156412
40
0.5166989
50
90.6499348
51
130.6594291
0
ARC
8
DEFAULT_255_2_778
10
37.8086429
20
4.6340753
40
0.497151
50
131.2930435
51
180.0246772
0
ARC
8
DEFAULT_255_2_778
10
37.8084039
20
4.6338596
40
0.4969119
50
179.9998206
51
183.4987848
0
ARC
8
DEFAULT_255_2_778
10
37.8078566
20
4.633875
40
0.4963665
50
183.5044089
51
204.4401799
0
ARC
8
DEFAULT_255_2_778
10
43.007594
20
5.2507939
40
5.4847289
50
204.4713839
51
224.9293692
0
ARC
8
DEFAULT_255_2_778
10
43.0292786
20
5.2726351
40
5.515506
50
224.9309134
51
255.755013
0
ARC
8
DEFAULT_255_2_778
10
43.0341514
20
5.291206
40
5.5347048
50
255.7534266
51
261.6475346
0
ARC
8
DEFAULT_255_2_778
10
43.0370963
20
5.2946987
40
5.5385886
50
261.6226416
51
262.727873
0
ARC
8
DEFAULT_255_2_778
10
43.035422
20
5.2801557
40
5.5239508
50
262.7260054
51
268.6406035
0
ARC
8
DEFAULT_255_2_778
10
43.0351071
20
5.2724509
40
5.5162407
50
268.6419742
51
269.9999062
0
ARC
8
DEFAULT_255_2_778
10
43.0342689
20
5.2788137
40
5.5226033
50
270.0086028
51
312.8781642
0
ARC
8
DEFAULT_255_2_778
10
43.0300549
20
5.2815165
40
5.5274514
50
312.8911102
51
318.6864443
0
ARC
8
DEFAULT_255_2_778
10
42.9285444
20
5.2268019
40
2.514052
50
189.5683284
51
194.0467639
0
ARC
8
DEFAULT_255_2_778
10
42.5416651
20
5.1780058
40
2.1239608
50
186.5084087
51
187.5807188
0
ARC
8
DEFAULT_255_2_778
10
42.5281603
20
5.1764413
40
2.1103657
50
185.4308566
51
186.507767
0
ARC
8
DEFAULT_255_2_778
10
43.0099459
20
5.2425799
40
2.5260799
50
179.9336103
51
200.8639404
0
ARC
8
DEFAULT_255_2_778
10
43.0320307
20
5.2566387
40
2.551729
50
200.9823055
51
258.2523341
0
ARC
8
DEFAULT_255_2_778
10
43.0325677
20
5.276135
40
2.5709285
50
258.3290807
51
270.0312005
0
ARC
8
DEFAULT_255_2_778
10
43.0370319
20
5.2578217
40
2.5526166
50
269.9312213
51
290.6275756
0
ARC
8
DEFAULT_255_2_778
10
43.0387147
20
5.2519454
40
2.5465244
50
290.6387187
51
350.2806073
0
ARC
8
DEFAULT_255_2_778
10
43.0364988
20
5.244534
40
2.547469
50
350.453321
51
0.0218818
0
ARC
8
DEFAULT_255_2_778
10
43.0213677
20
5.2530888
40
2.6341013
50
339.3582741
51
359.9438391
0
ARC
8
DEFAULT_255_2_778
10
43.0446677
20
5.249513
40
2.6110411
50
318.4684111
51
339.2514624
0
ARC
8
DEFAULT_255_2_778
10
43.0316511
20
5.2651297
40
2.6311414
50
297.7455454
51
318.4017737
0
ARC
8
DEFAULT_255_2_778
10
43.0329428
20
5.2683223
40
2.6333669
50
277.0218839
51
297.6883356
0
ARC
8
DEFAULT_255_2_778
10
43.0361005
20
5.2752915
40
2.6399009
50
274.7105898
51
276.935372
0
ARC
8
DEFAULT_255_2_778
10
43.0362541
20
5.2732719
40
2.6378754
50
270.0001431
51
274.710867
0
ARC
8
DEFAULT_255_2_778
10
43.0362635
20
5.2733861
40
2.6379895
50
235.6784413
51
269.9999398
0
ARC
8
DEFAULT_255_2_778
10
43.0269105
20
5.2539666
40
2.6166797
50
214.8476142
51
235.6078277
0
ARC
8
DEFAULT_255_2_778
10
43.0320825
20
5.2526824
40
2.6201936
50
194.0494359
51
214.7599455
0
ARC
8
DEFAULT_255_2_778
10
43.0253089
20
5.2420297
40
5.0044233
50
204.4776345
51
218.7578809
0
ARC
8
DEFAULT_255_2_778
10
43.0215588
20
5.2421753
40
5.0015907
50
218.786076
51
233.0880403
0
ARC
8
DEFAULT_255_2_778
10
43.0309876
20
5.2572955
40
5.0193433
50
233.1056435
51
247.3726757
0
ARC
8
DEFAULT_255_2_778
10
43.0344205
20
5.2658756
40
5.0285838
50
247.374184
51
261.6257748
0
ARC
8
DEFAULT_255_2_778
10
43.0338332
20
5.2733377
40
5.0358811
50
261.6447509
51
270.0017134
0
ARC
8
DEFAULT_255_2_778
10
43.0339836
20
5.2861333
40
5.0486765
50
270.0000016
51
270.3577239
0
ARC
8
DEFAULT_255_2_778
10
43.0339173
20
5.2828168
40
5.0453604
50
270.3587124
51
275.8694618
0
ARC
8
DEFAULT_255_2_778
10
43.0328753
20
5.2714676
40
5.0341778
50
275.8944682
51
290.1333131
0
ARC
8
DEFAULT_255_2_778
10
43.0377586
20
5.2547257
40
5.0167782
50
290.1467641
51
304.4220799
0
ARC
8
DEFAULT_255_2_778
10
43.0327731
20
5.2578077
40
5.0221393
50
304.4491218
51
318.6972591
0
ARC
8
DEFAULT_255_2_778
10
111.5718662
20
76.8283924
40
0.4961015
50
314.756308
51
359.9901217
0
ARC
8
DEFAULT_255_2_778
10
111.5680956
20
76.8289985
40
0.4991918
50
269.9508939
51
315.0146554
0
ARC
8
DEFAULT_255_2_778
10
52.2711792
20
76.8337574
40
0.5039525
50
247.5175798
51
269.8395322
0
ARC
8
DEFAULT_255_2_778
10
52.2725181
20
76.8373355
40
0.5077707
50
225.3972136
51
247.5323711
0
ARC
8
DEFAULT_255_2_778
10
47.5557591
20
81.5186954
40
0.4950344
50
202.518417
51
225.2043687
0
ARC
8
DEFAULT_255_2_778
10
47.55822
20
81.5209017
40
0.498154
50
180.1489216
51
202.6444253
0
ARC
8
DEFAULT_255_2_778
10
47.559401
20
107.4691503
40
0.4990403
50
180.0044457
51
180.3034976
0
ARC
8
DEFAULT_255_2_778
10
47.5550549
20
107.4689991
40
0.4946941
50
134.7198656
51
179.9869779
0
ARC
8
DEFAULT_255_2_778
10
47.5599694
20
107.4677857
40
0.4990214
50
89.9427781
51
135.0227693
0
ARC
8
DEFAULT_255_2_778
10
111.569171
20
107.495544
40
0.4707653
50
90.0000037
51
90.1829593
0
ARC
8
DEFAULT_255_2_778
10
111.5690407
20
107.4681972
40
0.4981119
50
45.014848
51
89.9850104
0
ARC
8
DEFAULT_255_2_778
10
111.5718665
20
107.4682214
40
0.4961012
50
0.0098721
51
45.2437103
0
ARC
8
DEFAULT_255_2_778
10
115.7057099
20
29.9021262
40
0.2046431
50
330.3556917
51
353.4346866
0
ARC
8
DEFAULT_255_2_778
10
115.7198152
20
29.9005723
40
0.1904526
50
353.4139127
51
359.9502213
0
ARC
8
DEFAULT_255_2_778
10
115.5172663
20
29.421122
40
0.0833758
50
210.4192729
51
212.4562853
0
ARC
8
DEFAULT_255_2_778
10
115.9304877
20
29.6816487
40
0.5718689
50
212.2634202
51
212.3592834
0
ARC
8
DEFAULT_255_2_778
10
115.4280133
20
29.3604056
40
0.0246322
50
5.7402224
51
37.9953322
0
ARC
8
DEFAULT_255_2_778
10
115.44011
20
29.3628677
40
0.012412
50
354.6336945
51
0.0074963
0
ARC
8
DEFAULT_255_2_778
10
42.1401738
20
30.8358253
40
0.0583333
50
186.2236322
51
211.8922538
0
ARC
8
DEFAULT_255_2_778
10
43.6463671
20
31.1904181
40
1.6052817
50
189.8335186
51
192.9929292
0
ARC
8
DEFAULT_255_2_778
10
45.7392641
20
31.5764898
40
3.7334362
50
189.5776259
51
190.1859139
0
ARC
8
DEFAULT_255_2_778
10
44.3527072
20
30.3367245
40
0.2066747
50
184.8343753
51
187.7291629
0
ARC
8
DEFAULT_255_2_778
10
44.3048603
20
30.3301405
40
0.1583768
50
187.6968777
51
194.1188967
0
ARC
8
DEFAULT_255_2_778
10
44.2776426
20
30.3237168
40
0.130415
50
194.2988879
51
197.1267641
0
ARC
8
DEFAULT_255_2_778
10
44.2076157
20
30.296179
40
0.055676
50
191.2561011
51
243.8381391
0
ARC
8
DEFAULT_255_2_778
10
44.5541747
20
31.8459736
40
1.0248143
50
136.0980504
51
144.1061742
0
ARC
8
DEFAULT_255_2_778
10
44.0104804
20
32.5949991
40
0.1583582
50
165.0120303
51
168.7449654
0
ARC
8
DEFAULT_255_2_778
10
43.9178306
20
32.6268328
40
0.0610064
50
116.9647227
51
171.4022702
0
ARC
8
DEFAULT_255_2_778
10
115.709964
20
33.0081606
40
0.2007831
50
22.7194339
51
45.0691032
0
ARC
8
DEFAULT_255_2_778
10
115.7128736
20
33.0100529
40
0.1973694
50
2.8658944
51
22.5389529
0
ARC
8
DEFAULT_255_2_778
10
115.7098667
20
33.0094911
40
0.2004011
50
0.0045026
51
2.9833325
0
ARC
8
DEFAULT_255_2_778
10
114.6686587
20
33.7535693
40
0.8034519
50
340.6161045
51
341.1305175
0
ARC
8
DEFAULT_255_2_778
10
116.4479481
20
33.1455335
40
1.0768614
50
160.7351169
51
161.1351742
0
ARC
8
DEFAULT_255_2_778
10
115.5779487
20
33.4533283
40
0.1540668
50
149.3774529
51
162.042519
0
ARC
8
DEFAULT_255_2_778
10
115.5897302
20
33.4438227
40
0.1690613
50
147.8555862
51
148.6390817
0
ARC
8
DEFAULT_255_2_778
10
115.2647869
20
33.648362
40
0.2148977
50
327.7762254
51
328.5830824
0
ARC
8
DEFAULT_255_2_778
10
115.4298442
20
33.5494328
40
0.0225281
50
324.4793797
51
355.7511345
0
ARC
8
DEFAULT_255_2_778
10
115.43947
20
33.5477617
40
0.0128403
50
0.008926
51
4.6688291
0
LINE
8
DEFAULT_255_2_778
10
38.0158677
20
2.9785069
11
38.0253677
21
2.9796069
0
LINE
8
DEFAULT_255_2_778
10
38.0253677
20
2.9796069
11
38.0510677
21
2.9881069
0
LINE
8
DEFAULT_255_2_778
10
38.0510677
20
2.9881069
11
38.0920677
21
3.0037069
0
LINE
8
DEFAULT_255_2_778
10
38.0920677
20
3.0037069
11
38.1465677
21
3.0256069
0
LINE
8
DEFAULT_255_2_778
10
38.1465677
20
3.0256069
11
38.2158677
21
3.0547069
0
LINE
8
DEFAULT_255_2_778
10
38.2158677
20
3.0547069
11
38.4711677
21
3.1669069
0
LINE
8
DEFAULT_255_2_778
10
46.8055677
20
1.9430069
11
46.9476677
21
1.8207069
0
LINE
8
DEFAULT_255_2_778
10
46.9476677
20
1.8207069
11
47.0119677
21
1.7662069
0
LINE
8
DEFAULT_255_2_778
10
47.0119677
20
1.7662069
11
47.0685677
21
1.7191069
0
LINE
8
DEFAULT_255_2_778
10
47.0685677
20
1.7191069
11
47.1153677
21
1.6810069
0
LINE
8
DEFAULT_255_2_778
10
47.1153677
20
1.6810069
11
47.1508677
21
1.6533069
0
LINE
8
DEFAULT_255_2_778
10
47.1508677
20
1.6533069
11
47.1733677
21
1.6368069
0
LINE
8
DEFAULT_255_2_778
10
47.1733677
20
1.6368069
11
47.1820677
21
1.6326069
0
LINE
8
DEFAULT_255_2_778
10
37.3559677
20
4.4285069
11
37.3657677
21
4.4295069
0
LINE
8
DEFAULT_255_2_778
10
37.3657677
20
4.4295069
11
37.3924677
21
4.4383069
0
LINE
8
DEFAULT_255_2_778
10
37.3924677
20
4.4383069
11
37.4350677
21
4.4544069
0
LINE
8
DEFAULT_255_2_778
10
37.4350677
20
4.4544069
11
37.4916677
21
4.4774069
0
LINE
8
DEFAULT_255_2_778
10
37.4916677
20
4.4774069
11
37.5604677
21
4.5063069
0
LINE
8
DEFAULT_255_2_778
10
37.5604677
20
4.5063069
11
37.6387677
21
4.5398069
0
LINE
8
DEFAULT_255_2_778
10
37.6387677
20
4.5398069
11
37.8115677
21
4.6166069
0
LINE
8
DEFAULT_255_2_778
10
37.8115677
20
4.6166069
11
37.8113677
21
5.1323069
0
LINE
8
DEFAULT_255_2_778
10
34.8934677
20
9.8381069
11
38.0155677
21
2.9788069
0
LINE
8
DEFAULT_255_2_778
10
47.1817677
20
1.6324069
11
54.3837677
21
9.8379069
0
LINE
8
DEFAULT_255_2_778
10
35.1474677
20
9.2796069
11
33.7573677
21
9.8379069
0
LINE
8
DEFAULT_255_2_778
10
32.4635677
20
9.8379069
11
35.4366677
21
8.6435069
0
LINE
8
DEFAULT_255_2_778
10
40.4494677
20
4.8089069
11
40.4362677
21
4.8978069
0
LINE
8
DEFAULT_255_2_778
10
40.4272677
20
4.9767069
11
40.4216677
21
5.0418069
0
LINE
8
DEFAULT_255_2_778
10
40.4216677
20
5.0418069
11
40.4187677
21
5.0907069
0
LINE
8
DEFAULT_255_2_778
10
40.4187677
20
5.0907069
11
40.4177677
21
5.1211069
0
LINE
8
DEFAULT_255_2_778
10
40.4177677
20
5.1211069
11
40.4177677
21
5.1320069
0
LINE
8
DEFAULT_255_2_778
10
40.4177677
20
5.1320069
11
37.8110677
21
5.1320069
0
LINE
8
DEFAULT_255_2_778
10
37.8110677
20
5.1320069
11
37.7594677
21
5.2455069
0
LINE
8
DEFAULT_255_2_778
10
37.7594677
20
5.2455069
11
40.4838677
21
5.2455069
0
LINE
8
DEFAULT_255_2_778
10
40.4902677
20
4.6166069
11
37.8115677
21
4.6166069
0
LINE
8
DEFAULT_255_2_778
10
37.8115677
20
4.6166069
11
38.4706677
21
3.1685069
0
LINE
8
DEFAULT_255_2_778
10
46.8055677
20
1.9430069
11
53.7352677
21
9.8381069
0
LINE
8
DEFAULT_255_2_778
10
51.9159677
20
76.4758069
11
47.2069677
21
81.1674069
0
LINE
8
DEFAULT_255_2_778
10
111.5657677
20
76.3303069
11
52.2702677
21
76.3303069
0
LINE
8
DEFAULT_255_2_778
10
47.0603677
20
81.5204069
11
47.0603677
21
107.4665069
0
LINE
8
DEFAULT_255_2_778
10
47.5604677
20
107.9668069
11
111.5676677
21
107.9663069
0
LINE
8
DEFAULT_255_2_778
10
112.0679677
20
107.4683069
11
112.0674677
21
76.8301069
0
LINE
8
DEFAULT_255_2_778
10
115.8517677
20
29.7597069
11
115.8689677
21
29.7793069
0
LINE
8
DEFAULT_255_2_778
10
115.8689677
20
29.7793069
11
115.8835677
21
29.8009069
0
LINE
8
DEFAULT_255_2_778
10
115.3694677
20
29.5610069
11
115.3998677
21
29.4879069
0
LINE
8
DEFAULT_255_2_778
10
115.3998677
20
29.4879069
11
115.4265677
21
29.4239069
0
LINE
8
DEFAULT_255_2_778
10
115.4265677
20
29.4239069
11
115.4371677
21
29.3985069
0
LINE
8
DEFAULT_255_2_778
10
115.4371677
20
29.3985069
11
115.4453677
21
29.3789069
0
LINE
8
DEFAULT_255_2_778
10
41.9197677
20
31.9269069
11
41.9057677
21
32.1060069
0
LINE
8
DEFAULT_255_2_778
10
47.2915677
20
29.3234069
11
47.2968677
21
29.3617069
0
LINE
8
DEFAULT_255_2_778
10
47.2968677
20
29.3617069
11
44.1832677
21
30.2465069
0
LINE
8
DEFAULT_255_2_778
10
44.1832677
20
30.2465069
11
42.0906677
21
30.8050069
0
LINE
8
DEFAULT_255_2_778
10
44.0057677
20
30.4434069
11
44.0380677
21
30.4116069
0
LINE
8
DEFAULT_255_2_778
10
44.0380677
20
30.4116069
11
44.1467677
21
30.3198069
0
LINE
8
DEFAULT_255_2_778
10
44.1467677
20
30.3198069
11
44.2002677
21
30.3367069
0
LINE
8
DEFAULT_255_2_778
10
44.2002677
20
30.3367069
11
44.3684677
21
30.4010069
0
LINE
8
DEFAULT_255_2_778
10
47.3246677
20
29.5610069
11
47.3140677
21
29.4858069
0
LINE
8
DEFAULT_255_2_778
10
47.3140677
20
29.4858069
11
47.3050677
21
29.4215069
0
LINE
8
DEFAULT_255_2_778
10
47.3050677
20
29.4215069
11
47.3016677
21
29.3967069
0
LINE
8
DEFAULT_255_2_778
10
47.3016677
20
29.3967069
11
47.2992677
21
29.3779069
0
LINE
8
DEFAULT_255_2_778
10
47.2992677
20
29.3779069
11
47.2976677
21
29.3660069
0
LINE
8
DEFAULT_255_2_778
10
47.2976677
20
29.3660069
11
47.2968677
21
29.3615069
0
LINE
8
DEFAULT_255_2_778
10
46.7282677
20
33.3493069
11
46.7169677
21
33.4244069
0
LINE
8
DEFAULT_255_2_778
10
46.7169677
20
33.4244069
11
46.7071677
21
33.4887069
0
LINE
8
DEFAULT_255_2_778
10
46.7071677
20
33.4887069
11
46.7034677
21
33.5136069
0
LINE
8
DEFAULT_255_2_778
10
46.7034677
20
33.5136069
11
46.7007677
21
33.5324069
0
LINE
8
DEFAULT_255_2_778
10
46.7007677
20
33.5324069
11
46.6991677
21
33.5440069
0
LINE
8
DEFAULT_255_2_778
10
46.6991677
20
33.5440069
11
46.6981677
21
33.5482069
0
LINE
8
DEFAULT_255_2_778
10
44.0697677
20
32.5280069
11
44.0142677
21
32.5455069
0
LINE
8
DEFAULT_255_2_778
10
44.0142677
20
32.5455069
11
43.8520677
21
32.5923069
0
LINE
8
DEFAULT_255_2_778
10
43.8520677
20
32.5923069
11
43.8157677
21
32.5566069
0
LINE
8
DEFAULT_255_2_778
10
43.8517677
20
32.5923069
11
43.8551677
21
32.6259069
0
LINE
8
DEFAULT_255_2_778
10
115.3694677
20
33.3493069
11
115.3998677
21
33.4226069
0
LINE
8
DEFAULT_255_2_778
10
115.3998677
20
33.4226069
11
115.4265677
21
33.4869069
0
LINE
8
DEFAULT_255_2_778
10
115.4522677
20
33.5488069
11
46.6949677
21
33.5488069
0
LINE
8
DEFAULT_255_2_778
10
46.6920677
20
33.5871069
11
41.8999677
21
32.1073069
0
LINE
8
DEFAULT_255_2_778
10
115.4136677
20
29.3236069
11
115.8514677
21
29.7599069
0
LINE
8
DEFAULT_255_2_778
10
115.8514677
20
29.7599069
11
115.7099677
21
29.9007069
0
LINE
8
DEFAULT_255_2_778
10
115.7099677
20
29.9007069
11
115.9099677
21
29.9007069
0
LINE
8
DEFAULT_255_2_778
10
115.9099677
20
29.9007069
11
115.9099677
21
33.0101069
0
LINE
8
DEFAULT_255_2_778
10
115.9099677
20
33.0101069
11
115.7099677
21
33.0101069
0
LINE
8
DEFAULT_255_2_778
10
115.7099677
20
33.0101069
11
115.3691677
21
33.3495069
0
LINE
8
DEFAULT_255_2_778
10
115.3691677
20
33.3495069
11
46.7282677
21
33.3495069
0
LINE
8
DEFAULT_255_2_778
10
46.7282677
20
33.3495069
11
44.0694677
21
32.5285069
0
LINE
8
DEFAULT_255_2_778
10
44.0694677
20
32.5285069
11
44.3684677
21
30.4010069
0
LINE
8
DEFAULT_255_2_778
10
44.3684677
20
30.4010069
11
47.3246677
21
29.5610069
0
LINE
8
DEFAULT_255_2_778
10
47.3246677
20
29.5610069
11
115.3694677
21
29.5610069
0
LINE
8
DEFAULT_255_2_778
10
115.3694677
20
29.5610069
11
115.7101677
21
29.9004069
0
LINE
8
DEFAULT_255_2_778
10
115.7101677
20
29.9004069
11
115.7101677
21
33.0098069
0
LINE
8
DEFAULT_255_2_778
10
115.7101677
20
33.0098069
11
115.8517677
21
33.1506069
0
LINE
8
DEFAULT_255_2_778
10
115.8517677
20
33.1506069
11
115.4138677
21
33.5869069
0
LINE
8
DEFAULT_255_2_778
10
115.4138677
20
33.5869069
11
46.6923677
21
33.5869069
0
LINE
8
DEFAULT_255_2_778
10
46.6923677
20
33.5869069
11
46.6981677
21
33.5485069
0
LINE
8
DEFAULT_255_2_778
10
46.6981677
20
33.5485069
11
43.8901677
21
32.6815069
0
LINE
8
DEFAULT_255_2_778
10
43.8901677
20
32.6815069
11
41.9001677
21
32.1071069
0
LINE
8
DEFAULT_255_2_778
10
41.9001677
20
32.1071069
11
42.0835677
21
30.8032069
0
LINE
8
DEFAULT_255_2_778
10
42.0835677
20
30.8032069
11
47.2915677
21
29.3234069
0
LINE
8
DEFAULT_255_2_778
10
47.2915677
20
29.3234069
11
115.4136677
21
29.3236069
0
LINE
8
DEFAULT_255_2_778
10
41.9396677
20
31.9298069
11
43.7239677
21
32.4473069
0
LINE
8
DEFAULT_255_2_778
10
43.7239677
20
32.4473069
11
44.0054677
21
30.4434069
0
LINE
8
DEFAULT_255_2_778
10
44.0054677
20
30.4434069
11
42.0761677
21
30.9582069
0
LINE
8
DEFAULT_255_2_778
10
42.0761677
20
30.9582069
11
41.9396677
21
31.9298069
0
ARC
8
DEFAULT_255_2_778
10
125.2115933
20
27.8953428
40
0.1941189
50
176.9178387
51
179.9931667
0
ARC
8
DEFAULT_255_2_778
10
125.2201134
20
27.8947575
40
0.2026582
50
157.727958
51
176.8821204
0
ARC
8
DEFAULT_255_2_778
10
136.4834034
20
28.4123286
40
0.1013131
50
359.2886879
51
39.0574932
0
ARC
8
DEFAULT_255_2_778
10
136.3365023
20
28.3969016
40
0.2486105
50
1.00588
51
3.2672702
0
ARC
8
DEFAULT_255_2_778
10
136.2478377
20
28.4019939
40
0.3372375
50
340.7781012
51
359.8763324
0
ARC
8
DEFAULT_255_2_778
10
136.8649527
20
27.9117118
40
0.1988217
50
0.0156037
51
45.1084999
0
ARC
8
DEFAULT_255_2_778
10
115.7101366
20
27.9483506
40
0.2005024
50
22.6505275
51
45.0156616
0
ARC
8
DEFAULT_255_2_778
10
115.7156994
20
27.9505792
40
0.1945104
50
3.8185226
51
22.6757388
0
ARC
8
DEFAULT_255_2_778
10
115.7074159
20
27.9493502
40
0.2028584
50
0.0044608
51
4.0090739
0
ARC
8
DEFAULT_255_2_778
10
45.2716599
20
26.779764
40
1.0336212
50
136.1086809
51
144.0442004
0
ARC
8
DEFAULT_255_2_778
10
42.3375824
20
26.9318108
40
0.2999131
50
14.5518951
51
15.5449609
0
ARC
8
DEFAULT_255_2_778
10
34.4443891
20
24.739095
40
8.492013
50
15.5259011
51
15.5551491
0
ARC
8
DEFAULT_255_2_778
10
42.7940706
20
27.0654539
40
0.1757047
50
189.2978281
51
196.2243204
0
ARC
8
DEFAULT_255_2_778
10
44.7177529
20
27.5362262
40
0.1546264
50
165.2373197
51
168.9865295
0
ARC
8
DEFAULT_255_2_778
10
44.6286942
20
27.5666351
40
0.0611283
50
117.0717383
51
171.5407676
0
ARC
8
DEFAULT_255_2_778
10
136.0633796
20
10.8407298
40
1.0028638
50
269.9997036
51
314.8436983
0
ARC
8
DEFAULT_255_2_778
10
136.0681256
20
10.8348506
40
0.995349
50
314.888641
51
359.9548341
0
ARC
8
DEFAULT_255_2_778
10
124.813529
20
25.9719648
40
0.4181485
50
275.8122369
51
292.0006197
0
ARC
8
DEFAULT_255_2_778
10
124.8074886
20
25.9639569
40
0.4130761
50
293.193634
51
336.594167
0
ARC
8
DEFAULT_255_2_778
10
124.8161972
20
25.9529787
40
0.4007777
50
337.539954
51
359.898102
0
ARC
8
DEFAULT_255_2_778
10
116.109625
20
25.953134
40
0.3997039
50
185.6668057
51
202.5477956
0
ARC
8
DEFAULT_255_2_778
10
116.1195636
20
25.9639603
40
0.4130806
50
203.4060862
51
246.8061201
0
ARC
8
DEFAULT_255_2_778
10
116.1103364
20
25.9590709
40
0.4050053
50
247.733602
51
269.9204975
0
ARC
8
DEFAULT_255_2_778
10
124.8188023
20
25.9524501
40
0.1981721
50
314.8135485
51
0.0335042
0
ARC
8
DEFAULT_255_2_778
10
124.817642
20
25.9528119
40
0.1992474
50
270.0235701
51
314.9769152
0
ARC
8
DEFAULT_255_2_778
10
124.8175368
20
25.8941051
40
0.1405407
50
269.7707275
51
270.0763041
0
ARC
8
DEFAULT_255_2_778
10
116.1081782
20
25.9527463
40
0.1984038
50
179.9654483
51
225.1585772
0
ARC
8
DEFAULT_255_2_778
10
116.1089755
20
25.9530296
40
0.1991671
50
225.0534087
51
269.90933
0
ARC
8
DEFAULT_255_2_778
10
116.1086601
20
25.9478959
40
0.194033
50
270.0000585
51
270.3290461
0
ARC
8
DEFAULT_255_2_778
10
45.9227205
20
10.8341322
40
1.0231684
50
187.822966
51
210.8234721
0
ARC
8
DEFAULT_255_2_778
10
45.8899697
20
10.8159423
40
0.9857241
50
210.890946
51
231.8506284
0
ARC
8
DEFAULT_255_2_778
10
45.8736834
20
10.7964973
40
0.9603725
50
231.8981256
51
251.1991282
0
ARC
8
DEFAULT_255_2_778
10
45.8669838
20
10.7820462
40
0.944535
50
251.3013312
51
267.5340071
0
ARC
8
DEFAULT_255_2_778
10
45.8651144
20
10.7547583
40
0.9171922
50
267.5773348
51
269.997503
0
ARC
8
DEFAULT_255_2_778
10
48.398916
20
10.8233087
40
1.6284748
50
183.0674702
51
195.7101135
0
ARC
8
DEFAULT_255_2_778
10
47.935946
20
10.6829204
40
1.1448285
50
195.2203727
51
211.1007211
0
ARC
8
DEFAULT_255_2_778
10
47.476652
20
10.3971152
40
0.6039685
50
210.3912852
51
234.8196606
0
ARC
8
DEFAULT_255_2_778
10
47.3402417
20
10.2071919
40
0.3701489
50
235.1399708
51
267.4793475
0
ARC
8
DEFAULT_255_2_778
10
47.3284529
20
10.1151489
40
0.277784
50
269.0738328
51
269.8394337
0
ARC
8
DEFAULT_255_2_778
10
47.3457023
20
9.9292618
40
0.0936475
50
200.644219
51
258.9008251
0
ARC
8
DEFAULT_255_2_778
10
47.5771433
20
10.0759717
40
0.3662113
50
208.1915411
51
209.3914193
0
ARC
8
DEFAULT_255_2_778
10
47.6753455
20
10.1283545
40
0.4775109
50
197.7137861
51
208.1646561
0
ARC
8
DEFAULT_255_2_778
10
48.322258
20
10.3452789
40
1.1597953
50
192.5955154
51
198.1983542
0
ARC
8
DEFAULT_255_2_778
10
49.3944598
20
10.5911878
40
2.2598264
50
185.2944074
51
192.7521825
0
ARC
8
DEFAULT_255_2_778
10
37.1614709
20
66.2600087
40
0.0582004
50
186.1630059
51
211.8859952
0
ARC
8
DEFAULT_255_2_778
10
38.6222429
20
66.6025682
40
1.5581792
50
189.6818627
51
192.9356134
0
ARC
8
DEFAULT_255_2_778
10
40.5276754
20
66.949586
40
3.4948997
50
189.3869095
51
190.0363816
0
ARC
8
DEFAULT_255_2_778
10
115.7102658
20
68.3787165
40
0.2007888
50
22.7197329
51
45.0687576
0
ARC
8
DEFAULT_255_2_778
10
115.7116126
20
65.3789641
40
0.1991618
50
344.9847324
51
0.0005363
0
ARC
8
DEFAULT_255_2_778
10
38.9445374
20
68.0467242
40
0.0676979
50
118.9442693
51
176.7879306
0
ARC
8
DEFAULT_255_2_778
10
39.0919826
20
68.0084755
40
0.2191079
50
168.9376219
51
170.9961801
0
ARC
8
DEFAULT_255_2_778
10
39.1116385
20
68.0044945
40
0.2391463
50
170.7911496
51
180.024296
0
ARC
8
DEFAULT_255_2_778
10
39.1866442
20
68.0079329
40
0.3141718
50
180.6455683
51
192.8831778
0
ARC
8
DEFAULT_255_2_778
10
39.6210493
20
68.0983815
40
0.7578582
50
192.2265613
51
194.2083694
0
ARC
8
DEFAULT_255_2_778
10
39.8153436
20
65.7259661
40
0.6510881
50
170.9423265
51
173.4730664
0
ARC
8
DEFAULT_255_2_778
10
39.4590708
20
65.766535
40
0.2925129
50
173.4355195
51
179.7333602
0
ARC
8
DEFAULT_255_2_778
10
39.3707123
20
65.7670481
40
0.2041531
50
179.7619661
51
193.1030412
0
ARC
8
DEFAULT_255_2_778
10
39.3592884
20
65.7648854
40
0.1925371
50
193.2468925
51
194.8977441
0
ARC
8
DEFAULT_255_2_778
10
39.232115
20
65.7231494
40
0.0594014
50
187.5106171
51
242.4869297
0
ARC
8
DEFAULT_255_2_778
10
115.7101342
20
63.318349
40
0.2005052
50
22.6506823
51
45.0154991
0
ARC
8
DEFAULT_255_2_778
10
43.6534557
20
35.3984475
40
0.2183904
50
184.9335252
51
186.7466984
0
ARC
8
DEFAULT_255_2_778
10
43.6015325
20
35.3919148
40
0.1660598
50
186.6129797
51
193.9556701
0
ARC
8
DEFAULT_255_2_778
10
43.5664248
20
35.3839842
40
0.1300779
50
194.2950412
51
197.1129297
0
ARC
8
DEFAULT_255_2_778
10
43.4964057
20
35.3564277
40
0.0553479
50
191.1676081
51
244.0364405
0
ARC
8
DEFAULT_255_2_778
10
115.7077027
20
34.9617615
40
0.2029188
50
330.2487522
51
353.527527
0
ARC
8
DEFAULT_255_2_778
10
115.7187259
20
34.9607192
40
0.1918484
50
353.4657295
51
359.954247
0
ARC
8
DEFAULT_255_2_778
10
115.517573
20
34.4812811
40
0.0833758
50
210.4192729
51
212.4562853
0
ARC
8
DEFAULT_255_2_778
10
115.9307943
20
34.7418078
40
0.5718689
50
212.2634202
51
212.3592834
0
ARC
8
DEFAULT_255_2_778
10
115.42832
20
34.4205647
40
0.0246322
50
5.7402224
51
37.9953322
0
ARC
8
DEFAULT_255_2_778
10
115.4404167
20
34.4230268
40
0.012412
50
354.6336945
51
0.0074963
0
ARC
8
DEFAULT_255_2_778
10
40.3027943
20
62.1959263
40
1.0457794
50
136.1460332
51
143.9968848
0
ARC
8
DEFAULT_255_2_778
10
39.7431888
20
62.9588863
40
0.1581582
50
165.0724741
51
168.7409459
0
ARC
8
DEFAULT_255_2_778
10
39.6511224
20
62.9904489
40
0.0614438
50
117.2651683
51
171.408928
0
ARC
8
DEFAULT_255_2_778
10
37.3546233
20
62.354474
40
0.3051458
50
14.5561661
51
15.5321727
0
ARC
8
DEFAULT_255_2_778
10
31.8568235
20
60.8310065
40
6.0101222
50
15.4905422
51
15.5261468
0
ARC
8
DEFAULT_255_2_778
10
37.8094184
20
62.4870863
40
0.1685645
50
188.8799456
51
196.296912
0
ARC
8
DEFAULT_255_2_778
10
7.5295099
20
50.0847621
40
0.5145369
50
179.8659445
51
179.9896636
0
ARC
8
DEFAULT_255_2_778
10
7.5107883
20
50.0852024
40
0.4958153
50
180.04016
51
225.598357
0
ARC
8
DEFAULT_255_2_778
10
7.5135695
20
50.0881586
40
0.4998733
50
225.6076792
51
270.0131257
0
ARC
8
DEFAULT_255_2_778
10
7.5136688
20
50.0914262
40
0.5031408
50
270.001739
51
271.0255821
0
ARC
8
DEFAULT_255_2_778
10
23.3176891
20
53.6996219
40
3.8645761
50
270.844888
51
287.0249499
0
ARC
8
DEFAULT_255_2_778
10
23.3177312
20
53.6855335
40
3.851095
50
287.085721
51
316.3835092
0
ARC
8
DEFAULT_255_2_778
10
23.3397637
20
53.6719111
40
3.8257507
50
316.3035899
51
345.259815
0
ARC
8
DEFAULT_255_2_778
10
23.3375646
20
53.667313
40
3.8267107
50
345.334773
51
0.0412193
0
ARC
8
DEFAULT_255_2_778
10
23.342308
20
53.6732715
40
3.8219678
50
359.9519459
51
16.4290642
0
ARC
8
DEFAULT_255_2_778
10
23.3181307
20
53.655499
40
3.8501981
50
16.5809839
51
69.898516
0
ARC
8
DEFAULT_255_2_778
10
23.3203103
20
53.6546022
40
3.850292
50
69.9335622
51
87.027779
0
ARC
8
DEFAULT_255_2_778
10
23.3134414
20
53.5741781
40
3.9309649
50
86.9885775
51
89.1074621
0
ARC
8
DEFAULT_255_2_778
10
7.5136688
20
57.2487058
40
0.5031408
50
88.9744179
51
89.998261
0
ARC
8
DEFAULT_255_2_778
10
7.5135695
20
57.2519733
40
0.4998732
50
89.9868743
51
134.3923208
0
ARC
8
DEFAULT_255_2_778
10
7.5105035
20
57.2550493
40
0.4955303
50
134.3878119
51
179.984854
0
ARC
8
DEFAULT_255_2_778
10
7.5324074
20
57.2552732
40
0.5174343
50
180.0102848
51
180.1336782
0
ARC
8
DEFAULT_255_2_778
10
7.5177395
20
57.2269841
40
1.0225563
50
89.308836
51
89.9999027
0
ARC
8
DEFAULT_255_2_778
10
7.5177538
20
57.2275079
40
1.0220325
50
90.0007003
51
111.5242946
0
ARC
8
DEFAULT_255_2_778
10
7.5127582
20
57.2509176
40
0.9984302
50
111.7504974
51
134.4658027
0
ARC
8
DEFAULT_255_2_778
10
7.5087346
20
57.2528625
40
0.9942248
50
134.3788293
51
157.1733773
0
ARC
8
DEFAULT_255_2_778
10
7.5318027
20
57.2493602
40
1.0168612
50
157.4957397
51
176.8439588
0
ARC
8
DEFAULT_255_2_778
10
7.5411821
20
57.2475398
40
1.0263274
50
176.7713186
51
179.6468355
0
ARC
8
DEFAULT_255_2_778
10
7.5149415
20
50.0870788
40
1.0000679
50
180.0752144
51
202.705004
0
ARC
8
DEFAULT_255_2_778
10
7.5138839
20
50.0896252
40
1.000079
50
202.8629712
51
225.5124613
0
ARC
8
DEFAULT_255_2_778
10
7.5127802
20
50.0887758
40
0.9986997
50
225.5234843
51
248.2357772
0
ARC
8
DEFAULT_255_2_778
10
7.5147609
20
50.0987541
40
1.0087027
50
248.3414501
51
269.9903187
0
ARC
8
DEFAULT_255_2_778
10
7.514601
20
50.0946226
40
1.0045713
50
269.9993989
51
270.8654518
0
ARC
8
DEFAULT_255_2_778
10
8.0477142
20
56.9007904
40
0.6837405
50
180.0154943
51
180.0774692
0
ARC
8
DEFAULT_255_2_778
10
7.8587886
20
56.9003628
40
0.4948148
50
134.2721792
51
179.9718967
0
ARC
8
DEFAULT_255_2_778
10
7.8637727
20
56.898497
40
0.4996352
50
90.0037244
51
134.5320628
0
ARC
8
DEFAULT_255_2_778
10
7.863678
20
56.8557439
40
0.5423882
50
89.8093212
51
89.9934246
0
ARC
8
DEFAULT_255_2_778
10
7.8637286
20
56.8974911
40
0.500641
50
89.067708
51
89.7992091
0
ARC
8
DEFAULT_255_2_778
10
7.8637286
20
50.4421408
40
0.5006411
50
270.2007909
51
270.932292
0
ARC
8
DEFAULT_255_2_778
10
7.863678
20
50.483888
40
0.5423881
50
270.0065754
51
270.1906788
0
ARC
8
DEFAULT_255_2_778
10
7.8637727
20
50.4411349
40
0.4996351
50
225.4679372
51
269.9962756
0
ARC
8
DEFAULT_255_2_778
10
7.8586173
20
50.4391969
40
0.4946435
50
180.0197462
51
225.7361916
0
ARC
8
DEFAULT_255_2_778
10
8.0477152
20
50.4388415
40
0.6837414
50
179.9225308
51
179.9845057
0
ARC
8
DEFAULT_255_2_778
10
23.3143171
20
53.661308
40
0.9352829
50
76.7695047
51
89.9995539
0
ARC
8
DEFAULT_255_2_778
10
23.3143317
20
53.661308
40
0.9352829
50
90.0004461
51
103.2304953
0
ARC
8
DEFAULT_255_2_778
10
23.314222
20
53.6781984
40
1.4361574
50
269.9971049
51
285.2581961
0
ARC
8
DEFAULT_255_2_778
10
23.31405
20
53.6268994
40
1.3848584
50
269.8888979
51
270.0041148
0
ARC
8
DEFAULT_255_2_778
10
23.3141508
20
53.6798678
40
1.4378269
50
254.7507024
51
269.888973
0
ARC
8
DEFAULT_255_2_778
10
23.314222
20
53.6611335
40
1.4361574
50
74.7418039
51
90.0028951
0
ARC
8
DEFAULT_255_2_778
10
23.31405
20
53.7124325
40
1.3848584
50
89.9958852
51
90.1111021
0
ARC
8
DEFAULT_255_2_778
10
23.3141508
20
53.6594641
40
1.4378269
50
90.111027
51
105.2492976
0
ARC
8
DEFAULT_255_2_778
10
23.3244593
20
53.6699434
40
1.4225901
50
344.6459493
51
359.9988937
0
ARC
8
DEFAULT_255_2_778
10
23.3244593
20
53.6698885
40
1.4225901
50
0.0011063
51
15.3540507
0
ARC
8
DEFAULT_255_2_778
10
23.3221378
20
53.6695046
40
0.9228116
50
346.6396352
51
0.0007071
0
ARC
8
DEFAULT_255_2_778
10
23.3221378
20
53.6695273
40
0.9228116
50
359.9992929
51
13.3603648
0
ARC
8
DEFAULT_255_2_778
10
23.306511
20
53.6695046
40
0.9228116
50
179.9992929
51
193.3603648
0
ARC
8
DEFAULT_255_2_778
10
23.306511
20
53.6695273
40
0.9228116
50
166.6396352
51
180.0007071
0
ARC
8
DEFAULT_255_2_778
10
23.3019171
20
53.6695845
40
1.4205928
50
164.6236629
51
179.9416753
0
ARC
8
DEFAULT_255_2_778
10
23.1099626
20
53.6696285
40
1.2286383
50
179.9346125
51
180
0
ARC
8
DEFAULT_255_2_778
10
23.3010846
20
53.6696341
40
1.4197602
50
180.000229
51
195.380838
0
ARC
8
DEFAULT_255_2_778
10
23.3140608
20
53.6785738
40
0.9355329
50
256.7712742
51
269.8872587
0
ARC
8
DEFAULT_255_2_778
10
23.3136012
20
53.3487927
40
0.6057515
50
269.8693488
51
270.0435756
0
ARC
8
DEFAULT_255_2_778
10
23.314101
20
53.6776004
40
0.9345594
50
269.9976025
51
283.2356405
0
ARC
8
DEFAULT_255_2_778
10
23.317164
20
53.7074379
40
4.370454
50
270.8509942
51
285.7975983
0
ARC
8
DEFAULT_255_2_778
10
23.3211647
20
53.6804916
40
4.3434376
50
285.8435868
51
310.0214377
0
ARC
8
DEFAULT_255_2_778
10
23.330317
20
53.6787801
40
4.3362454
50
309.9433711
51
343.0574397
0
ARC
8
DEFAULT_255_2_778
10
23.351148
20
53.6651614
40
4.3123555
50
343.1498752
51
358.9432373
0
ARC
8
DEFAULT_255_2_778
10
23.2659729
20
53.6697372
40
4.3976015
50
358.9040973
51
0.0003752
0
ARC
8
DEFAULT_255_2_778
10
23.3411311
20
53.6729672
40
4.3224445
50
359.9575656
51
15.0148067
0
ARC
8
DEFAULT_255_2_778
10
23.3450553
20
53.6687975
40
4.3197375
50
15.0817095
51
41.6291332
0
ARC
8
DEFAULT_255_2_778
10
23.3156819
20
53.6496336
40
4.3544267
50
41.5608604
51
71.2135731
0
ARC
8
DEFAULT_255_2_778
10
23.32024
20
53.6503509
40
4.3522816
50
71.2673404
51
86.8900366
0
ARC
8
DEFAULT_255_2_778
10
23.3128682
20
53.5635183
40
4.4393871
50
86.855835
51
89.1067726
0
ARC
8
DEFAULT_255_2_778
10
23.3148561
20
54.7078394
40
2.4489273
50
89.9574589
51
90.0141827
0
ARC
8
DEFAULT_255_2_778
10
23.3109737
20
53.6445185
40
3.5122498
50
89.9465537
51
107.016392
0
ARC
8
DEFAULT_255_2_778
10
23.3112698
20
53.6559181
40
3.5014378
50
107.0756157
51
161.9370423
0
ARC
8
DEFAULT_255_2_778
10
23.2858362
20
53.6738441
40
3.4717117
50
162.0881579
51
179.5282585
0
ARC
8
DEFAULT_255_2_778
10
23.3323765
20
53.6702054
40
3.5182817
50
179.4752441
51
179.6146812
0
ARC
8
DEFAULT_255_2_778
10
23.3593554
20
53.6698123
40
3.5452626
50
179.6112608
51
179.999847
0
ARC
8
DEFAULT_255_2_778
10
23.2859696
20
53.6668133
40
3.471878
50
179.9503514
51
197.1631981
0
ARC
8
DEFAULT_255_2_778
10
23.3114332
20
53.6840674
40
3.5013107
50
197.3100105
51
252.1779111
0
ARC
8
DEFAULT_255_2_778
10
23.3109945
20
53.6950911
40
3.5116733
50
252.2397725
51
269.2817134
0
ARC
8
DEFAULT_255_2_778
10
23.3411043
20
55.7115638
40
5.5283672
50
269.2316703
51
269.2534643
0
ARC
8
DEFAULT_255_2_778
10
23.3142951
20
53.7102304
40
3.3991356
50
90.0037201
51
92.7830076
0
ARC
8
DEFAULT_255_2_778
10
23.3203212
20
53.6210208
40
3.4885329
50
92.8107239
51
112.3639467
0
ARC
8
DEFAULT_255_2_778
10
23.3114724
20
53.6545505
40
3.4541613
50
112.4398244
51
134.8930599
0
ARC
8
DEFAULT_255_2_778
10
23.3119647
20
53.6573449
40
3.4525301
50
134.9315779
51
157.3688996
0
ARC
8
DEFAULT_255_2_778
10
23.3027763
20
53.6681371
40
3.4399023
50
157.4759257
51
179.9728698
0
ARC
8
DEFAULT_255_2_778
10
23.2991984
20
53.6715051
40
3.4363244
50
180.0289972
51
202.5490014
0
ARC
8
DEFAULT_255_2_778
10
23.3135013
20
53.6833358
40
3.454075
50
202.6392643
51
225.062669
0
ARC
8
DEFAULT_255_2_778
10
23.3103415
20
53.6834605
40
3.4519322
50
225.1012578
51
247.57059
0
ARC
8
DEFAULT_255_2_778
10
23.3227462
20
53.7296195
40
3.4993376
50
247.6712114
51
267.1290735
0
ARC
8
DEFAULT_255_2_778
10
23.3168817
20
53.641878
40
3.4114128
50
267.1536374
51
269.9578899
0
ARC
8
DEFAULT_255_2_778
10
23.3152643
20
53.6420387
40
3.4116846
50
270.8902861
51
272.6870118
0
ARC
8
DEFAULT_255_2_778
10
23.3095819
20
53.7220824
40
3.4919073
50
272.7185765
51
292.9874451
0
ARC
8
DEFAULT_255_2_778
10
23.318624
20
53.683267
40
3.4526497
50
293.1008618
51
337.5659196
0
ARC
8
DEFAULT_255_2_778
10
23.3275144
20
53.6720561
40
3.4401609
50
337.6819989
51
359.9585266
0
ARC
8
DEFAULT_255_2_778
10
23.3820826
20
53.6695368
40
3.3855918
50
0.0004936
51
0.3973135
0
ARC
8
DEFAULT_255_2_778
10
23.3257169
20
53.6668766
40
3.4419754
50
0.4350875
51
22.3127854
0
ARC
8
DEFAULT_255_2_778
10
23.3174688
20
53.6565293
40
3.4535404
50
22.4196448
51
44.6308275
0
ARC
8
DEFAULT_255_2_778
10
23.3165587
20
53.6512061
40
3.4579293
50
44.6830026
51
66.8992478
0
ARC
8
DEFAULT_255_2_778
10
23.3095819
20
53.6172495
40
3.4919072
50
67.0125549
51
87.2814235
0
ARC
8
DEFAULT_255_2_778
10
23.3152643
20
53.6972933
40
3.4116846
50
87.3129882
51
89.1097139
0
ARC
8
DEFAULT_255_2_778
10
23.3064723
20
53.6737732
40
2.9923002
50
161.7024174
51
180.0709852
0
ARC
8
DEFAULT_255_2_778
10
23.3014212
20
53.6682381
40
2.9892499
50
105.173352
51
161.5712926
0
ARC
8
DEFAULT_255_2_778
10
23.3114168
20
53.6241426
40
3.0344249
50
89.9441554
51
105.137583
0
ARC
8
DEFAULT_255_2_778
10
23.3181233
20
53.6331428
40
3.0254255
50
72.1879636
51
90.0709971
0
ARC
8
DEFAULT_255_2_778
10
23.3277818
20
53.669541
40
2.9878182
50
15.7440467
51
72.1507888
0
ARC
8
DEFAULT_255_2_778
10
23.31475
20
53.6730171
40
2.9994258
50
359.9436263
51
15.6125895
0
ARC
8
DEFAULT_255_2_778
10
23.3223216
20
53.6663928
40
2.991855
50
341.7012315
51
0.0703437
0
ARC
8
DEFAULT_255_2_778
10
23.3266065
20
53.6721199
40
2.9895927
50
285.0402954
51
341.5712373
0
ARC
8
DEFAULT_255_2_778
10
23.3172679
20
53.7147814
40
3.0332169
50
269.9453433
51
285.0015355
0
ARC
8
DEFAULT_255_2_778
10
23.3106629
20
53.706998
40
3.0254343
50
252.1879906
51
270.0702886
0
ARC
8
DEFAULT_255_2_778
10
23.3011225
20
53.6712592
40
2.988491
50
195.7537238
51
252.152538
0
ARC
8
DEFAULT_255_2_778
10
23.3125106
20
53.6671265
40
2.9983376
50
179.9438301
51
195.6186336
0
ARC
8
DEFAULT_255_2_778
10
23.3060661
20
53.6736629
40
2.8457939
50
161.3472679
51
180.0724199
0
ARC
8
DEFAULT_255_2_778
10
23.302565
20
53.6680521
40
2.8442787
50
103.9726713
51
161.2176219
0
ARC
8
DEFAULT_255_2_778
10
23.3119049
20
53.6234616
40
2.8898055
50
89.9510377
51
103.9389018
0
ARC
8
DEFAULT_255_2_778
10
23.3181298
20
53.6365627
40
2.8767057
50
71.4852667
51
90.0747962
0
ARC
8
DEFAULT_255_2_778
10
23.3277733
20
53.6702773
40
2.8416743
50
14.1723161
51
71.4537793
0
ARC
8
DEFAULT_255_2_778
10
23.3099976
20
53.672477
40
2.8583777
50
359.9516701
51
14.0423263
0
ARC
8
DEFAULT_255_2_778
10
23.3222156
20
53.666449
40
2.8461611
50
341.3485425
51
0.0728131
0
ARC
8
DEFAULT_255_2_778
10
23.3262835
20
53.6718617
40
2.8440451
50
283.9709605
51
341.2190156
0
ARC
8
DEFAULT_255_2_778
10
23.316845
20
53.7167294
40
2.8898647
50
269.9510162
51
283.937788
0
ARC
8
DEFAULT_255_2_778
10
23.3106138
20
53.7038404
40
2.8769769
50
251.4861473
51
270.0748931
0
ARC
8
DEFAULT_255_2_778
10
23.3008624
20
53.6698648
40
2.8416637
50
194.172582
51
251.4550638
0
ARC
8
DEFAULT_255_2_778
10
23.3186381
20
53.6676557
40
2.8583648
50
179.9516859
51
194.0424076
0
ARC
8
DEFAULT_255_2_778
10
30.7913315
20
79.0796574
40
1.9571934
50
269.9192887
51
294.2236281
0
ARC
8
DEFAULT_255_2_778
10
30.7932599
20
79.0773232
40
1.9542738
50
294.2001452
51
351.3153288
0
ARC
8
DEFAULT_255_2_778
10
30.7879792
20
79.0726467
40
1.9587953
50
351.4738741
51
0.0181125
0
ARC
8
DEFAULT_255_2_778
10
30.8099716
20
79.0758668
40
1.9368046
50
359.9230608
51
25.0980294
0
ARC
8
DEFAULT_255_2_778
10
30.7895949
20
79.0638728
40
1.960346
50
25.1628677
51
79.2063555
0
ARC
8
DEFAULT_255_2_778
10
30.7895046
20
79.0485191
40
1.9754469
50
79.2871785
51
90.0269785
0
ARC
8
DEFAULT_255_2_778
10
30.7913369
20
73.1029123
40
1.9573483
50
269.9191368
51
294.2214138
0
ARC
8
DEFAULT_255_2_778
10
30.7934096
20
73.100308
40
1.9541232
50
294.1973187
51
351.315176
0
ARC
8
DEFAULT_255_2_778
10
30.7880275
20
73.0956455
40
1.958747
50
351.4737681
51
0.0181479
0
ARC
8
DEFAULT_255_2_778
10
30.8097302
20
73.0988743
40
1.9370459
50
359.9228491
51
25.0800184
0
ARC
8
DEFAULT_255_2_778
10
30.789594
20
73.0870016
40
1.9603177
50
25.1448406
51
79.2034899
0
ARC
8
DEFAULT_255_2_778
10
30.7895061
20
73.0716537
40
1.9754125
50
79.2843735
51
90.0270228
0
ARC
8
DEFAULT_255_2_778
10
23.7857006
20
79.0669528
40
1.9573151
50
89.9188021
51
114.2228649
0
ARC
8
DEFAULT_255_2_778
10
23.7837079
20
79.0694905
40
1.9541836
50
114.2001125
51
171.3173524
0
ARC
8
DEFAULT_255_2_778
10
23.7892492
20
79.0740865
40
1.958975
50
171.4747001
51
180.0181483
0
ARC
8
DEFAULT_255_2_778
10
23.7673279
20
79.0708427
40
1.9370553
50
179.9224061
51
205.0568938
0
ARC
8
DEFAULT_255_2_778
10
23.7872679
20
79.082661
40
1.9601253
50
205.1229877
51
259.2035918
0
ARC
8
DEFAULT_255_2_778
10
23.7875402
20
79.0986402
40
1.9758746
50
259.2826329
51
270.0270907
0
ARC
8
DEFAULT_255_2_778
10
23.7857006
20
73.0897528
40
1.9573151
50
89.9188021
51
114.2228649
0
ARC
8
DEFAULT_255_2_778
10
23.7837079
20
73.0922905
40
1.9541836
50
114.2001125
51
171.3173524
0
ARC
8
DEFAULT_255_2_778
10
23.7892492
20
73.0968865
40
1.958975
50
171.4747001
51
180.0181483
0
ARC
8
DEFAULT_255_2_778
10
23.7673279
20
73.0936427
40
1.9370553
50
179.9224061
51
205.0568938
0
ARC
8
DEFAULT_255_2_778
10
23.7872679
20
73.105461
40
1.9601253
50
205.1229877
51
259.2035918
0
ARC
8
DEFAULT_255_2_778
10
23.7875402
20
73.1214402
40
1.9758746
50
259.2826329
51
270.0270907
0
ARC
8
DEFAULT_255_2_778
10
30.7929015
20
79.0684192
40
1.3552548
50
44.972311
51
89.8024425
0
ARC
8
DEFAULT_255_2_778
10
30.7878271
20
79.067227
40
1.3596902
50
22.5596745
51
44.8567273
0
ARC
8
DEFAULT_255_2_778
10
30.7958959
20
79.0731177
40
1.3499809
50
0.492134
51
22.4601735
0
ARC
8
DEFAULT_255_2_778
10
30.8170472
20
79.0734893
40
1.3288273
50
359.9989919
51
0.4839443
0
ARC
8
DEFAULT_255_2_778
10
30.7932336
20
79.074337
40
1.3526411
50
337.5624452
51
359.9631038
0
ARC
8
DEFAULT_255_2_778
10
30.7877995
20
79.0799426
40
1.3598069
50
315.139981
51
337.4315237
0
ARC
8
DEFAULT_255_2_778
10
30.7929192
20
79.075529
40
1.3530647
50
292.6770251
51
315.119539
0
ARC
8
DEFAULT_255_2_778
10
30.7939441
20
79.0807251
40
1.3574672
50
272.4545758
51
292.5525543
0
ARC
8
DEFAULT_255_2_778
10
30.7975094
20
79.033073
40
1.309707
50
270.0028422
51
272.3880241
0
ARC
8
DEFAULT_255_2_778
10
23.7983853
20
79.1105967
40
1.3872311
50
247.9133346
51
269.9623799
0
ARC
8
DEFAULT_255_2_778
10
23.7901757
20
79.0834867
40
1.3590261
50
225.3255229
51
247.8042887
0
ARC
8
DEFAULT_255_2_778
10
23.7845971
20
79.07619
40
1.3499156
50
202.6808396
51
225.2761579
0
ARC
8
DEFAULT_255_2_778
10
23.7869613
20
79.0756468
40
1.3518882
50
180.0797136
51
202.6209585
0
ARC
8
DEFAULT_255_2_778
10
23.7836509
20
79.0729298
40
1.3485767
50
157.3731031
51
179.9644744
0
ARC
8
DEFAULT_255_2_778
10
23.7882255
20
79.0690986
40
1.3542745
50
134.7751458
51
157.2979535
0
ARC
8
DEFAULT_255_2_778
10
23.7889738
20
79.0654113
40
1.3574205
50
112.1822458
51
134.6879461
0
ARC
8
DEFAULT_255_2_778
10
23.7984692
20
79.0349726
40
1.3891941
50
90.0534013
51
112.0709015
0
ARC
8
DEFAULT_255_2_778
10
30.7949308
20
73.0971743
40
1.3495937
50
67.3815558
51
89.9005038
0
ARC
8
DEFAULT_255_2_778
10
30.794784
20
73.0978473
40
1.349029
50
44.8566931
51
67.3648064
0
ARC
8
DEFAULT_255_2_778
10
30.788531
20
73.09091
40
1.3583548
50
22.5564446
51
44.8780852
0
ARC
8
DEFAULT_255_2_778
10
30.7938582
20
73.0959178
40
1.3515165
50
0.0401939
51
22.4470172
0
ARC
8
DEFAULT_255_2_778
10
30.7941106
20
73.0976637
40
1.3512641
50
337.5508695
51
359.9661729
0
ARC
8
DEFAULT_255_2_778
10
30.7898784
20
73.1020415
40
1.3568494
50
315.1051195
51
337.4482638
0
ARC
8
DEFAULT_255_2_778
10
30.7899146
20
73.1027075
40
1.3572939
50
292.7124424
51
315.084124
0
ARC
8
DEFAULT_255_2_778
10
30.7955671
20
73.0945887
40
1.3476238
50
270.0725903
51
292.6240337
0
ARC
8
DEFAULT_255_2_778
10
23.7992292
20
73.1374879
40
1.390523
50
247.9397377
51
269.9276935
0
ARC
8
DEFAULT_255_2_778
10
23.7897762
20
73.1061896
40
1.357969
50
225.3347988
51
247.8134108
0
ARC
8
DEFAULT_255_2_778
10
23.7855399
20
73.0997419
40
1.3504061
50
202.692919
51
225.2703283
0
ARC
8
DEFAULT_255_2_778
10
23.7890636
20
73.0990497
40
1.3533914
50
180.1051471
51
202.6083323
0
ARC
8
DEFAULT_255_2_778
10
23.7794526
20
73.096731
40
1.3437782
50
157.343306
51
180.0070356
0
ARC
8
DEFAULT_255_2_778
10
23.7865759
20
73.0924892
40
1.3519863
50
134.7430292
51
157.2937033
0
ARC
8
DEFAULT_255_2_778
10
23.7905458
20
73.0851459
40
1.3599987
50
112.1958356
51
134.6440492
0
ARC
8
DEFAULT_255_2_778
10
23.7988545
20
73.0565388
40
1.3896282
50
90.0692729
51
112.0674412
0
ARC
8
DEFAULT_255_2_778
10
9.7620006
20
61.1481791
40
1.9573151
50
245.7771351
51
270.0811979
0
ARC
8
DEFAULT_255_2_778
10
9.7600079
20
61.1456414
40
1.9541836
50
188.6826476
51
245.7998875
0
ARC
8
DEFAULT_255_2_778
10
9.7655492
20
61.1410455
40
1.958975
50
179.9818517
51
188.5252999
0
ARC
8
DEFAULT_255_2_778
10
9.7437442
20
61.1442894
40
1.9371716
50
154.9242245
51
180.077593
0
ARC
8
DEFAULT_255_2_778
10
9.763458
20
61.1326036
40
1.9599812
50
100.7919874
51
154.8590529
0
ARC
8
DEFAULT_255_2_778
10
9.763833
20
61.1161755
40
1.9761907
50
89.9727056
51
100.7134833
0
ARC
8
DEFAULT_255_2_778
10
17.8246369
20
61.1485123
40
1.9573483
50
269.9191368
51
294.2214138
0
ARC
8
DEFAULT_255_2_778
10
17.8267096
20
61.145908
40
1.9541232
50
294.1973187
51
351.315176
0
ARC
8
DEFAULT_255_2_778
10
17.8213275
20
61.1412455
40
1.958747
50
351.4737681
51
0.0181479
0
ARC
8
DEFAULT_255_2_778
10
17.8430302
20
61.1444743
40
1.9370459
50
359.9228491
51
25.0800184
0
ARC
8
DEFAULT_255_2_778
10
17.822894
20
61.1326016
40
1.9603177
50
25.1448406
51
79.2034899
0
ARC
8
DEFAULT_255_2_778
10
17.8228061
20
61.1172537
40
1.9754125
50
79.2843735
51
90.0270228
0
ARC
8
DEFAULT_255_2_778
10
9.7631086
20
61.5686548
40
1.0279126
50
89.9071466
51
90.0309624
0
ARC
8
DEFAULT_255_2_778
10
9.7602903
20
61.145555
40
1.4510144
50
89.9106507
51
120.5483332
0
ARC
8
DEFAULT_255_2_778
10
9.7630758
20
61.1385035
40
1.4585032
50
120.5017739
51
172.1029577
0
ARC
8
DEFAULT_255_2_778
10
9.7758096
20
61.1390849
40
1.4710383
50
172.1935316
51
179.8799948
0
ARC
8
DEFAULT_255_2_778
10
9.755918
20
61.143311
40
1.4511441
50
180.0452092
51
210.5974434
0
ARC
8
DEFAULT_255_2_778
10
9.7628436
20
61.14607
40
1.4585102
50
210.5522588
51
262.2257492
0
ARC
8
DEFAULT_255_2_778
10
9.7621625
20
61.1584791
40
1.4707148
50
262.3174339
51
270.015219
0
ARC
8
DEFAULT_255_2_778
10
9.7631086
20
60.7156772
40
1.027913
50
269.9690376
51
270.0928534
0
ARC
8
DEFAULT_255_2_778
10
17.82354
20
60.7153644
40
1.0275998
50
269.9071299
51
270.030968
0
ARC
8
DEFAULT_255_2_778
10
17.8263443
20
61.1385696
40
1.450807
50
269.9111894
51
300.550571
0
ARC
8
DEFAULT_255_2_778
10
17.8234371
20
61.1458319
40
1.4585393
50
300.5039084
51
352.1030159
0
ARC
8
DEFAULT_255_2_778
10
17.8107393
20
61.145247
40
1.4710383
50
352.1935318
51
359.8799948
0
ARC
8
DEFAULT_255_2_778
10
17.8305994
20
61.1410188
40
1.4511755
50
0.0452928
51
30.59681
0
ARC
8
DEFAULT_255_2_778
10
17.8237362
20
61.1383231
40
1.4584557
50
30.55073
51
82.2236359
0
ARC
8
DEFAULT_255_2_778
10
17.8244853
20
61.1261821
40
1.4703855
50
82.3165716
51
90.0151927
0
ARC
8
DEFAULT_255_2_778
10
17.82354
20
61.5689675
40
1.0276003
50
89.969032
51
90.0928701
0
ARC
8
DEFAULT_255_2_778
10
9.7751564
20
61.1584097
40
1.3592438
50
267.2306708
51
269.9965423
0
ARC
8
DEFAULT_255_2_778
10
9.7769726
20
61.1875282
40
1.3884162
50
248.0049712
51
267.2138676
0
ARC
8
DEFAULT_255_2_778
10
9.765125
20
61.1499462
40
1.3491359
50
225.3492371
51
247.8737358
0
ARC
8
DEFAULT_255_2_778
10
9.7692384
20
61.150196
40
1.3522072
50
202.7875292
51
225.2326831
0
ARC
8
DEFAULT_255_2_778
10
9.7604796
20
61.1419767
40
1.3409551
50
179.9983217
51
202.6086996
0
ARC
8
DEFAULT_255_2_778
10
9.760484
20
61.1420538
40
1.3409596
50
157.3913161
51
180.0016163
0
ARC
8
DEFAULT_255_2_778
10
9.7644018
20
61.137534
40
1.3463166
50
134.738053
51
157.2778423
0
ARC
8
DEFAULT_255_2_778
10
9.7655163
20
61.1331884
40
1.3501898
50
112.1351641
51
134.6418507
0
ARC
8
DEFAULT_255_2_778
10
9.7762898
20
61.0996289
40
1.3853379
50
90.0626732
51
112.024922
0
ARC
8
DEFAULT_255_2_778
10
17.8297702
20
61.1459659
40
1.3390022
50
67.3243411
51
89.8971228
0
ARC
8
DEFAULT_255_2_778
10
17.8261828
20
61.140038
40
1.3458554
50
44.84155
51
67.2807156
0
ARC
8
DEFAULT_255_2_778
10
17.8218848
20
61.1360076
40
1.3517448
50
22.5398254
51
44.8342175
0
ARC
8
DEFAULT_255_2_778
10
17.828648
20
61.1418115
40
1.3432765
50
359.9980563
51
22.4217573
0
ARC
8
DEFAULT_255_2_778
10
17.8286457
20
61.1417206
40
1.3432787
50
337.5782705
51
0.0019344
0
ARC
8
DEFAULT_255_2_778
10
17.8228006
20
61.146914
40
1.3506651
50
315.1567513
51
337.4691944
0
ARC
8
DEFAULT_255_2_778
10
17.8261834
20
61.1434927
40
1.3458541
50
292.7192824
51
315.1584706
0
ARC
8
DEFAULT_255_2_778
10
17.8286391
20
61.1431824
40
1.344621
50
270.1506445
51
292.6278691
0
ARC
8
DEFAULT_255_2_778
10
9.7620006
20
67.1253791
40
1.9573151
50
245.7771351
51
270.0811979
0
ARC
8
DEFAULT_255_2_778
10
9.7600079
20
67.1228414
40
1.9541836
50
188.6826476
51
245.7998875
0
ARC
8
DEFAULT_255_2_778
10
9.7655492
20
67.1182455
40
1.958975
50
179.9818517
51
188.5252999
0
ARC
8
DEFAULT_255_2_778
10
9.7437442
20
67.1214894
40
1.9371716
50
154.9242245
51
180.077593
0
ARC
8
DEFAULT_255_2_778
10
9.763458
20
67.1098036
40
1.9599812
50
100.7919874
51
154.8590529
0
ARC
8
DEFAULT_255_2_778
10
9.763833
20
67.0933755
40
1.9761907
50
89.9727056
51
100.7134833
0
ARC
8
DEFAULT_255_2_778
10
9.7631084
20
67.5454431
40
1.0280243
50
89.9071466
51
90.0309624
0
ARC
8
DEFAULT_255_2_778
10
9.760278
20
67.1223614
40
1.451108
50
89.9101799
51
120.5442349
0
ARC
8
DEFAULT_255_2_778
10
9.7629748
20
67.1154937
40
1.4583937
50
120.4983619
51
172.1049328
0
ARC
8
DEFAULT_255_2_778
10
9.7761109
20
67.1159853
40
1.4713396
50
172.1941601
51
179.880035
0
ARC
8
DEFAULT_255_2_778
10
9.755918
20
67.120211
40
1.4511441
50
180.0452092
51
210.5974434
0
ARC
8
DEFAULT_255_2_778
10
9.7628436
20
67.12297
40
1.4585102
50
210.5522588
51
262.2257492
0
ARC
8
DEFAULT_255_2_778
10
9.7621625
20
67.1353791
40
1.4707148
50
262.3174339
51
270.015219
0
ARC
8
DEFAULT_255_2_778
10
9.7631086
20
66.6925772
40
1.027913
50
269.9690376
51
270.0928534
0
ARC
8
DEFAULT_255_2_778
10
17.82354
20
66.6922644
40
1.0275998
50
269.9071299
51
270.030968
0
ARC
8
DEFAULT_255_2_778
10
17.8263443
20
67.1154696
40
1.450807
50
269.9111894
51
300.550571
0
ARC
8
DEFAULT_255_2_778
10
17.8234371
20
67.1227319
40
1.4585393
50
300.5039084
51
352.1030159
0
ARC
8
DEFAULT_255_2_778
10
17.8107393
20
67.122147
40
1.4710383
50
352.1935318
51
359.8799948
0
ARC
8
DEFAULT_255_2_778
10
17.8305218
20
67.1179419
40
1.451253
50
0.0443773
51
30.5092521
0
ARC
8
DEFAULT_255_2_778
10
17.8237978
20
67.11527
40
1.458403
50
30.4655773
51
82.2145343
0
ARC
8
DEFAULT_255_2_778
10
17.8244881
20
67.1029082
40
1.4705594
50
82.3064278
51
90.0152884
0
ARC
8
DEFAULT_255_2_778
10
17.8235402
20
67.5455707
40
1.027897
50
89.9690376
51
90.0928534
0
ARC
8
DEFAULT_255_2_778
10
9.7765127
20
67.16225
40
1.3864847
50
247.9843108
51
269.940562
0
ARC
8
DEFAULT_255_2_778
10
9.7656789
20
67.1287718
40
1.3513889
50
225.3807853
51
247.878071
0
ARC
8
DEFAULT_255_2_778
10
9.7634086
20
67.123584
40
1.3461031
50
202.7437779
51
225.294471
0
ARC
8
DEFAULT_255_2_778
10
9.760192
20
67.1187393
40
1.3412675
50
179.9967267
51
202.6060403
0
ARC
8
DEFAULT_255_2_778
10
9.760191
20
67.1188928
40
1.3412666
50
157.3939515
51
180.0032816
0
ARC
8
DEFAULT_255_2_778
10
9.7646887
20
67.113842
40
1.3473634
50
134.7290821
51
157.2691895
0
ARC
8
DEFAULT_255_2_778
10
9.7663366
20
67.1090251
40
1.351947
50
112.1424039
51
134.635036
0
ARC
8
DEFAULT_255_2_778
10
9.7763607
20
67.0770741
40
1.3853226
50
92.3719146
51
112.0283415
0
ARC
8
DEFAULT_255_2_778
10
9.7751308
20
67.1006316
40
1.3617343
50
90.0023729
51
92.3612327
0
ARC
8
DEFAULT_255_2_778
10
17.8323986
20
67.1579931
40
1.3043729
50
87.4676559
51
89.9966686
0
ARC
8
DEFAULT_255_2_778
10
17.8296845
20
67.1203002
40
1.3421492
50
67.3533693
51
87.4229997
0
ARC
8
DEFAULT_255_2_778
10
17.8257721
20
67.1161849
40
1.3474552
50
44.8550376
51
67.2672155
0
ARC
8
DEFAULT_255_2_778
10
17.821795
20
67.1126105
40
1.3527957
50
22.5487376
51
44.8435492
0
ARC
8
DEFAULT_255_2_778
10
17.8287141
20
67.1188663
40
1.3440102
50
0.0260599
51
22.4155486
0
ARC
8
DEFAULT_255_2_778
10
18.6459576
20
67.1189907
40
0.5267669
50
359.9823488
51
0.0529536
0
ARC
8
DEFAULT_255_2_778
10
17.8292666
20
67.1187564
40
1.3434578
50
337.5797742
51
0.0030742
0
ARC
8
DEFAULT_255_2_778
10
17.8213621
20
67.1251908
40
1.3532221
50
315.1642892
51
337.4555757
0
ARC
8
DEFAULT_255_2_778
10
17.8261045
20
67.1213779
40
1.3471709
50
292.7225237
51
315.1370735
0
ARC
8
DEFAULT_255_2_778
10
17.829241
20
67.1193818
40
1.3441198
50
270.1378316
51
292.6320694
0
ARC
8
DEFAULT_255_2_778
10
17.8248483
20
67.1250791
40
1.9573151
50
269.9188021
51
294.2228649
0
ARC
8
DEFAULT_255_2_778
10
17.8268409
20
67.1225414
40
1.9541836
50
294.2001125
51
351.3173524
0
ARC
8
DEFAULT_255_2_778
10
17.8212996
20
67.1179455
40
1.958975
50
351.4747001
51
0.0181483
0
ARC
8
DEFAULT_255_2_778
10
17.8431021
20
67.1211811
40
1.9371741
50
359.922651
51
25.0561127
0
ARC
8
DEFAULT_255_2_778
10
17.8231928
20
67.1094131
40
1.9601949
50
25.1212618
51
79.2013576
0
ARC
8
DEFAULT_255_2_778
10
17.8230066
20
67.0936723
40
1.9756939
50
79.2815799
51
90.0270329
0
LINE
8
DEFAULT_255_2_778
10
125.0852744
20
28.057866
11
125.1145744
21
28.128466
0
LINE
8
DEFAULT_255_2_778
10
125.1145744
20
28.128466
11
125.5141744
21
28.526466
0
LINE
8
DEFAULT_255_2_778
10
125.0762744
20
28.036166
11
125.0590744
21
28.016566
0
LINE
8
DEFAULT_255_2_778
10
125.0590744
20
28.016566
11
125.0444744
21
27.994866
0
LINE
8
DEFAULT_255_2_778
10
125.0444744
20
27.994866
11
125.0328744
21
27.971566
0
LINE
8
DEFAULT_255_2_778
10
125.0328744
20
27.971566
11
125.0712744
21
28.063966
0
LINE
8
DEFAULT_255_2_778
10
125.6125744
20
28.289066
11
125.2172744
21
27.895366
0
LINE
8
DEFAULT_255_2_778
10
125.2172744
20
27.895366
11
125.2172744
21
25.952866
0
LINE
8
DEFAULT_255_2_778
10
125.2172744
20
25.952866
11
125.0172744
21
25.952866
0
LINE
8
DEFAULT_255_2_778
10
125.0172744
20
25.952866
11
125.0172744
21
27.895366
0
LINE
8
DEFAULT_255_2_778
10
125.0172744
20
27.895366
11
125.2172744
21
27.895366
0
LINE
8
DEFAULT_255_2_778
10
125.2172744
20
27.895366
11
125.0759744
21
28.036166
0
LINE
8
DEFAULT_255_2_778
10
125.0759744
20
28.036166
11
125.5297744
21
28.488366
0
LINE
8
DEFAULT_255_2_778
10
125.5297744
20
28.488366
11
136.0638744
21
28.488366
0
LINE
8
DEFAULT_255_2_778
10
136.5662744
20
28.290966
11
136.0638744
21
28.289066
0
LINE
8
DEFAULT_255_2_778
10
136.0638744
20
28.289066
11
125.6125744
21
28.289066
0
LINE
8
DEFAULT_255_2_778
10
125.6125744
20
28.289066
11
125.5138744
21
28.526666
0
LINE
8
DEFAULT_255_2_778
10
125.5138744
20
28.526666
11
136.5639744
21
28.526666
0
LINE
8
DEFAULT_255_2_778
10
136.5639744
20
28.526666
11
137.0052744
21
28.086966
0
LINE
8
DEFAULT_255_2_778
10
137.0052744
20
28.086966
11
137.0052744
21
28.052566
0
LINE
8
DEFAULT_255_2_778
10
137.0637744
20
27.911766
11
137.0568744
21
27.914966
0
LINE
8
DEFAULT_255_2_778
10
137.0568744
20
27.914966
11
137.0515744
21
27.918466
0
LINE
8
DEFAULT_255_2_778
10
137.0515744
20
27.918466
11
136.8758744
21
28.050166
0
LINE
8
DEFAULT_255_2_778
10
136.8758744
20
28.050166
11
136.5665744
21
28.291266
0
LINE
8
DEFAULT_255_2_778
10
124.7137744
20
27.135266
11
125.0174744
21
27.135266
0
LINE
8
DEFAULT_255_2_778
10
47.4395744
20
28.289066
11
47.4281744
21
28.364266
0
LINE
8
DEFAULT_255_2_778
10
47.4281744
20
28.364266
11
47.4183744
21
28.428566
0
LINE
8
DEFAULT_255_2_778
10
47.4183744
20
28.428566
11
47.4146744
21
28.453366
0
LINE
8
DEFAULT_255_2_778
10
47.4146744
20
28.453366
11
47.4120744
21
28.472166
0
LINE
8
DEFAULT_255_2_778
10
47.4120744
20
28.472166
11
47.4104744
21
28.483866
0
LINE
8
DEFAULT_255_2_778
10
47.4104744
20
28.483866
11
47.4093744
21
28.488066
0
LINE
8
DEFAULT_255_2_778
10
115.8721744
20
28.484666
11
116.2137744
21
28.484666
0
LINE
8
DEFAULT_255_2_778
10
118.4637744
20
28.316866
11
117.9557744
21
28.608966
0
LINE
8
DEFAULT_255_2_778
10
117.9557744
20
28.608966
11
116.9757744
21
28.608966
0
LINE
8
DEFAULT_255_2_778
10
116.9757744
20
28.608966
11
116.2137744
21
28.170866
0
LINE
8
DEFAULT_255_2_778
10
117.4834744
20
26.138866
11
117.4834744
21
28.609266
0
LINE
8
DEFAULT_255_2_778
10
123.4434744
20
28.609266
11
123.4434744
21
26.138866
0
LINE
8
DEFAULT_255_2_778
10
124.7134744
20
28.171066
11
123.9514744
21
28.609266
0
LINE
8
DEFAULT_255_2_778
10
123.9514744
20
28.609266
11
122.9714744
21
28.609266
0
LINE
8
DEFAULT_255_2_778
10
122.9714744
20
28.609266
11
122.4634744
21
28.317166
0
LINE
8
DEFAULT_255_2_778
10
44.5629744
20
27.532166
11
44.5267744
21
27.496366
0
LINE
8
DEFAULT_255_2_778
10
42.6505744
20
26.869066
11
42.6381744
21
26.950866
0
LINE
8
DEFAULT_255_2_778
10
42.6381744
20
26.950866
11
42.6278744
21
27.007166
0
LINE
8
DEFAULT_255_2_778
10
42.6206744
20
27.037066
11
42.6161744
21
27.046366
0
LINE
8
DEFAULT_255_2_778
10
44.7802744
20
27.467866
11
44.7246744
21
27.485266
0
LINE
8
DEFAULT_255_2_778
10
44.7246744
20
27.485266
11
44.5624744
21
27.532166
0
LINE
8
DEFAULT_255_2_778
10
44.5624744
20
27.532166
11
44.5659744
21
27.565766
0
LINE
8
DEFAULT_255_2_778
10
124.8169744
20
25.554066
11
124.8558744
21
25.555966
0
LINE
8
DEFAULT_255_2_778
10
115.7099744
20
25.952266
11
115.7118744
21
25.913666
0
LINE
8
DEFAULT_255_2_778
10
124.8169744
20
25.753566
11
124.8169744
21
25.554366
0
LINE
8
DEFAULT_255_2_778
10
124.8169744
20
25.554366
11
116.1097744
21
25.554366
0
LINE
8
DEFAULT_255_2_778
10
116.1097744
20
25.554366
11
116.1097744
21
25.753566
0
LINE
8
DEFAULT_255_2_778
10
116.1097744
20
25.753566
11
124.8169744
21
25.753566
0
LINE
8
DEFAULT_255_2_778
10
44.9236744
20
10.696966
11
44.9180744
21
10.736366
0
LINE
8
DEFAULT_255_2_778
10
44.8897744
20
10.834066
11
44.9090744
21
10.694866
0
LINE
8
DEFAULT_255_2_778
10
47.1228744
20
10.736166
11
47.0275744
21
10.733166
0
LINE
8
DEFAULT_255_2_778
10
47.0275744
20
10.733166
11
46.7727744
21
10.736166
0
LINE
8
DEFAULT_255_2_778
10
47.1442744
20
10.382666
11
47.1231744
21
10.736166
0
LINE
8
DEFAULT_255_2_778
10
47.1231744
20
10.736166
11
47.1186744
21
10.833766
0
LINE
8
DEFAULT_255_2_778
10
47.1186744
20
10.833766
11
44.7810744
21
27.467566
0
LINE
8
DEFAULT_255_2_778
10
44.7810744
20
27.467566
11
47.4398744
21
28.288566
0
LINE
8
DEFAULT_255_2_778
10
47.4398744
20
28.288566
11
115.3697744
21
28.288566
0
LINE
8
DEFAULT_255_2_778
10
115.3697744
20
28.288566
11
115.7104744
21
27.949066
0
LINE
8
DEFAULT_255_2_778
10
115.7104744
20
27.949066
11
115.9105744
21
27.949066
0
LINE
8
DEFAULT_255_2_778
10
115.9105744
20
27.949066
11
115.9105744
21
25.952566
0
LINE
8
DEFAULT_255_2_778
10
115.9105744
20
25.952566
11
115.7104744
21
25.952566
0
LINE
8
DEFAULT_255_2_778
10
115.7104744
20
25.952566
11
115.7104744
21
27.949066
0
LINE
8
DEFAULT_255_2_778
10
115.7104744
20
27.949066
11
115.8520744
21
28.089866
0
LINE
8
DEFAULT_255_2_778
10
115.8520744
20
28.089866
11
115.4141744
21
28.526166
0
LINE
8
DEFAULT_255_2_778
10
115.4141744
20
28.526166
11
47.4032744
21
28.526166
0
LINE
8
DEFAULT_255_2_778
10
47.4032744
20
28.526166
11
47.4091744
21
28.487766
0
LINE
8
DEFAULT_255_2_778
10
47.4091744
20
28.487766
11
44.6010744
21
27.620766
0
LINE
8
DEFAULT_255_2_778
10
44.6010744
20
27.620766
11
42.6169744
21
27.045266
0
LINE
8
DEFAULT_255_2_778
10
136.0638744
20
28.488066
11
136.0638744
21
9.837866
0
LINE
8
DEFAULT_255_2_778
10
136.0638744
20
9.837866
11
122.4412744
21
9.837866
0
LINE
8
DEFAULT_255_2_778
10
42.3156744
20
64.785966
11
115.3980744
21
64.785966
0
LINE
8
DEFAULT_255_2_778
10
115.3980744
20
64.785966
11
115.8518744
21
65.238166
0
LINE
8
DEFAULT_255_2_778
10
115.8518744
20
65.238166
11
115.7104744
21
65.378966
0
LINE
8
DEFAULT_255_2_778
10
115.7104744
20
65.378966
11
115.9105744
21
65.378966
0
LINE
8
DEFAULT_255_2_778
10
115.9105744
20
65.378966
11
115.9105744
21
68.380066
0
LINE
8
DEFAULT_255_2_778
10
115.9105744
20
68.380066
11
115.7104744
21
68.380066
0
LINE
8
DEFAULT_255_2_778
10
115.7104744
20
68.380066
11
115.3152744
21
68.773766
0
LINE
8
DEFAULT_255_2_778
10
115.3152744
20
68.773766
11
41.7499744
21
68.773766
0
LINE
8
DEFAULT_255_2_778
10
36.9414744
20
67.351166
11
36.9273744
21
67.530266
0
LINE
8
DEFAULT_255_2_778
10
115.8570744
20
68.548666
11
115.8954744
21
68.456266
0
LINE
8
DEFAULT_255_2_778
10
115.8954744
20
68.456266
11
115.9039744
21
68.431666
0
LINE
8
DEFAULT_255_2_778
10
115.9039744
20
68.431666
11
115.9089744
21
68.406066
0
LINE
8
DEFAULT_255_2_778
10
115.9089744
20
68.406066
11
115.9105744
21
68.380066
0
LINE
8
DEFAULT_255_2_778
10
115.8570744
20
65.210366
11
115.8954744
21
65.302766
0
LINE
8
DEFAULT_255_2_778
10
115.8954744
20
65.302766
11
115.9039744
21
65.327366
0
LINE
8
DEFAULT_255_2_778
10
41.7168744
20
69.011366
11
115.4139744
21
69.011366
0
LINE
8
DEFAULT_255_2_778
10
115.4139744
20
69.011366
11
115.8134744
21
68.613466
0
LINE
8
DEFAULT_255_2_778
10
115.8134744
20
68.613466
11
115.8427744
21
68.542866
0
LINE
8
DEFAULT_255_2_778
10
41.7168744
20
69.015666
11
115.3980744
21
69.015666
0
LINE
8
DEFAULT_255_2_778
10
115.3980744
20
69.015666
11
115.8518744
21
68.558666
0
LINE
8
DEFAULT_255_2_778
10
115.8518744
20
68.558666
11
115.7104744
21
68.416366
0
LINE
8
DEFAULT_255_2_778
10
115.7104744
20
68.416366
11
115.7104744
21
65.382866
0
LINE
8
DEFAULT_255_2_778
10
115.7104744
20
65.382866
11
115.3152744
21
64.984966
0
LINE
8
DEFAULT_255_2_778
10
115.3152744
20
64.984966
11
42.3463744
21
64.984966
0
LINE
8
DEFAULT_255_2_778
10
115.8425744
20
65.215966
11
115.8131744
21
65.145266
0
LINE
8
DEFAULT_255_2_778
10
115.8131744
20
65.145266
11
115.4136744
21
64.747366
0
LINE
8
DEFAULT_255_2_778
10
115.4136744
20
64.747366
11
42.3156744
21
64.747366
0
LINE
8
DEFAULT_255_2_778
10
41.7195744
20
68.972766
11
38.9114744
21
68.105766
0
LINE
8
DEFAULT_255_2_778
10
38.9114744
20
68.105766
11
36.9215744
21
67.531266
0
LINE
8
DEFAULT_255_2_778
10
36.9215744
20
67.531266
11
37.1049744
21
66.227466
0
LINE
8
DEFAULT_255_2_778
10
37.1049744
20
66.227466
11
42.3129744
21
64.747666
0
LINE
8
DEFAULT_255_2_778
10
42.3129744
20
64.747666
11
42.3463744
21
64.985266
0
LINE
8
DEFAULT_255_2_778
10
42.3463744
20
64.985266
11
39.1723744
21
65.887166
0
LINE
8
DEFAULT_255_2_778
10
39.1723744
20
65.887166
11
38.8908744
21
67.890866
0
LINE
8
DEFAULT_255_2_778
10
38.8908744
20
67.890866
11
41.7499744
21
68.773766
0
LINE
8
DEFAULT_255_2_778
10
41.7499744
20
68.773766
11
41.7139744
21
69.011366
0
LINE
8
DEFAULT_255_2_778
10
41.7139744
20
69.011366
11
36.9218744
21
67.531566
0
LINE
8
DEFAULT_255_2_778
10
38.8863744
20
67.912366
11
36.9612744
21
67.353766
0
LINE
8
DEFAULT_255_2_778
10
36.9612744
20
67.353766
11
37.0977744
21
66.382266
0
LINE
8
DEFAULT_255_2_778
10
37.0977744
20
66.382266
11
39.1723744
21
65.828466
0
LINE
8
DEFAULT_255_2_778
10
115.8568744
20
63.487966
11
115.8951744
21
63.395566
0
LINE
8
DEFAULT_255_2_778
10
115.8951744
20
63.395566
11
115.9036744
21
63.370966
0
LINE
8
DEFAULT_255_2_778
10
115.9036744
20
63.370966
11
115.9086744
21
63.345366
0
LINE
8
DEFAULT_255_2_778
10
115.9086744
20
63.345366
11
115.9102744
21
63.319366
0
LINE
8
DEFAULT_255_2_778
10
41.3652744
20
36.018666
11
41.3742744
21
35.950866
0
LINE
8
DEFAULT_255_2_778
10
41.3742744
20
35.950866
11
41.3795744
21
35.900866
0
LINE
8
DEFAULT_255_2_778
10
41.3795744
20
35.900866
11
41.3811744
21
35.873966
0
LINE
8
DEFAULT_255_2_778
10
41.3811744
20
35.873966
11
41.3797744
21
35.865466
0
LINE
8
DEFAULT_255_2_778
10
41.3797744
20
35.865466
11
43.4723744
21
35.307166
0
LINE
8
DEFAULT_255_2_778
10
43.4723744
20
35.307166
11
46.5859744
21
34.422366
0
LINE
8
DEFAULT_255_2_778
10
46.5859744
20
34.422366
11
46.5807744
21
34.384066
0
LINE
8
DEFAULT_255_2_778
10
43.2948744
20
35.503766
11
43.3271744
21
35.472066
0
LINE
8
DEFAULT_255_2_778
10
43.3271744
20
35.472066
11
43.4358744
21
35.380166
0
LINE
8
DEFAULT_255_2_778
10
43.4358744
20
35.380166
11
43.4893744
21
35.397166
0
LINE
8
DEFAULT_255_2_778
10
43.4893744
20
35.397166
11
43.6575744
21
35.461466
0
LINE
8
DEFAULT_255_2_778
10
46.6137744
20
34.621366
11
46.6031744
21
34.546266
0
LINE
8
DEFAULT_255_2_778
10
46.6031744
20
34.546266
11
46.5941744
21
34.481966
0
LINE
8
DEFAULT_255_2_778
10
46.5941744
20
34.481966
11
46.5907744
21
34.457066
0
LINE
8
DEFAULT_255_2_778
10
46.5907744
20
34.457066
11
46.5883744
21
34.438266
0
LINE
8
DEFAULT_255_2_778
10
46.5883744
20
34.438266
11
46.5867744
21
34.426366
0
LINE
8
DEFAULT_255_2_778
10
46.5867744
20
34.426366
11
46.5859744
21
34.421866
0
LINE
8
DEFAULT_255_2_778
10
115.8520744
20
34.819866
11
115.8692744
21
34.839366
0
LINE
8
DEFAULT_255_2_778
10
115.8692744
20
34.839366
11
115.8838744
21
34.861066
0
LINE
8
DEFAULT_255_2_778
10
115.3697744
20
34.621166
11
115.4001744
21
34.548066
0
LINE
8
DEFAULT_255_2_778
10
115.4001744
20
34.548066
11
115.4268744
21
34.484066
0
LINE
8
DEFAULT_255_2_778
10
115.4268744
20
34.484066
11
115.4374744
21
34.458666
0
LINE
8
DEFAULT_255_2_778
10
115.4374744
20
34.458666
11
115.4456744
21
34.439066
0
LINE
8
DEFAULT_255_2_778
10
115.4527744
20
34.421866
11
46.5830744
21
34.421866
0
LINE
8
DEFAULT_255_2_778
10
39.8026744
20
62.891866
11
39.7470744
21
62.909266
0
LINE
8
DEFAULT_255_2_778
10
39.7470744
20
62.909266
11
39.5848744
21
62.956166
0
LINE
8
DEFAULT_255_2_778
10
39.5848744
20
62.956166
11
39.5486744
21
62.920466
0
LINE
8
DEFAULT_255_2_778
10
39.5845744
20
62.956166
11
39.5880744
21
62.989766
0
LINE
8
DEFAULT_255_2_778
10
115.4139744
20
34.383766
11
115.8518744
21
34.820066
0
LINE
8
DEFAULT_255_2_778
10
115.8518744
20
34.820066
11
115.7102744
21
34.960866
0
LINE
8
DEFAULT_255_2_778
10
115.7102744
20
34.960866
11
115.9102744
21
34.960866
0
LINE
8
DEFAULT_255_2_778
10
115.9102744
20
34.960866
11
115.9102744
21
63.319366
0
LINE
8
DEFAULT_255_2_778
10
115.9102744
20
63.319366
11
115.7102744
21
63.319366
0
LINE
8
DEFAULT_255_2_778
10
115.7102744
20
63.319366
11
115.3149744
21
63.713066
0
LINE
8
DEFAULT_255_2_778
10
115.3149744
20
63.713066
11
42.4611744
21
63.713066
0
LINE
8
DEFAULT_255_2_778
10
42.4611744
20
63.713066
11
42.4251744
21
63.950666
0
LINE
8
DEFAULT_255_2_778
10
42.4251744
20
63.950666
11
37.6330744
21
62.470866
0
LINE
8
DEFAULT_255_2_778
10
37.6330744
20
62.470866
11
41.3723744
21
35.863866
0
LINE
8
DEFAULT_255_2_778
10
41.3723744
20
35.863866
11
46.5804744
21
34.384066
0
LINE
8
DEFAULT_255_2_778
10
46.5804744
20
34.384066
11
115.4139744
21
34.383766
0
LINE
8
DEFAULT_255_2_778
10
37.6727744
20
62.293066
11
41.3652744
21
36.018366
0
LINE
8
DEFAULT_255_2_778
10
41.3652744
20
36.018366
11
43.2945744
21
35.503466
0
LINE
8
DEFAULT_255_2_778
10
43.2945744
20
35.503466
11
39.4570744
21
62.810666
0
LINE
8
DEFAULT_255_2_778
10
39.4570744
20
62.810666
11
37.6727744
21
62.293066
0
LINE
8
DEFAULT_255_2_778
10
37.6727744
20
62.293066
11
37.6602744
21
62.374866
0
LINE
8
DEFAULT_255_2_778
10
37.6602744
20
62.374866
11
37.6499744
21
62.431166
0
LINE
8
DEFAULT_255_2_778
10
37.6428744
20
62.461066
11
37.6383744
21
62.470366
0
LINE
8
DEFAULT_255_2_778
10
37.6383744
20
62.470366
11
39.6229744
21
63.045066
0
LINE
8
DEFAULT_255_2_778
10
39.6229744
20
63.045066
11
42.4309744
21
63.912066
0
LINE
8
DEFAULT_255_2_778
10
42.4309744
20
63.912066
11
115.3980744
21
63.912066
0
LINE
8
DEFAULT_255_2_778
10
115.3980744
20
63.912066
11
115.8518744
21
63.459866
0
LINE
8
DEFAULT_255_2_778
10
115.8518744
20
63.459866
11
115.7104744
21
63.319166
0
LINE
8
DEFAULT_255_2_778
10
115.7104744
20
63.319166
11
115.7104744
21
34.960866
0
LINE
8
DEFAULT_255_2_778
10
115.7104744
20
34.960866
11
115.3697744
21
34.621366
0
LINE
8
DEFAULT_255_2_778
10
115.3697744
20
34.621366
11
46.6135744
21
34.621366
0
LINE
8
DEFAULT_255_2_778
10
46.6135744
20
34.621366
11
43.6573744
21
35.461466
0
LINE
8
DEFAULT_255_2_778
10
43.6573744
20
35.461466
11
39.8023744
21
62.892066
0
LINE
8
DEFAULT_255_2_778
10
39.8023744
20
62.892066
11
42.4611744
21
63.713066
0
LINE
8
DEFAULT_255_2_778
10
6.5151744
20
50.085966
11
7.0149744
21
50.085966
0
LINE
8
DEFAULT_255_2_778
10
7.0149744
20
50.085966
11
7.3646744
21
50.440066
0
LINE
8
DEFAULT_255_2_778
10
7.3646744
20
50.440066
11
7.3646744
21
56.900066
0
LINE
8
DEFAULT_255_2_778
10
7.3646744
20
56.900066
11
7.0149744
21
57.254066
0
LINE
8
DEFAULT_255_2_778
10
7.0149744
20
57.254066
11
7.0149744
21
50.085966
0
LINE
8
DEFAULT_255_2_778
10
7.5226744
20
49.588366
11
23.3746744
21
49.835466
0
LINE
8
DEFAULT_255_2_778
10
23.3746744
20
57.504666
11
7.5226744
21
57.751766
0
LINE
8
DEFAULT_255_2_778
10
7.0149744
20
57.254066
11
6.5151744
21
57.254066
0
LINE
8
DEFAULT_255_2_778
10
7.5300744
20
58.249466
11
7.5221744
21
57.751766
0
LINE
8
DEFAULT_255_2_778
10
7.5221744
20
57.751766
11
7.8718744
21
57.397766
0
LINE
8
DEFAULT_255_2_778
10
7.8718744
20
57.397766
11
23.3688744
21
57.156166
0
LINE
8
DEFAULT_255_2_778
10
23.3688744
20
57.156166
11
23.3820744
21
58.002366
0
LINE
8
DEFAULT_255_2_778
10
23.3820744
20
58.002366
11
7.5300744
21
58.249466
0
LINE
8
DEFAULT_255_2_778
10
6.5148744
20
57.253866
11
6.5148744
21
50.085766
0
LINE
8
DEFAULT_255_2_778
10
7.5297744
20
49.090166
11
23.3817744
21
49.337266
0
LINE
8
DEFAULT_255_2_778
10
23.3817744
20
49.337266
11
23.3685744
21
50.183366
0
LINE
8
DEFAULT_255_2_778
10
23.3685744
20
50.183366
11
7.8716744
21
49.941766
0
LINE
8
DEFAULT_255_2_778
10
7.8716744
20
49.941766
11
7.5218744
21
49.587766
0
LINE
8
DEFAULT_255_2_778
10
7.5218744
20
49.587766
11
7.5297744
21
49.090166
0
LINE
8
DEFAULT_255_2_778
10
23.8125744
20
54.166466
11
24.0625744
21
54.060866
0
LINE
8
DEFAULT_255_2_778
10
24.0625744
20
54.060866
11
24.0270744
21
53.883066
0
LINE
8
DEFAULT_255_2_778
10
24.0270744
20
53.883066
11
23.6744744
21
54.028566
0
LINE
8
DEFAULT_255_2_778
10
23.6744744
20
54.028566
11
23.5283744
21
54.379966
0
LINE
8
DEFAULT_255_2_778
10
23.5283744
20
54.379966
11
23.5283744
21
54.571766
0
LINE
8
DEFAULT_255_2_778
10
23.1002744
20
54.571766
11
23.1002744
21
54.379966
0
LINE
8
DEFAULT_255_2_778
10
23.1002744
20
54.379966
11
22.9542744
21
54.028566
0
LINE
8
DEFAULT_255_2_778
10
22.9542744
20
54.028566
11
22.8158744
21
54.166466
0
LINE
8
DEFAULT_255_2_778
10
22.8158744
20
54.166466
11
22.5657744
21
54.060866
0
LINE
8
DEFAULT_255_2_778
10
23.5283744
20
52.959366
11
23.7066744
21
52.923966
0
LINE
8
DEFAULT_255_2_778
10
23.7066744
20
52.923966
11
23.6921744
21
52.292666
0
LINE
8
DEFAULT_255_2_778
10
22.9359744
20
52.292666
11
22.9216744
21
52.923966
0
LINE
8
DEFAULT_255_2_778
10
22.9216744
20
52.923966
11
23.0999744
21
52.959366
0
LINE
8
DEFAULT_255_2_778
10
23.7066744
20
54.415366
11
23.6921744
21
55.046666
0
LINE
8
DEFAULT_255_2_778
10
22.9359744
20
55.046666
11
22.9216744
21
54.415366
0
LINE
8
DEFAULT_255_2_778
10
22.8155744
20
53.173166
11
22.9216744
21
52.924166
0
LINE
8
DEFAULT_255_2_778
10
23.6921744
20
55.046666
11
23.5280744
21
54.572066
0
LINE
8
DEFAULT_255_2_778
10
23.0999744
20
54.572066
11
22.9359744
21
55.046666
0
LINE
8
DEFAULT_255_2_778
10
21.9318744
20
54.046566
11
22.4083744
21
53.883066
0
LINE
8
DEFAULT_255_2_778
10
22.4083744
20
53.456566
11
21.9318744
21
53.293066
0
LINE
8
DEFAULT_255_2_778
10
22.9359744
20
52.292866
11
23.0999744
21
52.767566
0
LINE
8
DEFAULT_255_2_778
10
23.5280744
20
52.767566
11
23.6921744
21
52.292866
0
LINE
8
DEFAULT_255_2_778
10
24.6962744
20
53.293066
11
24.2197744
21
53.456566
0
LINE
8
DEFAULT_255_2_778
10
24.2197744
20
53.883066
11
24.6962744
21
54.046566
0
LINE
8
DEFAULT_255_2_778
10
23.0999744
20
54.380166
11
22.9216744
21
54.415666
0
LINE
8
DEFAULT_255_2_778
10
22.9216744
20
54.415666
11
22.8155744
21
54.166666
0
LINE
8
DEFAULT_255_2_778
10
24.0625744
20
53.278966
11
24.6962744
21
53.293266
0
LINE
8
DEFAULT_255_2_778
10
24.6962744
20
54.046566
11
24.0625744
21
54.060866
0
LINE
8
DEFAULT_255_2_778
10
24.0270744
20
53.456566
11
23.6744744
21
53.311066
0
LINE
8
DEFAULT_255_2_778
10
22.6012744
20
53.883066
11
22.9539744
21
54.028566
0
LINE
8
DEFAULT_255_2_778
10
23.5283744
20
54.379966
11
23.7066744
21
54.415166
0
LINE
8
DEFAULT_255_2_778
10
23.7066744
20
54.415166
11
23.8127744
21
54.166166
0
LINE
8
DEFAULT_255_2_778
10
23.8127744
20
54.166166
11
23.6744744
21
54.028266
0
LINE
8
DEFAULT_255_2_778
10
23.8127744
20
53.172866
11
24.0628744
21
53.278466
0
LINE
8
DEFAULT_255_2_778
10
24.0628744
20
53.278466
11
24.0273744
21
53.456266
0
LINE
8
DEFAULT_255_2_778
10
24.0273744
20
53.456266
11
24.2199744
21
53.456266
0
LINE
8
DEFAULT_255_2_778
10
24.2199744
20
53.882766
11
24.0273744
21
53.882766
0
LINE
8
DEFAULT_255_2_778
10
22.9542744
20
53.310766
11
22.8158744
21
53.172866
0
LINE
8
DEFAULT_255_2_778
10
22.8158744
20
53.172866
11
22.5657744
21
53.278466
0
LINE
8
DEFAULT_255_2_778
10
22.6012744
20
53.456266
11
22.4086744
21
53.456266
0
LINE
8
DEFAULT_255_2_778
10
22.4086744
20
53.882766
11
22.6012744
21
53.882766
0
LINE
8
DEFAULT_255_2_778
10
22.6012744
20
53.882766
11
22.5657744
21
54.060566
0
LINE
8
DEFAULT_255_2_778
10
22.5657744
20
54.060566
11
21.9321744
21
54.046266
0
LINE
8
DEFAULT_255_2_778
10
21.9321744
20
53.293066
11
22.5657744
21
53.278766
0
LINE
8
DEFAULT_255_2_778
10
22.5657744
20
53.278766
11
22.6012744
21
53.456566
0
LINE
8
DEFAULT_255_2_778
10
22.6012744
20
53.456566
11
22.9539744
21
53.311066
0
LINE
8
DEFAULT_255_2_778
10
22.9539744
20
53.311066
11
23.0999744
21
52.959666
0
LINE
8
DEFAULT_255_2_778
10
23.0999744
20
52.959666
11
23.0999744
21
52.767866
0
LINE
8
DEFAULT_255_2_778
10
23.5280744
20
52.767866
11
23.5280744
21
52.959666
0
LINE
8
DEFAULT_255_2_778
10
23.5280744
20
52.959666
11
23.6741744
21
53.311066
0
LINE
8
DEFAULT_255_2_778
10
23.6741744
20
53.311066
11
23.8125744
21
53.173166
0
LINE
8
DEFAULT_255_2_778
10
23.8125744
20
53.173166
11
23.7064744
21
52.924166
0
LINE
8
DEFAULT_255_2_778
10
23.3143744
20
50.230466
11
23.3682744
21
50.230766
0
LINE
8
DEFAULT_255_2_778
10
23.3682744
20
57.108566
11
23.3140744
21
57.109366
0
LINE
8
DEFAULT_255_2_778
10
20.3141744
20
53.670066
11
20.3141744
21
53.670066
0
LINE
8
DEFAULT_255_2_778
10
20.4602744
20
53.670066
11
20.4602744
21
53.670066
0
LINE
8
DEFAULT_255_2_778
10
30.7975744
20
77.723366
11
23.7974744
21
77.723366
0
LINE
8
DEFAULT_255_2_778
10
23.7971744
20
80.424166
11
30.7972744
21
80.424166
0
LINE
8
DEFAULT_255_2_778
10
30.7972744
20
71.746966
11
23.7974744
21
71.746966
0
LINE
8
DEFAULT_255_2_778
10
23.7971744
20
74.446166
11
30.7972744
21
74.446166
0
LINE
8
DEFAULT_255_2_778
10
17.8218744
20
63.092666
11
9.7647744
21
63.092666
0
LINE
8
DEFAULT_255_2_778
10
9.7647744
20
63.092666
11
9.7647744
21
62.483066
0
LINE
8
DEFAULT_255_2_778
10
9.7647744
20
62.483066
11
17.8218744
21
62.486766
0
LINE
8
DEFAULT_255_2_778
10
17.8218744
20
62.486766
11
17.8218744
21
63.092666
0
LINE
8
DEFAULT_255_2_778
10
17.8218744
20
59.797266
11
9.7647744
21
59.800966
0
LINE
8
DEFAULT_255_2_778
10
9.7647744
20
59.800966
11
9.7647744
21
59.191366
0
LINE
8
DEFAULT_255_2_778
10
9.7647744
20
59.191366
11
17.8218744
21
59.191366
0
LINE
8
DEFAULT_255_2_778
10
17.8218744
20
59.191366
11
17.8218744
21
59.797266
0
LINE
8
DEFAULT_255_2_778
10
9.7647744
20
59.687766
11
17.8218744
21
59.687766
0
LINE
8
DEFAULT_255_2_778
10
17.8218744
20
62.596566
11
9.7647744
21
62.596566
0
LINE
8
DEFAULT_255_2_778
10
9.7647744
20
65.664666
11
17.8218744
21
65.664666
0
LINE
8
DEFAULT_255_2_778
10
17.8218744
20
68.573466
11
9.7647744
21
68.573466
0
LINE
8
DEFAULT_255_2_778
10
17.8220744
20
69.069366
11
9.7647744
21
69.069366
0
LINE
8
DEFAULT_255_2_778
10
9.7647744
20
69.069366
11
9.7647744
21
68.460266
0
LINE
8
DEFAULT_255_2_778
10
9.7647744
20
68.460266
11
17.8218744
21
68.463966
0
LINE
8
DEFAULT_255_2_778
10
17.8218744
20
68.463966
11
17.8218744
21
69.069366
0
LINE
8
DEFAULT_255_2_778
10
17.8218744
20
65.773666
11
9.7647744
21
65.777366
0
LINE
8
DEFAULT_255_2_778
10
9.7647744
20
65.777366
11
9.7647744
21
65.168066
0
LINE
8
DEFAULT_255_2_778
10
9.7647744
20
65.168066
11
17.8218744
21
65.168066
0
LINE
8
DEFAULT_255_2_778
10
17.8218744
20
65.168066
11
17.8218744
21
65.773666
0
ARC
8
DEFAULT_255_2_778
10
30.7909772
20
73.098515
40
1.4574439
50
269.9037445
51
299.7985634
0
ARC
8
DEFAULT_255_2_778
10
30.7939521
20
73.0971399
40
1.4547735
50
299.7238029
51
353.0513055
0
ARC
8
DEFAULT_255_2_778
10
30.7841139
20
73.0952571
40
1.464315
50
353.1710086
51
0.0123684
0
ARC
8
DEFAULT_255_2_778
10
30.7973651
20
73.094434
40
1.4510641
50
0.0449812
51
30.6002949
0
ARC
8
DEFAULT_255_2_778
10
30.7902885
20
73.0915563
40
1.4586206
50
30.5560896
51
82.2269465
0
ARC
8
DEFAULT_255_2_778
10
30.7909578
20
73.0791775
40
1.4707971
50
82.3179994
51
90.0152923
0
ARC
8
DEFAULT_255_2_778
10
30.7900559
20
73.5132215
40
1.0367532
50
89.9718554
51
90.0843986
0
ARC
8
DEFAULT_255_2_778
10
23.7867631
20
73.5228745
40
1.0276
50
89.9071299
51
90.030968
0
ARC
8
DEFAULT_255_2_778
10
23.7839699
20
73.0995327
40
1.4509439
50
89.9116305
51
120.5490932
0
ARC
8
DEFAULT_255_2_778
10
23.7867947
20
73.092339
40
1.4585752
50
120.5010268
51
172.1005088
0
ARC
8
DEFAULT_255_2_778
10
23.7992858
20
73.0929896
40
1.4708603
50
172.1924835
51
179.8798836
0
ARC
8
DEFAULT_255_2_778
10
23.7717867
20
73.0939402
40
1.4433595
50
179.9153295
51
210.7047298
0
ARC
8
DEFAULT_255_2_778
10
23.7872545
20
73.1027645
40
1.4611647
50
210.6925408
51
261.3289016
0
ARC
8
DEFAULT_255_2_778
10
23.787945
20
73.1183893
40
1.4767161
50
261.3938127
51
270.0187697
0
ARC
8
DEFAULT_255_2_778
10
9.7619549
20
73.08926
40
1.9573151
50
89.9188021
51
114.2228649
0
ARC
8
DEFAULT_255_2_778
10
9.7599623
20
73.0917977
40
1.9541836
50
114.2001125
51
171.3173524
0
ARC
8
DEFAULT_255_2_778
10
9.7655036
20
73.0963937
40
1.958975
50
171.4747001
51
180.0181483
0
ARC
8
DEFAULT_255_2_778
10
9.7435823
20
73.0931499
40
1.9370553
50
179.9224061
51
205.0568938
0
ARC
8
DEFAULT_255_2_778
10
9.7635223
20
73.1049682
40
1.9601253
50
205.1229877
51
259.2035918
0
ARC
8
DEFAULT_255_2_778
10
9.7637945
20
73.1209474
40
1.9758746
50
259.2826329
51
270.0270907
0
ARC
8
DEFAULT_255_2_778
10
17.8245912
20
73.1024195
40
1.9573483
50
269.9191368
51
294.2214138
0
ARC
8
DEFAULT_255_2_778
10
17.8266639
20
73.0998152
40
1.9541232
50
294.1973187
51
351.315176
0
ARC
8
DEFAULT_255_2_778
10
17.8212818
20
73.0951527
40
1.958747
50
351.4737681
51
0.0181479
0
ARC
8
DEFAULT_255_2_778
10
17.8429846
20
73.0983815
40
1.9370459
50
359.9228491
51
25.0800184
0
ARC
8
DEFAULT_255_2_778
10
17.8228483
20
73.0865088
40
1.9603177
50
25.1448406
51
79.2034899
0
ARC
8
DEFAULT_255_2_778
10
17.8227604
20
73.0711608
40
1.9754125
50
79.2843735
51
90.0270228
0
ARC
8
DEFAULT_255_2_778
10
9.7630629
20
73.5225619
40
1.0279126
50
89.9071466
51
90.0309624
0
ARC
8
DEFAULT_255_2_778
10
9.7602447
20
73.0994622
40
1.4510144
50
89.9106507
51
120.5483332
0
ARC
8
DEFAULT_255_2_778
10
9.7630301
20
73.0924107
40
1.4585032
50
120.5017739
51
172.1029577
0
ARC
8
DEFAULT_255_2_778
10
9.7757639
20
73.0929921
40
1.4710383
50
172.1935316
51
179.8799948
0
ARC
8
DEFAULT_255_2_778
10
9.7558724
20
73.0972182
40
1.4511441
50
180.0452092
51
210.5974434
0
ARC
8
DEFAULT_255_2_778
10
9.7627979
20
73.0999772
40
1.4585102
50
210.5522588
51
262.2257492
0
ARC
8
DEFAULT_255_2_778
10
9.7621168
20
73.1123863
40
1.4707148
50
262.3174339
51
270.015219
0
ARC
8
DEFAULT_255_2_778
10
9.7630629
20
72.6695844
40
1.027913
50
269.9690376
51
270.0928534
0
ARC
8
DEFAULT_255_2_778
10
17.8234944
20
72.6692716
40
1.0275998
50
269.9071299
51
270.030968
0
ARC
8
DEFAULT_255_2_778
10
17.8262986
20
73.0924768
40
1.450807
50
269.9111894
51
300.550571
0
ARC
8
DEFAULT_255_2_778
10
17.8233915
20
73.0997391
40
1.4585393
50
300.5039084
51
352.1030159
0
ARC
8
DEFAULT_255_2_778
10
17.8106936
20
73.0991542
40
1.4710383
50
352.1935318
51
359.8799948
0
ARC
8
DEFAULT_255_2_778
10
17.8305537
20
73.094926
40
1.4511755
50
0.0452928
51
30.59681
0
ARC
8
DEFAULT_255_2_778
10
17.8236905
20
73.0922303
40
1.4584557
50
30.55073
51
82.2236359
0
ARC
8
DEFAULT_255_2_778
10
17.8244397
20
73.0800893
40
1.4703855
50
82.3165716
51
90.0151927
0
ARC
8
DEFAULT_255_2_778
10
17.8234944
20
73.5228747
40
1.0276003
50
89.969032
51
90.0928701
0
ARC
8
DEFAULT_255_2_778
10
9.7761998
20
73.138658
40
1.3863854
50
247.9945667
51
269.9516056
0
ARC
8
DEFAULT_255_2_778
10
9.7675191
20
73.1070459
40
1.353829
50
225.3705547
51
247.8338878
0
ARC
8
DEFAULT_255_2_778
10
9.764643
20
73.1007972
40
1.3473634
50
202.7308105
51
225.2709179
0
ARC
8
DEFAULT_255_2_778
10
9.7598219
20
73.0958768
40
1.3410182
50
179.9974869
51
202.6165073
0
ARC
8
DEFAULT_255_2_778
10
8.9295217
20
73.0960955
40
0.510718
50
179.946218
51
180.0179273
0
ARC
8
DEFAULT_255_2_778
10
9.7603808
20
73.0959579
40
1.3415771
50
157.3882756
51
179.9736535
0
ARC
8
DEFAULT_255_2_778
10
9.7651169
20
73.0906099
40
1.3480089
50
134.7302541
51
157.2558332
0
ARC
8
DEFAULT_255_2_778
10
9.766621
20
73.0861632
40
1.3522281
50
112.1526588
51
134.6429313
0
ARC
8
DEFAULT_255_2_778
10
9.7781643
20
73.0472428
40
1.3926338
50
90.1290015
51
111.9887161
0
ARC
8
DEFAULT_255_2_778
10
17.8307118
20
73.102093
40
1.3377812
50
67.3251073
51
89.9307466
0
ARC
8
DEFAULT_255_2_778
10
17.8240614
20
73.0905637
40
1.3509841
50
44.8933031
51
67.2533569
0
ARC
8
DEFAULT_255_2_778
10
17.8209616
20
73.0891717
40
1.3541631
50
22.5680551
51
44.8424586
0
ARC
8
DEFAULT_255_2_778
10
17.8321898
20
73.096423
40
1.3410139
50
359.9978697
51
22.4660747
0
ARC
8
DEFAULT_255_2_778
10
17.8321893
20
73.0963234
40
1.3410145
50
337.5339274
51
0.002124
0
ARC
8
DEFAULT_255_2_778
10
17.82282
20
73.1021156
40
1.3518873
50
315.1428401
51
337.4588167
0
ARC
8
DEFAULT_255_2_778
10
17.8265495
20
73.0988091
40
1.3469112
50
292.7045208
51
315.1306445
0
ARC
8
DEFAULT_255_2_778
10
17.8291727
20
73.0970057
40
1.3442363
50
270.1345206
51
292.6310437
0
LINE
8
DEFAULT_255_2_778
10
23.7884288
20
71.7477732
11
23.7884288
21
71.6413732
0
LINE
8
DEFAULT_255_2_778
10
23.7884288
20
74.4440732
11
23.7884288
21
74.5501732
0
LINE
8
DEFAULT_255_2_778
10
30.7885288
20
74.5499732
11
23.7884288
21
74.5499732
0
LINE
8
DEFAULT_255_2_778
10
23.7884288
20
74.5499732
11
23.7884288
21
75.0460732
0
LINE
8
DEFAULT_255_2_778
10
23.7884288
20
75.0460732
11
30.7885288
21
75.0460732
0
LINE
8
DEFAULT_255_2_778
10
30.7885288
20
75.0460732
11
30.7885288
21
74.5499732
0
LINE
8
DEFAULT_255_2_778
10
30.7885288
20
71.7440732
11
30.7885288
21
71.6408732
0
LINE
8
DEFAULT_255_2_778
10
23.7884288
20
71.6416732
11
30.7885288
21
71.6416732
0
LINE
8
DEFAULT_255_2_778
10
30.7885288
20
71.6416732
11
30.7885288
21
71.1455732
0
LINE
8
DEFAULT_255_2_778
10
30.7885288
20
71.1455732
11
23.7884288
21
71.1455732
0
LINE
8
DEFAULT_255_2_778
10
23.7884288
20
71.1455732
11
23.7884288
21
71.6416732
0
LINE
8
DEFAULT_255_2_778
10
17.8218288
20
75.0465732
11
9.7647288
21
75.0465732
0
LINE
8
DEFAULT_255_2_778
10
9.7647288
20
75.0465732
11
9.7647288
21
74.4377732
0
LINE
8
DEFAULT_255_2_778
10
9.7647288
20
74.4377732
11
17.8218288
21
74.4414732
0
LINE
8
DEFAULT_255_2_778
10
17.8218288
20
74.4414732
11
17.8218288
21
75.0465732
0
LINE
8
DEFAULT_255_2_778
10
17.8218288
20
71.7503732
11
9.7647288
21
71.7540732
0
LINE
8
DEFAULT_255_2_778
10
9.7647288
20
71.7540732
11
9.7647288
21
71.1452732
0
LINE
8
DEFAULT_255_2_778
10
9.7647288
20
71.1452732
11
17.8218288
21
71.1452732
0
LINE
8
DEFAULT_255_2_778
10
17.8218288
20
71.1452732
11
17.8218288
21
71.7503732
0
LINE
8
DEFAULT_255_2_778
10
9.7647288
20
71.6416732
11
17.8218288
21
71.6416732
0
LINE
8
DEFAULT_255_2_778
10
17.8218288
20
74.5504732
11
9.7647288
21
74.5504732
0
ARC
8
DEFAULT_255_2_778
10
9.7630408
20
79.4997619
40
1.0279126
50
89.9071466
51
90.0309624
0
ARC
8
DEFAULT_255_2_778
10
9.7602225
20
79.0766622
40
1.4510144
50
89.9106507
51
120.5483332
0
ARC
8
DEFAULT_255_2_778
10
9.763008
20
79.0696107
40
1.4585032
50
120.5017739
51
172.1029577
0
ARC
8
DEFAULT_255_2_778
10
9.7757418
20
79.0701921
40
1.4710383
50
172.1935316
51
179.8799948
0
ARC
8
DEFAULT_255_2_778
10
9.7558502
20
79.0744182
40
1.4511441
50
180.0452092
51
210.5974434
0
ARC
8
DEFAULT_255_2_778
10
9.7627758
20
79.0771772
40
1.4585102
50
210.5522588
51
262.2257492
0
ARC
8
DEFAULT_255_2_778
10
9.7620946
20
79.0895863
40
1.4707148
50
262.3174339
51
270.015219
0
ARC
8
DEFAULT_255_2_778
10
9.7630408
20
78.6467844
40
1.027913
50
269.9690376
51
270.0928534
0
ARC
8
DEFAULT_255_2_778
10
17.8234722
20
78.6464716
40
1.0275998
50
269.9071299
51
270.030968
0
ARC
8
DEFAULT_255_2_778
10
17.8262764
20
79.0696768
40
1.450807
50
269.9111894
51
300.550571
0
ARC
8
DEFAULT_255_2_778
10
17.8233693
20
79.0769391
40
1.4585393
50
300.5039084
51
352.1030159
0
ARC
8
DEFAULT_255_2_778
10
17.8106715
20
79.0763542
40
1.4710383
50
352.1935318
51
359.8799948
0
ARC
8
DEFAULT_255_2_778
10
17.8305316
20
79.072126
40
1.4511755
50
0.0452928
51
30.59681
0
ARC
8
DEFAULT_255_2_778
10
17.8236684
20
79.0694303
40
1.4584557
50
30.55073
51
82.2236359
0
ARC
8
DEFAULT_255_2_778
10
17.8244175
20
79.0572893
40
1.4703855
50
82.3165716
51
90.0151927
0
ARC
8
DEFAULT_255_2_778
10
17.8234722
20
79.5000747
40
1.0276003
50
89.969032
51
90.0928701
0
ARC
8
DEFAULT_255_2_778
10
9.7619328
20
79.06646
40
1.9573151
50
89.9188021
51
114.2228649
0
ARC
8
DEFAULT_255_2_778
10
9.7599401
20
79.0689977
40
1.9541836
50
114.2001125
51
171.3173524
0
ARC
8
DEFAULT_255_2_778
10
9.7654814
20
79.0735937
40
1.958975
50
171.4747001
51
180.0181483
0
ARC
8
DEFAULT_255_2_778
10
9.7435601
20
79.0703499
40
1.9370553
50
179.9224061
51
205.0568938
0
ARC
8
DEFAULT_255_2_778
10
9.7635001
20
79.0821682
40
1.9601253
50
205.1229877
51
259.2035918
0
ARC
8
DEFAULT_255_2_778
10
9.7637724
20
79.0981474
40
1.9758746
50
259.2826329
51
270.0270907
0
ARC
8
DEFAULT_255_2_778
10
9.7772456
20
79.1171876
40
1.3883163
50
247.9658764
51
269.9075981
0
ARC
8
DEFAULT_255_2_778
10
9.7655136
20
79.0824777
40
1.3517419
50
225.371582
51
247.8748881
0
ARC
8
DEFAULT_255_2_778
10
9.7643264
20
79.07869
40
1.3482135
50
202.7614234
51
225.2944043
0
ARC
8
DEFAULT_255_2_778
10
9.7618082
20
79.0740547
40
1.3441021
50
180.0461029
51
202.6207514
0
ARC
8
DEFAULT_255_2_778
10
9.762305
20
79.0718924
40
1.3445989
50
157.3834869
51
179.9539451
0
ARC
8
DEFAULT_255_2_778
10
9.7642948
20
79.0678099
40
1.3480089
50
134.7302541
51
157.2558332
0
ARC
8
DEFAULT_255_2_778
10
9.7658263
20
79.0629698
40
1.3525273
50
112.1396018
51
134.6320465
0
ARC
8
DEFAULT_255_2_778
10
9.7763676
20
79.0304486
40
1.3866257
50
90.0686335
51
112.0366323
0
ARC
8
DEFAULT_255_2_778
10
17.8242859
20
79.0797413
40
1.9574701
50
269.9186503
51
294.2206506
0
ARC
8
DEFAULT_255_2_778
10
17.8264227
20
79.0769334
40
1.954033
50
294.197286
51
351.3171996
0
ARC
8
DEFAULT_255_2_778
10
17.82078
20
79.0723515
40
1.9589268
50
351.474594
51
0.0181837
0
ARC
8
DEFAULT_255_2_778
10
17.8425343
20
79.0755883
40
1.9371741
50
359.922651
51
25.0561127
0
ARC
8
DEFAULT_255_2_778
10
17.822625
20
79.0638203
40
1.9601949
50
25.1212618
51
79.2013576
0
ARC
8
DEFAULT_255_2_778
10
17.8224388
20
79.0480794
40
1.9756939
50
79.2815799
51
90.0270329
0
ARC
8
DEFAULT_255_2_778
10
17.829905
20
79.075393
40
1.3419823
50
67.3498582
51
89.8974624
0
ARC
8
DEFAULT_255_2_778
10
17.8240905
20
79.0672671
40
1.3517227
50
44.9097813
51
67.2550493
0
ARC
8
DEFAULT_255_2_778
10
17.8217243
20
79.0671145
40
1.3535071
50
22.5547167
51
44.8436435
0
ARC
8
DEFAULT_255_2_778
10
17.8262472
20
79.0725222
40
1.3472599
50
0.0446946
51
22.4161056
0
ARC
8
DEFAULT_255_2_778
10
17.8306714
20
79.0736454
40
1.3428352
50
337.5465679
51
359.9969158
0
ARC
8
DEFAULT_255_2_778
10
17.8190192
20
79.0812966
40
1.3565288
50
315.1900653
51
337.435872
0
ARC
8
DEFAULT_255_2_778
10
17.825832
20
79.0757135
40
1.347761
50
292.7352802
51
315.1543384
0
ARC
8
DEFAULT_255_2_778
10
17.8299052
20
79.071156
40
1.3419849
50
270.1025295
51
292.65009
0
LINE
8
DEFAULT_255_2_778
10
9.7647066
20
77.6188732
11
17.8218066
21
77.6188732
0
LINE
8
DEFAULT_255_2_778
10
17.8218066
20
80.5276732
11
9.7647066
21
80.5276732
0
LINE
8
DEFAULT_255_2_778
10
17.8215066
20
81.0237732
11
9.7647066
21
81.0237732
0
LINE
8
DEFAULT_255_2_778
10
9.7647066
20
81.0237732
11
9.7647066
21
80.4154732
0
LINE
8
DEFAULT_255_2_778
10
9.7647066
20
80.4154732
11
17.8218066
21
80.4191732
0
LINE
8
DEFAULT_255_2_778
10
17.8218066
20
80.4191732
11
17.8218066
21
81.0237732
0
LINE
8
DEFAULT_255_2_778
10
17.8218066
20
77.7273732
11
9.7647066
21
77.7310732
0
LINE
8
DEFAULT_255_2_778
10
9.7647066
20
77.7310732
11
9.7647066
21
77.1224732
0
LINE
8
DEFAULT_255_2_778
10
9.7647066
20
77.1224732
11
17.8218066
21
77.1224732
0
LINE
8
DEFAULT_255_2_778
10
17.8218066
20
77.1224732
11
17.8218066
21
77.7273732
0
ARC
8
DEFAULT_255_2_778
10
23.7866216
20
79.4909564
40
1.0367529
50
89.9156014
51
90.0281446
0
ARC
8
DEFAULT_255_2_778
10
23.7838665
20
79.0763953
40
1.451316
50
89.9113413
51
120.5440061
0
ARC
8
DEFAULT_255_2_778
10
23.7864508
20
79.0695641
40
1.4585131
50
120.4950625
51
172.0992666
0
ARC
8
DEFAULT_255_2_778
10
23.7989116
20
79.0702294
40
1.470766
50
172.1916627
51
179.8800634
0
ARC
8
DEFAULT_255_2_778
10
23.7792926
20
79.0744426
40
1.4511443
50
180.0447914
51
210.6014439
0
ARC
8
DEFAULT_255_2_778
10
23.7864062
20
79.0773514
40
1.4587484
50
210.5575506
51
262.2268712
0
ARC
8
DEFAULT_255_2_778
10
23.785725
20
79.0896894
40
1.4708828
50
262.3181644
51
270.0150861
0
ARC
8
DEFAULT_255_2_778
10
23.7866216
20
78.6555599
40
1.0367533
50
269.9718554
51
270.0843986
0
ARC
8
DEFAULT_255_2_778
10
30.7897759
20
78.6555599
40
1.0367529
50
269.9156014
51
270.0281446
0
ARC
8
DEFAULT_255_2_778
10
30.7925344
20
79.0700846
40
1.4512797
50
269.9112016
51
300.5446932
0
ARC
8
DEFAULT_255_2_778
10
30.789885
20
79.0769831
40
1.4585678
50
300.4966071
51
352.1013955
0
ARC
8
DEFAULT_255_2_778
10
30.7771564
20
79.0763864
40
1.4710955
50
352.1925394
51
359.8801062
0
ARC
8
DEFAULT_255_2_778
10
30.7973123
20
79.0721598
40
1.4509369
50
0.0453462
51
30.6036883
0
ARC
8
DEFAULT_255_2_778
10
30.7899877
20
79.0691284
40
1.4587849
50
30.559704
51
82.2269246
0
ARC
8
DEFAULT_255_2_778
10
30.7906769
20
79.0568707
40
1.4708388
50
82.3181074
51
90.0152591
0
ARC
8
DEFAULT_255_2_778
10
30.7897759
20
79.4909564
40
1.0367533
50
89.9718554
51
90.0843986
0
ARC
8
DEFAULT_255_2_778
10
30.7902148
20
85.4766394
40
1.02797
50
89.9690655
51
90.092859
0
ARC
8
DEFAULT_255_2_778
10
30.7930186
20
85.0538045
40
1.450807
50
59.449429
51
90.0888106
0
ARC
8
DEFAULT_255_2_778
10
30.7901114
20
85.0465421
40
1.4585393
50
7.8969841
51
59.4960916
0
ARC
8
DEFAULT_255_2_778
10
30.7774136
20
85.047127
40
1.4710383
50
0.1200052
51
7.8064682
0
ARC
8
DEFAULT_255_2_778
10
30.7972737
20
85.0513553
40
1.4511755
50
329.40319
51
359.9547072
0
ARC
8
DEFAULT_255_2_778
10
30.7904105
20
85.054051
40
1.4584557
50
277.7763641
51
329.44927
0
ARC
8
DEFAULT_255_2_778
10
30.7911597
20
85.0661919
40
1.4703855
50
269.9848073
51
277.6834284
0
ARC
8
DEFAULT_255_2_778
10
30.7902148
20
84.6237768
40
1.0279705
50
269.907141
51
270.0309345
0
ARC
8
DEFAULT_255_2_778
10
30.7930251
20
85.0534677
40
1.353667
50
269.8105304
51
270.0025182
0
ARC
8
DEFAULT_255_2_778
10
30.7932377
20
85.061401
40
1.3616005
50
269.9935583
51
292.5067923
0
ARC
8
DEFAULT_255_2_778
10
30.7931949
20
85.0523531
40
1.3532625
50
292.6551096
51
315.1050508
0
ARC
8
DEFAULT_255_2_778
10
30.7892204
20
85.056056
40
1.3586915
50
315.1127274
51
337.4406867
0
ARC
8
DEFAULT_255_2_778
10
30.7941338
20
85.050142
40
1.3518899
50
337.5922681
51
0.0028027
0
ARC
8
DEFAULT_255_2_778
10
30.7941338
20
85.0502742
40
1.3518899
50
359.9971973
51
22.4077319
0
ARC
8
DEFAULT_255_2_778
10
30.7887568
20
85.044051
40
1.3592382
50
22.5638521
51
44.8827161
0
ARC
8
DEFAULT_255_2_778
10
30.7931946
20
85.0480628
40
1.3532629
50
44.8949511
51
67.3448848
0
ARC
8
DEFAULT_255_2_778
10
30.7946207
20
85.0459515
40
1.3546636
50
67.4349448
51
90.1592143
0
ARC
8
DEFAULT_255_2_778
10
30.7902793
20
85.4498749
40
0.9507353
50
89.9652238
51
90.1042912
0
ARC
8
DEFAULT_255_2_778
10
23.7856749
20
85.0433949
40
1.9573151
50
89.9188021
51
114.2228649
0
ARC
8
DEFAULT_255_2_778
10
23.7836822
20
85.0459327
40
1.9541836
50
114.2001125
51
171.3173524
0
ARC
8
DEFAULT_255_2_778
10
23.7892236
20
85.0505286
40
1.958975
50
171.4747001
51
180.0181483
0
ARC
8
DEFAULT_255_2_778
10
23.7675466
20
85.0472694
40
1.9372997
50
179.9219606
51
205.0530135
0
ARC
8
DEFAULT_255_2_778
10
23.7870444
20
85.0588828
40
1.959882
50
205.1192084
51
259.2065009
0
ARC
8
DEFAULT_255_2_778
10
23.7875073
20
85.0755878
40
1.9763801
50
259.2840081
51
270.0272909
0
ARC
8
DEFAULT_255_2_778
10
23.7964581
20
85.0234129
40
1.3772185
50
90.3332129
51
112.1703504
0
ARC
8
DEFAULT_255_2_778
10
23.7910518
20
85.0391214
40
1.3606315
50
112.2091416
51
134.6610394
0
ARC
8
DEFAULT_255_2_778
10
23.7878055
20
85.0451542
40
1.3540599
50
134.7427674
51
157.2764234
0
ARC
8
DEFAULT_255_2_778
10
23.7832542
20
85.0494468
40
1.3482056
50
157.3699733
51
179.9803946
0
ARC
8
DEFAULT_255_2_778
10
23.7834538
20
85.0508895
40
1.3484055
50
180.0416991
51
202.6504283
0
ARC
8
DEFAULT_255_2_778
10
23.7889099
20
85.0552716
40
1.3551297
50
202.7325795
51
225.2482148
0
ARC
8
DEFAULT_255_2_778
10
23.7900206
20
85.0592609
40
1.3587461
50
225.333388
51
247.8144762
0
ARC
8
DEFAULT_255_2_778
10
23.7974033
20
85.0788945
40
1.3797141
50
247.8384655
51
269.6364453
0
ARC
8
DEFAULT_255_2_778
10
30.791528
20
85.0566762
40
1.9574701
50
269.9186503
51
294.2206506
0
ARC
8
DEFAULT_255_2_778
10
30.7936649
20
85.0538683
40
1.954033
50
294.197286
51
351.3171996
0
ARC
8
DEFAULT_255_2_778
10
30.7880221
20
85.0492864
40
1.9589268
50
351.474594
51
0.0181837
0
ARC
8
DEFAULT_255_2_778
10
30.809532
20
85.0525387
40
1.9374185
50
359.9222054
51
25.0522326
0
ARC
8
DEFAULT_255_2_778
10
30.790065
20
85.0409756
40
1.9599517
50
25.1174825
51
79.2042668
0
ARC
8
DEFAULT_255_2_778
10
30.789688
20
85.024509
40
1.9761994
50
79.2829553
51
90.0272332
0
ARC
8
DEFAULT_255_2_778
10
23.7867825
20
84.6237896
40
1.0282828
50
269.969071
51
270.0928422
0
ARC
8
DEFAULT_255_2_778
10
23.7839647
20
85.0465191
40
1.4510144
50
239.4516668
51
270.0893493
0
ARC
8
DEFAULT_255_2_778
10
23.7867501
20
85.0535706
40
1.4585032
50
187.8970423
51
239.4982261
0
ARC
8
DEFAULT_255_2_778
10
23.7994839
20
85.0529892
40
1.4710383
50
180.1200052
51
187.8064684
0
ARC
8
DEFAULT_255_2_778
10
23.7796697
20
85.0487862
40
1.4512214
50
149.4901127
51
179.9557068
0
ARC
8
DEFAULT_255_2_778
10
23.7864563
20
85.0460511
40
1.4584574
50
97.7833517
51
149.532894
0
ARC
8
DEFAULT_255_2_778
10
23.7858337
20
85.0334272
40
1.4708826
50
89.9846736
51
97.6927295
0
ARC
8
DEFAULT_255_2_778
10
23.7867823
20
85.4759149
40
1.028395
50
89.9071578
51
90.030929
0
LINE
8
DEFAULT_255_2_778
10
23.7881487
20
80.4218081
11
23.7881487
21
80.5277081
0
LINE
8
DEFAULT_255_2_778
10
30.7882487
20
80.4250081
11
30.7882487
21
80.5277081
0
LINE
8
DEFAULT_255_2_778
10
30.7882487
20
80.5277081
11
30.7882487
21
81.0238081
0
LINE
8
DEFAULT_255_2_778
10
30.7882487
20
81.0238081
11
23.7881487
21
81.0238081
0
LINE
8
DEFAULT_255_2_778
10
23.7881487
20
81.0238081
11
23.7881487
21
80.5277081
0
LINE
8
DEFAULT_255_2_778
10
23.7881487
20
77.6188081
11
30.7882487
21
77.6188081
0
LINE
8
DEFAULT_255_2_778
10
30.7882487
20
80.5277081
11
23.7881487
21
80.5277081
0
LINE
8
DEFAULT_255_2_778
10
30.7882487
20
77.7215081
11
30.7882487
21
77.1225081
0
LINE
8
DEFAULT_255_2_778
10
30.7882487
20
77.1225081
11
23.7881487
21
77.1225081
0
LINE
8
DEFAULT_255_2_778
10
23.7881487
20
77.1225081
11
23.7881487
21
77.7247081
0
LINE
8
DEFAULT_255_2_778
10
23.7884487
20
83.5955081
11
30.7885487
21
83.5955081
0
LINE
8
DEFAULT_255_2_778
10
23.7884487
20
86.5049081
11
30.7885487
21
86.5049081
0
LINE
8
DEFAULT_255_2_778
10
30.7885487
20
86.4006081
11
30.7885487
21
87.0007081
0
LINE
8
DEFAULT_255_2_778
10
30.7885487
20
87.0007081
11
23.7884487
21
87.0007081
0
LINE
8
DEFAULT_255_2_778
10
30.7885487
20
86.4006081
11
23.7884487
21
86.4006081
0
LINE
8
DEFAULT_255_2_778
10
23.7886487
20
83.6992081
11
30.7887487
21
83.6992081
0
LINE
8
DEFAULT_255_2_778
10
30.7887487
20
83.6992081
11
30.7887487
21
83.5952081
0
LINE
8
DEFAULT_255_2_778
10
30.7887487
20
83.5952081
11
30.7887487
21
83.0992081
0
LINE
8
DEFAULT_255_2_778
10
30.7887487
20
83.0994081
11
23.7884487
21
83.0994081
0
LINE
8
DEFAULT_255_2_778
10
23.7884487
20
83.0994081
11
23.7884487
21
83.5955081
0
LINE
8
DEFAULT_255_2_778
10
23.7884487
20
86.5043081
11
23.7884487
21
87.0004081
0
LINE
8
DEFAULT_255_2_778
10
30.7885487
20
87.0004081
11
30.7885487
21
86.4004081
0
ARC
8
DEFAULT_255_2_778
10
9.7630408
20
85.4766619
40
1.0279126
50
89.9071466
51
90.0309624
0
ARC
8
DEFAULT_255_2_778
10
9.7602225
20
85.0535622
40
1.4510144
50
89.9106507
51
120.5483332
0
ARC
8
DEFAULT_255_2_778
10
9.763008
20
85.0465107
40
1.4585032
50
120.5017739
51
172.1029577
0
ARC
8
DEFAULT_255_2_778
10
9.7757418
20
85.0470921
40
1.4710383
50
172.1935316
51
179.8799948
0
ARC
8
DEFAULT_255_2_778
10
9.7558502
20
85.0513182
40
1.4511441
50
180.0452092
51
210.5974434
0
ARC
8
DEFAULT_255_2_778
10
9.7627758
20
85.0540772
40
1.4585102
50
210.5522588
51
262.2257492
0
ARC
8
DEFAULT_255_2_778
10
9.7620946
20
85.0664863
40
1.4707148
50
262.3174339
51
270.015219
0
ARC
8
DEFAULT_255_2_778
10
9.7630408
20
84.6236844
40
1.027913
50
269.9690376
51
270.0928534
0
ARC
8
DEFAULT_255_2_778
10
17.8234722
20
84.6233716
40
1.0275998
50
269.9071299
51
270.030968
0
ARC
8
DEFAULT_255_2_778
10
17.8262764
20
85.0465768
40
1.450807
50
269.9111894
51
300.550571
0
ARC
8
DEFAULT_255_2_778
10
17.8233693
20
85.0538391
40
1.4585393
50
300.5039084
51
352.1030159
0
ARC
8
DEFAULT_255_2_778
10
17.8106715
20
85.0532542
40
1.4710383
50
352.1935318
51
359.8799948
0
ARC
8
DEFAULT_255_2_778
10
17.8305316
20
85.049026
40
1.4511755
50
0.0452928
51
30.59681
0
ARC
8
DEFAULT_255_2_778
10
17.8236684
20
85.0463303
40
1.4584557
50
30.55073
51
82.2236359
0
ARC
8
DEFAULT_255_2_778
10
17.8244175
20
85.0341893
40
1.4703855
50
82.3165716
51
90.0151927
0
ARC
8
DEFAULT_255_2_778
10
17.8234722
20
85.4769747
40
1.0276003
50
89.969032
51
90.0928701
0
ARC
8
DEFAULT_255_2_778
10
9.7619328
20
85.04336
40
1.9573151
50
89.9188021
51
114.2228649
0
ARC
8
DEFAULT_255_2_778
10
9.7599401
20
85.0458977
40
1.9541836
50
114.2001125
51
171.3173524
0
ARC
8
DEFAULT_255_2_778
10
9.7654814
20
85.0504937
40
1.958975
50
171.4747001
51
180.0181483
0
ARC
8
DEFAULT_255_2_778
10
9.7435601
20
85.0472499
40
1.9370553
50
179.9224061
51
205.0568938
0
ARC
8
DEFAULT_255_2_778
10
9.7635001
20
85.0590682
40
1.9601253
50
205.1229877
51
259.2035918
0
ARC
8
DEFAULT_255_2_778
10
9.7637724
20
85.0750474
40
1.9758746
50
259.2826329
51
270.0270907
0
ARC
8
DEFAULT_255_2_778
10
9.7772456
20
85.0940876
40
1.3883163
50
247.9658764
51
269.9075981
0
ARC
8
DEFAULT_255_2_778
10
9.7655136
20
85.0593777
40
1.3517419
50
225.371582
51
247.8748881
0
ARC
8
DEFAULT_255_2_778
10
9.7643264
20
85.05559
40
1.3482135
50
202.7614234
51
225.2944043
0
ARC
8
DEFAULT_255_2_778
10
9.7618082
20
85.0509547
40
1.3441021
50
180.0461029
51
202.6207514
0
ARC
8
DEFAULT_255_2_778
10
9.762305
20
85.0487924
40
1.3445989
50
157.3834869
51
179.9539451
0
ARC
8
DEFAULT_255_2_778
10
9.7642948
20
85.0447099
40
1.3480089
50
134.7302541
51
157.2558332
0
ARC
8
DEFAULT_255_2_778
10
9.7658263
20
85.0398698
40
1.3525273
50
112.1396018
51
134.6320465
0
ARC
8
DEFAULT_255_2_778
10
9.7763676
20
85.0073486
40
1.3866257
50
90.0686335
51
112.0366323
0
ARC
8
DEFAULT_255_2_778
10
17.8242859
20
85.0566413
40
1.9574701
50
269.9186503
51
294.2206506
0
ARC
8
DEFAULT_255_2_778
10
17.8264227
20
85.0538334
40
1.954033
50
294.197286
51
351.3171996
0
ARC
8
DEFAULT_255_2_778
10
17.82078
20
85.0492515
40
1.9589268
50
351.474594
51
0.0181837
0
ARC
8
DEFAULT_255_2_778
10
17.8425343
20
85.0524883
40
1.9371741
50
359.922651
51
25.0561127
0
ARC
8
DEFAULT_255_2_778
10
17.822625
20
85.0407203
40
1.9601949
50
25.1212618
51
79.2013576
0
ARC
8
DEFAULT_255_2_778
10
17.8224388
20
85.0249794
40
1.9756939
50
79.2815799
51
90.0270329
0
ARC
8
DEFAULT_255_2_778
10
17.829905
20
85.052293
40
1.3419823
50
67.3498582
51
89.8974624
0
ARC
8
DEFAULT_255_2_778
10
17.8240905
20
85.0441671
40
1.3517227
50
44.9097813
51
67.2550493
0
ARC
8
DEFAULT_255_2_778
10
17.8217243
20
85.0440145
40
1.3535071
50
22.5547167
51
44.8436435
0
ARC
8
DEFAULT_255_2_778
10
17.8262472
20
85.0494222
40
1.3472599
50
0.0446946
51
22.4161056
0
ARC
8
DEFAULT_255_2_778
10
17.8306714
20
85.0505454
40
1.3428352
50
337.5465679
51
359.9969158
0
ARC
8
DEFAULT_255_2_778
10
17.8190192
20
85.0581966
40
1.3565288
50
315.1900653
51
337.435872
0
ARC
8
DEFAULT_255_2_778
10
17.825832
20
85.0526135
40
1.347761
50
292.7352802
51
315.1543384
0
ARC
8
DEFAULT_255_2_778
10
17.8299052
20
85.048056
40
1.3419849
50
270.1025295
51
292.65009
0
LINE
8
DEFAULT_255_2_778
10
9.7647066
20
83.5957732
11
17.8218066
21
83.5957732
0
LINE
8
DEFAULT_255_2_778
10
17.8218066
20
86.5045732
11
9.7647066
21
86.5045732
0
LINE
8
DEFAULT_255_2_778
10
17.8215066
20
87.0006732
11
9.7647066
21
87.0006732
0
LINE
8
DEFAULT_255_2_778
10
9.7647066
20
87.0006732
11
9.7647066
21
86.3923732
0
LINE
8
DEFAULT_255_2_778
10
9.7647066
20
86.3923732
11
17.8218066
21
86.3960732
0
LINE
8
DEFAULT_255_2_778
10
17.8218066
20
86.3960732
11
17.8218066
21
87.0006732
0
LINE
8
DEFAULT_255_2_778
10
17.8218066
20
83.7042732
11
9.7647066
21
83.7079732
0
LINE
8
DEFAULT_255_2_778
10
9.7647066
20
83.7079732
11
9.7647066
21
83.0993732
0
LINE
8
DEFAULT_255_2_778
10
9.7647066
20
83.0993732
11
17.8218066
21
83.0993732
0
LINE
8
DEFAULT_255_2_778
10
17.8218066
20
83.0993732
11
17.8218066
21
83.7042732
0
ARC
8
DEFAULT_255_2_778
10
17.8235446
20
90.6003455
40
1.0275998
50
269.9071299
51
270.030968
0
ARC
8
DEFAULT_255_2_778
10
17.8263489
20
91.0235507
40
1.450807
50
269.9111894
51
300.550571
0
ARC
8
DEFAULT_255_2_778
10
17.8234417
20
91.030813
40
1.4585393
50
300.5039084
51
352.1030159
0
ARC
8
DEFAULT_255_2_778
10
17.8107439
20
91.0302281
40
1.4710383
50
352.1935318
51
359.8799948
0
ARC
8
DEFAULT_255_2_778
10
17.830604
20
91.0259998
40
1.4511755
50
0.0452928
51
30.59681
0
ARC
8
DEFAULT_255_2_778
10
17.8237408
20
91.0233042
40
1.4584557
50
30.55073
51
82.2236359
0
ARC
8
DEFAULT_255_2_778
10
17.8244899
20
91.0111632
40
1.4703855
50
82.3165716
51
90.0151927
0
ARC
8
DEFAULT_255_2_778
10
17.8235446
20
91.4539485
40
1.0276003
50
89.969032
51
90.0928701
0
ARC
8
DEFAULT_255_2_778
10
9.7631132
20
91.4536358
40
1.0279126
50
89.9071466
51
90.0309624
0
ARC
8
DEFAULT_255_2_778
10
9.7602949
20
91.030536
40
1.4510144
50
89.9106507
51
120.5483332
0
ARC
8
DEFAULT_255_2_778
10
9.7630804
20
91.0234845
40
1.4585032
50
120.5017739
51
172.1029577
0
ARC
8
DEFAULT_255_2_778
10
9.7758142
20
91.0240659
40
1.4710383
50
172.1935316
51
179.8799948
0
ARC
8
DEFAULT_255_2_778
10
9.7559226
20
91.028292
40
1.4511441
50
180.0452092
51
210.5974434
0
ARC
8
DEFAULT_255_2_778
10
9.7628482
20
91.0310511
40
1.4585102
50
210.5522588
51
262.2257492
0
ARC
8
DEFAULT_255_2_778
10
9.7621671
20
91.0434602
40
1.4707148
50
262.3174339
51
270.015219
0
ARC
8
DEFAULT_255_2_778
10
9.7631132
20
90.6006582
40
1.027913
50
269.9690376
51
270.0928534
0
ARC
8
DEFAULT_255_2_778
10
9.7620052
20
91.0206338
40
1.9573151
50
89.9188021
51
114.2228649
0
ARC
8
DEFAULT_255_2_778
10
9.7600125
20
91.0231716
40
1.9541836
50
114.2001125
51
171.3173524
0
ARC
8
DEFAULT_255_2_778
10
9.7655538
20
91.0277675
40
1.958975
50
171.4747001
51
180.0181483
0
ARC
8
DEFAULT_255_2_778
10
9.7437514
20
91.0245318
40
1.9371741
50
179.922651
51
205.0561127
0
ARC
8
DEFAULT_255_2_778
10
9.7636606
20
91.0362998
40
1.9601949
50
205.1212618
51
259.2013576
0
ARC
8
DEFAULT_255_2_778
10
9.7638469
20
91.0520407
40
1.9756939
50
259.2815799
51
270.0270329
0
ARC
8
DEFAULT_255_2_778
10
9.7765454
20
91.068149
40
1.3859028
50
247.9465726
51
269.9393789
0
ARC
8
DEFAULT_255_2_778
10
9.7670004
20
91.0381129
40
1.3544826
50
225.372234
51
247.8437349
0
ARC
8
DEFAULT_255_2_778
10
9.7576756
20
91.0279249
40
1.3406814
50
202.6815086
51
225.3499786
0
ARC
8
DEFAULT_255_2_778
10
9.7685589
20
91.0301614
40
1.3515871
50
180.4507594
51
202.5910805
0
ARC
8
DEFAULT_255_2_778
10
9.7606805
20
91.0294751
40
1.3437036
50
180.0992702
51
180.4241408
0
ARC
8
DEFAULT_255_2_778
10
9.6344447
20
91.0292434
40
1.2174674
50
179.9948073
51
180.0986604
0
ARC
8
DEFAULT_255_2_778
10
9.7245745
20
91.0293537
40
1.3075974
50
179.7628562
51
179.9999995
0
ARC
8
DEFAULT_255_2_778
10
9.7573953
20
91.0270713
40
1.340429
50
157.3465091
51
179.6711027
0
ARC
8
DEFAULT_255_2_778
10
9.7622176
20
91.0231011
40
1.3464096
50
134.6988722
51
157.2696315
0
ARC
8
DEFAULT_255_2_778
10
9.7648328
20
91.0188393
40
1.351279
50
112.1215057
51
134.6505894
0
ARC
8
DEFAULT_255_2_778
10
9.776246
20
90.9866547
40
1.3853931
50
90.0606708
51
112.0575351
0
ARC
8
DEFAULT_255_2_778
10
17.8302296
20
91.0313139
40
1.3407346
50
67.3392847
51
89.916694
0
ARC
8
DEFAULT_255_2_778
10
17.8274965
20
91.0268937
40
1.3458667
50
44.8425876
51
67.3044125
0
ARC
8
DEFAULT_255_2_778
10
17.8164806
20
91.0174064
40
1.360368
50
22.6117502
51
44.7987403
0
ARC
8
DEFAULT_255_2_778
10
17.8310689
20
91.0272753
40
1.3431112
50
0.4849425
51
22.4623877
0
ARC
8
DEFAULT_255_2_778
10
17.846271
20
91.0274469
40
1.3279081
50
0.0000043
51
0.4830891
0
ARC
8
DEFAULT_255_2_778
10
17.8247464
20
91.0299953
40
1.349435
50
315.170662
51
359.8918022
0
ARC
8
DEFAULT_255_2_778
10
17.8250313
20
91.0309406
40
1.3498997
50
292.7374189
51
315.1336807
0
ARC
8
DEFAULT_255_2_778
10
17.83049
20
91.023181
40
1.3406351
50
270.0721853
51
292.6504329
0
ARC
8
DEFAULT_255_2_778
10
17.8246361
20
91.0338384
40
1.9571934
50
269.9192887
51
294.2236281
0
ARC
8
DEFAULT_255_2_778
10
17.8265645
20
91.0315043
40
1.9542738
50
294.2001452
51
351.3153288
0
ARC
8
DEFAULT_255_2_778
10
17.8212838
20
91.0268278
40
1.9587953
50
351.4738741
51
0.0181125
0
ARC
8
DEFAULT_255_2_778
10
17.8432762
20
91.0300478
40
1.9368046
50
359.9230608
51
25.0980294
0
ARC
8
DEFAULT_255_2_778
10
17.8228995
20
91.0180538
40
1.960346
50
25.1628677
51
79.2063555
0
ARC
8
DEFAULT_255_2_778
10
17.8228092
20
91.0027002
40
1.9754469
50
79.2871785
51
90.0269785
0
ARC
8
DEFAULT_255_2_778
10
30.7901066
20
91.444688
40
1.0371601
50
89.9718885
51
90.0843876
0
ARC
8
DEFAULT_255_2_778
10
30.7928722
20
91.030671
40
1.4511791
50
59.4545165
51
90.0890998
0
ARC
8
DEFAULT_255_2_778
10
30.7902056
20
91.0237711
40
1.4584772
50
7.8982262
51
59.5020563
0
ARC
8
DEFAULT_255_2_778
10
30.7774942
20
91.0243662
40
1.4709881
50
0.1199984
51
7.8072318
0
ARC
8
DEFAULT_255_2_778
10
30.7972011
20
91.0285745
40
1.4512784
50
329.4887384
51
359.9554883
0
ARC
8
DEFAULT_255_2_778
10
30.790331
20
91.031347
40
1.4586053
50
277.784697
51
329.5319253
0
ARC
8
DEFAULT_255_2_778
10
30.7910078
20
91.0437348
40
1.4707892
50
269.9847171
51
277.6932087
0
ARC
8
DEFAULT_255_2_778
10
30.7901066
20
90.610106
40
1.0371605
50
269.9156124
51
270.0281115
0
ARC
8
DEFAULT_255_2_778
10
23.7869514
20
90.6101061
40
1.0371602
50
269.9718885
51
270.0843876
0
ARC
8
DEFAULT_255_2_778
10
23.7841933
20
91.0242235
40
1.4512797
50
239.4553068
51
270.0887984
0
ARC
8
DEFAULT_255_2_778
10
23.7868427
20
91.031122
40
1.4585678
50
187.8986045
51
239.5033929
0
ARC
8
DEFAULT_255_2_778
10
23.7995714
20
91.0305253
40
1.4710955
50
180.1198938
51
187.8074606
0
ARC
8
DEFAULT_255_2_778
10
23.7794154
20
91.0262987
40
1.4509369
50
149.3963117
51
179.9546538
0
ARC
8
DEFAULT_255_2_778
10
23.7867401
20
91.0232673
40
1.4587849
50
97.7730754
51
149.440296
0
ARC
8
DEFAULT_255_2_778
10
23.7860509
20
91.0110096
40
1.4708388
50
89.9847409
51
97.6818926
0
ARC
8
DEFAULT_255_2_778
10
23.7869514
20
91.4446879
40
1.0371606
50
89.9156124
51
90.0281115
0
ARC
8
DEFAULT_255_2_778
10
23.7963604
20
91.0517477
40
1.3753232
50
247.803234
51
269.6716626
0
ARC
8
DEFAULT_255_2_778
10
23.7903774
20
91.0382802
40
1.3605936
50
225.3613412
51
247.822258
0
ARC
8
DEFAULT_255_2_778
10
23.7875341
20
91.0318999
40
1.354058
50
202.7235649
51
225.2572528
0
ARC
8
DEFAULT_255_2_778
10
23.7867106
20
91.0288762
40
1.3521327
50
180.0732743
51
202.6188628
0
ARC
8
DEFAULT_255_2_778
10
23.7848454
20
91.0257922
40
1.350267
50
157.3653615
51
179.942511
0
ARC
8
DEFAULT_255_2_778
10
23.7878829
20
91.0217303
40
1.3546362
50
112.16652
51
157.2562367
0
ARC
8
DEFAULT_255_2_778
10
23.7974559
20
90.9973189
40
1.3808554
50
90.3600327
51
112.1522095
0
ARC
8
DEFAULT_255_2_778
10
30.7936255
20
91.0236633
40
1.3544901
50
44.9410812
51
89.8243017
0
ARC
8
DEFAULT_255_2_778
10
30.7902055
20
91.021903
40
1.3581548
50
22.554833
51
44.8917291
0
ARC
8
DEFAULT_255_2_778
10
30.7950523
20
91.0271967
40
1.3516517
50
359.9978917
51
22.4264048
0
ARC
8
DEFAULT_255_2_778
10
30.7950523
20
91.0270973
40
1.3516517
50
337.5735952
51
0.0021083
0
ARC
8
DEFAULT_255_2_778
10
30.7902058
20
91.0323908
40
1.3581545
50
315.1082661
51
337.4451686
0
ARC
8
DEFAULT_255_2_778
10
30.7920382
20
91.0304747
40
1.355504
50
292.697418
51
315.1109821
0
ARC
8
DEFAULT_255_2_778
10
30.7959965
20
91.0246677
40
1.3486202
50
272.5864395
51
292.63747
0
ARC
8
DEFAULT_255_2_778
10
30.7991738
20
90.9811289
40
1.3049828
50
270.0033463
51
272.5333432
0
ARC
8
DEFAULT_255_2_778
10
30.7988824
20
90.5777451
40
0.901599
50
269.9298836
51
270.0233641
0
ARC
8
DEFAULT_255_2_778
10
30.7913361
20
91.0338384
40
1.9571934
50
269.9192887
51
294.2236281
0
ARC
8
DEFAULT_255_2_778
10
30.7932645
20
91.0315043
40
1.9542738
50
294.2001452
51
351.3153288
0
ARC
8
DEFAULT_255_2_778
10
30.7879838
20
91.0268278
40
1.9587953
50
351.4738741
51
0.0181125
0
ARC
8
DEFAULT_255_2_778
10
30.8096092
20
91.0300704
40
1.9371716
50
359.922407
51
25.0757755
0
ARC
8
DEFAULT_255_2_778
10
30.7898954
20
91.0183846
40
1.9599812
50
25.1409471
51
79.2080126
0
ARC
8
DEFAULT_255_2_778
10
30.7895204
20
91.0019565
40
1.9761907
50
79.2865167
51
90.0272944
0
ARC
8
DEFAULT_255_2_778
10
23.7857052
20
91.0341602
40
1.9573151
50
245.7771351
51
270.0811979
0
ARC
8
DEFAULT_255_2_778
10
23.7837125
20
91.0316224
40
1.9541836
50
188.6826476
51
245.7998875
0
ARC
8
DEFAULT_255_2_778
10
23.7892538
20
91.0270265
40
1.958975
50
179.9818517
51
188.5252999
0
ARC
8
DEFAULT_255_2_778
10
23.7676957
20
91.0302776
40
1.9374185
50
154.9477674
51
180.0777946
0
ARC
8
DEFAULT_255_2_778
10
23.7871628
20
91.0187145
40
1.9599517
50
100.7957332
51
154.8825175
0
ARC
8
DEFAULT_255_2_778
10
23.7875397
20
91.0022478
40
1.9761994
50
89.9727668
51
100.7170447
0
ARC
8
DEFAULT_255_2_778
10
30.7913361
20
67.1119556
40
1.9571934
50
65.7763719
51
90.0807113
0
ARC
8
DEFAULT_255_2_778
10
30.7932645
20
67.1142897
40
1.9542738
50
8.6846712
51
65.7998548
0
ARC
8
DEFAULT_255_2_778
10
30.7879838
20
67.1189662
40
1.9587953
50
359.9818875
51
8.5261259
0
ARC
8
DEFAULT_255_2_778
10
30.8093623
20
67.1157164
40
1.9374185
50
334.9477674
51
0.0777946
0
ARC
8
DEFAULT_255_2_778
10
30.7898953
20
67.1272795
40
1.9599517
50
280.7957332
51
334.8825175
0
ARC
8
DEFAULT_255_2_778
10
30.7895183
20
67.1437462
40
1.9761994
50
269.9727668
51
280.7170447
0
ARC
8
DEFAULT_255_2_778
10
23.7868134
20
67.5451484
40
1.0276
50
89.9071299
51
90.030968
0
ARC
8
DEFAULT_255_2_778
10
23.7840201
20
67.1218065
40
1.4509439
50
89.9116305
51
120.5490932
0
ARC
8
DEFAULT_255_2_778
10
23.786845
20
67.1146129
40
1.4585752
50
120.5010268
51
172.1005088
0
ARC
8
DEFAULT_255_2_778
10
23.7993361
20
67.1152635
40
1.4708603
50
172.1924835
51
179.8798836
0
ARC
8
DEFAULT_255_2_778
10
23.771837
20
67.116214
40
1.4433595
50
179.9153295
51
210.7047298
0
ARC
8
DEFAULT_255_2_778
10
23.7873047
20
67.1250383
40
1.4611647
50
210.6925408
51
261.3289016
0
ARC
8
DEFAULT_255_2_778
10
23.7879953
20
67.1406632
40
1.4767161
50
261.3938127
51
270.0187697
0
ARC
8
DEFAULT_255_2_778
10
30.7910365
20
67.1215217
40
1.4575768
50
269.9033999
51
299.795168
0
ARC
8
DEFAULT_255_2_778
10
30.7941629
20
67.1198937
40
1.4546116
50
299.7201659
51
353.0513869
0
ARC
8
DEFAULT_255_2_778
10
30.784204
20
67.1180301
40
1.4642752
50
353.1709139
51
0.0123997
0
ARC
8
DEFAULT_255_2_778
10
30.797304
20
67.1171998
40
1.4511755
50
0.0452928
51
30.59681
0
ARC
8
DEFAULT_255_2_778
10
30.7904408
20
67.1145042
40
1.4584557
50
30.55073
51
82.2236359
0
ARC
8
DEFAULT_255_2_778
10
30.7911899
20
67.1023632
40
1.4703855
50
82.3165716
51
90.0151927
0
ARC
8
DEFAULT_255_2_778
10
30.7902446
20
67.5451485
40
1.0276003
50
89.969032
51
90.0928701
0
ARC
8
DEFAULT_255_2_778
10
23.7857052
20
67.1115338
40
1.9573151
50
89.9188021
51
114.2228649
0
ARC
8
DEFAULT_255_2_778
10
23.7837125
20
67.1140716
40
1.9541836
50
114.2001125
51
171.3173524
0
ARC
8
DEFAULT_255_2_778
10
23.7892538
20
67.1186675
40
1.958975
50
171.4747001
51
180.0181483
0
ARC
8
DEFAULT_255_2_778
10
23.7675769
20
67.1154083
40
1.9372997
50
179.9219606
51
205.0530135
0
ARC
8
DEFAULT_255_2_778
10
23.7870747
20
67.1270217
40
1.959882
50
205.1192084
51
259.2065009
0
ARC
8
DEFAULT_255_2_778
10
23.7875376
20
67.1437267
40
1.9763801
50
259.2840081
51
270.0272909
0
ARC
8
DEFAULT_255_2_778
10
30.7954219
20
67.117583
40
1.3498657
50
67.3949389
51
89.9084387
0
ARC
8
DEFAULT_255_2_778
10
30.7920085
20
67.1143719
40
1.3541435
50
44.9073908
51
67.3138357
0
ARC
8
DEFAULT_255_2_778
10
30.7884633
20
67.1114851
40
1.3586924
50
22.5827679
51
44.8880657
0
ARC
8
DEFAULT_255_2_778
10
30.7941152
20
67.1172492
40
1.3512641
50
0.0338271
51
22.4491305
0
ARC
8
DEFAULT_255_2_778
10
30.7938628
20
67.1189951
40
1.3515165
50
337.5529828
51
359.9598061
0
ARC
8
DEFAULT_255_2_778
10
30.7885356
20
67.1240029
40
1.3583548
50
315.1219148
51
337.4435554
0
ARC
8
DEFAULT_255_2_778
10
30.7932303
20
67.1197032
40
1.3519942
50
292.6681228
51
315.1106507
0
ARC
8
DEFAULT_255_2_778
10
30.7954207
20
67.1183181
40
1.3498728
50
270.0916107
51
292.6049901
0
ARC
8
DEFAULT_255_2_778
10
23.7992357
20
67.1574398
40
1.3889939
50
247.9274456
51
269.9275371
0
ARC
8
DEFAULT_255_2_778
10
23.791307
20
67.1270676
40
1.3578743
50
202.8376796
51
247.7558919
0
ARC
8
DEFAULT_255_2_778
10
23.7853558
20
67.1187943
40
1.349189
50
180.9423463
51
202.6119701
0
ARC
8
DEFAULT_255_2_778
10
23.7635484
20
67.1178608
40
1.3273693
50
180.0005952
51
180.9175401
0
ARC
8
DEFAULT_255_2_778
10
23.7831728
20
67.117268
40
1.3469939
50
157.3707128
51
179.9753703
0
ARC
8
DEFAULT_255_2_778
10
23.7867778
20
67.1138766
40
1.3516274
50
134.7340775
51
157.2968183
0
ARC
8
DEFAULT_255_2_778
10
23.7891573
20
67.1091918
40
1.356631
50
112.1675132
51
134.666212
0
ARC
8
DEFAULT_255_2_778
10
23.7990567
20
67.0811747
40
1.3863132
50
92.5034284
51
112.1095036
0
ARC
8
DEFAULT_255_2_778
10
23.7975468
20
67.1073894
40
1.3600576
50
90.0028551
51
92.4881171
0
ARC
8
DEFAULT_255_2_778
10
23.7869514
20
60.7241061
40
1.0371602
50
269.9718885
51
270.0843876
0
ARC
8
DEFAULT_255_2_778
10
23.7841933
20
61.1382235
40
1.4512797
50
239.4553068
51
270.0887984
0
ARC
8
DEFAULT_255_2_778
10
23.7868427
20
61.145122
40
1.4585678
50
187.8986045
51
239.5033929
0
ARC
8
DEFAULT_255_2_778
10
23.7995714
20
61.1445253
40
1.4710955
50
180.1198938
51
187.8074606
0
ARC
8
DEFAULT_255_2_778
10
23.7794154
20
61.1402987
40
1.4509369
50
149.3963117
51
179.9546538
0
ARC
8
DEFAULT_255_2_778
10
23.7867401
20
61.1372673
40
1.4587849
50
97.7730754
51
149.440296
0
ARC
8
DEFAULT_255_2_778
10
23.7860509
20
61.1250096
40
1.4708388
50
89.9847409
51
97.6818926
0
ARC
8
DEFAULT_255_2_778
10
23.7869514
20
61.5586879
40
1.0371606
50
89.9156124
51
90.0281115
0
ARC
8
DEFAULT_255_2_778
10
30.7901066
20
61.558688
40
1.0371601
50
89.9718885
51
90.0843876
0
ARC
8
DEFAULT_255_2_778
10
30.7928722
20
61.144671
40
1.4511791
50
59.4545165
51
90.0890998
0
ARC
8
DEFAULT_255_2_778
10
30.7902056
20
61.1377711
40
1.4584772
50
7.8982262
51
59.5020563
0
ARC
8
DEFAULT_255_2_778
10
30.7774942
20
61.1383662
40
1.4709881
50
0.1199984
51
7.8072318
0
ARC
8
DEFAULT_255_2_778
10
30.7972011
20
61.1425745
40
1.4512784
50
329.4887384
51
359.9554883
0
ARC
8
DEFAULT_255_2_778
10
30.790331
20
61.145347
40
1.4586053
50
277.784697
51
329.5319253
0
ARC
8
DEFAULT_255_2_778
10
30.7910078
20
61.1577348
40
1.4707892
50
269.9847171
51
277.6932087
0
ARC
8
DEFAULT_255_2_778
10
30.7901066
20
60.724106
40
1.0371605
50
269.9156124
51
270.0281115
0
ARC
8
DEFAULT_255_2_778
10
30.7913361
20
61.1480384
40
1.9571934
50
269.9192887
51
294.2236281
0
ARC
8
DEFAULT_255_2_778
10
30.7932645
20
61.1457043
40
1.9542738
50
294.2001452
51
351.3153288
0
ARC
8
DEFAULT_255_2_778
10
30.7879838
20
61.1410278
40
1.9587953
50
351.4738741
51
0.0181125
0
ARC
8
DEFAULT_255_2_778
10
30.8093623
20
61.1442776
40
1.9374185
50
359.9222054
51
25.0522326
0
ARC
8
DEFAULT_255_2_778
10
30.7898953
20
61.1327145
40
1.9599517
50
25.1174825
51
79.2042668
0
ARC
8
DEFAULT_255_2_778
10
30.7895183
20
61.1162478
40
1.9761994
50
79.2829553
51
90.0272332
0
ARC
8
DEFAULT_255_2_778
10
23.7860052
20
61.1351338
40
1.9573151
50
89.9188021
51
114.2228649
0
ARC
8
DEFAULT_255_2_778
10
23.7840125
20
61.1376716
40
1.9541836
50
114.2001125
51
171.3173524
0
ARC
8
DEFAULT_255_2_778
10
23.7895538
20
61.1422675
40
1.958975
50
171.4747001
51
180.0181483
0
ARC
8
DEFAULT_255_2_778
10
23.768116
20
61.1390085
40
1.9375387
50
179.9219761
51
205.0503116
0
ARC
8
DEFAULT_255_2_778
10
23.7873641
20
61.1504698
40
1.9598305
50
205.1156009
51
259.2057153
0
ARC
8
DEFAULT_255_2_778
10
23.7878361
20
61.1672984
40
1.9764516
50
259.2836421
51
270.0273354
0
ARC
8
DEFAULT_255_2_778
10
30.7956205
20
61.1418755
40
1.3488733
50
67.3865236
51
89.9083119
0
ARC
8
DEFAULT_255_2_778
10
30.7938259
20
61.1403776
40
1.3509464
50
44.8805329
51
67.3406936
0
ARC
8
DEFAULT_255_2_778
10
30.7900392
20
61.1366974
40
1.3562264
50
22.5386109
51
44.877816
0
ARC
8
DEFAULT_255_2_778
10
30.7952581
20
61.1416876
40
1.3494959
50
359.998277
51
22.4278549
0
ARC
8
DEFAULT_255_2_778
10
30.795259
20
61.1416063
40
1.3494951
50
337.5721347
51
0.001727
0
ARC
8
DEFAULT_255_2_778
10
30.7854529
20
61.1496563
40
1.3616356
50
315.1671236
51
337.4164495
0
ARC
8
DEFAULT_255_2_778
10
30.7920075
20
61.1456241
40
1.3541456
50
292.6861735
51
315.092582
0
ARC
8
DEFAULT_255_2_778
10
30.7952432
20
61.1432963
40
1.3507517
50
270.1075622
51
292.5976215
0
ARC
8
DEFAULT_255_2_778
10
23.7975468
20
61.1526046
40
1.3600576
50
267.5118829
51
269.9971449
0
ARC
8
DEFAULT_255_2_778
10
23.7990567
20
61.1788193
40
1.3863133
50
247.8904964
51
267.4965716
0
ARC
8
DEFAULT_255_2_778
10
23.7896156
20
61.1508423
40
1.3568412
50
225.3272215
51
247.8152032
0
ARC
8
DEFAULT_255_2_778
10
23.7904069
20
61.147932
40
1.3553304
50
202.734592
51
225.2169323
0
ARC
8
DEFAULT_255_2_778
10
23.7852878
20
61.14275
40
1.3486093
50
180.0468597
51
202.6155894
0
ARC
8
DEFAULT_255_2_778
10
23.7841686
20
61.1407683
40
1.3474899
50
157.3749158
51
179.9626392
0
ARC
8
DEFAULT_255_2_778
10
23.7876935
20
61.1371905
40
1.3521213
50
134.7560372
51
157.2924351
0
ARC
8
DEFAULT_255_2_778
10
23.7908436
20
61.1310231
40
1.3587204
50
112.2084095
51
134.6672523
0
ARC
8
DEFAULT_255_2_778
10
23.7983935
20
61.1060579
40
1.3846894
50
90.0378412
51
112.1071802
0
ARC
8
DEFAULT_255_2_778
10
9.7633128
20
43.7801125
40
1.0282668
50
269.969071
51
270.0928422
0
ARC
8
DEFAULT_255_2_778
10
9.7604965
20
44.2027436
40
1.4509
50
239.4521715
51
270.0892951
0
ARC
8
DEFAULT_255_2_778
10
9.7633157
20
44.2098231
40
1.4584302
50
187.8948433
51
239.4981499
0
ARC
8
DEFAULT_255_2_778
10
9.7763939
20
44.2093262
40
1.471318
50
180.1199109
51
187.8057243
0
ARC
8
DEFAULT_255_2_778
10
9.756254
20
44.2050998
40
1.4511755
50
149.40319
51
179.9547072
0
ARC
8
DEFAULT_255_2_778
10
9.7631172
20
44.2024042
40
1.4584557
50
97.7763641
51
149.44927
0
ARC
8
DEFAULT_255_2_778
10
9.7623681
20
44.1902632
40
1.4703855
50
89.9848073
51
97.6834284
0
ARC
8
DEFAULT_255_2_778
10
9.763313
20
44.6326783
40
1.0279705
50
89.907141
51
90.0309345
0
ARC
8
DEFAULT_255_2_778
10
17.8237452
20
44.6323655
40
1.0282828
50
89.969071
51
90.0928422
0
ARC
8
DEFAULT_255_2_778
10
17.8265631
20
44.209636
40
1.4510144
50
59.4516668
51
90.0893493
0
ARC
8
DEFAULT_255_2_778
10
17.8237776
20
44.2025845
40
1.4585032
50
7.8970423
51
59.4982261
0
ARC
8
DEFAULT_255_2_778
10
17.8110439
20
44.2031659
40
1.4710383
50
0.1200052
51
7.8064684
0
ARC
8
DEFAULT_255_2_778
10
17.830858
20
44.2073689
40
1.4512214
50
329.4901127
51
359.9557068
0
ARC
8
DEFAULT_255_2_778
10
17.8240715
20
44.210104
40
1.4584574
50
277.7833517
51
329.532894
0
ARC
8
DEFAULT_255_2_778
10
17.824694
20
44.222728
40
1.4708826
50
269.9846736
51
277.6927295
0
ARC
8
DEFAULT_255_2_778
10
17.8237454
20
43.7802402
40
1.028395
50
269.9071578
51
270.030929
0
ARC
8
DEFAULT_255_2_778
10
9.7622088
20
44.199718
40
1.9572309
50
89.9189052
51
114.2221518
0
ARC
8
DEFAULT_255_2_778
10
9.7601902
20
44.2022873
40
1.95406
50
114.1990827
51
171.3173357
0
ARC
8
DEFAULT_255_2_778
10
9.7658415
20
44.2068674
40
1.9589626
50
171.4747115
51
180.0181442
0
ARC
8
DEFAULT_255_2_778
10
9.7444425
20
44.2036097
40
1.9375653
50
179.9220114
51
205.0499847
0
ARC
8
DEFAULT_255_2_778
10
9.7636479
20
44.2150289
40
1.9598003
50
205.1146955
51
259.2039769
0
ARC
8
DEFAULT_255_2_778
10
9.7640379
20
44.2315866
40
1.9761398
50
259.2827923
51
270.0272865
0
ARC
8
DEFAULT_255_2_778
10
17.8308285
20
44.2122979
40
1.33585
50
67.3307733
51
89.9334949
0
ARC
8
DEFAULT_255_2_778
10
17.8266161
20
44.2052609
40
1.3439672
50
44.8348981
51
67.2806882
0
ARC
8
DEFAULT_255_2_778
10
17.8216336
20
44.2004871
40
1.3508666
50
22.5323999
51
44.8294834
0
ARC
8
DEFAULT_255_2_778
10
17.8270737
20
44.2062682
40
1.3436303
50
359.9969659
51
22.3935952
0
ARC
8
DEFAULT_255_2_778
10
17.8270737
20
44.2061259
40
1.3436303
50
337.6064048
51
0.0030341
0
ARC
8
DEFAULT_255_2_778
10
17.8207149
20
44.2125192
40
1.3519497
50
315.1795603
51
337.4585508
0
ARC
8
DEFAULT_255_2_778
10
17.8277943
20
44.2057379
40
1.3421482
50
292.6880455
51
315.1718762
0
ARC
8
DEFAULT_255_2_778
10
17.8302552
20
44.201959
40
1.3377128
50
270.0695521
51
292.6532286
0
ARC
8
DEFAULT_255_2_778
10
17.8243529
20
44.2124602
40
1.9573151
50
269.9188021
51
294.2228649
0
ARC
8
DEFAULT_255_2_778
10
17.8263455
20
44.2099224
40
1.9541836
50
294.2001125
51
351.3173524
0
ARC
8
DEFAULT_255_2_778
10
17.8208042
20
44.2053265
40
1.958975
50
351.4747001
51
0.0181483
0
ARC
8
DEFAULT_255_2_778
10
17.8426067
20
44.2085622
40
1.9371741
50
359.922651
51
25.0561127
0
ARC
8
DEFAULT_255_2_778
10
17.8226974
20
44.1967942
40
1.9601949
50
25.1212618
51
79.2013576
0
ARC
8
DEFAULT_255_2_778
10
17.8225112
20
44.1810533
40
1.9756939
50
79.2815799
51
90.0270329
0
ARC
8
DEFAULT_255_2_778
10
9.7765226
20
44.2466484
40
1.3824022
50
247.9514186
51
269.9401683
0
ARC
8
DEFAULT_255_2_778
10
9.7657485
20
44.2154954
40
1.349484
50
225.3746456
51
247.8788822
0
ARC
8
DEFAULT_255_2_778
10
9.7632287
20
44.2102675
40
1.3439946
50
202.7261051
51
225.2945372
0
ARC
8
DEFAULT_255_2_778
10
9.7608911
20
44.2073583
40
1.3407157
50
180.212382
51
202.6500267
0
ARC
8
DEFAULT_255_2_778
10
9.7494099
20
44.206247
40
1.3292308
50
180.0000002
51
180.1663156
0
ARC
8
DEFAULT_255_2_778
10
9.7601169
20
44.2056793
40
1.339938
50
157.3659138
51
179.975723
0
ARC
8
DEFAULT_255_2_778
10
9.7617009
20
44.2030225
40
1.3424237
50
134.6920835
51
157.2872719
0
ARC
8
DEFAULT_255_2_778
10
9.7651195
20
44.1981557
40
1.3482882
50
112.1266844
51
134.6499066
0
ARC
8
DEFAULT_255_2_778
10
9.7758697
20
44.166282
40
1.3818652
50
90.0327843
51
112.0418124
0
ARC
8
DEFAULT_255_2_778
10
17.8235448
20
37.8025422
40
1.0278966
50
269.9071466
51
270.0309624
0
ARC
8
DEFAULT_255_2_778
10
17.8263615
20
38.2255436
40
1.4509
50
269.9107049
51
300.5478285
0
ARC
8
DEFAULT_255_2_778
10
17.8235424
20
38.2326231
40
1.4584302
50
300.5018501
51
352.1051567
0
ARC
8
DEFAULT_255_2_778
10
17.8104641
20
38.2321262
40
1.471318
50
352.1942757
51
359.8800891
0
ARC
8
DEFAULT_255_2_778
10
17.8307154
20
38.2279078
40
1.4510641
50
0.0449812
51
30.6002949
0
ARC
8
DEFAULT_255_2_778
10
17.8236387
20
38.2250301
40
1.4586206
50
30.5560896
51
82.2269465
0
ARC
8
DEFAULT_255_2_778
10
17.824308
20
38.2126513
40
1.4707971
50
82.3179994
51
90.0152923
0
ARC
8
DEFAULT_255_2_778
10
17.8234062
20
38.6466954
40
1.0367532
50
89.9718554
51
90.0843986
0
ARC
8
DEFAULT_255_2_778
10
9.7632517
20
38.6465666
40
1.0368816
50
89.9156014
51
90.0281446
0
ARC
8
DEFAULT_255_2_778
10
9.7604712
20
38.232066
40
1.4513841
50
89.9103441
51
120.5405698
0
ARC
8
DEFAULT_255_2_778
10
9.763017
20
38.2253746
40
1.4584415
50
120.4931255
51
172.1013634
0
ARC
8
DEFAULT_255_2_778
10
9.775807
20
38.2259634
40
1.4710312
50
172.1925371
51
179.8798935
0
ARC
8
DEFAULT_255_2_778
10
9.756
20
38.2301689
40
1.4512214
50
180.0442932
51
210.5098873
0
ARC
8
DEFAULT_255_2_778
10
9.7627865
20
38.232904
40
1.4584574
50
210.467106
51
262.2166483
0
ARC
8
DEFAULT_255_2_778
10
9.762164
20
38.245528
40
1.4708826
50
262.3072705
51
270.0153264
0
ARC
8
DEFAULT_255_2_778
10
9.763113
20
37.8026699
40
1.0280247
50
269.9690376
51
270.0928534
0
ARC
8
DEFAULT_255_2_778
10
9.7619998
20
38.2222789
40
1.9574701
50
89.9186503
51
114.2206506
0
ARC
8
DEFAULT_255_2_778
10
9.7598629
20
38.2250868
40
1.954033
50
114.197286
51
171.3171996
0
ARC
8
DEFAULT_255_2_778
10
9.7655056
20
38.2296687
40
1.9589268
50
171.474594
51
180.0181837
0
ARC
8
DEFAULT_255_2_778
10
9.7439957
20
38.2264164
40
1.9374185
50
179.9222054
51
205.0522326
0
ARC
8
DEFAULT_255_2_778
10
9.7634628
20
38.2379795
40
1.9599517
50
205.1174825
51
259.2042668
0
ARC
8
DEFAULT_255_2_778
10
9.7638397
20
38.2544462
40
1.9761994
50
259.2829553
51
270.0272332
0
ARC
8
DEFAULT_255_2_778
10
9.7631128
20
37.8026285
40
1.0282828
50
269.969071
51
270.0928422
0
ARC
8
DEFAULT_255_2_778
10
9.7602949
20
38.225358
40
1.4510144
50
239.4516668
51
270.0893493
0
ARC
8
DEFAULT_255_2_778
10
9.7630804
20
38.2324095
40
1.4585032
50
187.8970423
51
239.4982261
0
ARC
8
DEFAULT_255_2_778
10
9.7758142
20
38.2318281
40
1.4710383
50
180.1200052
51
187.8064684
0
ARC
8
DEFAULT_255_2_778
10
9.7559226
20
38.227602
40
1.4511441
50
149.4025566
51
179.9547908
0
ARC
8
DEFAULT_255_2_778
10
9.7628482
20
38.2248429
40
1.4585102
50
97.7742508
51
149.4477412
0
ARC
8
DEFAULT_255_2_778
10
9.7621671
20
38.2124339
40
1.4707148
50
89.984781
51
97.6825661
0
ARC
8
DEFAULT_255_2_778
10
9.7631128
20
38.6548655
40
1.0282833
50
89.9071578
51
90.030929
0
ARC
8
DEFAULT_255_2_778
10
17.823545
20
38.6551783
40
1.02797
50
89.9690655
51
90.092859
0
ARC
8
DEFAULT_255_2_778
10
17.8263489
20
38.2323434
40
1.450807
50
59.449429
51
90.0888106
0
ARC
8
DEFAULT_255_2_778
10
17.8234417
20
38.225081
40
1.4585393
50
7.8969841
51
59.4960916
0
ARC
8
DEFAULT_255_2_778
10
17.8107439
20
38.2256659
40
1.4710383
50
0.1200052
51
7.8064682
0
ARC
8
DEFAULT_255_2_778
10
17.830604
20
38.2298942
40
1.4511755
50
329.40319
51
359.9547072
0
ARC
8
DEFAULT_255_2_778
10
17.8237408
20
38.2325899
40
1.4584557
50
277.7763641
51
329.44927
0
ARC
8
DEFAULT_255_2_778
10
17.8244899
20
38.2447308
40
1.4703855
50
269.9848073
51
277.6834284
0
ARC
8
DEFAULT_255_2_778
10
17.823545
20
37.8023157
40
1.0279705
50
269.907141
51
270.0309345
0
ARC
8
DEFAULT_255_2_778
10
17.8246361
20
38.2223556
40
1.9571934
50
65.7763719
51
90.0807113
0
ARC
8
DEFAULT_255_2_778
10
17.8265645
20
38.2246897
40
1.9542738
50
8.6846712
51
65.7998548
0
ARC
8
DEFAULT_255_2_778
10
17.8212838
20
38.2293662
40
1.9587953
50
359.9818875
51
8.5261259
0
ARC
8
DEFAULT_255_2_778
10
17.8430348
20
38.2261387
40
1.9370459
50
334.9199816
51
0.0771509
0
ARC
8
DEFAULT_255_2_778
10
17.8228986
20
38.2380113
40
1.9603177
50
280.7965101
51
334.8551594
0
ARC
8
DEFAULT_255_2_778
10
17.8228107
20
38.2533593
40
1.9754125
50
269.9729772
51
280.7156265
0
ARC
8
DEFAULT_255_2_778
10
9.7766413
20
38.2716253
40
1.3842792
50
247.9775804
51
269.9353358
0
ARC
8
DEFAULT_255_2_778
10
9.7667715
20
38.2387344
40
1.350091
50
225.3569506
51
247.8424813
0
ARC
8
DEFAULT_255_2_778
10
9.7643476
20
38.2337086
40
1.3448131
50
202.7411121
51
225.2799637
0
ARC
8
DEFAULT_255_2_778
10
9.7600849
20
38.228946
40
1.3390435
50
179.9978391
51
202.6236765
0
LINE
8
DEFAULT_255_2_778
10
8.4210415
20
38.2289965
11
8.4210415
21
38.2293476
0
ARC
8
DEFAULT_255_2_778
10
9.7599504
20
38.2290551
40
1.3389089
50
157.3974294
51
179.9874828
0
ARC
8
DEFAULT_255_2_778
10
9.7617456
20
38.2256228
40
1.3418877
50
134.7053972
51
157.291595
0
ARC
8
DEFAULT_255_2_778
10
9.7664692
20
38.2187632
40
1.3500867
50
112.1574838
51
134.6430854
0
ARC
8
DEFAULT_255_2_778
10
9.77634
20
38.1858767
40
1.3842712
50
90.0646085
51
112.0224929
0
ARC
8
DEFAULT_255_2_778
10
17.8303635
20
38.231785
40
1.3383633
50
67.3634185
51
89.9222764
0
ARC
8
DEFAULT_255_2_778
10
17.8247147
20
38.2245086
40
1.3472554
50
44.8789334
51
67.2607957
0
ARC
8
DEFAULT_255_2_778
10
17.8226357
20
38.2232976
40
1.3495833
50
22.5453302
51
44.8530868
0
ARC
8
DEFAULT_255_2_778
10
17.8293767
20
38.228658
40
1.3413042
50
0.3462299
51
22.4442539
0
ARC
8
DEFAULT_255_2_778
10
17.8416004
20
38.229047
40
1.3290786
50
0.0000014
51
0.3326471
0
ARC
8
DEFAULT_255_2_778
10
17.8457379
20
38.2290237
40
1.3249411
50
359.5112749
51
0.0010074
0
ARC
8
DEFAULT_255_2_778
10
17.8297837
20
38.2293563
40
1.3408975
50
337.5522548
51
359.5028804
0
ARC
8
DEFAULT_255_2_778
10
17.8231189
20
38.2342549
40
1.3489293
50
315.1457348
51
337.4680465
0
ARC
8
DEFAULT_255_2_778
10
17.8250508
20
38.2334116
40
1.3469652
50
292.7288758
51
315.1132035
0
ARC
8
DEFAULT_255_2_778
10
17.8301028
20
38.2263087
40
1.3384634
50
270.0888774
51
292.6468861
0
ARC
8
DEFAULT_255_2_778
10
17.8243529
20
26.2811602
40
1.9573151
50
269.9188021
51
294.2228649
0
ARC
8
DEFAULT_255_2_778
10
17.8263455
20
26.2786224
40
1.9541836
50
294.2001125
51
351.3173524
0
ARC
8
DEFAULT_255_2_778
10
17.8208042
20
26.2740265
40
1.958975
50
351.4747001
51
0.0181483
0
ARC
8
DEFAULT_255_2_778
10
17.8426092
20
26.2772704
40
1.9371716
50
359.922407
51
25.0757755
0
ARC
8
DEFAULT_255_2_778
10
17.8228954
20
26.2655846
40
1.9599812
50
25.1409471
51
79.2080126
0
ARC
8
DEFAULT_255_2_778
10
17.8225204
20
26.2491565
40
1.9761907
50
79.2865167
51
90.0272944
0
ARC
8
DEFAULT_255_2_778
10
9.763113
20
26.7012241
40
1.0280243
50
89.9071466
51
90.0309624
0
ARC
8
DEFAULT_255_2_778
10
9.7602826
20
26.2781424
40
1.451108
50
89.9101799
51
120.5442349
0
ARC
8
DEFAULT_255_2_778
10
9.7629794
20
26.2712747
40
1.4583937
50
120.4983619
51
172.1049328
0
ARC
8
DEFAULT_255_2_778
10
9.7761155
20
26.2717663
40
1.4713396
50
172.1941601
51
179.880035
0
ARC
8
DEFAULT_255_2_778
10
9.7559226
20
26.275992
40
1.4511441
50
180.0452092
51
210.5974434
0
ARC
8
DEFAULT_255_2_778
10
9.7628482
20
26.2787511
40
1.4585102
50
210.5522588
51
262.2257492
0
ARC
8
DEFAULT_255_2_778
10
9.7621671
20
26.2911602
40
1.4707148
50
262.3174339
51
270.015219
0
ARC
8
DEFAULT_255_2_778
10
9.7631132
20
25.8483582
40
1.027913
50
269.9690376
51
270.0928534
0
ARC
8
DEFAULT_255_2_778
10
17.8235446
20
25.8480455
40
1.0275998
50
269.9071299
51
270.030968
0
ARC
8
DEFAULT_255_2_778
10
17.8263489
20
26.2712507
40
1.450807
50
269.9111894
51
300.550571
0
ARC
8
DEFAULT_255_2_778
10
17.8234417
20
26.278513
40
1.4585393
50
300.5039084
51
352.1030159
0
ARC
8
DEFAULT_255_2_778
10
17.8107439
20
26.2779281
40
1.4710383
50
352.1935318
51
359.8799948
0
ARC
8
DEFAULT_255_2_778
10
17.8305264
20
26.273723
40
1.451253
50
0.0443773
51
30.5092521
0
ARC
8
DEFAULT_255_2_778
10
17.8238024
20
26.2710511
40
1.458403
50
30.4655773
51
82.2145343
0
ARC
8
DEFAULT_255_2_778
10
17.8244927
20
26.2586892
40
1.4705594
50
82.3064278
51
90.0152884
0
ARC
8
DEFAULT_255_2_778
10
17.8235448
20
26.7013518
40
1.027897
50
89.9690376
51
90.0928534
0
ARC
8
DEFAULT_255_2_778
10
9.7620059
20
26.2680094
40
1.9573396
50
89.9188258
51
114.2225693
0
ARC
8
DEFAULT_255_2_778
10
9.7599682
20
26.2705926
40
1.9541479
50
114.1991575
51
171.315596
0
ARC
8
DEFAULT_255_2_778
10
9.7652313
20
26.2752664
40
1.9586524
50
171.4739952
51
180.0181191
0
ARC
8
DEFAULT_255_2_778
10
9.7437514
20
26.2720318
40
1.9371741
50
179.922651
51
205.0561127
0
ARC
8
DEFAULT_255_2_778
10
9.7636606
20
26.2837998
40
1.9601949
50
205.1212618
51
259.2013576
0
ARC
8
DEFAULT_255_2_778
10
9.7638469
20
26.2995407
40
1.9756939
50
259.2815799
51
270.0270329
0
ARC
8
DEFAULT_255_2_778
10
9.776599
20
26.3157125
40
1.3817663
50
247.9462703
51
269.9369735
0
ARC
8
DEFAULT_255_2_778
10
9.7669431
20
26.285736
40
1.3503596
50
225.3877824
51
247.8484236
0
ARC
8
DEFAULT_255_2_778
10
9.7657267
20
26.2805562
40
1.3458207
50
202.7576454
51
225.2697774
0
ARC
8
DEFAULT_255_2_778
10
9.7599919
20
26.2745496
40
1.3382129
50
179.997971
51
202.6154741
0
ARC
8
DEFAULT_255_2_778
10
9.7599919
20
26.2746444
40
1.3382129
50
157.3845259
51
180.002029
0
ARC
8
DEFAULT_255_2_778
10
9.7639272
20
26.2698521
40
1.3436916
50
134.7121538
51
157.2604223
0
ARC
8
DEFAULT_255_2_778
10
9.7669416
20
26.2634599
40
1.3503571
50
112.1515465
51
134.6122277
0
ARC
8
DEFAULT_255_2_778
10
9.7773704
20
26.2295334
40
1.3857155
50
90.0947446
51
112.0219992
0
ARC
8
DEFAULT_255_2_778
10
17.8322742
20
26.3173298
40
1.2979172
50
87.0335457
51
89.9953711
0
ARC
8
DEFAULT_255_2_778
10
17.828769
20
26.2716661
40
1.3437015
50
67.3846765
51
86.9850511
0
ARC
8
DEFAULT_255_2_778
10
17.8267804
20
26.2732334
40
1.3430217
50
44.8405703
51
67.2806506
0
ARC
8
DEFAULT_255_2_778
10
17.8224182
20
26.2687885
40
1.3492491
50
22.5424414
51
44.8437895
0
ARC
8
DEFAULT_255_2_778
10
17.8286691
20
26.2746426
40
1.3412349
50
359.9980543
51
22.4138413
0
ARC
8
DEFAULT_255_2_778
10
17.8286691
20
26.2745515
40
1.3412349
50
337.5861587
51
0.0019457
0
ARC
8
DEFAULT_255_2_778
10
17.8214982
20
26.2810189
40
1.350334
50
315.1652858
51
337.4484867
0
ARC
8
DEFAULT_255_2_778
10
17.8258694
20
26.2773146
40
1.3446225
50
292.7328729
51
315.1458916
0
ARC
8
DEFAULT_255_2_778
10
17.828769
20
26.2775279
40
1.3437016
50
273.0149489
51
292.6153235
0
ARC
8
DEFAULT_255_2_778
10
17.8322742
20
26.2318642
40
1.2979171
50
270.0046289
51
272.9664543
0
ARC
8
DEFAULT_255_2_778
10
17.8246361
20
20.2912556
40
1.9571934
50
65.7763719
51
90.0807113
0
ARC
8
DEFAULT_255_2_778
10
17.8265645
20
20.2935897
40
1.9542738
50
8.6846712
51
65.7998548
0
ARC
8
DEFAULT_255_2_778
10
17.8212838
20
20.2982662
40
1.9587953
50
359.9818875
51
8.5261259
0
ARC
8
DEFAULT_255_2_778
10
17.8427811
20
20.2950083
40
1.9372997
50
334.9469865
51
0.0780394
0
ARC
8
DEFAULT_255_2_778
10
17.8232834
20
20.3066217
40
1.959882
50
280.7934991
51
334.8807916
0
ARC
8
DEFAULT_255_2_778
10
17.8228204
20
20.3233267
40
1.9763801
50
269.9727091
51
280.7159919
0
ARC
8
DEFAULT_255_2_778
10
9.7619998
20
20.2906789
40
1.9574701
50
89.9186503
51
114.2206506
0
ARC
8
DEFAULT_255_2_778
10
9.7598629
20
20.2934868
40
1.954033
50
114.197286
51
171.3171996
0
ARC
8
DEFAULT_255_2_778
10
9.7655056
20
20.2980687
40
1.9589268
50
171.474594
51
180.0181837
0
ARC
8
DEFAULT_255_2_778
10
9.7439957
20
20.2948164
40
1.9374185
50
179.9222054
51
205.0522326
0
ARC
8
DEFAULT_255_2_778
10
9.7634628
20
20.3063795
40
1.9599517
50
205.1174825
51
259.2042668
0
ARC
8
DEFAULT_255_2_778
10
9.7638397
20
20.3228462
40
1.9761994
50
259.2829553
51
270.0272332
0
ARC
8
DEFAULT_255_2_778
10
17.823545
20
20.7238783
40
1.02797
50
89.9690655
51
90.092859
0
ARC
8
DEFAULT_255_2_778
10
17.8263489
20
20.3010434
40
1.450807
50
59.449429
51
90.0888106
0
ARC
8
DEFAULT_255_2_778
10
17.8234417
20
20.293781
40
1.4585393
50
7.8969841
51
59.4960916
0
ARC
8
DEFAULT_255_2_778
10
17.8107439
20
20.2943659
40
1.4710383
50
0.1200052
51
7.8064682
0
ARC
8
DEFAULT_255_2_778
10
17.8305011
20
20.2985745
40
1.4512784
50
329.4887384
51
359.9554883
0
ARC
8
DEFAULT_255_2_778
10
17.823631
20
20.301347
40
1.4586053
50
277.784697
51
329.5319253
0
ARC
8
DEFAULT_255_2_778
10
17.8243078
20
20.3137348
40
1.4707892
50
269.9847171
51
277.6932087
0
ARC
8
DEFAULT_255_2_778
10
17.8234066
20
19.880106
40
1.0371605
50
269.9156124
51
270.0281115
0
ARC
8
DEFAULT_255_2_778
10
9.7632513
20
19.8802348
40
1.0372889
50
269.9718885
51
270.0843876
0
ARC
8
DEFAULT_255_2_778
10
9.7604684
20
20.2942937
40
1.4513499
50
239.4560753
51
270.0897703
0
ARC
8
DEFAULT_255_2_778
10
9.7630779
20
20.3010503
40
1.4584956
50
187.8961585
51
239.5026768
0
ARC
8
DEFAULT_255_2_778
10
9.7760939
20
20.3005274
40
1.4713182
50
180.1199557
51
187.8063554
0
ARC
8
DEFAULT_255_2_778
10
9.7559226
20
20.296302
40
1.4511441
50
149.4025566
51
179.9547908
0
ARC
8
DEFAULT_255_2_778
10
9.7628482
20
20.2935429
40
1.4585102
50
97.7742508
51
149.4477412
0
ARC
8
DEFAULT_255_2_778
10
9.7621671
20
20.2811339
40
1.4707148
50
89.984781
51
97.6825661
0
ARC
8
DEFAULT_255_2_778
10
9.7631128
20
20.7235655
40
1.0282833
50
89.9071578
51
90.030929
0
ARC
8
DEFAULT_255_2_778
10
17.8292464
20
20.2966314
40
1.3412192
50
67.3764777
51
89.8661791
0
ARC
8
DEFAULT_255_2_778
10
17.825551
20
20.2934754
40
1.3455557
50
44.8868949
51
67.2829237
0
ARC
8
DEFAULT_255_2_778
10
17.8222862
20
20.291921
40
1.3489665
50
22.5321347
51
44.8358124
0
ARC
8
DEFAULT_255_2_778
10
17.8281745
20
20.2976008
40
1.3413545
50
359.9977023
51
22.404424
0
ARC
8
DEFAULT_255_2_778
10
17.8281745
20
20.2974933
40
1.3413545
50
337.5955721
51
0.0022934
0
ARC
8
DEFAULT_255_2_778
10
17.8222865
20
20.3031729
40
1.3489661
50
315.1641827
51
337.4678669
0
ARC
8
DEFAULT_255_2_778
10
17.8255519
20
20.3016175
40
1.3455545
50
292.7170594
51
315.1131109
0
ARC
8
DEFAULT_255_2_778
10
17.8292469
20
20.2984626
40
1.341219
50
270.1338013
51
292.6235042
0
ARC
8
DEFAULT_255_2_778
10
9.7771366
20
20.3412271
40
1.3839812
50
247.9861978
51
269.9272375
0
ARC
8
DEFAULT_255_2_778
10
9.7630877
20
20.3020743
40
1.342418
50
225.3204727
51
247.9157322
0
ARC
8
DEFAULT_255_2_778
10
9.7613217
20
20.299711
40
1.3394959
50
202.6881545
51
225.303105
0
ARC
8
DEFAULT_255_2_778
10
9.7609712
20
20.2974904
40
1.3383171
50
179.9975753
51
202.60623
0
ARC
8
DEFAULT_255_2_778
10
9.7609712
20
20.2976036
40
1.3383171
50
157.39377
51
180.0024247
0
ARC
8
DEFAULT_255_2_778
10
9.7688775
20
20.2902874
40
1.3484335
50
134.7728202
51
157.2359169
0
ARC
8
DEFAULT_255_2_778
10
9.7637149
20
20.2920679
40
1.3435358
50
112.0937907
51
134.6700041
0
ARC
8
DEFAULT_255_2_778
10
9.777521
20
20.2546393
40
1.3834093
50
90.0887117
51
112.0405514
0
ARC
8
DEFAULT_255_2_778
10
9.7620052
20
14.3272602
40
1.9573151
50
245.7771351
51
270.0811979
0
ARC
8
DEFAULT_255_2_778
10
9.7600125
20
14.3247224
40
1.9541836
50
188.6826476
51
245.7998875
0
ARC
8
DEFAULT_255_2_778
10
9.7655538
20
14.3201265
40
1.958975
50
179.9818517
51
188.5252999
0
ARC
8
DEFAULT_255_2_778
10
9.7439957
20
14.3233776
40
1.9374185
50
154.9477674
51
180.0777946
0
ARC
8
DEFAULT_255_2_778
10
9.7634628
20
14.3118145
40
1.9599517
50
100.7957332
51
154.8825175
0
ARC
8
DEFAULT_255_2_778
10
9.7638397
20
14.2953478
40
1.9761994
50
89.9727668
51
100.7170447
0
ARC
8
DEFAULT_255_2_778
10
17.8246353
20
14.3274629
40
1.9572178
50
269.9193123
51
294.2233325
0
ARC
8
DEFAULT_255_2_778
10
17.8266089
20
14.3250832
40
1.9542381
50
294.1991903
51
351.3135724
0
ARC
8
DEFAULT_255_2_778
10
17.8216064
20
14.3203289
40
1.9584727
50
351.4731692
51
0.0180833
0
ARC
8
DEFAULT_255_2_778
10
17.8430348
20
14.3235553
40
1.9370459
50
359.9228491
51
25.0800184
0
ARC
8
DEFAULT_255_2_778
10
17.8228986
20
14.3116827
40
1.9603177
50
25.1448406
51
79.2034899
0
ARC
8
DEFAULT_255_2_778
10
17.8228107
20
14.2963347
40
1.9754125
50
79.2843735
51
90.0270228
0
ARC
8
DEFAULT_255_2_778
10
17.8297251
20
14.3233037
40
1.3378455
50
67.3477502
51
89.8949075
0
ARC
8
DEFAULT_255_2_778
10
17.8256318
20
14.3184997
40
1.3438568
50
44.8552917
51
67.2655758
0
ARC
8
DEFAULT_255_2_778
10
17.8215426
20
14.3144801
40
1.3495908
50
22.5689896
51
44.8538203
0
ARC
8
DEFAULT_255_2_778
10
17.8274638
20
14.3213559
40
1.3414902
50
359.9969519
51
22.3948699
0
ARC
8
DEFAULT_255_2_778
10
18.6396243
20
14.3211218
40
0.5293297
50
359.9471766
51
0.0176078
0
ARC
8
DEFAULT_255_2_778
10
17.8269043
20
14.3212487
40
1.3420497
50
337.6098647
51
359.9737472
0
ARC
8
DEFAULT_255_2_778
10
17.8197027
20
14.3292415
40
1.3517608
50
315.1642967
51
337.4128934
0
ARC
8
DEFAULT_255_2_778
10
17.8259643
20
14.3239253
40
1.3435725
50
292.7241321
51
315.1367933
0
ARC
8
DEFAULT_255_2_778
10
17.8297253
20
14.3192892
40
1.3378445
50
270.1050861
51
292.6522612
0
ARC
8
DEFAULT_255_2_778
10
9.7758004
20
14.3613848
40
1.3799379
50
247.9647312
51
269.9700497
0
ARC
8
DEFAULT_255_2_778
10
9.763213
20
14.3258421
40
1.3422701
50
225.3066968
51
247.8935764
0
ARC
8
DEFAULT_255_2_778
10
9.7675844
20
14.3282736
40
1.3470736
50
202.7683795
51
225.2472592
0
ARC
8
DEFAULT_255_2_778
10
9.7579821
20
14.3211823
40
1.3354781
50
179.9966874
51
202.6472841
0
ARC
8
DEFAULT_255_2_778
10
8.9281209
20
14.3214185
40
0.5056169
50
179.9459474
51
180.0180175
0
ARC
8
DEFAULT_255_2_778
10
9.7585322
20
14.3213018
40
1.3360281
50
157.3574495
51
179.9745386
0
ARC
8
DEFAULT_255_2_778
10
9.7604533
20
14.318913
40
1.3387216
50
134.6773969
51
157.2947436
0
ARC
8
DEFAULT_255_2_778
10
9.7694102
20
14.3071577
40
1.3533796
50
112.1848721
51
134.5971179
0
ARC
8
DEFAULT_255_2_778
10
9.7764088
20
14.2796242
40
1.381523
50
90.0427088
51
112.0224647
0
ARC
8
DEFAULT_255_2_778
10
9.7631132
20
14.7477358
40
1.0279126
50
89.9071466
51
90.0309624
0
ARC
8
DEFAULT_255_2_778
10
9.7602949
20
14.324636
40
1.4510144
50
89.9106507
51
120.5483332
0
ARC
8
DEFAULT_255_2_778
10
9.7630804
20
14.3175845
40
1.4585032
50
120.5017739
51
172.1029577
0
ARC
8
DEFAULT_255_2_778
10
9.7758142
20
14.3181659
40
1.4710383
50
172.1935316
51
179.8799948
0
ARC
8
DEFAULT_255_2_778
10
9.7559226
20
14.322392
40
1.4511441
50
180.0452092
51
210.5974434
0
ARC
8
DEFAULT_255_2_778
10
9.7628482
20
14.3251511
40
1.4585102
50
210.5522588
51
262.2257492
0
ARC
8
DEFAULT_255_2_778
10
9.7621671
20
14.3375602
40
1.4707148
50
262.3174339
51
270.015219
0
ARC
8
DEFAULT_255_2_778
10
9.7631132
20
13.8947582
40
1.027913
50
269.9690376
51
270.0928534
0
ARC
8
DEFAULT_255_2_778
10
17.8235446
20
13.8944455
40
1.0275998
50
269.9071299
51
270.030968
0
ARC
8
DEFAULT_255_2_778
10
17.8263489
20
14.3176507
40
1.450807
50
269.9111894
51
300.550571
0
ARC
8
DEFAULT_255_2_778
10
17.8234417
20
14.324913
40
1.4585393
50
300.5039084
51
352.1030159
0
ARC
8
DEFAULT_255_2_778
10
17.8107439
20
14.3243281
40
1.4710383
50
352.1935318
51
359.8799948
0
ARC
8
DEFAULT_255_2_778
10
17.830604
20
14.3200998
40
1.4511755
50
0.0452928
51
30.59681
0
ARC
8
DEFAULT_255_2_778
10
17.8237408
20
14.3174042
40
1.4584557
50
30.55073
51
82.2236359
0
ARC
8
DEFAULT_255_2_778
10
17.8244899
20
14.3052632
40
1.4703855
50
82.3165716
51
90.0151927
0
ARC
8
DEFAULT_255_2_778
10
17.8235446
20
14.7480485
40
1.0276003
50
89.969032
51
90.0928701
0
ARC
8
DEFAULT_255_2_778
10
23.786813
20
13.8940158
40
1.0279702
50
269.9690655
51
270.092859
0
ARC
8
DEFAULT_255_2_778
10
23.7840201
20
14.3169875
40
1.4509439
50
239.4509068
51
270.0883695
0
ARC
8
DEFAULT_255_2_778
10
23.786845
20
14.3241811
40
1.4585752
50
187.8994912
51
239.4989732
0
ARC
8
DEFAULT_255_2_778
10
23.7993361
20
14.3235306
40
1.4708603
50
180.1201164
51
187.8075165
0
ARC
8
DEFAULT_255_2_778
10
23.7796033
20
14.3193138
40
1.4511247
50
149.4873441
51
179.9552583
0
ARC
8
DEFAULT_255_2_778
10
23.7865764
20
14.3164886
40
1.4585671
50
97.785486
51
149.5308081
0
ARC
8
DEFAULT_255_2_778
10
23.7858662
20
14.3042475
40
1.4706012
50
89.9847449
51
97.6934642
0
ARC
8
DEFAULT_255_2_778
10
23.7868128
20
14.7465814
40
1.0282674
50
89.9071578
51
90.030929
0
ARC
8
DEFAULT_255_2_778
10
36.2901452
20
14.7465815
40
1.0282668
50
89.969071
51
90.0928422
0
ARC
8
DEFAULT_255_2_778
10
36.2929615
20
14.3239504
40
1.4509
50
59.4521715
51
90.0892951
0
ARC
8
DEFAULT_255_2_778
10
36.2901424
20
14.3168709
40
1.4584302
50
7.8948433
51
59.4981499
0
ARC
8
DEFAULT_255_2_778
10
36.2770641
20
14.3173678
40
1.471318
50
0.1199109
51
7.8057243
0
ARC
8
DEFAULT_255_2_778
10
36.297204
20
14.3215942
40
1.4511755
50
329.40319
51
359.9547072
0
ARC
8
DEFAULT_255_2_778
10
36.2903408
20
14.3242899
40
1.4584557
50
277.7763641
51
329.44927
0
ARC
8
DEFAULT_255_2_778
10
36.2910899
20
14.3364308
40
1.4703855
50
269.9848073
51
277.6834284
0
ARC
8
DEFAULT_255_2_778
10
36.290145
20
13.8940157
40
1.0279705
50
269.907141
51
270.0309345
0
ARC
8
DEFAULT_255_2_778
10
23.7857052
20
14.3142338
40
1.9573151
50
89.9188021
51
114.2228649
0
ARC
8
DEFAULT_255_2_778
10
23.7837125
20
14.3167716
40
1.9541836
50
114.2001125
51
171.3173524
0
ARC
8
DEFAULT_255_2_778
10
23.7892538
20
14.3213675
40
1.958975
50
171.4747001
51
180.0181483
0
ARC
8
DEFAULT_255_2_778
10
23.7674514
20
14.3181318
40
1.9371741
50
179.922651
51
205.0561127
0
ARC
8
DEFAULT_255_2_778
10
23.7873606
20
14.3298998
40
1.9601949
50
205.1212618
51
259.2013576
0
ARC
8
DEFAULT_255_2_778
10
23.7875469
20
14.3456407
40
1.9756939
50
259.2815799
51
270.0270329
0
ARC
8
DEFAULT_255_2_778
10
36.2912438
20
14.3270211
40
1.957076
50
269.9190571
51
294.2243662
0
ARC
8
DEFAULT_255_2_778
10
36.2931182
20
14.3247219
40
1.9542106
50
294.2019092
51
351.3174884
0
ARC
8
DEFAULT_255_2_778
10
36.2875682
20
14.3201278
40
1.9590108
50
351.4748175
51
0.0181088
0
ARC
8
DEFAULT_255_2_778
10
36.3093763
20
14.3233597
40
1.9372045
50
359.9227255
51
25.0557729
0
ARC
8
DEFAULT_255_2_778
10
36.2895136
20
14.311635
40
1.9601648
50
25.1203567
51
79.199619
0
ARC
8
DEFAULT_255_2_778
10
36.2894095
20
14.2961661
40
1.9753811
50
79.2807284
51
90.0269882
0
ARC
8
DEFAULT_255_2_778
10
23.8052699
20
14.3731343
40
1.3998874
50
248.1242601
51
269.9717226
0
ARC
8
DEFAULT_255_2_778
10
23.7910335
20
14.3324228
40
1.3568044
50
225.5261797
51
248.0415938
0
ARC
8
DEFAULT_255_2_778
10
23.7853793
20
14.3232904
40
1.3463286
50
202.7593851
51
225.4256046
0
ARC
8
DEFAULT_255_2_778
10
23.7831173
20
14.3203677
40
1.3431133
50
179.9960821
51
202.6817423
0
ARC
8
DEFAULT_255_2_778
10
22.9406412
20
14.3206177
40
0.5006372
50
179.945674
51
180.0181086
0
ARC
8
DEFAULT_255_2_778
10
23.7836651
20
14.3205167
40
1.3436611
50
157.322952
51
179.9754496
0
ARC
8
DEFAULT_255_2_778
10
23.7876387
20
14.3159547
40
1.3490889
50
134.5936016
51
157.2092444
0
ARC
8
DEFAULT_255_2_778
10
23.7913615
20
14.308404
40
1.3570821
50
111.9686085
51
134.4817128
0
ARC
8
DEFAULT_255_2_778
10
23.8056816
20
14.2660558
40
1.4017149
50
93.0670972
51
111.8638829
0
ARC
8
DEFAULT_255_2_778
10
23.8046722
20
14.2872329
40
1.380514
50
90.0038655
51
93.0722886
0
ARC
8
DEFAULT_255_2_778
10
36.3047756
20
14.3805085
40
1.2872385
50
87.0891923
51
89.9953978
0
ARC
8
DEFAULT_255_2_778
10
36.3012992
20
14.3347422
40
1.3331227
50
67.1499226
51
87.0398598
0
ARC
8
DEFAULT_255_2_778
10
36.2898435
20
14.3144805
40
1.3562456
50
44.7470104
51
67.0363371
0
ARC
8
DEFAULT_255_2_778
10
36.2851669
20
14.3115846
40
1.361606
50
22.5272511
51
44.6950209
0
ARC
8
DEFAULT_255_2_778
10
36.2949018
20
14.3202467
40
1.3493022
50
359.9978906
51
22.345871
0
ARC
8
DEFAULT_255_2_778
10
36.2949018
20
14.3201473
40
1.3493022
50
337.654129
51
0.0021094
0
ARC
8
DEFAULT_255_2_778
10
36.285168
20
14.3288094
40
1.3616052
50
315.3049486
51
337.4727323
0
ARC
8
DEFAULT_255_2_778
10
36.2923638
20
14.3221908
40
1.3518351
50
292.9268675
51
315.2898519
0
ARC
8
DEFAULT_255_2_778
10
36.301604
20
14.3056053
40
1.3329616
50
270.1278768
51
292.8387801
0
ARC
8
DEFAULT_255_2_778
10
36.2901446
20
19.8708455
40
1.0275998
50
269.9071299
51
270.030968
0
ARC
8
DEFAULT_255_2_778
10
36.2929489
20
20.2940507
40
1.450807
50
269.9111894
51
300.550571
0
ARC
8
DEFAULT_255_2_778
10
36.2900417
20
20.301313
40
1.4585393
50
300.5039084
51
352.1030159
0
ARC
8
DEFAULT_255_2_778
10
36.2773439
20
20.3007281
40
1.4710383
50
352.1935318
51
359.8799948
0
ARC
8
DEFAULT_255_2_778
10
36.2971264
20
20.296523
40
1.451253
50
0.0443773
51
30.5092521
0
ARC
8
DEFAULT_255_2_778
10
36.2904024
20
20.2938511
40
1.458403
50
30.4655773
51
82.2145343
0
ARC
8
DEFAULT_255_2_778
10
36.2910927
20
20.2814892
40
1.4705594
50
82.3064278
51
90.0152884
0
ARC
8
DEFAULT_255_2_778
10
36.2901448
20
20.7241518
40
1.027897
50
89.9690376
51
90.0928534
0
ARC
8
DEFAULT_255_2_778
10
23.7868132
20
20.7241517
40
1.0278967
50
89.9071466
51
90.0309624
0
ARC
8
DEFAULT_255_2_778
10
23.7840075
20
20.3010136
40
1.4510368
50
89.911146
51
120.5463508
0
ARC
8
DEFAULT_255_2_778
10
23.786745
20
20.2940025
40
1.4584666
50
120.4989854
51
172.1026435
0
ARC
8
DEFAULT_255_2_778
10
23.7996158
20
20.2945653
40
1.47114
50
172.1932276
51
179.8799779
0
ARC
8
DEFAULT_255_2_778
10
23.7795267
20
20.2988033
40
1.4510482
50
180.0456577
51
210.6002035
0
ARC
8
DEFAULT_255_2_778
10
23.7866378
20
20.3016519
40
1.4586194
50
210.5543269
51
262.2236209
0
ARC
8
DEFAULT_255_2_778
10
23.7858691
20
20.3136741
40
1.4704288
50
262.3166816
51
270.0151536
0
ARC
8
DEFAULT_255_2_778
10
23.7868134
20
19.8708456
40
1.0276004
50
269.969032
51
270.0928701
0
ARC
8
DEFAULT_255_2_778
10
23.7857052
20
20.2911338
40
1.9573151
50
89.9188021
51
114.2228649
0
ARC
8
DEFAULT_255_2_778
10
23.7837125
20
20.2936716
40
1.9541836
50
114.2001125
51
171.3173524
0
ARC
8
DEFAULT_255_2_778
10
23.7892538
20
20.2982675
40
1.958975
50
171.4747001
51
180.0181483
0
ARC
8
DEFAULT_255_2_778
10
23.7673325
20
20.2950237
40
1.9370553
50
179.9224061
51
205.0568938
0
ARC
8
DEFAULT_255_2_778
10
23.7872725
20
20.306842
40
1.9601253
50
205.1229877
51
259.2035918
0
ARC
8
DEFAULT_255_2_778
10
23.7875448
20
20.3228212
40
1.9758746
50
259.2826329
51
270.0270907
0
ARC
8
DEFAULT_255_2_778
10
36.2912438
20
20.291373
40
1.957076
50
65.7756338
51
90.0809429
0
ARC
8
DEFAULT_255_2_778
10
36.2931182
20
20.2936721
40
1.9542106
50
8.6825116
51
65.7980908
0
ARC
8
DEFAULT_255_2_778
10
36.2875682
20
20.2982662
40
1.9590108
50
359.9818912
51
8.5251825
0
ARC
8
DEFAULT_255_2_778
10
36.3094951
20
20.2950262
40
1.9370857
50
334.9434461
51
0.0775194
0
ARC
8
DEFAULT_255_2_778
10
36.2896017
20
20.3068012
40
1.9600951
50
280.7981467
51
334.8779175
0
ARC
8
DEFAULT_255_2_778
10
36.2894116
20
20.3225084
40
1.9755617
50
269.972954
51
280.7182186
0
ARC
8
DEFAULT_255_2_778
10
23.8057286
20
20.3536615
40
1.4038149
50
248.1552446
51
269.9530787
0
ARC
8
DEFAULT_255_2_778
10
23.7910615
20
20.30919
40
1.3570821
50
225.5182872
51
248.0313915
0
ARC
8
DEFAULT_255_2_778
10
23.7872983
20
20.3016116
40
1.349041
50
202.7903358
51
225.4067947
0
ARC
8
DEFAULT_255_2_778
10
23.7865372
20
20.2973235
40
1.3466832
50
179.9968736
51
202.6346819
0
ARC
8
DEFAULT_255_2_778
10
23.7865372
20
20.2974705
40
1.3466832
50
157.3653181
51
180.0031264
0
ARC
8
DEFAULT_255_2_778
10
23.7872983
20
20.2931824
40
1.349041
50
134.5932053
51
157.2096642
0
ARC
8
DEFAULT_255_2_778
10
23.7899337
20
20.2881912
40
1.3544464
50
111.9621416
51
134.5243581
0
ARC
8
DEFAULT_255_2_778
10
23.8049559
20
20.2453319
40
1.3998152
50
90.0154267
51
111.8763095
0
ARC
8
DEFAULT_255_2_778
10
36.3047751
20
20.354847
40
1.2903
50
87.0612968
51
89.9953867
0
ARC
8
DEFAULT_255_2_778
10
36.3016125
20
20.312564
40
1.33269
50
67.14737
51
87.0187049
0
ARC
8
DEFAULT_255_2_778
10
36.2937435
20
20.2966952
40
1.3503698
50
44.7124667
51
67.1011856
0
ARC
8
DEFAULT_255_2_778
10
36.2869332
20
20.2903466
40
1.3596762
50
22.5034187
51
44.7006768
0
ARC
8
DEFAULT_255_2_778
10
36.2952944
20
20.2975875
40
1.3491846
50
359.9982803
51
22.355233
0
ARC
8
DEFAULT_255_2_778
10
36.2952944
20
20.2975065
40
1.3491846
50
337.644767
51
0.0017197
0
ARC
8
DEFAULT_255_2_778
10
36.2883198
20
20.303826
40
1.3580424
50
315.2858061
51
337.5101057
0
ARC
8
DEFAULT_255_2_778
10
36.2897326
20
20.3038993
40
1.3570905
50
292.9628034
51
315.2416388
0
ARC
8
DEFAULT_255_2_778
10
36.3010502
20
20.2849363
40
1.3352181
50
272.9998076
51
292.8330979
0
ARC
8
DEFAULT_255_2_778
10
36.3047752
20
20.2371139
40
1.2872669
50
270.0046211
51
272.9456309
0
ARC
8
DEFAULT_255_2_778
10
23.7868128
20
37.8029126
40
1.028267
50
269.969071
51
270.0928422
0
ARC
8
DEFAULT_255_2_778
10
23.7840075
20
38.2256804
40
1.4510368
50
239.4536492
51
270.088854
0
ARC
8
DEFAULT_255_2_778
10
23.786745
20
38.2326915
40
1.4584666
50
187.8973565
51
239.5010146
0
ARC
8
DEFAULT_255_2_778
10
23.7996158
20
38.2321287
40
1.47114
50
180.1200221
51
187.8067724
0
ARC
8
DEFAULT_255_2_778
10
23.7794154
20
38.2278987
40
1.4509369
50
149.3963117
51
179.9546538
0
ARC
8
DEFAULT_255_2_778
10
23.7867401
20
38.2248673
40
1.4587849
50
97.7730754
51
149.440296
0
ARC
8
DEFAULT_255_2_778
10
23.7860509
20
38.2126096
40
1.4708388
50
89.9847409
51
97.6818926
0
ARC
8
DEFAULT_255_2_778
10
23.7869514
20
38.6462879
40
1.0371606
50
89.9156124
51
90.0281115
0
ARC
8
DEFAULT_255_2_778
10
36.2900066
20
38.646288
40
1.0371601
50
89.9718885
51
90.0843876
0
ARC
8
DEFAULT_255_2_778
10
36.2927722
20
38.232271
40
1.4511791
50
59.4545165
51
90.0890998
0
ARC
8
DEFAULT_255_2_778
10
36.2901056
20
38.2253711
40
1.4584772
50
7.8982262
51
59.5020563
0
ARC
8
DEFAULT_255_2_778
10
36.2773942
20
38.2259662
40
1.4709881
50
0.1199984
51
7.8072318
0
ARC
8
DEFAULT_255_2_778
10
36.2971264
20
38.230171
40
1.451253
50
329.4907479
51
359.9556227
0
ARC
8
DEFAULT_255_2_778
10
36.2904024
20
38.2328429
40
1.458403
50
277.7854657
51
329.5344227
0
ARC
8
DEFAULT_255_2_778
10
36.2910927
20
38.2452048
40
1.4705594
50
269.9847116
51
277.6935722
0
ARC
8
DEFAULT_255_2_778
10
36.2901452
20
37.8029125
40
1.0282673
50
269.9071578
51
270.030929
0
ARC
8
DEFAULT_255_2_778
10
36.2912438
20
38.2353211
40
1.957076
50
269.9190571
51
294.2243662
0
ARC
8
DEFAULT_255_2_778
10
36.2931182
20
38.2330219
40
1.9542106
50
294.2019092
51
351.3174884
0
ARC
8
DEFAULT_255_2_778
10
36.2875682
20
38.2284278
40
1.9590108
50
351.4748175
51
0.0181088
0
ARC
8
DEFAULT_255_2_778
10
36.3094951
20
38.2316678
40
1.9370857
50
359.9224806
51
25.0565539
0
ARC
8
DEFAULT_255_2_778
10
36.2896017
20
38.2198929
40
1.9600951
50
25.1220825
51
79.2018533
0
ARC
8
DEFAULT_255_2_778
10
36.2894116
20
38.2041856
40
1.9755617
50
79.2817814
51
90.027046
0
ARC
8
DEFAULT_255_2_778
10
23.8054146
20
38.2838884
40
1.4037417
50
248.1546681
51
269.9658955
0
ARC
8
DEFAULT_255_2_778
10
23.7923404
20
38.2428721
40
1.3608093
50
225.5497115
51
248.0230101
0
ARC
8
DEFAULT_255_2_778
10
23.7847731
20
38.2291405
40
1.3457142
50
189.4563822
51
225.3702915
0
ARC
8
DEFAULT_255_2_778
10
23.7871223
20
38.2300478
40
1.3481805
50
180.0020895
51
189.4780121
0
ARC
8
DEFAULT_255_2_778
10
23.7842408
20
38.2300123
40
1.345299
50
176.6365006
51
180.0005806
0
ARC
8
DEFAULT_255_2_778
10
23.783462
20
38.2299924
40
1.3445227
50
158.0473079
51
176.6337085
0
ARC
8
DEFAULT_255_2_778
10
23.7934345
20
38.2264082
40
1.3551123
50
157.3782209
51
158.0643807
0
ARC
8
DEFAULT_255_2_778
10
23.7874315
20
38.2249792
40
1.3501257
50
134.6034351
51
157.2242543
0
ARC
8
DEFAULT_255_2_778
10
23.7909843
20
38.2181929
40
1.3574541
50
111.9724195
51
134.5090671
0
ARC
8
DEFAULT_255_2_778
10
23.8047916
20
38.1773279
40
1.4005191
50
89.9964221
51
111.8707278
0
ARC
8
DEFAULT_255_2_778
10
36.3025555
20
38.2446368
40
1.3332126
50
67.1634992
51
89.8915486
0
ARC
8
DEFAULT_255_2_778
10
36.2937584
20
38.2275721
40
1.3523547
50
44.7200162
51
67.1005969
0
ARC
8
DEFAULT_255_2_778
10
36.289116
20
38.2231849
40
1.3587404
50
22.4723722
51
44.7137228
0
ARC
8
DEFAULT_255_2_778
10
36.2928864
20
38.2272409
40
1.3537079
50
0.5677457
51
22.3747368
0
ARC
8
DEFAULT_255_2_778
10
36.3203851
20
38.229024
40
1.3261939
50
0.000992
51
0.502485
0
ARC
8
DEFAULT_255_2_778
10
36.3207399
20
38.2289805
40
1.3258391
50
359.8305031
51
0.0028726
0
ARC
8
DEFAULT_255_2_778
10
36.2984894
20
38.229608
40
1.3480913
50
337.5796181
51
359.8066328
0
ARC
8
DEFAULT_255_2_778
10
36.2881973
20
38.2354193
40
1.3598226
50
315.2952387
51
337.5186629
0
ARC
8
DEFAULT_255_2_778
10
36.2928429
20
38.2317743
40
1.3539569
50
292.912823
51
315.2665784
0
ARC
8
DEFAULT_255_2_778
10
36.3021823
20
38.2151959
40
1.335052
50
270.1243169
51
292.8206361
0
ARC
8
DEFAULT_255_2_778
10
23.7862166
20
38.2224007
40
1.9573483
50
89.9191368
51
114.2214138
0
ARC
8
DEFAULT_255_2_778
10
23.7841439
20
38.2250049
40
1.9541232
50
114.1973187
51
171.315176
0
ARC
8
DEFAULT_255_2_778
10
23.789526
20
38.2296674
40
1.958747
50
171.4737681
51
180.0181479
0
ARC
8
DEFAULT_255_2_778
10
23.7678232
20
38.2264387
40
1.9370459
50
179.9228491
51
205.0800184
0
ARC
8
DEFAULT_255_2_778
10
23.7879594
20
38.2383113
40
1.9603177
50
205.1448406
51
259.2034899
0
ARC
8
DEFAULT_255_2_778
10
23.7880473
20
38.2536593
40
1.9754125
50
259.2843735
51
270.0270228
0
ARC
8
DEFAULT_255_2_778
10
23.7868128
20
43.7801126
40
1.028267
50
269.969071
51
270.0928422
0
ARC
8
DEFAULT_255_2_778
10
23.7840075
20
44.2028804
40
1.4510368
50
239.4536492
51
270.088854
0
ARC
8
DEFAULT_255_2_778
10
23.786745
20
44.2098915
40
1.4584666
50
187.8973565
51
239.5010146
0
ARC
8
DEFAULT_255_2_778
10
23.7996158
20
44.2093287
40
1.47114
50
180.1200221
51
187.8067724
0
ARC
8
DEFAULT_255_2_778
10
23.7795267
20
44.2050907
40
1.4510482
50
149.3997965
51
179.9543423
0
ARC
8
DEFAULT_255_2_778
10
23.7866378
20
44.2022421
40
1.4586194
50
97.7763791
51
149.4456731
0
ARC
8
DEFAULT_255_2_778
10
23.7858691
20
44.1902199
40
1.4704288
50
89.9848464
51
97.6833184
0
ARC
8
DEFAULT_255_2_778
10
23.786813
20
44.6326782
40
1.0279706
50
89.907141
51
90.0309345
0
ARC
8
DEFAULT_255_2_778
10
36.290145
20
44.6326783
40
1.02797
50
89.9690655
51
90.092859
0
ARC
8
DEFAULT_255_2_778
10
36.2929489
20
44.2098434
40
1.450807
50
59.449429
51
90.0888106
0
ARC
8
DEFAULT_255_2_778
10
36.2900417
20
44.202581
40
1.4585393
50
7.8969841
51
59.4960916
0
ARC
8
DEFAULT_255_2_778
10
36.2773439
20
44.2031659
40
1.4710383
50
0.1200052
51
7.8064682
0
ARC
8
DEFAULT_255_2_778
10
36.2971264
20
44.207371
40
1.451253
50
329.4907479
51
359.9556227
0
ARC
8
DEFAULT_255_2_778
10
36.2904024
20
44.2100429
40
1.458403
50
277.7854657
51
329.5344227
0
ARC
8
DEFAULT_255_2_778
10
36.2910927
20
44.2224048
40
1.4705594
50
269.9847116
51
277.6935722
0
ARC
8
DEFAULT_255_2_778
10
36.2901452
20
43.7801125
40
1.0282673
50
269.9071578
51
270.030929
0
ARC
8
DEFAULT_255_2_778
10
23.8045668
20
44.257538
40
1.400391
50
248.1282587
51
270.0004984
0
ARC
8
DEFAULT_255_2_778
10
23.7892889
20
44.2148516
40
1.3550868
50
225.4812043
51
248.0553758
0
ARC
8
DEFAULT_255_2_778
10
23.7893029
20
44.2123342
40
1.3533028
50
202.8257794
51
225.406052
0
ARC
8
DEFAULT_255_2_778
10
23.7845532
20
44.206131
40
1.3465242
50
179.9971901
51
202.6608985
0
ARC
8
DEFAULT_255_2_778
10
23.7845542
20
44.2062628
40
1.3465252
50
157.3391097
51
180.0028016
0
ARC
8
DEFAULT_255_2_778
10
23.78661
20
44.2018841
40
1.3501133
50
134.5669231
51
157.2012433
0
ARC
8
DEFAULT_255_2_778
10
23.7919523
20
44.193911
40
1.3595436
50
111.9899679
51
134.4915257
0
ARC
8
DEFAULT_255_2_778
10
23.8062918
20
44.148657
40
1.4068794
50
92.7966699
51
111.8413716
0
ARC
8
DEFAULT_255_2_778
10
23.8062235
20
44.1610619
40
1.3944861
50
90.0675677
51
92.8187335
0
ARC
8
DEFAULT_255_2_778
10
36.2912438
20
44.2125211
40
1.957076
50
269.9190571
51
294.2243662
0
ARC
8
DEFAULT_255_2_778
10
36.2931182
20
44.2102219
40
1.9542106
50
294.2019092
51
351.3174884
0
ARC
8
DEFAULT_255_2_778
10
36.2875682
20
44.2056278
40
1.9590108
50
351.4748175
51
0.0181088
0
ARC
8
DEFAULT_255_2_778
10
36.3094951
20
44.2088678
40
1.9370857
50
359.9224806
51
25.0565539
0
ARC
8
DEFAULT_255_2_778
10
36.2896017
20
44.1970929
40
1.9600951
50
25.1220825
51
79.2018533
0
ARC
8
DEFAULT_255_2_778
10
36.2894116
20
44.1813856
40
1.9755617
50
79.2817814
51
90.027046
0
ARC
8
DEFAULT_255_2_778
10
23.7856998
20
44.1994789
40
1.9574701
50
89.9186503
51
114.2206506
0
ARC
8
DEFAULT_255_2_778
10
23.7835629
20
44.2022868
40
1.954033
50
114.197286
51
171.3171996
0
ARC
8
DEFAULT_255_2_778
10
23.7892056
20
44.2068687
40
1.9589268
50
171.474594
51
180.0181837
0
ARC
8
DEFAULT_255_2_778
10
23.7674514
20
44.2036318
40
1.9371741
50
179.922651
51
205.0561127
0
ARC
8
DEFAULT_255_2_778
10
23.7873606
20
44.2153998
40
1.9601949
50
205.1212618
51
259.2013576
0
ARC
8
DEFAULT_255_2_778
10
23.7875469
20
44.2311407
40
1.9756939
50
259.2815799
51
270.0270329
0
ARC
8
DEFAULT_255_2_778
10
36.302428
20
44.2241724
40
1.3313764
50
67.1476162
51
89.9074308
0
ARC
8
DEFAULT_255_2_778
10
36.2932584
20
44.2052721
40
1.3523547
50
44.7200162
51
67.1005969
0
ARC
8
DEFAULT_255_2_778
10
36.2875203
20
44.1994621
40
1.3605201
50
22.510776
51
44.7238383
0
ARC
8
DEFAULT_255_2_778
10
36.2936728
20
44.2052947
40
1.3526067
50
0.0488105
51
22.3823136
0
ARC
8
DEFAULT_255_2_778
10
36.2979738
20
44.2068465
40
1.3483053
50
337.5815989
51
359.983022
0
ARC
8
DEFAULT_255_2_778
10
36.2884402
20
44.2129203
40
1.3594361
50
315.2671945
51
337.4981946
0
ARC
8
DEFAULT_255_2_778
10
36.2929246
20
44.2077916
40
1.3526409
50
292.9096303
51
315.2878344
0
ARC
8
DEFAULT_255_2_778
10
36.3011979
20
44.1928388
40
1.3356482
50
272.6687001
51
292.8324189
0
ARC
8
DEFAULT_255_2_778
10
36.3059299
20
44.1345921
40
1.277246
50
270.0041886
51
272.5783181
0
ARC
8
DEFAULT_255_2_778
10
36.3056623
20
43.7266538
40
0.8693076
50
269.9286021
51
270.0237909
0
LINE
8
DEFAULT_255_2_778
10
17.821879
20
89.680647
11
9.764779
21
89.684347
0
LINE
8
DEFAULT_255_2_778
10
9.764779
20
89.684347
11
9.764779
21
89.076647
0
LINE
8
DEFAULT_255_2_778
10
9.764779
20
89.076647
11
17.821879
21
89.076647
0
LINE
8
DEFAULT_255_2_778
10
17.821879
20
89.076647
11
17.821879
21
89.680647
0
LINE
8
DEFAULT_255_2_778
10
17.821879
20
92.481547
11
9.764779
21
92.481547
0
LINE
8
DEFAULT_255_2_778
10
9.764779
20
89.572747
11
17.821879
21
89.572747
0
LINE
8
DEFAULT_255_2_778
10
17.821879
20
92.978147
11
9.764779
21
92.978147
0
LINE
8
DEFAULT_255_2_778
10
9.764779
20
92.978147
11
9.764779
21
92.370747
0
LINE
8
DEFAULT_255_2_778
10
9.764779
20
92.370747
11
17.821879
21
92.374447
0
LINE
8
DEFAULT_255_2_778
10
17.821879
20
92.374447
11
17.821879
21
92.978447
0
LINE
8
DEFAULT_255_2_778
10
30.788579
20
92.481847
11
23.788479
21
92.481847
0
LINE
8
DEFAULT_255_2_778
10
23.788479
20
92.376747
11
23.788479
21
92.378347
0
LINE
8
DEFAULT_255_2_778
10
23.788779
20
92.378147
11
30.797779
21
92.378147
0
LINE
8
DEFAULT_255_2_778
10
30.797779
20
89.676147
11
23.788479
21
89.676147
0
LINE
8
DEFAULT_255_2_778
10
23.788479
20
89.676147
11
23.788479
21
89.677747
0
LINE
8
DEFAULT_255_2_778
10
23.788479
20
89.076347
11
23.788479
21
89.572447
0
LINE
8
DEFAULT_255_2_778
10
23.788479
20
89.572447
11
23.788479
21
89.676147
0
LINE
8
DEFAULT_255_2_778
10
30.788579
20
92.977947
11
23.788479
21
92.977947
0
LINE
8
DEFAULT_255_2_778
10
23.788479
20
92.977947
11
23.788479
21
92.481847
0
LINE
8
DEFAULT_255_2_778
10
23.788479
20
92.481847
11
23.788479
21
92.378347
0
LINE
8
DEFAULT_255_2_778
10
30.788579
20
92.978147
11
30.788579
21
92.482047
0
LINE
8
DEFAULT_255_2_778
10
30.788579
20
92.482047
11
30.788579
21
92.378647
0
LINE
8
DEFAULT_255_2_778
10
23.788479
20
89.572947
11
30.788579
21
89.572947
0
LINE
8
DEFAULT_255_2_778
10
30.788579
20
89.572947
11
30.788579
21
89.076847
0
LINE
8
DEFAULT_255_2_778
10
30.788579
20
89.076847
11
23.788479
21
89.076847
0
LINE
8
DEFAULT_255_2_778
10
23.788479
20
65.770847
11
23.788479
21
65.167847
0
LINE
8
DEFAULT_255_2_778
10
23.788479
20
65.167847
11
30.788579
21
65.167847
0
LINE
8
DEFAULT_255_2_778
10
30.788579
20
65.167547
11
30.788579
21
65.767147
0
LINE
8
DEFAULT_255_2_778
10
23.788479
20
68.466147
11
23.788479
21
68.572747
0
LINE
8
DEFAULT_255_2_778
10
30.788579
20
68.469247
11
30.788579
21
68.572747
0
LINE
8
DEFAULT_255_2_778
10
30.788579
20
68.572747
11
30.788579
21
69.068847
0
LINE
8
DEFAULT_255_2_778
10
30.788579
20
69.068847
11
23.788479
21
69.068847
0
LINE
8
DEFAULT_255_2_778
10
23.788479
20
69.068847
11
23.788479
21
68.572747
0
LINE
8
DEFAULT_255_2_778
10
23.788479
20
65.663947
11
30.788579
21
65.663947
0
LINE
8
DEFAULT_255_2_778
10
30.788579
20
68.572747
11
23.788479
21
68.572747
0
LINE
8
DEFAULT_255_2_778
10
30.797579
20
65.768447
11
23.797479
21
65.768447
0
LINE
8
DEFAULT_255_2_778
10
23.797479
20
68.467447
11
30.797579
21
68.467447
0
LINE
8
DEFAULT_255_2_778
10
23.788479
20
59.686747
11
23.788479
21
62.595847
0
LINE
8
DEFAULT_255_2_778
10
30.788579
20
59.790947
11
30.788579
21
59.686947
0
LINE
8
DEFAULT_255_2_778
10
30.788579
20
63.092147
11
23.788479
21
63.092147
0
LINE
8
DEFAULT_255_2_778
10
23.788479
20
63.092147
11
23.788479
21
62.596047
0
LINE
8
DEFAULT_255_2_778
10
23.788479
20
62.596047
11
30.788579
21
62.596047
0
LINE
8
DEFAULT_255_2_778
10
30.788579
20
59.190847
11
23.788479
21
59.190847
0
LINE
8
DEFAULT_255_2_778
10
23.788479
20
59.190847
11
23.788479
21
59.686947
0
LINE
8
DEFAULT_255_2_778
10
23.788479
20
59.686947
11
30.788579
21
59.686947
0
LINE
8
DEFAULT_255_2_778
10
30.788579
20
59.686947
11
30.788579
21
59.190847
0
LINE
8
DEFAULT_255_2_778
10
30.788579
20
63.092447
11
30.788579
21
62.596347
0
LINE
8
DEFAULT_255_2_778
10
30.788579
20
62.596347
11
30.788579
21
59.687247
0
LINE
8
DEFAULT_255_2_778
10
30.797779
20
59.792547
11
23.797479
21
59.792547
0
LINE
8
DEFAULT_255_2_778
10
23.797479
20
62.490747
11
30.797779
21
62.490747
0
LINE
8
DEFAULT_255_2_778
10
9.764779
20
42.751847
11
9.764779
21
42.866347
0
LINE
8
DEFAULT_255_2_778
10
9.764779
20
42.866347
11
13.387679
21
42.864747
0
LINE
8
DEFAULT_255_2_778
10
13.387679
20
42.864747
11
14.343679
21
42.864247
0
LINE
8
DEFAULT_255_2_778
10
14.343679
20
42.864247
11
17.822079
21
42.862647
0
LINE
8
DEFAULT_255_2_778
10
17.822079
20
42.862647
11
17.822079
21
42.751847
0
LINE
8
DEFAULT_255_2_778
10
9.764979
20
45.660647
11
17.822079
21
45.660647
0
LINE
8
DEFAULT_255_2_778
10
9.764979
20
42.255447
11
9.764979
21
42.751547
0
LINE
8
DEFAULT_255_2_778
10
9.764979
20
42.751547
11
17.822079
21
42.751547
0
LINE
8
DEFAULT_255_2_778
10
17.822079
20
42.751547
11
17.822079
21
42.255447
0
LINE
8
DEFAULT_255_2_778
10
17.822079
20
42.255447
11
9.764779
21
42.255447
0
LINE
8
DEFAULT_255_2_778
10
17.821579
20
46.156747
11
9.764779
21
46.156747
0
LINE
8
DEFAULT_255_2_778
10
9.764779
20
46.156747
11
9.764779
21
45.546047
0
LINE
8
DEFAULT_255_2_778
10
9.764779
20
45.546047
11
17.821879
21
45.549747
0
LINE
8
DEFAULT_255_2_778
10
17.821879
20
45.549747
11
17.821879
21
46.156747
0
LINE
8
DEFAULT_255_2_778
10
9.764779
20
36.774647
11
17.821879
21
36.774647
0
LINE
8
DEFAULT_255_2_778
10
17.821879
20
39.683447
11
9.764779
21
39.683447
0
LINE
8
DEFAULT_255_2_778
10
9.764779
20
36.774647
11
9.764779
21
36.774647
0
LINE
8
DEFAULT_255_2_778
10
9.764779
20
39.683147
11
17.821879
21
39.683147
0
LINE
8
DEFAULT_255_2_778
10
17.821879
20
36.774347
11
9.764779
21
36.774347
0
LINE
8
DEFAULT_255_2_778
10
17.821879
20
40.179547
11
17.821879
21
39.572347
0
LINE
8
DEFAULT_255_2_778
10
17.821879
20
39.572347
11
9.764779
21
39.568647
0
LINE
8
DEFAULT_255_2_778
10
9.764779
20
39.568647
11
9.764779
21
40.179547
0
LINE
8
DEFAULT_255_2_778
10
9.764779
20
40.179547
11
17.821879
21
40.179547
0
LINE
8
DEFAULT_255_2_778
10
17.821879
20
36.277947
11
9.764779
21
36.277947
0
LINE
8
DEFAULT_255_2_778
10
9.764779
20
36.277947
11
9.764779
21
36.774047
0
LINE
8
DEFAULT_255_2_778
10
9.764779
20
36.774047
11
9.764779
21
36.889147
0
LINE
8
DEFAULT_255_2_778
10
9.764779
20
36.889147
11
17.821879
21
36.885447
0
LINE
8
DEFAULT_255_2_778
10
17.821879
20
27.617647
11
16.494479
21
27.617147
0
LINE
8
DEFAULT_255_2_778
10
16.494479
20
27.617147
11
15.557779
21
27.616547
0
LINE
8
DEFAULT_255_2_778
10
15.557779
20
27.616547
11
9.764479
21
27.613947
0
LINE
8
DEFAULT_255_2_778
10
9.764479
20
27.613947
11
9.764479
21
27.729547
0
LINE
8
DEFAULT_255_2_778
10
9.764479
20
24.820447
11
9.764479
21
24.936047
0
LINE
8
DEFAULT_255_2_778
10
9.764479
20
24.936047
11
15.939579
21
24.933147
0
LINE
8
DEFAULT_255_2_778
10
15.939579
20
24.933147
11
16.873079
21
24.932647
0
LINE
8
DEFAULT_255_2_778
10
16.873079
20
24.932647
11
17.821579
21
24.932147
0
LINE
8
DEFAULT_255_2_778
10
9.764479
20
24.819947
11
9.764479
21
24.323847
0
LINE
8
DEFAULT_255_2_778
10
9.764479
20
24.323847
11
17.821579
21
24.323847
0
LINE
8
DEFAULT_255_2_778
10
17.821579
20
28.225347
11
9.764779
21
28.225347
0
LINE
8
DEFAULT_255_2_778
10
9.764779
20
28.225347
11
9.764779
21
27.729247
0
LINE
8
DEFAULT_255_2_778
10
9.764779
20
24.820447
11
17.821879
21
24.820447
0
LINE
8
DEFAULT_255_2_778
10
17.821879
20
27.729247
11
9.764779
21
27.729247
0
LINE
8
DEFAULT_255_2_778
10
9.764779
20
22.248147
11
9.764779
21
21.635947
0
LINE
8
DEFAULT_255_2_778
10
9.764779
20
21.635947
11
16.408679
21
21.639147
0
LINE
8
DEFAULT_255_2_778
10
16.408679
20
21.639147
11
17.821879
21
21.639647
0
LINE
8
DEFAULT_255_2_778
10
17.821879
20
21.639647
11
17.821879
21
22.248147
0
LINE
8
DEFAULT_255_2_778
10
17.821879
20
22.248147
11
9.764779
21
22.248147
0
LINE
8
DEFAULT_255_2_778
10
9.764779
20
18.346647
11
17.821879
21
18.346647
0
LINE
8
DEFAULT_255_2_778
10
17.821879
20
18.346647
11
17.821879
21
18.955147
0
LINE
8
DEFAULT_255_2_778
10
17.821879
20
18.955147
11
16.790479
21
18.955647
0
LINE
8
DEFAULT_255_2_778
10
16.790479
20
18.955647
11
9.764779
21
18.958847
0
LINE
8
DEFAULT_255_2_778
10
9.764779
20
18.958847
11
9.764779
21
18.346647
0
LINE
8
DEFAULT_255_2_778
10
17.821879
20
18.842947
11
9.764779
21
18.842947
0
LINE
8
DEFAULT_255_2_778
10
9.764779
20
21.751847
11
17.821879
21
21.751847
0
LINE
8
DEFAULT_255_2_778
10
17.822079
20
15.662947
11
17.822079
21
16.271747
0
LINE
8
DEFAULT_255_2_778
10
17.822079
20
16.271747
11
9.764779
21
16.271747
0
LINE
8
DEFAULT_255_2_778
10
9.764779
20
16.271747
11
9.764779
21
15.659247
0
LINE
8
DEFAULT_255_2_778
10
9.764779
20
15.659247
11
17.821879
21
15.662947
0
LINE
8
DEFAULT_255_2_778
10
9.764779
20
12.866847
11
17.821879
21
12.866847
0
LINE
8
DEFAULT_255_2_778
10
17.821879
20
15.775647
11
9.764779
21
15.775647
0
LINE
8
DEFAULT_255_2_778
10
17.821879
20
12.979547
11
17.821879
21
12.370547
0
LINE
8
DEFAULT_255_2_778
10
17.821879
20
12.370547
11
9.764779
21
12.370547
0
LINE
8
DEFAULT_255_2_778
10
9.764779
20
12.370547
11
9.764779
21
12.983247
0
LINE
8
DEFAULT_255_2_778
10
9.764779
20
12.983247
11
17.821879
21
12.979547
0
LINE
8
DEFAULT_255_2_778
10
23.788479
20
15.774847
11
36.288479
21
15.774847
0
LINE
8
DEFAULT_255_2_778
10
36.288479
20
12.866047
11
36.288479
21
12.369947
0
LINE
8
DEFAULT_255_2_778
10
36.288479
20
12.369947
11
23.788479
21
12.369947
0
LINE
8
DEFAULT_255_2_778
10
23.788479
20
12.369947
11
23.788479
21
12.866047
0
LINE
8
DEFAULT_255_2_778
10
23.788479
20
12.866047
11
36.288479
21
12.866047
0
LINE
8
DEFAULT_255_2_778
10
36.288479
20
12.866047
11
36.288479
21
12.970547
0
LINE
8
DEFAULT_255_2_778
10
36.288479
20
12.970547
11
23.788479
21
12.976347
0
LINE
8
DEFAULT_255_2_778
10
23.788479
20
12.976347
11
23.788479
21
12.866347
0
LINE
8
DEFAULT_255_2_778
10
36.288479
20
16.271547
11
36.288479
21
15.671147
0
LINE
8
DEFAULT_255_2_778
10
36.288479
20
15.671147
11
23.788479
21
15.665347
0
LINE
8
DEFAULT_255_2_778
10
23.788479
20
15.665347
11
23.788479
21
16.271547
0
LINE
8
DEFAULT_255_2_778
10
23.788479
20
16.271547
11
36.288479
21
16.271547
0
LINE
8
DEFAULT_255_2_778
10
36.288479
20
18.347147
11
23.788479
21
18.347147
0
LINE
8
DEFAULT_255_2_778
10
23.788479
20
18.347147
11
23.788479
21
18.843247
0
LINE
8
DEFAULT_255_2_778
10
36.288479
20
21.752047
11
23.788479
21
21.752047
0
LINE
8
DEFAULT_255_2_778
10
23.788479
20
18.843247
11
36.288479
21
18.843247
0
LINE
8
DEFAULT_255_2_778
10
36.288479
20
18.843247
11
36.288479
21
18.947247
0
LINE
8
DEFAULT_255_2_778
10
36.288479
20
18.947247
11
23.788479
21
18.953047
0
LINE
8
DEFAULT_255_2_778
10
23.788479
20
18.953047
11
23.788479
21
18.843247
0
LINE
8
DEFAULT_255_2_778
10
36.288479
20
22.248147
11
23.788479
21
22.248147
0
LINE
8
DEFAULT_255_2_778
10
23.788479
20
22.248147
11
23.788479
21
21.642547
0
LINE
8
DEFAULT_255_2_778
10
23.788479
20
21.642547
11
36.288479
21
21.648347
0
LINE
8
DEFAULT_255_2_778
10
36.288479
20
21.648347
11
36.288479
21
22.248447
0
LINE
8
DEFAULT_255_2_778
10
36.288479
20
18.346947
11
36.288479
21
18.842947
0
LINE
8
DEFAULT_255_2_778
10
23.788479
20
39.683447
11
36.288479
21
39.683447
0
LINE
8
DEFAULT_255_2_778
10
36.288479
20
36.774647
11
23.788479
21
36.774647
0
LINE
8
DEFAULT_255_2_778
10
36.288479
20
36.278247
11
23.788479
21
36.278247
0
LINE
8
DEFAULT_255_2_778
10
23.788479
20
36.278247
11
23.788479
21
36.883047
0
LINE
8
DEFAULT_255_2_778
10
23.788479
20
36.883047
11
36.288479
21
36.877247
0
LINE
8
DEFAULT_255_2_778
10
36.288479
20
36.877247
11
36.288479
21
36.278247
0
LINE
8
DEFAULT_255_2_778
10
36.288479
20
40.179747
11
23.788479
21
40.179747
0
LINE
8
DEFAULT_255_2_778
10
23.788479
20
40.179747
11
23.788479
21
39.575247
0
LINE
8
DEFAULT_255_2_778
10
23.788479
20
39.575247
11
36.288479
21
39.581047
0
LINE
8
DEFAULT_255_2_778
10
36.288479
20
39.581047
11
36.288479
21
40.180047
0
LINE
8
DEFAULT_255_2_778
10
23.788479
20
42.751847
11
23.788479
21
42.255747
0
LINE
8
DEFAULT_255_2_778
10
23.788479
20
42.255747
11
36.288479
21
42.255747
0
LINE
8
DEFAULT_255_2_778
10
36.288479
20
42.255747
11
36.288479
21
42.751847
0
LINE
8
DEFAULT_255_2_778
10
23.788479
20
42.751847
11
23.788479
21
42.860047
0
LINE
8
DEFAULT_255_2_778
10
23.788479
20
42.860047
11
36.288479
21
42.854147
0
LINE
8
DEFAULT_255_2_778
10
36.288479
20
42.854147
11
36.288479
21
42.751847
0
LINE
8
DEFAULT_255_2_778
10
36.288479
20
42.751847
11
23.788479
21
42.751847
0
LINE
8
DEFAULT_255_2_778
10
23.788479
20
45.660647
11
36.288479
21
45.660647
0
LINE
8
DEFAULT_255_2_778
10
36.288479
20
42.751847
11
36.288479
21
42.751847
0
LINE
8
DEFAULT_255_2_778
10
36.288479
20
46.156947
11
23.788479
21
46.156947
0
LINE
8
DEFAULT_255_2_778
10
23.788479
20
46.156947
11
23.788479
21
45.552647
0
LINE
8
DEFAULT_255_2_778
10
23.788479
20
45.552647
11
36.288479
21
45.558547
0
LINE
8
DEFAULT_255_2_778
10
36.288479
20
45.558547
11
36.288479
21
46.156947
0
ARC
8
DEFAULT_255_2_778
10
17.8246131
20
32.2587653
40
1.9571934
50
269.9192887
51
294.2236281
0
ARC
8
DEFAULT_255_2_778
10
17.8265416
20
32.2564312
40
1.9542738
50
294.2001452
51
351.3153288
0
ARC
8
DEFAULT_255_2_778
10
17.8212609
20
32.2517547
40
1.9587953
50
351.4738741
51
0.0181125
0
ARC
8
DEFAULT_255_2_778
10
17.8426393
20
32.2550045
40
1.9374185
50
359.9222054
51
25.0522326
0
ARC
8
DEFAULT_255_2_778
10
17.8231723
20
32.2434414
40
1.9599517
50
25.1174825
51
79.2042668
0
ARC
8
DEFAULT_255_2_778
10
17.8227954
20
32.2269747
40
1.9761994
50
79.2829553
51
90.0272332
0
ARC
8
DEFAULT_255_2_778
10
17.8233836
20
32.6699149
40
1.0371601
50
89.9718885
51
90.0843876
0
ARC
8
DEFAULT_255_2_778
10
17.8261492
20
32.2558979
40
1.4511791
50
59.4545165
51
90.0890998
0
ARC
8
DEFAULT_255_2_778
10
17.8234826
20
32.248998
40
1.4584772
50
7.8982262
51
59.5020563
0
ARC
8
DEFAULT_255_2_778
10
17.8107713
20
32.2495931
40
1.4709881
50
0.1199984
51
7.8072318
0
ARC
8
DEFAULT_255_2_778
10
17.8304781
20
32.2538013
40
1.4512784
50
329.4887384
51
359.9554883
0
ARC
8
DEFAULT_255_2_778
10
17.823608
20
32.2565738
40
1.4586053
50
277.784697
51
329.5319253
0
ARC
8
DEFAULT_255_2_778
10
17.8242848
20
32.2689617
40
1.4707892
50
269.9847171
51
277.6932087
0
ARC
8
DEFAULT_255_2_778
10
17.8233836
20
31.8353329
40
1.0371605
50
269.9156124
51
270.0281115
0
ARC
8
DEFAULT_255_2_778
10
9.7632283
20
31.8354617
40
1.0372889
50
269.9718885
51
270.0843876
0
ARC
8
DEFAULT_255_2_778
10
9.7604454
20
32.2495206
40
1.4513499
50
239.4560753
51
270.0897703
0
ARC
8
DEFAULT_255_2_778
10
9.7630549
20
32.2562772
40
1.4584956
50
187.8961585
51
239.5026768
0
ARC
8
DEFAULT_255_2_778
10
9.776071
20
32.2557543
40
1.4713182
50
180.1199557
51
187.8063554
0
ARC
8
DEFAULT_255_2_778
10
9.7557858
20
32.2515379
40
1.4510302
50
149.3990575
51
179.9551449
0
ARC
8
DEFAULT_255_2_778
10
9.7629276
20
32.248595
40
1.4586758
50
97.7709473
51
149.4423636
0
ARC
8
DEFAULT_255_2_778
10
9.7623257
20
32.2359547
40
1.4711206
50
89.9846697
51
97.6811581
0
ARC
8
DEFAULT_255_2_778
10
9.7632283
20
32.6697861
40
1.0372893
50
89.9156124
51
90.0281115
0
ARC
8
DEFAULT_255_2_778
10
9.7619822
20
32.2458607
40
1.9573151
50
89.9188021
51
114.2228649
0
ARC
8
DEFAULT_255_2_778
10
9.7599896
20
32.2483984
40
1.9541836
50
114.2001125
51
171.3173524
0
ARC
8
DEFAULT_255_2_778
10
9.7655309
20
32.2529944
40
1.958975
50
171.4747001
51
180.0181483
0
ARC
8
DEFAULT_255_2_778
10
9.7437284
20
32.2497587
40
1.9371741
50
179.922651
51
205.0561127
0
ARC
8
DEFAULT_255_2_778
10
9.7636377
20
32.2615267
40
1.9601949
50
205.1212618
51
259.2013576
0
ARC
8
DEFAULT_255_2_778
10
9.7638239
20
32.2772676
40
1.9756939
50
259.2815799
51
270.0270329
0
ARC
8
DEFAULT_255_2_778
10
9.7751469
20
32.2680337
40
1.3568598
50
267.0887118
51
269.9961627
0
ARC
8
DEFAULT_255_2_778
10
9.7762765
20
32.2910368
40
1.3798907
50
247.9281341
51
267.0903796
0
ARC
8
DEFAULT_255_2_778
10
9.766462
20
32.2629227
40
1.3501497
50
225.3943828
51
247.8657868
0
ARC
8
DEFAULT_255_2_778
10
9.7650526
20
32.257405
40
1.3452347
50
202.7367992
51
225.2720956
0
ARC
8
DEFAULT_255_2_778
10
9.7603941
20
32.2522213
40
1.338938
50
180.0255815
51
202.6092605
0
ARC
8
DEFAULT_255_2_778
10
8.9301978
20
32.2521019
40
0.5087418
50
179.9820389
51
180.0538832
0
ARC
8
DEFAULT_255_2_778
10
9.7598388
20
32.2523373
40
1.3383827
50
157.3859788
51
180.0032496
0
ARC
8
DEFAULT_255_2_778
10
9.7650539
20
32.247042
40
1.3452361
50
134.7279199
51
157.2631911
0
ARC
8
DEFAULT_255_2_778
10
9.765961
20
32.2435793
40
1.3483358
50
112.1425797
51
134.6517588
0
ARC
8
DEFAULT_255_2_778
10
9.7765762
20
32.2118069
40
1.3817678
50
90.0630321
51
112.0537116
0
ARC
8
DEFAULT_255_2_778
10
17.8322512
20
32.2956567
40
1.2979172
50
87.0335457
51
89.9953711
0
ARC
8
DEFAULT_255_2_778
10
17.8287461
20
32.249993
40
1.3437015
50
67.3846765
51
86.9850511
0
ARC
8
DEFAULT_255_2_778
10
17.8249391
20
32.2491832
40
1.3459169
50
44.854719
51
67.2483289
0
ARC
8
DEFAULT_255_2_778
10
17.8232278
20
32.2472351
40
1.3485039
50
22.5362766
51
44.8621168
0
ARC
8
DEFAULT_255_2_778
10
17.83132
20
32.2524398
40
1.339036
50
359.9971777
51
22.4632848
0
ARC
8
DEFAULT_255_2_778
10
17.8294363
20
32.2526822
40
1.3409198
50
337.5526894
51
359.9868255
0
ARC
8
DEFAULT_255_2_778
10
17.8237127
20
32.2569705
40
1.3478483
50
315.1366665
51
337.4771114
0
ARC
8
DEFAULT_255_2_778
10
17.8244272
20
32.2571857
40
1.3474939
50
292.7333205
51
315.1087522
0
ARC
8
DEFAULT_255_2_778
10
17.8285549
20
32.254241
40
1.3431855
50
272.9127696
51
292.619463
0
ARC
8
DEFAULT_255_2_778
10
17.8320578
20
32.2084526
40
1.2972787
50
270.0043381
51
272.8610247
0
ARC
8
DEFAULT_255_2_778
10
23.8055993
20
32.3071381
40
1.4034689
50
248.1410669
51
269.3001185
0
ARC
8
DEFAULT_255_2_778
10
23.7921171
20
32.2652095
40
1.3595387
50
225.52671
51
248.0105037
0
ARC
8
DEFAULT_255_2_778
10
23.7882556
20
32.2572347
40
1.3511457
50
202.8078574
51
225.4066383
0
ARC
8
DEFAULT_255_2_778
10
23.7849365
20
32.2528279
40
1.3463806
50
180.032086
51
202.6897397
0
ARC
8
DEFAULT_255_2_778
10
23.7864181
20
32.2510224
40
1.3478625
50
157.3228863
51
179.955302
0
ARC
8
DEFAULT_255_2_778
10
23.7882556
20
32.2469131
40
1.3511457
50
134.5933617
51
157.1921426
0
ARC
8
DEFAULT_255_2_778
10
23.7903287
20
32.2416677
40
1.3563381
50
111.9626172
51
134.5001584
0
ARC
8
DEFAULT_255_2_778
10
23.8051763
20
32.1991281
40
1.4013454
50
90.6836441
51
111.875128
0
ARC
8
DEFAULT_255_2_778
10
36.3016578
20
32.2373446
40
1.3335738
50
270.1245208
51
292.8334487
0
ARC
8
DEFAULT_255_2_778
10
36.2955758
20
32.249496
40
1.3471335
50
292.8713018
51
315.3325686
0
ARC
8
DEFAULT_255_2_778
10
36.2871538
20
32.2591294
40
1.3598957
50
315.2933584
51
337.5024671
0
ARC
8
DEFAULT_255_2_778
10
36.2936984
20
32.2523433
40
1.3512578
50
337.6621264
51
359.9729835
0
ARC
8
DEFAULT_255_2_778
10
37.1082984
20
32.2521976
40
0.5366578
50
359.9475313
51
0.0174896
0
ARC
8
DEFAULT_255_2_778
10
36.2942585
20
32.2524155
40
1.3506976
50
359.9977023
51
22.3425462
0
ARC
8
DEFAULT_255_2_778
10
36.2889959
20
32.2467426
40
1.3577254
50
22.4795497
51
44.7246126
0
ARC
8
DEFAULT_255_2_778
10
36.2931225
20
32.2506817
40
1.3520215
50
44.7290675
51
67.1032366
0
ARC
8
DEFAULT_255_2_778
10
36.3016577
20
32.2671025
40
1.3335745
50
67.1665599
51
89.8754763
0
ARC
8
DEFAULT_255_2_778
10
36.2901223
20
32.6782084
40
1.0282668
50
89.969071
51
90.0928422
0
ARC
8
DEFAULT_255_2_778
10
36.2929386
20
32.2555773
40
1.4509
50
59.4521715
51
90.0892951
0
ARC
8
DEFAULT_255_2_778
10
36.2901194
20
32.2484978
40
1.4584302
50
7.8948433
51
59.4981499
0
ARC
8
DEFAULT_255_2_778
10
36.2770412
20
32.2489947
40
1.471318
50
0.1199109
51
7.8057243
0
ARC
8
DEFAULT_255_2_778
10
36.297181
20
32.253221
40
1.4511755
50
329.40319
51
359.9547072
0
ARC
8
DEFAULT_255_2_778
10
36.2903178
20
32.2559167
40
1.4584557
50
277.7763641
51
329.44927
0
ARC
8
DEFAULT_255_2_778
10
36.291067
20
32.2680577
40
1.4703855
50
269.9848073
51
277.6834284
0
ARC
8
DEFAULT_255_2_778
10
36.2901221
20
31.8256426
40
1.0279705
50
269.907141
51
270.0309345
0
ARC
8
DEFAULT_255_2_778
10
23.78679
20
31.8256427
40
1.0279702
50
269.9690655
51
270.092859
0
ARC
8
DEFAULT_255_2_778
10
23.7839972
20
32.2486144
40
1.4509439
50
239.4509068
51
270.0883695
0
ARC
8
DEFAULT_255_2_778
10
23.786822
20
32.255808
40
1.4585752
50
187.8994912
51
239.4989732
0
ARC
8
DEFAULT_255_2_778
10
23.7993131
20
32.2551574
40
1.4708603
50
180.1201164
51
187.8075165
0
ARC
8
DEFAULT_255_2_778
10
23.7795803
20
32.2509407
40
1.4511247
50
149.4873441
51
179.9552583
0
ARC
8
DEFAULT_255_2_778
10
23.7865534
20
32.2481155
40
1.4585671
50
97.785486
51
149.5308081
0
ARC
8
DEFAULT_255_2_778
10
23.7858432
20
32.2358743
40
1.4706012
50
89.9847449
51
97.6934642
0
ARC
8
DEFAULT_255_2_778
10
23.7867899
20
32.6782083
40
1.0282674
50
89.9071578
51
90.030929
0
ARC
8
DEFAULT_255_2_778
10
36.2912201
20
32.2454754
40
1.9571005
50
65.7759295
51
90.0809192
0
ARC
8
DEFAULT_255_2_778
10
36.2931395
20
32.24782
40
1.9541748
50
8.6842679
51
65.7990458
0
ARC
8
DEFAULT_255_2_778
10
36.2878679
20
32.2524919
40
1.9586883
50
359.9819204
51
8.5258873
0
ARC
8
DEFAULT_255_2_778
10
36.3089926
20
32.2492366
40
1.9375653
50
334.9500153
51
0.0779886
0
ARC
8
DEFAULT_255_2_778
10
36.2897872
20
32.2606558
40
1.9598003
50
280.7960231
51
334.8853045
0
ARC
8
DEFAULT_255_2_778
10
36.2893972
20
32.2772134
40
1.9761398
50
269.9727135
51
280.7172077
0
ARC
8
DEFAULT_255_2_778
10
23.7856822
20
32.2458607
40
1.9573151
50
89.9188021
51
114.2228649
0
ARC
8
DEFAULT_255_2_778
10
23.7836896
20
32.2483984
40
1.9541836
50
114.2001125
51
171.3173524
0
ARC
8
DEFAULT_255_2_778
10
23.7892309
20
32.2529944
40
1.958975
50
171.4747001
51
180.0181483
0
ARC
8
DEFAULT_255_2_778
10
23.7676728
20
32.2497433
40
1.9374185
50
179.9222054
51
205.0522326
0
ARC
8
DEFAULT_255_2_778
10
23.7871398
20
32.2613064
40
1.9599517
50
205.1174825
51
259.2042668
0
ARC
8
DEFAULT_255_2_778
10
23.7875168
20
32.277773
40
1.9761994
50
259.2829553
51
270.0272332
0
ARC
8
DEFAULT_255_2_778
10
23.7856822
20
26.281687
40
1.9573151
50
245.7771351
51
270.0811979
0
ARC
8
DEFAULT_255_2_778
10
23.7836896
20
26.2791493
40
1.9541836
50
188.6826476
51
245.7998875
0
ARC
8
DEFAULT_255_2_778
10
23.7892309
20
26.2745534
40
1.958975
50
179.9818517
51
188.5252999
0
ARC
8
DEFAULT_255_2_778
10
23.7676728
20
26.2778045
40
1.9374185
50
154.9477674
51
180.0777946
0
ARC
8
DEFAULT_255_2_778
10
23.7871398
20
26.2662414
40
1.9599517
50
100.7957332
51
154.8825175
0
ARC
8
DEFAULT_255_2_778
10
23.7875168
20
26.2497747
40
1.9761994
50
89.9727668
51
100.7170447
0
ARC
8
DEFAULT_255_2_778
10
23.78679
20
25.8484427
40
1.0279702
50
269.9690655
51
270.092859
0
ARC
8
DEFAULT_255_2_778
10
23.7839972
20
26.2714144
40
1.4509439
50
239.4509068
51
270.0883695
0
ARC
8
DEFAULT_255_2_778
10
23.786822
20
26.278608
40
1.4585752
50
187.8994912
51
239.4989732
0
ARC
8
DEFAULT_255_2_778
10
23.7993131
20
26.2779574
40
1.4708603
50
180.1201164
51
187.8075165
0
ARC
8
DEFAULT_255_2_778
10
23.7795803
20
26.2737407
40
1.4511247
50
149.4873441
51
179.9552583
0
ARC
8
DEFAULT_255_2_778
10
23.7865534
20
26.2709155
40
1.4585671
50
97.785486
51
149.5308081
0
ARC
8
DEFAULT_255_2_778
10
23.7858432
20
26.2586743
40
1.4706012
50
89.9847449
51
97.6934642
0
ARC
8
DEFAULT_255_2_778
10
23.7867899
20
26.7010083
40
1.0282674
50
89.9071578
51
90.030929
0
ARC
8
DEFAULT_255_2_778
10
36.2901217
20
25.8475724
40
1.0275998
50
269.9071299
51
270.030968
0
ARC
8
DEFAULT_255_2_778
10
36.2929259
20
26.2707775
40
1.450807
50
269.9111894
51
300.550571
0
ARC
8
DEFAULT_255_2_778
10
36.2900188
20
26.2780399
40
1.4585393
50
300.5039084
51
352.1030159
0
ARC
8
DEFAULT_255_2_778
10
36.2773209
20
26.2774549
40
1.4710383
50
352.1935318
51
359.8799948
0
ARC
8
DEFAULT_255_2_778
10
36.297181
20
26.2732267
40
1.4511755
50
0.0452928
51
30.59681
0
ARC
8
DEFAULT_255_2_778
10
36.2903178
20
26.270531
40
1.4584557
50
30.55073
51
82.2236359
0
ARC
8
DEFAULT_255_2_778
10
36.291067
20
26.2583901
40
1.4703855
50
82.3165716
51
90.0151927
0
ARC
8
DEFAULT_255_2_778
10
36.2901217
20
26.7011754
40
1.0276003
50
89.969032
51
90.0928701
0
ARC
8
DEFAULT_255_2_778
10
23.8053192
20
26.3286872
40
1.4018135
50
248.1394732
51
269.9688088
0
ARC
8
DEFAULT_255_2_778
10
23.7894607
20
26.2837966
40
1.3542475
50
225.4822034
51
248.0549945
0
ARC
8
DEFAULT_255_2_778
10
23.7859092
20
26.2785424
40
1.3480115
50
202.7812388
51
225.4332569
0
ARC
8
DEFAULT_255_2_778
10
23.7858606
20
26.2748196
40
1.3465295
50
179.9976916
51
202.6359897
0
ARC
8
DEFAULT_255_2_778
10
23.7858606
20
26.2749281
40
1.3465295
50
157.3640103
51
180.0023084
0
ARC
8
DEFAULT_255_2_778
10
23.7854403
20
26.2717422
40
1.3473713
50
134.5655734
51
157.2320884
0
ARC
8
DEFAULT_255_2_778
10
23.7912426
20
26.2633312
40
1.3574364
50
111.9718667
51
134.4909354
0
ARC
8
DEFAULT_255_2_778
10
23.8053192
20
26.2211606
40
1.4018135
50
90.0311912
51
111.8605268
0
ARC
8
DEFAULT_255_2_778
10
36.301882
20
26.2890298
40
1.3339474
50
67.1697746
51
89.8722575
0
ARC
8
DEFAULT_255_2_778
10
36.2931983
20
26.272977
40
1.3521131
50
44.7255044
51
67.0945617
0
ARC
8
DEFAULT_255_2_778
10
36.289593
20
26.2690184
40
1.3574603
50
22.4852892
51
44.7371334
0
ARC
8
DEFAULT_255_2_778
10
36.2968402
20
26.2749692
40
1.3484908
50
359.9975419
51
22.3694309
0
ARC
8
DEFAULT_255_2_778
10
37.1119088
20
26.2747481
40
0.5334223
50
359.9473707
51
0.0175431
0
ARC
8
DEFAULT_255_2_778
10
36.2962801
20
26.2748892
40
1.349051
50
337.6352769
51
359.9731955
0
ARC
8
DEFAULT_255_2_778
10
36.2886704
20
26.2813425
40
1.3585472
50
315.2718856
51
337.5056989
0
ARC
8
DEFAULT_255_2_778
10
36.2938531
20
26.2762266
40
1.3512649
50
292.8904925
51
315.2713497
0
ARC
8
DEFAULT_255_2_778
10
36.301882
20
26.260818
40
1.3339474
50
270.1277425
51
292.8302254
0
ARC
8
DEFAULT_255_2_778
10
36.2914299
20
26.2683607
40
1.9573151
50
65.7771351
51
90.0811979
0
ARC
8
DEFAULT_255_2_778
10
36.2934226
20
26.2708984
40
1.9541836
50
8.6826476
51
65.7998875
0
ARC
8
DEFAULT_255_2_778
10
36.2878812
20
26.2754944
40
1.958975
50
359.9818517
51
8.5252999
0
ARC
8
DEFAULT_255_2_778
10
36.3098025
20
26.2722506
40
1.9370553
50
334.9431062
51
0.0775939
0
ARC
8
DEFAULT_255_2_778
10
36.2898626
20
26.2840689
40
1.9601253
50
280.7964082
51
334.8770123
0
ARC
8
DEFAULT_255_2_778
10
36.2895903
20
26.3000481
40
1.9758746
50
269.9729093
51
280.7173671
0
LINE
8
DEFAULT_255_2_778
10
17.8218561
20
34.2031739
11
9.7647561
21
34.2031739
0
LINE
8
DEFAULT_255_2_778
10
9.7647561
20
34.2031739
11
9.7647561
21
33.5916739
0
LINE
8
DEFAULT_255_2_778
10
9.7647561
20
33.5916739
11
17.8218561
21
33.5953739
0
LINE
8
DEFAULT_255_2_778
10
17.8218561
20
33.5953739
11
17.8218561
21
34.2031739
0
LINE
8
DEFAULT_255_2_778
10
17.8218561
20
30.3018739
11
17.8218561
21
30.9095739
0
LINE
8
DEFAULT_255_2_778
10
17.8218561
20
30.9095739
11
9.7647561
21
30.9132739
0
LINE
8
DEFAULT_255_2_778
10
9.7647561
20
30.9132739
11
9.7647561
21
30.3018739
0
LINE
8
DEFAULT_255_2_778
10
9.7647561
20
30.3018739
11
17.8218561
21
30.3018739
0
LINE
8
DEFAULT_255_2_778
10
17.8218561
20
34.2031739
11
17.8218561
21
33.5953739
0
LINE
8
DEFAULT_255_2_778
10
17.8218561
20
33.5953739
11
9.7647561
21
33.5916739
0
LINE
8
DEFAULT_255_2_778
10
9.7647561
20
33.5916739
11
9.7647561
21
34.2031739
0
LINE
8
DEFAULT_255_2_778
10
9.7647561
20
34.2031739
11
17.8218561
21
34.2031739
0
LINE
8
DEFAULT_255_2_778
10
17.8218561
20
30.3018739
11
9.7647561
21
30.3018739
0
LINE
8
DEFAULT_255_2_778
10
9.7647561
20
30.3018739
11
9.7647561
21
30.9132739
0
LINE
8
DEFAULT_255_2_778
10
9.7647561
20
30.9132739
11
17.8218561
21
30.9095739
0
LINE
8
DEFAULT_255_2_778
10
17.8218561
20
30.9095739
11
17.8218561
21
30.3018739
0
LINE
8
DEFAULT_255_2_778
10
17.8218561
20
30.7981739
11
9.7647561
21
30.7981739
0
LINE
8
DEFAULT_255_2_778
10
9.7647561
20
33.7070739
11
17.8218561
21
33.7070739
0
LINE
8
DEFAULT_255_2_778
10
23.8045561
20
30.9037739
11
23.7884561
21
30.9037739
0
LINE
8
DEFAULT_255_2_778
10
23.7884561
20
30.3013739
11
36.2884561
21
30.3013739
0
LINE
8
DEFAULT_255_2_778
10
23.7884561
20
30.7973739
11
23.7884561
21
30.9064739
0
LINE
8
DEFAULT_255_2_778
10
23.7884561
20
30.9064739
11
36.2884561
21
30.9005739
0
LINE
8
DEFAULT_255_2_778
10
36.2884561
20
30.9005739
11
36.2884561
21
30.7973739
0
LINE
8
DEFAULT_255_2_778
10
23.8045561
20
33.6006739
11
23.7884561
21
33.6006739
0
LINE
8
DEFAULT_255_2_778
10
36.2884561
20
30.7976739
11
23.7884561
21
30.7976739
0
LINE
8
DEFAULT_255_2_778
10
36.2884561
20
30.3010739
11
36.2884561
21
30.7971739
0
LINE
8
DEFAULT_255_2_778
10
23.7884561
20
33.7067739
11
36.2884561
21
33.7067739
0
LINE
8
DEFAULT_255_2_778
10
36.2884561
20
33.7067739
11
36.2884561
21
34.2028739
0
LINE
8
DEFAULT_255_2_778
10
36.2884561
20
34.2028739
11
23.7884561
21
34.2028739
0
LINE
8
DEFAULT_255_2_778
10
23.7884561
20
34.2028739
11
23.7884561
21
33.7067739
0
LINE
8
DEFAULT_255_2_778
10
23.7884561
20
33.7067739
11
23.7884561
21
33.5980739
0
LINE
8
DEFAULT_255_2_778
10
23.7884561
20
33.5980739
11
36.2884561
21
33.6038739
0
LINE
8
DEFAULT_255_2_778
10
36.2884561
20
33.6038739
11
36.2884561
21
33.7070739
0
LINE
8
DEFAULT_255_2_778
10
23.7884561
20
30.3015739
11
23.7884561
21
30.7976739
0
LINE
8
DEFAULT_255_2_778
10
23.7884561
20
24.8207739
11
23.7884561
21
24.9300739
0
LINE
8
DEFAULT_255_2_778
10
23.7884561
20
24.9300739
11
25.3783561
21
24.9292739
0
LINE
8
DEFAULT_255_2_778
10
25.3783561
20
24.9292739
11
36.2886561
21
24.9241739
0
LINE
8
DEFAULT_255_2_778
10
36.2886561
20
24.9241739
11
36.2886561
21
24.8204739
0
LINE
8
DEFAULT_255_2_778
10
36.2886561
20
24.8204739
11
23.7884561
21
24.8204739
0
LINE
8
DEFAULT_255_2_778
10
36.2884561
20
24.3241739
11
23.7884561
21
24.3241739
0
LINE
8
DEFAULT_255_2_778
10
23.7884561
20
24.3241739
11
23.7884561
21
24.8201739
0
LINE
8
DEFAULT_255_2_778
10
23.7884561
20
27.7292739
11
23.7884561
21
27.6200739
0
LINE
8
DEFAULT_255_2_778
10
23.7884561
20
27.6200739
11
24.9983561
21
27.6205739
0
LINE
8
DEFAULT_255_2_778
10
24.9983561
20
27.6205739
11
36.2884561
21
27.6255739
0
LINE
8
DEFAULT_255_2_778
10
36.2884561
20
27.6255739
11
36.2884561
21
27.7290739
0
LINE
8
DEFAULT_255_2_778
10
36.2884561
20
27.7287739
11
23.7884561
21
27.7287739
0
LINE
8
DEFAULT_255_2_778
10
23.7884561
20
27.7287739
11
23.7884561
21
28.2248739
0
LINE
8
DEFAULT_255_2_778
10
23.7884561
20
28.2248739
11
36.2884561
21
28.2248739
0
LINE
8
DEFAULT_255_2_778
10
36.2884561
20
28.2248739
11
36.2884561
21
27.7287739
0
LINE
8
DEFAULT_255_2_778
10
36.2886561
20
24.3241739
11
36.2886561
21
24.8201739
0
LINE
8
DEFAULT_255_2_778
10
124.7113561
20
63.4668739
11
125.0336561
21
63.4612739
0
LINE
8
DEFAULT_255_2_778
10
125.0762561
20
68.5211739
11
125.0571561
21
68.4994739
0
LINE
8
DEFAULT_255_2_778
10
125.0571561
20
68.4994739
11
125.0328561
21
68.4565739
0
LINE
8
DEFAULT_255_2_778
10
125.0328561
20
68.4565739
11
125.0711561
21
68.5489739
0
LINE
8
DEFAULT_255_2_778
10
125.0558561
20
34.8833739
11
125.0558561
21
33.0876739
0
LINE
8
DEFAULT_255_2_778
10
115.8518561
20
65.2382739
11
115.8835561
21
65.2794739
0
LINE
8
DEFAULT_255_2_778
10
115.8835561
20
65.2794739
11
115.8951561
21
65.3027739
0
LINE
8
DEFAULT_255_2_778
10
115.8518561
20
70.2988739
11
115.8708561
21
70.3205739
0
LINE
8
DEFAULT_255_2_778
10
115.8708561
20
70.3205739
11
115.8951561
21
70.3634739
0
LINE
8
DEFAULT_255_2_778
10
115.8951561
20
70.3634739
11
115.8568561
21
70.2711739
0
ARC
8
DEFAULT_255_2_778
10
125.2174405
20
68.3800614
40
0.1999457
50
165.8105355
51
179.9104444
0
ARC
8
DEFAULT_255_2_778
10
116.1131118
20
72.3679762
40
0.4129798
50
95.7557324
51
112.1514846
0
ARC
8
DEFAULT_255_2_778
10
116.1195719
20
72.3711182
40
0.4125677
50
113.1469991
51
156.614324
0
ARC
8
DEFAULT_255_2_778
10
116.112796
20
72.381457
40
0.4023022
50
157.5828183
51
179.855162
0
ARC
8
DEFAULT_255_2_778
10
124.8163274
20
72.3811995
40
0.4013533
50
5.7017422
51
22.5128556
0
ARC
8
DEFAULT_255_2_778
10
124.8077419
20
72.3705147
40
0.4134281
50
23.4252539
51
66.7869616
0
ARC
8
DEFAULT_255_2_778
10
124.8171338
20
72.3751641
40
0.4055103
50
67.7476516
51
89.9206937
0
ARC
8
DEFAULT_255_2_778
10
115.7046835
20
70.4408962
40
0.2056141
50
346.0058474
51
359.7151573
0
ARC
8
DEFAULT_255_2_778
10
116.1105184
20
72.3803049
40
0.201169
50
89.9781561
51
134.7088402
0
ARC
8
DEFAULT_255_2_778
10
116.1090724
20
72.3825214
40
0.1985773
50
134.8622254
51
180.013678
0
ARC
8
DEFAULT_255_2_778
10
124.8190902
20
72.3822931
40
0.1984049
50
359.9655962
51
45.1584642
0
ARC
8
DEFAULT_255_2_778
10
124.8181483
20
72.3816589
40
0.1995188
50
45.0950978
51
89.8682586
0
ARC
8
DEFAULT_255_2_778
10
124.8186073
20
72.3878539
40
0.1933232
50
90.0000581
51
90.3296372
0
ARC
8
DEFAULT_255_2_778
10
125.220313
20
35.0182747
40
0.2035187
50
202.871477
51
224.9169378
0
ARC
8
DEFAULT_255_2_778
10
125.2189423
20
29.9568748
40
0.2019837
50
202.8396632
51
225.0307911
0
LINE
8
DEFAULT_255_2_778
10
125.0325951
20
68.456574
11
125.0235951
21
68.429074
0
LINE
8
DEFAULT_255_2_778
10
116.1105951
20
72.780674
11
116.0716951
21
72.778874
0
LINE
8
DEFAULT_255_2_778
10
125.2174951
20
72.382474
11
125.2156951
21
72.421074
0
LINE
8
DEFAULT_255_2_778
10
124.8176951
20
72.780674
11
124.8176951
21
72.581474
0
LINE
8
DEFAULT_255_2_778
10
124.8176951
20
72.581474
11
116.1105951
21
72.581474
0
LINE
8
DEFAULT_255_2_778
10
116.1105951
20
72.581474
11
116.1105951
21
72.780674
0
LINE
8
DEFAULT_255_2_778
10
116.1105951
20
72.780674
11
124.8176951
21
72.780674
0
LINE
8
DEFAULT_255_2_778
10
115.8951951
20
70.363674
11
115.9041951
21
70.391174
0
LINE
8
DEFAULT_255_2_778
10
125.0761951
20
33.096874
11
125.0444951
21
33.055574
0
LINE
8
DEFAULT_255_2_778
10
125.0444951
20
33.055574
11
125.0327951
21
33.032274
0
LINE
8
DEFAULT_255_2_778
10
124.7136951
20
33.581074
11
125.0558951
21
33.575274
0
ARC
8
DEFAULT_255_2_778
10
125.2173305
20
32.9553647
40
0.199849
50
164.89958
51
179.8672648
0
LINE
8
DEFAULT_255_2_778
10
125.0174821
20
56.4627277
11
124.7137821
21
56.4627277
0
LINE
8
DEFAULT_255_2_778
10
124.7137821
20
55.7036277
11
124.9677821
21
55.7036277
0
LINE
8
DEFAULT_255_2_778
10
124.9677821
20
55.7036277
11
125.0177821
21
55.6936277
0
LINE
8
DEFAULT_255_2_778
10
125.0177821
20
52.5699277
11
124.9677821
21
52.5598277
0
LINE
8
DEFAULT_255_2_778
10
124.9677821
20
52.5598277
11
124.7137821
21
52.5598277
0
LINE
8
DEFAULT_255_2_778
10
124.7137821
20
51.8005277
11
125.0174821
21
51.8005277
0
LINE
8
DEFAULT_255_2_778
10
124.7137821
20
71.1664277
11
125.0174821
21
71.1664277
0
LINE
8
DEFAULT_255_2_778
10
125.0174821
20
71.0738277
11
124.7137821
21
71.0712277
0
LINE
8
DEFAULT_255_2_778
10
125.0558821
20
69.7538277
11
124.7137821
21
69.7567277
0
LINE
8
DEFAULT_255_2_778
10
125.0558821
20
64.6002277
11
124.7137821
21
64.5944277
0
LINE
8
DEFAULT_255_2_778
10
115.8721821
20
68.5211277
11
115.8721821
21
70.2988277
0
LINE
8
DEFAULT_255_2_778
10
115.8721821
20
63.4604277
11
115.8721821
21
65.2471277
0
LINE
8
DEFAULT_255_2_778
10
125.6127821
20
68.7740277
11
125.5244821
21
68.9701277
0
LINE
8
DEFAULT_255_2_778
10
125.6127821
20
63.7134277
11
125.5347821
21
63.9094277
0
LINE
8
DEFAULT_255_2_778
10
125.0558821
20
29.8229277
11
125.0558821
21
28.0361277
0
LINE
8
DEFAULT_255_2_778
10
125.0711821
20
33.1244277
11
125.0328821
21
33.0320277
0
LINE
8
DEFAULT_255_2_778
10
125.0328821
20
33.0320277
11
125.0243821
21
33.0074277
0
LINE
8
DEFAULT_255_2_778
10
125.0711821
20
29.7861277
11
125.0328821
21
29.8784277
0
LINE
8
DEFAULT_255_2_778
10
125.0328821
20
29.8784277
11
125.0243821
21
29.9030277
0
LINE
8
DEFAULT_255_2_778
10
125.0243821
20
29.9030277
11
125.0193821
21
29.9287277
0
LINE
8
DEFAULT_255_2_778
10
125.0193821
20
29.9287277
11
125.0177821
21
29.9546277
0
ARC
8
DEFAULT_255_2_778
10
125.2119348
20
63.319648
40
0.1944495
50
175.8056161
51
179.9837418
0
ARC
8
DEFAULT_255_2_778
10
125.2205864
20
63.3189889
40
0.2031262
50
157.7497492
51
175.798697
0
LINE
8
DEFAULT_255_2_778
10
125.0558853
20
70.3079032
11
125.0558853
21
68.5211032
0
LINE
8
DEFAULT_255_2_778
10
125.0558853
20
65.3718032
11
125.0558853
21
63.4607032
0
LINE
8
DEFAULT_255_2_778
10
125.0174853
20
72.1626032
11
116.2137853
21
72.1626032
0
LINE
8
DEFAULT_255_2_778
10
116.2137853
20
72.1626032
11
116.2137853
21
26.1386032
0
LINE
8
DEFAULT_255_2_778
10
116.2137853
20
26.1386032
11
125.0174853
21
26.1386032
0
LINE
8
DEFAULT_255_2_778
10
116.2137853
20
43.5532032
11
115.9105853
21
43.5532032
0
LINE
8
DEFAULT_255_2_778
10
115.9105853
20
42.7941032
11
116.2137853
21
42.7941032
0
LINE
8
DEFAULT_255_2_778
10
116.2137853
20
45.5455032
11
115.9105853
21
45.5455032
0
LINE
8
DEFAULT_255_2_778
10
115.9105853
20
44.7864032
11
116.2137853
21
44.7864032
0
LINE
8
DEFAULT_255_2_778
10
116.2137853
20
47.5378032
11
115.9105853
21
47.5378032
0
LINE
8
DEFAULT_255_2_778
10
115.9105853
20
46.7787032
11
116.2137853
21
46.7787032
0
LINE
8
DEFAULT_255_2_778
10
116.2137853
20
51.5227032
11
115.9105853
21
51.5227032
0
LINE
8
DEFAULT_255_2_778
10
115.9105853
20
50.7636032
11
116.2137853
21
50.7636032
0
LINE
8
DEFAULT_255_2_778
10
116.2137853
20
53.5150032
11
115.9105853
21
53.5150032
0
LINE
8
DEFAULT_255_2_778
10
115.9105853
20
52.7559032
11
116.2137853
21
52.7559032
0
LINE
8
DEFAULT_255_2_778
10
116.2137853
20
55.5073032
11
115.9105853
21
55.5073032
0
LINE
8
DEFAULT_255_2_778
10
115.9105853
20
54.7483032
11
116.2137853
21
54.7483032
0
LINE
8
DEFAULT_255_2_778
10
116.2137853
20
57.4997032
11
115.9105853
21
57.4997032
0
LINE
8
DEFAULT_255_2_778
10
115.9105853
20
56.7406032
11
116.2137853
21
56.7406032
0
LINE
8
DEFAULT_255_2_778
10
116.2137853
20
49.5301032
11
115.9105853
21
49.5301032
0
LINE
8
DEFAULT_255_2_778
10
115.9105853
20
48.7711032
11
116.2137853
21
48.7711032
0
LINE
8
DEFAULT_255_2_778
10
116.2137853
20
41.5609032
11
115.9105853
21
41.5609032
0
LINE
8
DEFAULT_255_2_778
10
115.9105853
20
40.8015032
11
116.2137853
21
40.8015032
0
LINE
8
DEFAULT_255_2_778
10
125.6127853
20
70.0459032
11
125.5140853
21
69.8083032
0
LINE
8
DEFAULT_255_2_778
10
116.2137853
20
69.8165032
11
115.8721853
21
69.8165032
0
LINE
8
DEFAULT_255_2_778
10
115.8721853
20
68.9699032
11
116.2137853
21
68.9699032
0
LINE
8
DEFAULT_255_2_778
10
125.6233853
20
64.9855032
11
125.5349853
21
64.7895032
0
LINE
8
DEFAULT_255_2_778
10
116.2137853
20
64.7561032
11
115.8721853
21
64.7561032
0
LINE
8
DEFAULT_255_2_778
10
115.8721853
20
63.9092032
11
116.2137853
21
63.9092032
0
LINE
8
DEFAULT_255_2_778
10
115.8721853
20
28.0640032
11
115.8721853
21
29.7859032
0
LINE
8
DEFAULT_255_2_778
10
115.8721853
20
33.1246032
11
115.8721853
21
34.8466032
0
LINE
8
DEFAULT_255_2_778
10
116.2137853
20
29.3316032
11
115.8721853
21
29.3316032
0
LINE
8
DEFAULT_255_2_778
10
116.2137635
20
34.3922115
11
115.8721635
21
34.3922115
0
LINE
8
DEFAULT_255_2_778
10
115.8721635
20
33.5453115
11
116.2137635
21
33.5453115
0
LINE
8
DEFAULT_255_2_778
10
125.0711635
20
70.2711115
11
125.0328635
21
70.3634115
0
LINE
8
DEFAULT_255_2_778
10
125.0328635
20
70.3634115
11
125.0444635
21
70.3401115
0
LINE
8
DEFAULT_255_2_778
10
125.0444635
20
70.3401115
11
125.0762635
21
70.2988115
0
LINE
8
DEFAULT_255_2_778
10
124.7137635
20
33.2318115
11
123.9517635
21
33.6699115
0
LINE
8
DEFAULT_255_2_778
10
123.9517635
20
33.6699115
11
122.9717635
21
33.6699115
0
LINE
8
DEFAULT_255_2_778
10
122.9717635
20
33.6699115
11
122.4637635
21
33.3778115
0
LINE
8
DEFAULT_255_2_778
10
124.7136995
20
68.6561263
11
123.9516995
21
69.0942263
0
LINE
8
DEFAULT_255_2_778
10
123.9516995
20
69.0942263
11
122.9716995
21
69.0942263
0
LINE
8
DEFAULT_255_2_778
10
122.9716995
20
69.0942263
11
122.4636995
21
68.8021263
0
LINE
8
DEFAULT_255_2_778
10
122.4636995
20
63.7417263
11
122.9716995
21
64.0338263
0
LINE
8
DEFAULT_255_2_778
10
122.9716995
20
64.0338263
11
123.9516995
21
64.0338263
0
LINE
8
DEFAULT_255_2_778
10
123.9516995
20
64.0338263
11
124.7136995
21
63.5956263
0
LINE
8
DEFAULT_255_2_778
10
123.4436995
20
39.4355263
11
123.4436995
21
40.3589263
0
LINE
8
DEFAULT_255_2_778
10
117.4836995
20
40.3589263
11
117.4836995
21
39.4371263
0
LINE
8
DEFAULT_255_2_778
10
123.4436995
20
34.2676263
11
123.4436995
21
36.2774263
0
LINE
8
DEFAULT_255_2_778
10
117.4836995
20
36.2758263
11
117.4836995
21
34.2676263
0
LINE
8
DEFAULT_255_2_778
10
123.4436995
20
30.8058263
11
123.4436995
21
29.2069263
0
LINE
8
DEFAULT_255_2_778
10
117.4836995
20
29.2069263
11
117.4836995
21
30.8058263
0
LINE
8
DEFAULT_255_2_778
10
123.4436995
20
33.6699263
11
123.4436995
21
32.0711263
0
LINE
8
DEFAULT_255_2_778
10
117.4836995
20
32.0711263
11
117.4836995
21
33.6699263
0
LINE
8
DEFAULT_255_2_778
10
123.4436995
20
62.0240263
11
123.4436995
21
64.0338263
0
LINE
8
DEFAULT_255_2_778
10
117.4836995
20
64.0338263
11
117.4836995
21
62.0256263
0
LINE
8
DEFAULT_255_2_778
10
123.4436995
20
66.2304032
11
123.4436995
21
64.6315032
0
LINE
8
DEFAULT_255_2_778
10
117.4836995
20
64.6315032
11
117.4836995
21
66.2304032
0
LINE
8
DEFAULT_255_2_778
10
123.4436995
20
69.0942032
11
123.4436995
21
67.4953032
0
LINE
8
DEFAULT_255_2_778
10
117.4836995
20
67.4953032
11
117.4836995
21
69.0942032
0
LINE
8
DEFAULT_255_2_778
10
123.4436995
20
72.1626032
11
123.4436995
21
69.6922032
0
LINE
8
DEFAULT_255_2_778
10
117.4836995
20
69.6922032
11
117.4836995
21
72.1626032
0
LINE
8
DEFAULT_255_2_778
10
123.4436995
20
57.9423032
11
123.4436995
21
58.8657032
0
LINE
8
DEFAULT_255_2_778
10
117.4836995
20
58.8644032
11
117.4836995
21
57.9426032
0
LINE
8
DEFAULT_255_2_778
10
124.7136995
20
26.1386032
11
124.7136995
21
72.1626032
0
LINE
8
DEFAULT_255_2_778
10
122.463696
20
69.9842758
11
122.971696
21
69.6921758
0
LINE
8
DEFAULT_255_2_778
10
122.971696
20
69.6921758
11
123.951696
21
69.6921758
0
LINE
8
DEFAULT_255_2_778
10
123.951696
20
69.6921758
11
124.713696
21
70.1303758
0
LINE
8
DEFAULT_255_2_778
10
116.213696
20
70.1303758
11
116.975696
21
69.6921758
0
LINE
8
DEFAULT_255_2_778
10
116.975696
20
69.6921758
11
117.955696
21
69.6921758
0
LINE
8
DEFAULT_255_2_778
10
117.955696
20
69.6921758
11
118.463696
21
69.9842758
0
LINE
8
DEFAULT_255_2_778
10
122.463696
20
64.9235758
11
122.971696
21
64.6314758
0
LINE
8
DEFAULT_255_2_778
10
122.971696
20
64.6314758
11
123.951696
21
64.6314758
0
LINE
8
DEFAULT_255_2_778
10
123.951696
20
64.6314758
11
124.713696
21
65.0696758
0
LINE
8
DEFAULT_255_2_778
10
116.213696
20
65.0696758
11
116.975696
21
64.6314758
0
LINE
8
DEFAULT_255_2_778
10
116.975696
20
64.6314758
11
117.955696
21
64.6314758
0
LINE
8
DEFAULT_255_2_778
10
117.955696
20
64.6314758
11
118.463696
21
64.9235758
0
LINE
8
DEFAULT_255_2_778
10
118.463696
20
33.3778758
11
117.955696
21
33.6699758
0
LINE
8
DEFAULT_255_2_778
10
117.955696
20
33.6699758
11
116.975696
21
33.6699758
0
LINE
8
DEFAULT_255_2_778
10
116.975696
20
33.6699758
11
116.213696
21
33.2317758
0
LINE
8
DEFAULT_255_2_778
10
122.463696
20
29.4989758
11
122.971696
21
29.2068758
0
LINE
8
DEFAULT_255_2_778
10
122.971696
20
29.2068758
11
123.951696
21
29.2068758
0
LINE
8
DEFAULT_255_2_778
10
123.951696
20
29.2068758
11
124.713696
21
29.6450758
0
LINE
8
DEFAULT_255_2_778
10
116.213696
20
29.6450758
11
116.975696
21
29.2068758
0
LINE
8
DEFAULT_255_2_778
10
116.975696
20
29.2068758
11
117.955696
21
29.2068758
0
LINE
8
DEFAULT_255_2_778
10
117.955696
20
29.2068758
11
118.463696
21
29.4989758
0
LINE
8
DEFAULT_255_2_778
10
122.463696
20
34.5596758
11
122.971696
21
34.2675758
0
LINE
8
DEFAULT_255_2_778
10
122.971696
20
34.2675758
11
123.951696
21
34.2675758
0
LINE
8
DEFAULT_255_2_778
10
123.951696
20
34.2675758
11
124.713696
21
34.7057758
0
LINE
8
DEFAULT_255_2_778
10
116.213696
20
34.7057758
11
116.975696
21
34.2675758
0
LINE
8
DEFAULT_255_2_778
10
116.975696
20
34.2675758
11
117.955696
21
34.2675758
0
LINE
8
DEFAULT_255_2_778
10
117.955696
20
34.2675758
11
118.463696
21
34.5596758
0
LINE
8
DEFAULT_255_2_778
10
116.213696
20
68.656083
11
116.975696
21
69.094183
0
LINE
8
DEFAULT_255_2_778
10
116.975696
20
69.094183
11
117.955696
21
69.094183
0
LINE
8
DEFAULT_255_2_778
10
117.955696
20
69.094183
11
118.463696
21
68.802083
0
LINE
8
DEFAULT_255_2_778
10
116.213696
20
63.595583
11
116.975696
21
64.033783
0
LINE
8
DEFAULT_255_2_778
10
116.975696
20
64.033783
11
117.955696
21
64.033783
0
LINE
8
DEFAULT_255_2_778
10
117.955696
20
64.033783
11
118.463696
21
63.741683
0
ARC
8
DEFAULT_255_2_778
10
122.2094685
20
70.5079768
40
0.2549495
50
45.1823792
51
90.0445557
0
ARC
8
DEFAULT_255_2_778
10
122.2116246
20
70.5097871
40
0.2521457
50
359.9861569
51
45.2399624
0
ARC
8
DEFAULT_255_2_778
10
122.2115051
20
68.2767164
40
0.2522653
50
314.8353778
51
0.0476504
0
ARC
8
DEFAULT_255_2_778
10
122.2094762
20
68.2781113
40
0.2546853
50
270.0661519
51
314.9377978
0
ARC
8
DEFAULT_255_2_778
10
118.718072
20
68.2783756
40
0.2549495
50
225.1823792
51
270.0445557
0
ARC
8
DEFAULT_255_2_778
10
118.7159153
20
68.2765648
40
0.2521449
50
179.9860599
51
225.2399965
0
ARC
8
DEFAULT_255_2_778
10
118.7164411
20
70.5095674
40
0.2526709
50
134.8736569
51
180.0320217
0
ARC
8
DEFAULT_255_2_778
10
118.7180997
20
70.5079135
40
0.2550131
50
90.0740081
51
134.8755567
0
ARC
8
DEFAULT_255_2_778
10
122.2383351
20
65.5913467
40
0.1772804
50
89.9391976
51
90.1825559
0
ARC
8
DEFAULT_255_2_778
10
122.2385301
20
65.5150404
40
0.2535869
50
45.0552127
51
90.0015458
0
ARC
8
DEFAULT_255_2_778
10
122.2398177
20
65.5152183
40
0.2525527
50
0.0471656
51
45.2334573
0
ARC
8
DEFAULT_255_2_778
10
122.2396871
20
63.2825901
40
0.2526832
50
314.8748294
51
0.0081866
0
ARC
8
DEFAULT_255_2_778
10
122.2380037
20
63.2839865
40
0.2548606
50
270.0824239
51
314.9215212
0
ARC
8
DEFAULT_255_2_778
10
118.746672
20
63.2840756
40
0.2549495
50
225.1823792
51
270.0445557
0
ARC
8
DEFAULT_255_2_778
10
118.7445153
20
63.2822648
40
0.2521449
50
179.9860599
51
225.2399965
0
ARC
8
DEFAULT_255_2_778
10
118.7451307
20
65.5153298
40
0.2527605
50
134.9140869
51
180.0234779
0
ARC
8
DEFAULT_255_2_778
10
118.7463159
20
65.5142987
40
0.2543274
50
89.9877537
51
134.9391757
0
ARC
8
DEFAULT_255_2_778
10
124.0705737
20
57.6885272
40
0.253999
50
0.2479027
51
90.0007714
0
ARC
8
DEFAULT_255_2_778
10
124.0705738
20
56.551625
40
0.2539988
50
269.9992061
51
359.7521292
0
ARC
8
DEFAULT_255_2_778
10
124.0707883
20
55.695642
40
0.2540843
50
0.2444859
51
89.9815213
0
ARC
8
DEFAULT_255_2_778
10
124.0708739
20
54.5588249
40
0.2539987
50
269.9991853
51
359.752168
0
ARC
8
DEFAULT_255_2_778
10
124.0710524
20
53.7039063
40
0.2540199
50
0.2300453
51
89.9959733
0
ARC
8
DEFAULT_255_2_778
10
124.0705738
20
52.567525
40
0.2539988
50
269.9992061
51
359.7521292
0
ARC
8
DEFAULT_255_2_778
10
124.0708739
20
51.7118275
40
0.2539988
50
0.2478434
51
90.00081
0
ARC
8
DEFAULT_255_2_778
10
124.0707883
20
50.5750104
40
0.2540842
50
270.0184787
51
359.7555141
0
ARC
8
DEFAULT_255_2_778
10
124.0708097
20
49.7189629
40
0.2540633
50
0.2623415
51
89.9863279
0
ARC
8
DEFAULT_255_2_778
10
124.0708097
20
48.5821895
40
0.2540633
50
270.0136721
51
359.7376585
0
ARC
8
DEFAULT_255_2_778
10
124.0710523
20
47.7262062
40
0.25402
50
0.2300727
51
89.9959459
0
ARC
8
DEFAULT_255_2_778
10
124.0711381
20
46.5897594
40
0.2539332
50
269.9846966
51
359.8345597
0
ARC
8
DEFAULT_255_2_778
10
124.0708097
20
45.7340629
40
0.2540633
50
0.2623415
51
89.9863279
0
ARC
8
DEFAULT_255_2_778
10
124.0708097
20
44.5972895
40
0.2540633
50
270.0136721
51
359.7376585
0
ARC
8
DEFAULT_255_2_778
10
124.0714379
20
43.7415917
40
0.2539345
50
0.2334155
51
90.0152472
0
ARC
8
DEFAULT_255_2_778
10
124.0713527
20
42.6046461
40
0.2540199
50
270.0039689
51
359.7699626
0
ARC
8
DEFAULT_255_2_778
10
124.0715887
20
41.7486422
40
0.2540839
50
0.2444311
51
89.9815988
0
ARC
8
DEFAULT_255_2_778
10
124.0716097
20
40.6118895
40
0.2540633
50
270.0136721
51
359.7376585
0
ARC
8
DEFAULT_255_2_778
10
122.2094685
20
35.0834768
40
0.2549495
50
45.1823792
51
90.0445557
0
ARC
8
DEFAULT_255_2_778
10
122.2116246
20
35.0852871
40
0.2521457
50
359.9861569
51
45.2399624
0
ARC
8
DEFAULT_255_2_778
10
122.2113324
20
32.8521882
40
0.2524379
50
314.8516826
51
0.0313137
0
ARC
8
DEFAULT_255_2_778
10
122.2094411
20
32.853939
40
0.255013
50
270.0739595
51
314.8755019
0
LINE
8
DEFAULT_255_2_778
10
118.7177703
20
32.5989262
11
118.7173941
21
32.5989259
0
ARC
8
DEFAULT_255_2_778
10
118.7175925
20
32.8527135
40
0.2537876
50
225.0742364
51
269.9551994
0
ARC
8
DEFAULT_255_2_778
10
118.7166454
20
32.8523691
40
0.2528752
50
180.0550284
51
225.1710761
0
ARC
8
DEFAULT_255_2_778
10
118.7160368
20
35.0851354
40
0.2522667
50
134.8355005
51
180.0475053
0
ARC
8
DEFAULT_255_2_778
10
118.7180642
20
35.0837417
40
0.2546847
50
90.0661133
51
134.9378594
0
ARC
8
DEFAULT_255_2_778
10
117.3090969
20
31.1867393
40
0.3791285
50
180.1833235
51
269.482148
0
ARC
8
DEFAULT_255_2_778
10
117.3087496
20
31.690658
40
0.3787807
50
90.4657895
51
179.8535495
0
ARC
8
DEFAULT_255_2_778
10
117.2058001
20
31.1857445
40
0.17633
50
179.9084722
51
180.0305079
0
ARC
8
DEFAULT_255_2_778
10
117.3048646
20
31.1857987
40
0.2753946
50
180.0307985
51
225.0114935
0
ARC
8
DEFAULT_255_2_778
10
117.3067226
20
31.188994
40
0.2789696
50
225.2055792
51
269.7838795
0
ARC
8
DEFAULT_255_2_778
10
123.9436447
20
31.1862748
40
0.2762486
50
269.9845603
51
315.0259558
0
ARC
8
DEFAULT_255_2_778
10
123.9447957
20
31.1856248
40
0.2749749
50
314.9522636
51
0.0051266
0
ARC
8
DEFAULT_255_2_778
10
124.0422781
20
31.1857436
40
0.1774924
50
359.9695893
51
0.0912363
0
ARC
8
DEFAULT_255_2_778
10
123.9447645
20
31.6910167
40
0.2750061
50
0.0853156
51
45.1920581
0
ARC
8
DEFAULT_255_2_778
10
123.9439041
20
31.69067
40
0.2758587
50
45.1160291
51
89.9400721
0
ARC
8
DEFAULT_255_2_778
10
123.9441927
20
31.7040778
40
0.2624507
50
90.0000069
51
90.2450339
0
ARC
8
DEFAULT_255_2_778
10
117.3057024
20
31.6897794
40
0.2767468
50
90.006656
51
134.9539385
0
ARC
8
DEFAULT_255_2_778
10
117.3048646
20
31.6908537
40
0.2753946
50
134.9885065
51
179.9692015
0
ARC
8
DEFAULT_255_2_778
10
117.2058001
20
31.6909079
40
0.1763301
50
179.9694921
51
180.0915278
0
ARC
8
DEFAULT_255_2_778
10
123.9408542
20
31.690221
40
0.3758172
50
0.1380017
51
89.5401668
0
ARC
8
DEFAULT_255_2_778
10
123.940919
20
31.186067
40
0.3757524
50
270.4500285
51
359.8717845
0
ARC
8
DEFAULT_255_2_778
10
122.2097533
20
27.7924426
40
0.2540164
50
270.0038396
51
315.0001055
0
ARC
8
DEFAULT_255_2_778
10
122.2109857
20
27.7919322
40
0.2527846
50
314.8843685
51
359.9986279
0
ARC
8
DEFAULT_255_2_778
10
122.2097315
20
30.0238867
40
0.2540402
50
0.1893423
51
89.9788219
0
LINE
8
DEFAULT_255_2_778
10
122.2098254
20
30.2779268
11
122.2092703
21
30.2779262
0
LINE
8
DEFAULT_255_2_778
10
118.7177703
20
30.2779262
11
118.7173944
21
30.2779265
0
ARC
8
DEFAULT_255_2_778
10
118.7174747
20
30.0244244
40
0.2535021
50
90.0181428
51
135.016401
0
ARC
8
DEFAULT_255_2_778
10
118.7165553
20
30.0245201
40
0.2527849
50
134.8844233
51
179.9986086
0
ARC
8
DEFAULT_255_2_778
10
118.7179579
20
27.7926152
40
0.2541892
50
180.2003775
51
269.9869155
0
LINE
8
DEFAULT_255_2_778
10
118.7178999
20
27.5384259
11
118.7182703
21
27.5384262
0
LINE
8
DEFAULT_255_2_778
10
122.4637703
20
70.5097262
11
122.4637703
21
68.2769262
0
LINE
8
DEFAULT_255_2_778
10
122.2097703
20
68.0234262
11
118.7182703
21
68.0234262
0
LINE
8
DEFAULT_255_2_778
10
118.4637703
20
68.2766262
11
118.4637703
21
70.5094262
0
LINE
8
DEFAULT_255_2_778
10
118.7177703
20
70.7629262
11
122.2092703
21
70.7629262
0
LINE
8
DEFAULT_255_2_778
10
122.4923703
20
65.5154262
11
122.4923703
21
63.2826262
0
LINE
8
DEFAULT_255_2_778
10
122.2383703
20
63.0291262
11
118.7468703
21
63.0291262
0
LINE
8
DEFAULT_255_2_778
10
118.4923703
20
63.2823262
11
118.4923703
21
65.5152262
0
LINE
8
DEFAULT_255_2_778
10
118.7463703
20
65.7686262
11
122.2377703
21
65.7686262
0
LINE
8
DEFAULT_255_2_778
10
116.9797703
20
56.5622262
11
121.4024703
21
56.5622262
0
LINE
8
DEFAULT_255_2_778
10
121.4024703
20
56.5622262
11
121.4024703
21
57.6779262
0
LINE
8
DEFAULT_255_2_778
10
121.4024703
20
57.6779262
11
116.9797703
21
57.6779262
0
LINE
8
DEFAULT_255_2_778
10
118.3616703
20
57.6779262
11
118.3616703
21
56.5622262
0
LINE
8
DEFAULT_255_2_778
10
123.9985703
20
56.8159262
11
123.9985703
21
57.4242262
0
LINE
8
DEFAULT_255_2_778
10
124.3245703
20
56.5508262
11
124.3245703
21
57.6896262
0
LINE
8
DEFAULT_255_2_778
10
124.0705703
20
57.9425262
11
116.9244703
21
57.9425262
0
LINE
8
DEFAULT_255_2_778
10
116.9244703
20
57.9425262
11
116.9244703
21
57.5504262
0
LINE
8
DEFAULT_255_2_778
10
116.9244703
20
57.5504262
11
116.7725703
21
57.5504262
0
LINE
8
DEFAULT_255_2_778
10
116.7725703
20
57.5504262
11
116.7725703
21
56.6897262
0
LINE
8
DEFAULT_255_2_778
10
116.7725703
20
56.6897262
11
116.9244703
21
56.6897262
0
LINE
8
DEFAULT_255_2_778
10
116.9244703
20
56.6897262
11
116.9244703
21
56.2976262
0
LINE
8
DEFAULT_255_2_778
10
116.9244703
20
56.2976262
11
124.0705703
21
56.2976262
0
LINE
8
DEFAULT_255_2_778
10
124.3245703
20
56.5505262
11
124.3245703
21
56.5508262
0
LINE
8
DEFAULT_255_2_778
10
121.4022703
20
57.6779262
11
121.9430703
21
57.6353262
0
LINE
8
DEFAULT_255_2_778
10
121.9430703
20
57.6353262
11
122.4105703
21
57.5986262
0
LINE
8
DEFAULT_255_2_778
10
122.4105703
20
57.5986262
11
122.8442703
21
57.5618262
0
LINE
8
DEFAULT_255_2_778
10
122.8442703
20
57.5618262
11
123.2122703
21
57.5250262
0
LINE
8
DEFAULT_255_2_778
10
123.2122703
20
57.5250262
11
123.4881703
21
57.4882262
0
LINE
8
DEFAULT_255_2_778
10
123.5360703
20
57.4795262
11
123.4881703
21
57.4882262
0
LINE
8
DEFAULT_255_2_778
10
123.4881703
20
57.4882262
11
123.4881703
21
56.7508262
0
LINE
8
DEFAULT_255_2_778
10
123.4881703
20
56.7508262
11
123.5360703
21
56.7596262
0
LINE
8
DEFAULT_255_2_778
10
123.5360703
20
56.7596262
11
123.5360703
21
57.4795262
0
LINE
8
DEFAULT_255_2_778
10
123.5360703
20
57.4795262
11
123.5472703
21
57.4774262
0
LINE
8
DEFAULT_255_2_778
10
123.5472703
20
57.4774262
11
123.5853703
21
57.4708262
0
LINE
8
DEFAULT_255_2_778
10
123.5853703
20
57.4708262
11
123.6149703
21
57.4663262
0
LINE
8
DEFAULT_255_2_778
10
123.6149703
20
57.4663262
11
123.7202703
21
57.4528262
0
LINE
8
DEFAULT_255_2_778
10
123.7202703
20
57.4528262
11
123.7802703
21
57.4462262
0
LINE
8
DEFAULT_255_2_778
10
123.7802703
20
57.4462262
11
123.9776703
21
57.4258262
0
LINE
8
DEFAULT_255_2_778
10
123.9776703
20
56.8138262
11
123.9102703
21
56.8072262
0
LINE
8
DEFAULT_255_2_778
10
123.9102703
20
56.8072262
11
123.7202703
21
56.7868262
0
LINE
8
DEFAULT_255_2_778
10
123.7202703
20
56.7868262
11
123.6826703
21
56.7823262
0
LINE
8
DEFAULT_255_2_778
10
123.6826703
20
56.7823262
11
123.5853703
21
56.7688262
0
LINE
8
DEFAULT_255_2_778
10
123.5853703
20
56.7688262
11
123.5718703
21
56.7667262
0
LINE
8
DEFAULT_255_2_778
10
123.5718703
20
56.7667262
11
123.5363703
21
56.7601262
0
LINE
8
DEFAULT_255_2_778
10
123.4884703
20
56.7514262
11
123.2124703
21
56.7146262
0
LINE
8
DEFAULT_255_2_778
10
123.2124703
20
56.7146262
11
122.8444703
21
56.6778262
0
LINE
8
DEFAULT_255_2_778
10
122.8444703
20
56.6778262
11
122.4108703
21
56.6410262
0
LINE
8
DEFAULT_255_2_778
10
122.4108703
20
56.6410262
11
121.9432703
21
56.6043262
0
LINE
8
DEFAULT_255_2_778
10
121.9432703
20
56.6043262
11
121.4024703
21
56.5617262
0
LINE
8
DEFAULT_255_2_778
10
123.7533703
20
57.4525262
11
123.7533703
21
57.9420262
0
LINE
8
DEFAULT_255_2_778
10
121.6985703
20
57.6573262
11
121.6985703
21
57.9420262
0
LINE
8
DEFAULT_255_2_778
10
120.2568703
20
57.6774262
11
120.2568703
21
57.9420262
0
LINE
8
DEFAULT_255_2_778
10
116.9799703
20
54.5693262
11
121.4027703
21
54.5693262
0
LINE
8
DEFAULT_255_2_778
10
121.4027703
20
54.5693262
11
121.4027703
21
55.6851262
0
LINE
8
DEFAULT_255_2_778
10
121.4027703
20
55.6851262
11
116.9799703
21
55.6851262
0
LINE
8
DEFAULT_255_2_778
10
118.3618703
20
55.6851262
11
118.3618703
21
54.5693262
0
LINE
8
DEFAULT_255_2_778
10
123.9988703
20
54.8231262
11
123.9988703
21
55.4314262
0
LINE
8
DEFAULT_255_2_778
10
124.3248703
20
54.5580262
11
124.3248703
21
55.6967262
0
LINE
8
DEFAULT_255_2_778
10
124.0708703
20
55.9497262
11
116.9246703
21
55.9497262
0
LINE
8
DEFAULT_255_2_778
10
116.9246703
20
55.9497262
11
116.9246703
21
55.5576262
0
LINE
8
DEFAULT_255_2_778
10
116.9246703
20
55.5576262
11
116.7728703
21
55.5576262
0
LINE
8
DEFAULT_255_2_778
10
116.7728703
20
55.5576262
11
116.7728703
21
54.6969262
0
LINE
8
DEFAULT_255_2_778
10
116.7728703
20
54.6969262
11
116.9246703
21
54.6969262
0
LINE
8
DEFAULT_255_2_778
10
116.9246703
20
54.6969262
11
116.9246703
21
54.3048262
0
LINE
8
DEFAULT_255_2_778
10
116.9246703
20
54.3048262
11
124.0708703
21
54.3048262
0
LINE
8
DEFAULT_255_2_778
10
124.3248703
20
54.5577262
11
124.3248703
21
54.5580262
0
LINE
8
DEFAULT_255_2_778
10
121.4024703
20
55.6851262
11
121.9432703
21
55.6425262
0
LINE
8
DEFAULT_255_2_778
10
121.9432703
20
55.6425262
11
122.4108703
21
55.6057262
0
LINE
8
DEFAULT_255_2_778
10
122.4108703
20
55.6057262
11
122.8444703
21
55.5689262
0
LINE
8
DEFAULT_255_2_778
10
122.8444703
20
55.5689262
11
123.2124703
21
55.5322262
0
LINE
8
DEFAULT_255_2_778
10
123.2124703
20
55.5322262
11
123.4884703
21
55.4954262
0
LINE
8
DEFAULT_255_2_778
10
123.5363703
20
55.4867262
11
123.4884703
21
55.4954262
0
LINE
8
DEFAULT_255_2_778
10
123.4884703
20
55.4954262
11
123.4884703
21
54.7580262
0
LINE
8
DEFAULT_255_2_778
10
123.4884703
20
54.7580262
11
123.5363703
21
54.7667262
0
LINE
8
DEFAULT_255_2_778
10
123.5363703
20
54.7667262
11
123.5363703
21
55.4867262
0
LINE
8
DEFAULT_255_2_778
10
123.5363703
20
55.4867262
11
123.5474703
21
55.4845262
0
LINE
8
DEFAULT_255_2_778
10
123.5474703
20
55.4845262
11
123.5855703
21
55.4779262
0
LINE
8
DEFAULT_255_2_778
10
123.5855703
20
55.4779262
11
123.6152703
21
55.4734262
0
LINE
8
DEFAULT_255_2_778
10
123.6152703
20
55.4734262
11
123.7205703
21
55.4599262
0
LINE
8
DEFAULT_255_2_778
10
123.7205703
20
55.4599262
11
123.7805703
21
55.4533262
0
LINE
8
DEFAULT_255_2_778
10
123.7805703
20
55.4533262
11
123.9779703
21
55.4329262
0
LINE
8
DEFAULT_255_2_778
10
123.9779703
20
54.8210262
11
123.9104703
21
54.8144262
0
LINE
8
DEFAULT_255_2_778
10
123.9104703
20
54.8144262
11
123.7205703
21
54.7940262
0
LINE
8
DEFAULT_255_2_778
10
123.7205703
20
54.7940262
11
123.6829703
21
54.7895262
0
LINE
8
DEFAULT_255_2_778
10
123.6829703
20
54.7895262
11
123.5855703
21
54.7760262
0
LINE
8
DEFAULT_255_2_778
10
123.5855703
20
54.7760262
11
123.5720703
21
54.7739262
0
LINE
8
DEFAULT_255_2_778
10
123.5720703
20
54.7739262
11
123.5366703
21
54.7673262
0
LINE
8
DEFAULT_255_2_778
10
123.4887703
20
54.7585262
11
123.2127703
21
54.7217262
0
LINE
8
DEFAULT_255_2_778
10
123.2127703
20
54.7217262
11
122.8447703
21
54.6850262
0
LINE
8
DEFAULT_255_2_778
10
122.8447703
20
54.6850262
11
122.4110703
21
54.6482262
0
LINE
8
DEFAULT_255_2_778
10
122.4110703
20
54.6482262
11
121.9435703
21
54.6114262
0
LINE
8
DEFAULT_255_2_778
10
121.9435703
20
54.6114262
11
121.4027703
21
54.5688262
0
LINE
8
DEFAULT_255_2_778
10
116.9799703
20
52.5765262
11
121.4027703
21
52.5765262
0
LINE
8
DEFAULT_255_2_778
10
121.4027703
20
52.5765262
11
121.4027703
21
53.6933262
0
LINE
8
DEFAULT_255_2_778
10
121.4027703
20
53.6933262
11
116.9799703
21
53.6933262
0
LINE
8
DEFAULT_255_2_778
10
118.3618703
20
53.6933262
11
118.3618703
21
52.5776262
0
LINE
8
DEFAULT_255_2_778
10
123.9988703
20
52.8313262
11
123.9988703
21
53.4396262
0
LINE
8
DEFAULT_255_2_778
10
121.4027703
20
53.6933262
11
121.9435703
21
53.6507262
0
LINE
8
DEFAULT_255_2_778
10
121.9435703
20
53.6507262
11
122.4110703
21
53.6142262
0
LINE
8
DEFAULT_255_2_778
10
122.4110703
20
53.6142262
11
122.8447703
21
53.5774262
0
LINE
8
DEFAULT_255_2_778
10
122.8447703
20
53.5774262
11
123.2127703
21
53.5409262
0
LINE
8
DEFAULT_255_2_778
10
123.2127703
20
53.5409262
11
123.4887703
21
53.5041262
0
LINE
8
DEFAULT_255_2_778
10
123.5366703
20
53.4954262
11
123.4887703
21
53.5041262
0
LINE
8
DEFAULT_255_2_778
10
123.4887703
20
53.5041262
11
123.4887703
21
52.7667262
0
LINE
8
DEFAULT_255_2_778
10
123.4887703
20
52.7667262
11
123.5366703
21
52.7755262
0
LINE
8
DEFAULT_255_2_778
10
123.5366703
20
52.7755262
11
123.5366703
21
53.4954262
0
LINE
8
DEFAULT_255_2_778
10
123.5366703
20
53.4954262
11
123.5474703
21
53.4933262
0
LINE
8
DEFAULT_255_2_778
10
123.5474703
20
53.4933262
11
123.5855703
21
53.4864262
0
LINE
8
DEFAULT_255_2_778
10
123.5855703
20
53.4864262
11
123.6152703
21
53.4819262
0
LINE
8
DEFAULT_255_2_778
10
123.6152703
20
53.4819262
11
123.7205703
21
53.4684262
0
LINE
8
DEFAULT_255_2_778
10
123.7205703
20
53.4684262
11
123.7805703
21
53.4618262
0
LINE
8
DEFAULT_255_2_778
10
123.7805703
20
53.4618262
11
123.9779703
21
53.4414262
0
LINE
8
DEFAULT_255_2_778
10
123.9779703
20
52.8294262
11
123.9104703
21
52.8228262
0
LINE
8
DEFAULT_255_2_778
10
123.9104703
20
52.8228262
11
123.7205703
21
52.8025262
0
LINE
8
DEFAULT_255_2_778
10
123.7205703
20
52.8025262
11
123.6829703
21
52.7980262
0
LINE
8
DEFAULT_255_2_778
10
123.6829703
20
52.7980262
11
123.5855703
21
52.7845262
0
LINE
8
DEFAULT_255_2_778
10
123.5855703
20
52.7845262
11
123.5720703
21
52.7823262
0
LINE
8
DEFAULT_255_2_778
10
123.5720703
20
52.7823262
11
123.5366703
21
52.7757262
0
LINE
8
DEFAULT_255_2_778
10
123.4887703
20
52.7670262
11
123.2127703
21
52.7305262
0
LINE
8
DEFAULT_255_2_778
10
123.2127703
20
52.7305262
11
122.8447703
21
52.6937262
0
LINE
8
DEFAULT_255_2_778
10
122.8447703
20
52.6937262
11
122.4110703
21
52.6572262
0
LINE
8
DEFAULT_255_2_778
10
122.4110703
20
52.6572262
11
121.9435703
21
52.6204262
0
LINE
8
DEFAULT_255_2_778
10
121.9435703
20
52.6204262
11
121.4027703
21
52.5778262
0
LINE
8
DEFAULT_255_2_778
10
124.0710703
20
53.9579262
11
116.9246703
21
53.9579262
0
LINE
8
DEFAULT_255_2_778
10
116.9246703
20
53.9579262
11
116.9246703
21
53.5660262
0
LINE
8
DEFAULT_255_2_778
10
116.9246703
20
53.5660262
11
116.7728703
21
53.5660262
0
LINE
8
DEFAULT_255_2_778
10
116.7728703
20
53.5660262
11
116.7728703
21
52.7054262
0
LINE
8
DEFAULT_255_2_778
10
116.7728703
20
52.7054262
11
116.9246703
21
52.7054262
0
LINE
8
DEFAULT_255_2_778
10
116.9246703
20
52.7054262
11
116.9246703
21
52.3135262
0
LINE
8
DEFAULT_255_2_778
10
116.9246703
20
52.3135262
11
124.0705703
21
52.3135262
0
LINE
8
DEFAULT_255_2_778
10
124.3245703
20
52.5664262
11
124.3250703
21
53.7049262
0
LINE
8
DEFAULT_255_2_778
10
116.9799703
20
50.5855262
11
121.4027703
21
50.5855262
0
LINE
8
DEFAULT_255_2_778
10
121.4027703
20
50.5855262
11
121.4027703
21
51.7013262
0
LINE
8
DEFAULT_255_2_778
10
121.4027703
20
51.7013262
11
116.9799703
21
51.7013262
0
LINE
8
DEFAULT_255_2_778
10
118.3618703
20
51.7013262
11
118.3618703
21
50.5855262
0
LINE
8
DEFAULT_255_2_778
10
123.9988703
20
50.8392262
11
123.9988703
21
51.4475262
0
LINE
8
DEFAULT_255_2_778
10
124.3248703
20
50.5741262
11
124.3248703
21
51.7129262
0
LINE
8
DEFAULT_255_2_778
10
124.0708703
20
51.9658262
11
116.9246703
21
51.9658262
0
LINE
8
DEFAULT_255_2_778
10
116.9246703
20
51.9658262
11
116.9246703
21
51.5737262
0
LINE
8
DEFAULT_255_2_778
10
116.9246703
20
51.5737262
11
116.7728703
21
51.5737262
0
LINE
8
DEFAULT_255_2_778
10
116.7728703
20
51.5737262
11
116.7728703
21
50.7130262
0
LINE
8
DEFAULT_255_2_778
10
116.7728703
20
50.7130262
11
116.9246703
21
50.7130262
0
LINE
8
DEFAULT_255_2_778
10
116.9246703
20
50.7130262
11
116.9246703
21
50.3209262
0
LINE
8
DEFAULT_255_2_778
10
116.9246703
20
50.3209262
11
124.0708703
21
50.3209262
0
LINE
8
DEFAULT_255_2_778
10
124.3248703
20
50.5739262
11
124.3248703
21
50.5741262
0
LINE
8
DEFAULT_255_2_778
10
121.4024703
20
51.7013262
11
121.9432703
21
51.6587262
0
LINE
8
DEFAULT_255_2_778
10
121.9432703
20
51.6587262
11
122.4108703
21
51.6219262
0
LINE
8
DEFAULT_255_2_778
10
122.4108703
20
51.6219262
11
122.8444703
21
51.5851262
0
LINE
8
DEFAULT_255_2_778
10
122.8444703
20
51.5851262
11
123.2124703
21
51.5483262
0
LINE
8
DEFAULT_255_2_778
10
123.2124703
20
51.5483262
11
123.4884703
21
51.5116262
0
LINE
8
DEFAULT_255_2_778
10
123.5363703
20
51.5028262
11
123.4884703
21
51.5116262
0
LINE
8
DEFAULT_255_2_778
10
123.4884703
20
51.5116262
11
123.4884703
21
50.7742262
0
LINE
8
DEFAULT_255_2_778
10
123.4884703
20
50.7742262
11
123.5363703
21
50.7829262
0
LINE
8
DEFAULT_255_2_778
10
123.5363703
20
50.7829262
11
123.5363703
21
51.5028262
0
LINE
8
DEFAULT_255_2_778
10
123.5363703
20
51.5028262
11
123.5474703
21
51.5007262
0
LINE
8
DEFAULT_255_2_778
10
123.5474703
20
51.5007262
11
123.5855703
21
51.4941262
0
LINE
8
DEFAULT_255_2_778
10
123.5855703
20
51.4941262
11
123.6152703
21
51.4896262
0
LINE
8
DEFAULT_255_2_778
10
123.6152703
20
51.4896262
11
123.7205703
21
51.4761262
0
LINE
8
DEFAULT_255_2_778
10
123.7205703
20
51.4761262
11
123.7805703
21
51.4695262
0
LINE
8
DEFAULT_255_2_778
10
123.7805703
20
51.4695262
11
123.9779703
21
51.4491262
0
LINE
8
DEFAULT_255_2_778
10
123.9779703
20
50.8371262
11
123.9104703
21
50.8305262
0
LINE
8
DEFAULT_255_2_778
10
123.9104703
20
50.8305262
11
123.7205703
21
50.8101262
0
LINE
8
DEFAULT_255_2_778
10
123.7205703
20
50.8101262
11
123.6829703
21
50.8056262
0
LINE
8
DEFAULT_255_2_778
10
123.6829703
20
50.8056262
11
123.5855703
21
50.7921262
0
LINE
8
DEFAULT_255_2_778
10
123.5855703
20
50.7921262
11
123.5720703
21
50.7900262
0
LINE
8
DEFAULT_255_2_778
10
123.5720703
20
50.7900262
11
123.5366703
21
50.7834262
0
LINE
8
DEFAULT_255_2_778
10
123.4887703
20
50.7747262
11
123.2127703
21
50.7379262
0
LINE
8
DEFAULT_255_2_778
10
123.2127703
20
50.7379262
11
122.8447703
21
50.7011262
0
LINE
8
DEFAULT_255_2_778
10
122.8447703
20
50.7011262
11
122.4110703
21
50.6644262
0
LINE
8
DEFAULT_255_2_778
10
122.4110703
20
50.6644262
11
121.9435703
21
50.6276262
0
LINE
8
DEFAULT_255_2_778
10
121.9435703
20
50.6276262
11
121.4027703
21
50.5850262
0
LINE
8
DEFAULT_255_2_778
10
116.9799703
20
48.5927262
11
121.4027703
21
48.5927262
0
LINE
8
DEFAULT_255_2_778
10
121.4027703
20
48.5927262
11
121.4027703
21
49.7084262
0
LINE
8
DEFAULT_255_2_778
10
121.4027703
20
49.7084262
11
116.9799703
21
49.7084262
0
LINE
8
DEFAULT_255_2_778
10
118.3618703
20
49.7084262
11
118.3618703
21
48.5927262
0
LINE
8
DEFAULT_255_2_778
10
123.9988703
20
48.8464262
11
123.9988703
21
49.4547262
0
LINE
8
DEFAULT_255_2_778
10
124.3248703
20
48.5813262
11
124.3248703
21
49.7201262
0
LINE
8
DEFAULT_255_2_778
10
124.0708703
20
49.9730262
11
116.9246703
21
49.9730262
0
LINE
8
DEFAULT_255_2_778
10
116.9246703
20
49.9730262
11
116.9246703
21
49.5809262
0
LINE
8
DEFAULT_255_2_778
10
116.9246703
20
49.5809262
11
116.7728703
21
49.5809262
0
LINE
8
DEFAULT_255_2_778
10
116.7728703
20
49.5809262
11
116.7728703
21
48.7202262
0
LINE
8
DEFAULT_255_2_778
10
116.7728703
20
48.7202262
11
116.9246703
21
48.7202262
0
LINE
8
DEFAULT_255_2_778
10
116.9246703
20
48.7202262
11
116.9246703
21
48.3281262
0
LINE
8
DEFAULT_255_2_778
10
116.9246703
20
48.3281262
11
124.0708703
21
48.3281262
0
LINE
8
DEFAULT_255_2_778
10
124.3248703
20
48.5810262
11
124.3248703
21
48.5813262
0
LINE
8
DEFAULT_255_2_778
10
121.4024703
20
49.7084262
11
121.9432703
21
49.6658262
0
LINE
8
DEFAULT_255_2_778
10
121.9432703
20
49.6658262
11
122.4108703
21
49.6290262
0
LINE
8
DEFAULT_255_2_778
10
122.4108703
20
49.6290262
11
122.8444703
21
49.5923262
0
LINE
8
DEFAULT_255_2_778
10
122.8444703
20
49.5923262
11
123.2124703
21
49.5555262
0
LINE
8
DEFAULT_255_2_778
10
123.2124703
20
49.5555262
11
123.4884703
21
49.5187262
0
LINE
8
DEFAULT_255_2_778
10
123.5363703
20
49.5100262
11
123.4884703
21
49.5187262
0
LINE
8
DEFAULT_255_2_778
10
123.4884703
20
49.5187262
11
123.4884703
21
48.7813262
0
LINE
8
DEFAULT_255_2_778
10
123.4884703
20
48.7813262
11
123.5363703
21
48.7900262
0
LINE
8
DEFAULT_255_2_778
10
123.5363703
20
48.7900262
11
123.5363703
21
49.5100262
0
LINE
8
DEFAULT_255_2_778
10
123.5363703
20
49.5100262
11
123.5474703
21
49.5079262
0
LINE
8
DEFAULT_255_2_778
10
123.5474703
20
49.5079262
11
123.5855703
21
49.5012262
0
LINE
8
DEFAULT_255_2_778
10
123.5855703
20
49.5012262
11
123.6152703
21
49.4967262
0
LINE
8
DEFAULT_255_2_778
10
123.6152703
20
49.4967262
11
123.7205703
21
49.4833262
0
LINE
8
DEFAULT_255_2_778
10
123.7205703
20
49.4833262
11
123.7805703
21
49.4766262
0
LINE
8
DEFAULT_255_2_778
10
123.7805703
20
49.4766262
11
123.9779703
21
49.4563262
0
LINE
8
DEFAULT_255_2_778
10
123.9779703
20
48.8443262
11
123.9104703
21
48.8377262
0
LINE
8
DEFAULT_255_2_778
10
123.9104703
20
48.8377262
11
123.7205703
21
48.8173262
0
LINE
8
DEFAULT_255_2_778
10
123.7205703
20
48.8173262
11
123.6829703
21
48.8128262
0
LINE
8
DEFAULT_255_2_778
10
123.6829703
20
48.8128262
11
123.5855703
21
48.7993262
0
LINE
8
DEFAULT_255_2_778
10
123.5855703
20
48.7993262
11
123.5720703
21
48.7972262
0
LINE
8
DEFAULT_255_2_778
10
123.5720703
20
48.7972262
11
123.5366703
21
48.7906262
0
LINE
8
DEFAULT_255_2_778
10
123.4887703
20
48.7818262
11
123.2127703
21
48.7451262
0
LINE
8
DEFAULT_255_2_778
10
123.2127703
20
48.7451262
11
122.8447703
21
48.7083262
0
LINE
8
DEFAULT_255_2_778
10
122.8447703
20
48.7083262
11
122.4110703
21
48.6715262
0
LINE
8
DEFAULT_255_2_778
10
122.4110703
20
48.6715262
11
121.9435703
21
48.6347262
0
LINE
8
DEFAULT_255_2_778
10
121.9435703
20
48.6347262
11
121.4027703
21
48.5921262
0
LINE
8
DEFAULT_255_2_778
10
116.9799703
20
46.5998262
11
121.4027703
21
46.5998262
0
LINE
8
DEFAULT_255_2_778
10
121.4027703
20
46.5998262
11
121.4027703
21
47.7156262
0
LINE
8
DEFAULT_255_2_778
10
121.4027703
20
47.7156262
11
116.9799703
21
47.7156262
0
LINE
8
DEFAULT_255_2_778
10
118.3618703
20
47.7156262
11
118.3618703
21
46.5998262
0
LINE
8
DEFAULT_255_2_778
10
123.9988703
20
46.8536262
11
123.9988703
21
47.4618262
0
LINE
8
DEFAULT_255_2_778
10
121.4027703
20
47.7156262
11
121.9435703
21
47.6730262
0
LINE
8
DEFAULT_255_2_778
10
121.9435703
20
47.6730262
11
122.4110703
21
47.6365262
0
LINE
8
DEFAULT_255_2_778
10
122.4110703
20
47.6365262
11
122.8447703
21
47.5997262
0
LINE
8
DEFAULT_255_2_778
10
122.8447703
20
47.5997262
11
123.2127703
21
47.5632262
0
LINE
8
DEFAULT_255_2_778
10
123.2127703
20
47.5632262
11
123.4887703
21
47.5264262
0
LINE
8
DEFAULT_255_2_778
10
123.5366703
20
47.5177262
11
123.4887703
21
47.5264262
0
LINE
8
DEFAULT_255_2_778
10
123.4887703
20
47.5264262
11
123.4887703
21
46.7890262
0
LINE
8
DEFAULT_255_2_778
10
123.4887703
20
46.7890262
11
123.5366703
21
46.7977262
0
LINE
8
DEFAULT_255_2_778
10
123.5366703
20
46.7977262
11
123.5366703
21
47.5177262
0
LINE
8
DEFAULT_255_2_778
10
123.5366703
20
47.5177262
11
123.5474703
21
47.5156262
0
LINE
8
DEFAULT_255_2_778
10
123.5474703
20
47.5156262
11
123.5855703
21
47.5087262
0
LINE
8
DEFAULT_255_2_778
10
123.5855703
20
47.5087262
11
123.6152703
21
47.5042262
0
LINE
8
DEFAULT_255_2_778
10
123.6152703
20
47.5042262
11
123.7205703
21
47.4907262
0
LINE
8
DEFAULT_255_2_778
10
123.7205703
20
47.4907262
11
123.7805703
21
47.4841262
0
LINE
8
DEFAULT_255_2_778
10
123.7805703
20
47.4841262
11
123.9779703
21
47.4637262
0
LINE
8
DEFAULT_255_2_778
10
123.9779703
20
46.8517262
11
123.9104703
21
46.8451262
0
LINE
8
DEFAULT_255_2_778
10
123.9104703
20
46.8451262
11
123.7205703
21
46.8247262
0
LINE
8
DEFAULT_255_2_778
10
123.7205703
20
46.8247262
11
123.6829703
21
46.8202262
0
LINE
8
DEFAULT_255_2_778
10
123.6829703
20
46.8202262
11
123.5855703
21
46.8067262
0
LINE
8
DEFAULT_255_2_778
10
123.5855703
20
46.8067262
11
123.5720703
21
46.8046262
0
LINE
8
DEFAULT_255_2_778
10
123.5720703
20
46.8046262
11
123.5366703
21
46.7980262
0
LINE
8
DEFAULT_255_2_778
10
123.4887703
20
46.7893262
11
123.2127703
21
46.7528262
0
LINE
8
DEFAULT_255_2_778
10
123.2127703
20
46.7528262
11
122.8447703
21
46.7160262
0
LINE
8
DEFAULT_255_2_778
10
122.8447703
20
46.7160262
11
122.4110703
21
46.6795262
0
LINE
8
DEFAULT_255_2_778
10
122.4110703
20
46.6795262
11
121.9435703
21
46.6427262
0
LINE
8
DEFAULT_255_2_778
10
121.9435703
20
46.6427262
11
121.4027703
21
46.6001262
0
LINE
8
DEFAULT_255_2_778
10
124.0710703
20
47.9802262
11
116.9252703
21
47.9802262
0
LINE
8
DEFAULT_255_2_778
10
116.9252703
20
47.9802262
11
116.9252703
21
47.5883262
0
LINE
8
DEFAULT_255_2_778
10
116.9252703
20
47.5883262
11
116.7733703
21
47.5883262
0
LINE
8
DEFAULT_255_2_778
10
116.7733703
20
47.5883262
11
116.7733703
21
46.7276262
0
LINE
8
DEFAULT_255_2_778
10
116.7733703
20
46.7276262
11
116.9252703
21
46.7276262
0
LINE
8
DEFAULT_255_2_778
10
116.9252703
20
46.7276262
11
116.9252703
21
46.3358262
0
LINE
8
DEFAULT_255_2_778
10
116.9252703
20
46.3358262
11
124.0710703
21
46.3358262
0
LINE
8
DEFAULT_255_2_778
10
124.3250703
20
46.5890262
11
124.3250703
21
47.7272262
0
LINE
8
DEFAULT_255_2_778
10
116.9799703
20
44.6078262
11
121.4027703
21
44.6078262
0
LINE
8
DEFAULT_255_2_778
10
121.4027703
20
44.6078262
11
121.4027703
21
45.7235262
0
LINE
8
DEFAULT_255_2_778
10
121.4027703
20
45.7235262
11
116.9799703
21
45.7235262
0
LINE
8
DEFAULT_255_2_778
10
118.3618703
20
45.7235262
11
118.3618703
21
44.6078262
0
LINE
8
DEFAULT_255_2_778
10
123.9988703
20
44.8615262
11
123.9988703
21
45.4698262
0
LINE
8
DEFAULT_255_2_778
10
124.3248703
20
44.5964262
11
124.3248703
21
45.7352262
0
LINE
8
DEFAULT_255_2_778
10
124.0708703
20
45.9881262
11
116.9246703
21
45.9881262
0
LINE
8
DEFAULT_255_2_778
10
116.9246703
20
45.9881262
11
116.9246703
21
45.5960262
0
LINE
8
DEFAULT_255_2_778
10
116.9246703
20
45.5960262
11
116.7728703
21
45.5960262
0
LINE
8
DEFAULT_255_2_778
10
116.7728703
20
45.5960262
11
116.7728703
21
44.7353262
0
LINE
8
DEFAULT_255_2_778
10
116.7728703
20
44.7353262
11
116.9246703
21
44.7353262
0
LINE
8
DEFAULT_255_2_778
10
116.9246703
20
44.7353262
11
116.9246703
21
44.3432262
0
LINE
8
DEFAULT_255_2_778
10
116.9246703
20
44.3432262
11
124.0708703
21
44.3432262
0
LINE
8
DEFAULT_255_2_778
10
124.3248703
20
44.5961262
11
124.3248703
21
44.5964262
0
LINE
8
DEFAULT_255_2_778
10
121.4024703
20
45.7235262
11
121.9432703
21
45.6809262
0
LINE
8
DEFAULT_255_2_778
10
121.9432703
20
45.6809262
11
122.4108703
21
45.6442262
0
LINE
8
DEFAULT_255_2_778
10
122.4108703
20
45.6442262
11
122.8444703
21
45.6074262
0
LINE
8
DEFAULT_255_2_778
10
122.8444703
20
45.6074262
11
123.2124703
21
45.5706262
0
LINE
8
DEFAULT_255_2_778
10
123.2124703
20
45.5706262
11
123.4884703
21
45.5338262
0
LINE
8
DEFAULT_255_2_778
10
123.5363703
20
45.5251262
11
123.4884703
21
45.5338262
0
LINE
8
DEFAULT_255_2_778
10
123.4884703
20
45.5338262
11
123.4884703
21
44.7964262
0
LINE
8
DEFAULT_255_2_778
10
123.4884703
20
44.7964262
11
123.5363703
21
44.8052262
0
LINE
8
DEFAULT_255_2_778
10
123.5363703
20
44.8052262
11
123.5363703
21
45.5251262
0
LINE
8
DEFAULT_255_2_778
10
123.5363703
20
45.5251262
11
123.5474703
21
45.5230262
0
LINE
8
DEFAULT_255_2_778
10
123.5474703
20
45.5230262
11
123.5855703
21
45.5164262
0
LINE
8
DEFAULT_255_2_778
10
123.5855703
20
45.5164262
11
123.6152703
21
45.5119262
0
LINE
8
DEFAULT_255_2_778
10
123.6152703
20
45.5119262
11
123.7205703
21
45.4984262
0
LINE
8
DEFAULT_255_2_778
10
123.7205703
20
45.4984262
11
123.7805703
21
45.4918262
0
LINE
8
DEFAULT_255_2_778
10
123.7805703
20
45.4918262
11
123.9779703
21
45.4714262
0
LINE
8
DEFAULT_255_2_778
10
123.9779703
20
44.8594262
11
123.9104703
21
44.8528262
0
LINE
8
DEFAULT_255_2_778
10
123.9104703
20
44.8528262
11
123.7205703
21
44.8324262
0
LINE
8
DEFAULT_255_2_778
10
123.7205703
20
44.8324262
11
123.6829703
21
44.8279262
0
LINE
8
DEFAULT_255_2_778
10
123.6829703
20
44.8279262
11
123.5855703
21
44.8144262
0
LINE
8
DEFAULT_255_2_778
10
123.5855703
20
44.8144262
11
123.5720703
21
44.8123262
0
LINE
8
DEFAULT_255_2_778
10
123.5720703
20
44.8123262
11
123.5366703
21
44.8057262
0
LINE
8
DEFAULT_255_2_778
10
123.4887703
20
44.7970262
11
123.2127703
21
44.7602262
0
LINE
8
DEFAULT_255_2_778
10
123.2127703
20
44.7602262
11
122.8447703
21
44.7234262
0
LINE
8
DEFAULT_255_2_778
10
122.8447703
20
44.7234262
11
122.4110703
21
44.6866262
0
LINE
8
DEFAULT_255_2_778
10
122.4110703
20
44.6866262
11
121.9435703
21
44.6498262
0
LINE
8
DEFAULT_255_2_778
10
121.9435703
20
44.6498262
11
121.4027703
21
44.6073262
0
LINE
8
DEFAULT_255_2_778
10
116.9799703
20
42.6149262
11
121.4027703
21
42.6149262
0
LINE
8
DEFAULT_255_2_778
10
121.4027703
20
42.6149262
11
121.4027703
21
43.7307262
0
LINE
8
DEFAULT_255_2_778
10
121.4027703
20
43.7307262
11
116.9799703
21
43.7307262
0
LINE
8
DEFAULT_255_2_778
10
123.5366703
20
43.5328262
11
123.4887703
21
43.5415262
0
LINE
8
DEFAULT_255_2_778
10
123.4887703
20
43.5415262
11
123.4887703
21
42.8041262
0
LINE
8
DEFAULT_255_2_778
10
123.4887703
20
42.8041262
11
123.5366703
21
42.8128262
0
LINE
8
DEFAULT_255_2_778
10
123.5366703
20
42.8128262
11
123.5366703
21
43.5333262
0
LINE
8
DEFAULT_255_2_778
10
123.5366703
20
43.5333262
11
123.5477703
21
43.5312262
0
LINE
8
DEFAULT_255_2_778
10
123.5477703
20
43.5312262
11
123.5858703
21
43.5246262
0
LINE
8
DEFAULT_255_2_778
10
123.5858703
20
43.5246262
11
123.6154703
21
43.5201262
0
LINE
8
DEFAULT_255_2_778
10
123.6154703
20
43.5201262
11
123.7207703
21
43.5066262
0
LINE
8
DEFAULT_255_2_778
10
123.7207703
20
43.5066262
11
123.7808703
21
43.5000262
0
LINE
8
DEFAULT_255_2_778
10
123.7808703
20
43.5000262
11
123.9782703
21
43.4796262
0
LINE
8
DEFAULT_255_2_778
10
121.4030703
20
43.7315262
11
121.9438703
21
43.6889262
0
LINE
8
DEFAULT_255_2_778
10
121.9438703
20
43.6889262
11
122.4113703
21
43.6521262
0
LINE
8
DEFAULT_255_2_778
10
122.4113703
20
43.6521262
11
122.8449703
21
43.6153262
0
LINE
8
DEFAULT_255_2_778
10
122.8449703
20
43.6153262
11
123.2130703
21
43.5786262
0
LINE
8
DEFAULT_255_2_778
10
123.2130703
20
43.5786262
11
123.4890703
21
43.5418262
0
LINE
8
DEFAULT_255_2_778
10
124.3253703
20
42.6038262
11
124.3253703
21
43.7426262
0
LINE
8
DEFAULT_255_2_778
10
124.0713703
20
43.9955262
11
116.9252703
21
43.9955262
0
LINE
8
DEFAULT_255_2_778
10
116.9252703
20
43.9955262
11
116.9252703
21
43.6034262
0
LINE
8
DEFAULT_255_2_778
10
116.9252703
20
43.6034262
11
116.7733703
21
43.6034262
0
LINE
8
DEFAULT_255_2_778
10
116.7733703
20
43.6034262
11
116.7733703
21
42.7427262
0
LINE
8
DEFAULT_255_2_778
10
116.7733703
20
42.7427262
11
116.9252703
21
42.7427262
0
LINE
8
DEFAULT_255_2_778
10
116.9252703
20
42.7427262
11
116.9252703
21
42.3506262
0
LINE
8
DEFAULT_255_2_778
10
116.9252703
20
42.3506262
11
124.0713703
21
42.3506262
0
LINE
8
DEFAULT_255_2_778
10
124.3253703
20
42.6036262
11
124.3253703
21
42.6038262
0
LINE
8
DEFAULT_255_2_778
10
123.9993703
20
42.8689262
11
123.9993703
21
43.4772262
0
LINE
8
DEFAULT_255_2_778
10
118.3624703
20
43.7310262
11
118.3624703
21
42.6152262
0
LINE
8
DEFAULT_255_2_778
10
123.9784703
20
42.8671262
11
123.9110703
21
42.8605262
0
LINE
8
DEFAULT_255_2_778
10
123.9110703
20
42.8605262
11
123.7210703
21
42.8401262
0
LINE
8
DEFAULT_255_2_778
10
123.7210703
20
42.8401262
11
123.6834703
21
42.8356262
0
LINE
8
DEFAULT_255_2_778
10
123.6834703
20
42.8356262
11
123.5860703
21
42.8221262
0
LINE
8
DEFAULT_255_2_778
10
123.5860703
20
42.8221262
11
123.5726703
21
42.8200262
0
LINE
8
DEFAULT_255_2_778
10
123.5726703
20
42.8200262
11
123.5371703
21
42.8134262
0
LINE
8
DEFAULT_255_2_778
10
123.4892703
20
42.8046262
11
123.2133703
21
42.7679262
0
LINE
8
DEFAULT_255_2_778
10
123.2133703
20
42.7679262
11
122.8452703
21
42.7311262
0
LINE
8
DEFAULT_255_2_778
10
122.8452703
20
42.7311262
11
122.4116703
21
42.6943262
0
LINE
8
DEFAULT_255_2_778
10
122.4116703
20
42.6943262
11
121.9441703
21
42.6575262
0
LINE
8
DEFAULT_255_2_778
10
121.9441703
20
42.6575262
11
121.4032703
21
42.6149262
0
LINE
8
DEFAULT_255_2_778
10
116.9805703
20
40.6226262
11
121.4032703
21
40.6226262
0
LINE
8
DEFAULT_255_2_778
10
121.4032703
20
40.6226262
11
121.4032703
21
41.7384262
0
LINE
8
DEFAULT_255_2_778
10
121.4032703
20
41.7384262
11
116.9805703
21
41.7384262
0
LINE
8
DEFAULT_255_2_778
10
118.3624703
20
41.7384262
11
118.3624703
21
40.6226262
0
LINE
8
DEFAULT_255_2_778
10
123.9993703
20
40.8764262
11
123.9993703
21
41.4846262
0
LINE
8
DEFAULT_255_2_778
10
121.4030703
20
41.7384262
11
121.9438703
21
41.6958262
0
LINE
8
DEFAULT_255_2_778
10
121.9438703
20
41.6958262
11
122.4113703
21
41.6590262
0
LINE
8
DEFAULT_255_2_778
10
122.4113703
20
41.6590262
11
122.8449703
21
41.6222262
0
LINE
8
DEFAULT_255_2_778
10
122.8449703
20
41.6222262
11
123.2130703
21
41.5854262
0
LINE
8
DEFAULT_255_2_778
10
123.2130703
20
41.5854262
11
123.4890703
21
41.5487262
0
LINE
8
DEFAULT_255_2_778
10
123.5368703
20
41.5399262
11
123.4890703
21
41.5487262
0
LINE
8
DEFAULT_255_2_778
10
123.4890703
20
41.5487262
11
123.4890703
21
40.8113262
0
LINE
8
DEFAULT_255_2_778
10
123.4890703
20
40.8113262
11
123.5368703
21
40.8200262
0
LINE
8
DEFAULT_255_2_778
10
123.5368703
20
40.8200262
11
123.5368703
21
41.5399262
0
LINE
8
DEFAULT_255_2_778
10
123.5368703
20
41.5399262
11
123.5480703
21
41.5378262
0
LINE
8
DEFAULT_255_2_778
10
123.5480703
20
41.5378262
11
123.5860703
21
41.5312262
0
LINE
8
DEFAULT_255_2_778
10
123.5860703
20
41.5312262
11
123.6157703
21
41.5267262
0
LINE
8
DEFAULT_255_2_778
10
123.6157703
20
41.5267262
11
123.7210703
21
41.5132262
0
LINE
8
DEFAULT_255_2_778
10
123.7210703
20
41.5132262
11
123.7811703
21
41.5066262
0
LINE
8
DEFAULT_255_2_778
10
123.7811703
20
41.5066262
11
123.9784703
21
41.4862262
0
LINE
8
DEFAULT_255_2_778
10
123.9784703
20
40.8742262
11
123.9110703
21
40.8676262
0
LINE
8
DEFAULT_255_2_778
10
123.9110703
20
40.8676262
11
123.7210703
21
40.8473262
0
LINE
8
DEFAULT_255_2_778
10
123.7210703
20
40.8473262
11
123.6834703
21
40.8428262
0
LINE
8
DEFAULT_255_2_778
10
123.6834703
20
40.8428262
11
123.5860703
21
40.8293262
0
LINE
8
DEFAULT_255_2_778
10
123.5860703
20
40.8293262
11
123.5726703
21
40.8271262
0
LINE
8
DEFAULT_255_2_778
10
123.5726703
20
40.8271262
11
123.5371703
21
40.8205262
0
LINE
8
DEFAULT_255_2_778
10
124.0716703
20
42.0027262
11
116.9254703
21
42.0027262
0
LINE
8
DEFAULT_255_2_778
10
116.9254703
20
42.0027262
11
116.9254703
21
41.6106262
0
LINE
8
DEFAULT_255_2_778
10
116.9254703
20
41.6106262
11
116.7736703
21
41.6106262
0
LINE
8
DEFAULT_255_2_778
10
116.7736703
20
41.6106262
11
116.7736703
21
40.7499262
0
LINE
8
DEFAULT_255_2_778
10
116.7736703
20
40.7499262
11
116.9254703
21
40.7499262
0
LINE
8
DEFAULT_255_2_778
10
116.9254703
20
40.7499262
11
116.9254703
21
40.3578262
0
LINE
8
DEFAULT_255_2_778
10
116.9254703
20
40.3578262
11
124.0716703
21
40.3578262
0
LINE
8
DEFAULT_255_2_778
10
124.3256703
20
40.6107262
11
124.3256703
21
41.7497262
0
LINE
8
DEFAULT_255_2_778
10
123.4892703
20
40.8118262
11
123.2133703
21
40.7750262
0
LINE
8
DEFAULT_255_2_778
10
123.2133703
20
40.7750262
11
122.8452703
21
40.7382262
0
LINE
8
DEFAULT_255_2_778
10
122.8452703
20
40.7382262
11
122.4116703
21
40.7015262
0
LINE
8
DEFAULT_255_2_778
10
122.4116703
20
40.7015262
11
121.9441703
21
40.6647262
0
LINE
8
DEFAULT_255_2_778
10
121.9441703
20
40.6647262
11
121.4032703
21
40.6221262
0
LINE
8
DEFAULT_255_2_778
10
122.3343703
20
40.6954262
11
122.3343703
21
40.3575262
0
LINE
8
DEFAULT_255_2_778
10
120.9966703
20
40.6221262
11
120.9966703
21
40.3575262
0
LINE
8
DEFAULT_255_2_778
10
118.5693703
20
40.6221262
11
118.5693703
21
40.3575262
0
LINE
8
DEFAULT_255_2_778
10
117.4845703
20
42.3498262
11
117.4845703
21
42.0022262
0
LINE
8
DEFAULT_255_2_778
10
123.4445703
20
42.0022262
11
123.4445703
21
42.3498262
0
LINE
8
DEFAULT_255_2_778
10
117.4845703
20
44.3421262
11
117.4845703
21
43.9945262
0
LINE
8
DEFAULT_255_2_778
10
123.4445703
20
43.9945262
11
123.4445703
21
44.3421262
0
LINE
8
DEFAULT_255_2_778
10
117.4845703
20
46.3344262
11
117.4845703
21
45.9868262
0
LINE
8
DEFAULT_255_2_778
10
123.4445703
20
45.9868262
11
123.4445703
21
46.3344262
0
LINE
8
DEFAULT_255_2_778
10
117.4845703
20
48.3268262
11
117.4845703
21
47.9791262
0
LINE
8
DEFAULT_255_2_778
10
123.4445703
20
47.9791262
11
123.4445703
21
48.3268262
0
LINE
8
DEFAULT_255_2_778
10
117.4845703
20
50.3191262
11
117.4845703
21
49.9714262
0
LINE
8
DEFAULT_255_2_778
10
123.4445703
20
49.9714262
11
123.4445703
21
50.3191262
0
LINE
8
DEFAULT_255_2_778
10
117.4845703
20
52.3114262
11
117.4845703
21
51.9637262
0
LINE
8
DEFAULT_255_2_778
10
123.4445703
20
51.9637262
11
123.4445703
21
52.3114262
0
LINE
8
DEFAULT_255_2_778
10
117.4845703
20
54.3037262
11
117.4845703
21
53.9560262
0
LINE
8
DEFAULT_255_2_778
10
123.4445703
20
53.9560262
11
123.4445703
21
54.3037262
0
LINE
8
DEFAULT_255_2_778
10
117.4845703
20
56.2960262
11
117.4845703
21
55.9483262
0
LINE
8
DEFAULT_255_2_778
10
123.4445703
20
55.9483262
11
123.4445703
21
56.2960262
0
LINE
8
DEFAULT_255_2_778
10
123.7541703
20
56.2960262
11
123.7541703
21
56.7855262
0
LINE
8
DEFAULT_255_2_778
10
123.7541703
20
55.4591262
11
123.7541703
21
55.9486262
0
LINE
8
DEFAULT_255_2_778
10
123.7541703
20
54.3040262
11
123.7541703
21
54.7934262
0
LINE
8
DEFAULT_255_2_778
10
123.7541703
20
53.4671262
11
123.7541703
21
53.9566262
0
LINE
8
DEFAULT_255_2_778
10
123.7541703
20
52.3119262
11
123.7541703
21
52.8014262
0
LINE
8
DEFAULT_255_2_778
10
123.7541703
20
51.4750262
11
123.7541703
21
51.9645262
0
LINE
8
DEFAULT_255_2_778
10
123.7541703
20
50.3199262
11
123.7541703
21
50.8093262
0
LINE
8
DEFAULT_255_2_778
10
123.7541703
20
49.4830262
11
123.7541703
21
49.9725262
0
LINE
8
DEFAULT_255_2_778
10
123.7541703
20
48.3278262
11
123.7541703
21
48.8173262
0
LINE
8
DEFAULT_255_2_778
10
123.7541703
20
47.4909262
11
123.7541703
21
47.9804262
0
LINE
8
DEFAULT_255_2_778
10
123.7541703
20
46.3358262
11
123.7541703
21
46.8253262
0
LINE
8
DEFAULT_255_2_778
10
123.7541703
20
45.4989262
11
123.7541703
21
45.9884262
0
LINE
8
DEFAULT_255_2_778
10
123.7541703
20
44.3437262
11
123.7541703
21
44.8332262
0
LINE
8
DEFAULT_255_2_778
10
123.7541703
20
43.5069262
11
123.7541703
21
43.9963262
0
LINE
8
DEFAULT_255_2_778
10
123.7541703
20
42.3517262
11
123.7541703
21
42.8412262
0
LINE
8
DEFAULT_255_2_778
10
123.7541703
20
41.5148262
11
123.7541703
21
42.0043262
0
LINE
8
DEFAULT_255_2_778
10
123.7541703
20
40.3596262
11
123.7541703
21
40.8491262
0
LINE
8
DEFAULT_255_2_778
10
122.3343703
20
42.0043262
11
122.3343703
21
41.6664262
0
LINE
8
DEFAULT_255_2_778
10
122.3343703
20
42.6895262
11
122.3343703
21
42.3517262
0
LINE
8
DEFAULT_255_2_778
10
122.3343703
20
43.9963262
11
122.3343703
21
43.6585262
0
LINE
8
DEFAULT_255_2_778
10
122.3343703
20
44.6816262
11
122.3343703
21
44.3437262
0
LINE
8
DEFAULT_255_2_778
10
122.3343703
20
45.9884262
11
122.3343703
21
45.6505262
0
LINE
8
DEFAULT_255_2_778
10
122.3343703
20
46.6736262
11
122.3343703
21
46.3358262
0
LINE
8
DEFAULT_255_2_778
10
122.3343703
20
47.9804262
11
122.3343703
21
47.6425262
0
LINE
8
DEFAULT_255_2_778
10
122.3343703
20
48.6657262
11
122.3343703
21
48.3278262
0
LINE
8
DEFAULT_255_2_778
10
122.3343703
20
49.9725262
11
122.3343703
21
49.6346262
0
LINE
8
DEFAULT_255_2_778
10
122.3343703
20
50.6577262
11
122.3343703
21
50.3199262
0
LINE
8
DEFAULT_255_2_778
10
122.3343703
20
51.9645262
11
122.3343703
21
51.6266262
0
LINE
8
DEFAULT_255_2_778
10
122.3343703
20
52.6498262
11
122.3343703
21
52.3119262
0
LINE
8
DEFAULT_255_2_778
10
122.3343703
20
53.9566262
11
122.3343703
21
53.6187262
0
LINE
8
DEFAULT_255_2_778
10
122.3343703
20
54.6418262
11
122.3343703
21
54.3040262
0
LINE
8
DEFAULT_255_2_778
10
122.3343703
20
55.9486262
11
122.3343703
21
55.6107262
0
LINE
8
DEFAULT_255_2_778
10
122.3343703
20
56.6339262
11
122.3343703
21
56.2960262
0
LINE
8
DEFAULT_255_2_778
10
122.3343703
20
57.9407262
11
122.3343703
21
57.6028262
0
LINE
8
DEFAULT_255_2_778
10
121.6993703
20
56.2958262
11
121.6993703
21
56.5804262
0
LINE
8
DEFAULT_255_2_778
10
121.6993703
20
55.6634262
11
121.6993703
21
55.9481262
0
LINE
8
DEFAULT_255_2_778
10
121.6993703
20
54.3034262
11
121.6993703
21
54.5881262
0
LINE
8
DEFAULT_255_2_778
10
121.6993703
20
53.6711262
11
121.6993703
21
53.9558262
0
LINE
8
DEFAULT_255_2_778
10
121.6993703
20
52.3111262
11
121.6993703
21
52.5958262
0
LINE
8
DEFAULT_255_2_778
10
121.6993703
20
51.6788262
11
121.6993703
21
51.9635262
0
LINE
8
DEFAULT_255_2_778
10
121.6993703
20
50.3188262
11
121.6993703
21
50.6035262
0
LINE
8
DEFAULT_255_2_778
10
121.6993703
20
49.6865262
11
121.6993703
21
49.9711262
0
LINE
8
DEFAULT_255_2_778
10
121.6993703
20
48.3265262
11
121.6993703
21
48.6112262
0
LINE
8
DEFAULT_255_2_778
10
121.6993703
20
47.6941262
11
121.6993703
21
47.9788262
0
LINE
8
DEFAULT_255_2_778
10
121.6993703
20
46.3342262
11
121.6993703
21
46.6189262
0
LINE
8
DEFAULT_255_2_778
10
121.6993703
20
45.7018262
11
121.6993703
21
45.9865262
0
LINE
8
DEFAULT_255_2_778
10
121.6993703
20
44.3419262
11
121.6993703
21
44.6266262
0
LINE
8
DEFAULT_255_2_778
10
121.6993703
20
43.7095262
11
121.6993703
21
43.9942262
0
LINE
8
DEFAULT_255_2_778
10
121.6993703
20
42.3496262
11
121.6993703
21
42.6343262
0
LINE
8
DEFAULT_255_2_778
10
121.6993703
20
41.7172262
11
121.6993703
21
42.0019262
0
LINE
8
DEFAULT_255_2_778
10
121.6993703
20
40.3572262
11
121.6993703
21
40.6419262
0
LINE
8
DEFAULT_255_2_778
10
120.9966703
20
42.0019262
11
120.9966703
21
41.7373262
0
LINE
8
DEFAULT_255_2_778
10
120.9966703
20
42.6139262
11
120.9966703
21
42.3493262
0
LINE
8
DEFAULT_255_2_778
10
120.9966703
20
43.9939262
11
120.9966703
21
43.7294262
0
LINE
8
DEFAULT_255_2_778
10
120.9966703
20
44.6059262
11
120.9966703
21
44.3413262
0
LINE
8
DEFAULT_255_2_778
10
120.9966703
20
45.9860262
11
120.9966703
21
45.7214262
0
LINE
8
DEFAULT_255_2_778
10
120.9966703
20
46.5980262
11
120.9966703
21
46.3334262
0
LINE
8
DEFAULT_255_2_778
10
120.9966703
20
47.9780262
11
120.9966703
21
47.7135262
0
LINE
8
DEFAULT_255_2_778
10
120.9966703
20
48.5900262
11
120.9966703
21
48.3254262
0
LINE
8
DEFAULT_255_2_778
10
120.9966703
20
49.9701262
11
120.9966703
21
49.7055262
0
LINE
8
DEFAULT_255_2_778
10
120.9966703
20
50.5821262
11
120.9966703
21
50.3175262
0
LINE
8
DEFAULT_255_2_778
10
120.9966703
20
51.9621262
11
120.9966703
21
51.6976262
0
LINE
8
DEFAULT_255_2_778
10
120.9966703
20
52.5741262
11
120.9966703
21
52.3095262
0
LINE
8
DEFAULT_255_2_778
10
120.9966703
20
54.5664262
11
120.9966703
21
53.6899262
0
LINE
8
DEFAULT_255_2_778
10
120.9966703
20
55.9468262
11
120.9966703
21
55.6822262
0
LINE
8
DEFAULT_255_2_778
10
120.9966703
20
56.5587262
11
120.9966703
21
56.2942262
0
LINE
8
DEFAULT_255_2_778
10
120.9966703
20
57.9388262
11
120.9966703
21
57.6742262
0
LINE
8
DEFAULT_255_2_778
10
118.5693703
20
41.9998262
11
118.5693703
21
41.7352262
0
LINE
8
DEFAULT_255_2_778
10
118.5693703
20
42.6118262
11
118.5693703
21
42.3472262
0
LINE
8
DEFAULT_255_2_778
10
118.5693703
20
43.9918262
11
118.5693703
21
43.7272262
0
LINE
8
DEFAULT_255_2_778
10
118.5693703
20
44.6038262
11
118.5693703
21
44.3392262
0
LINE
8
DEFAULT_255_2_778
10
118.5693703
20
45.9839262
11
118.5693703
21
45.7193262
0
LINE
8
DEFAULT_255_2_778
10
118.5693703
20
46.5959262
11
118.5693703
21
46.3313262
0
LINE
8
DEFAULT_255_2_778
10
118.5693703
20
47.9759262
11
118.5693703
21
47.7113262
0
LINE
8
DEFAULT_255_2_778
10
118.5693703
20
48.5879262
11
118.5693703
21
48.3233262
0
LINE
8
DEFAULT_255_2_778
10
118.5693703
20
49.9680262
11
118.5693703
21
49.7034262
0
LINE
8
DEFAULT_255_2_778
10
118.5693703
20
50.5800262
11
118.5693703
21
50.3154262
0
LINE
8
DEFAULT_255_2_778
10
118.5693703
20
51.9600262
11
118.5693703
21
51.6954262
0
LINE
8
DEFAULT_255_2_778
10
118.5693703
20
52.5720262
11
118.5693703
21
52.3074262
0
LINE
8
DEFAULT_255_2_778
10
118.5693703
20
54.5643262
11
118.5693703
21
53.6877262
0
LINE
8
DEFAULT_255_2_778
10
118.5693703
20
55.9447262
11
118.5693703
21
55.6801262
0
LINE
8
DEFAULT_255_2_778
10
118.5693703
20
56.5566262
11
118.5693703
21
56.2920262
0
LINE
8
DEFAULT_255_2_778
10
118.5693703
20
57.9367262
11
118.5693703
21
57.6721262
0
LINE
8
DEFAULT_255_2_778
10
120.2576703
20
56.2918262
11
120.2576703
21
56.5564262
0
LINE
8
DEFAULT_255_2_778
10
120.2576703
20
55.6798262
11
120.2576703
21
55.9444262
0
LINE
8
DEFAULT_255_2_778
10
120.2576703
20
54.2997262
11
120.2576703
21
54.5643262
0
LINE
8
DEFAULT_255_2_778
10
120.2576703
20
53.6877262
11
120.2576703
21
53.9523262
0
LINE
8
DEFAULT_255_2_778
10
120.2576703
20
52.3077262
11
120.2576703
21
52.5723262
0
LINE
8
DEFAULT_255_2_778
10
120.2576703
20
51.6957262
11
120.2576703
21
51.9603262
0
LINE
8
DEFAULT_255_2_778
10
120.2576703
20
50.3156262
11
120.2576703
21
50.5802262
0
LINE
8
DEFAULT_255_2_778
10
120.2576703
20
49.7037262
11
120.2576703
21
49.9682262
0
LINE
8
DEFAULT_255_2_778
10
120.2576703
20
48.3236262
11
120.2576703
21
48.5882262
0
LINE
8
DEFAULT_255_2_778
10
120.2576703
20
47.7116262
11
120.2576703
21
47.9762262
0
LINE
8
DEFAULT_255_2_778
10
120.2576703
20
46.3315262
11
120.2576703
21
46.5961262
0
LINE
8
DEFAULT_255_2_778
10
120.2576703
20
45.7196262
11
120.2576703
21
45.9841262
0
LINE
8
DEFAULT_255_2_778
10
120.2576703
20
44.3395262
11
120.2576703
21
44.6041262
0
LINE
8
DEFAULT_255_2_778
10
120.2576703
20
43.7275262
11
120.2576703
21
43.9921262
0
LINE
8
DEFAULT_255_2_778
10
120.2576703
20
42.3474262
11
120.2576703
21
42.6120262
0
LINE
8
DEFAULT_255_2_778
10
120.2576703
20
41.7355262
11
120.2576703
21
42.0000262
0
LINE
8
DEFAULT_255_2_778
10
120.2576703
20
40.3554262
11
120.2576703
21
40.6200262
0
LINE
8
DEFAULT_255_2_778
10
122.4637703
20
35.0852262
11
122.4637703
21
32.8523262
0
LINE
8
DEFAULT_255_2_778
10
122.2097703
20
32.5989262
11
118.7177703
21
32.5989262
0
LINE
8
DEFAULT_255_2_778
10
118.4637703
20
32.8521262
11
118.4637703
21
35.0849262
0
LINE
8
DEFAULT_255_2_778
10
118.7177703
20
35.3384262
11
122.2092703
21
35.3384262
0
LINE
8
DEFAULT_255_2_778
10
123.9438703
20
30.9103262
11
117.3059703
21
30.9103262
0
LINE
8
DEFAULT_255_2_778
10
124.2200703
20
31.1855262
11
124.3166703
21
31.1855262
0
LINE
8
DEFAULT_255_2_778
10
124.3166703
20
31.1855262
11
124.3166703
21
31.6916262
0
LINE
8
DEFAULT_255_2_778
10
124.3166703
20
31.6916262
11
124.2200703
21
31.6916262
0
LINE
8
DEFAULT_255_2_778
10
117.0294703
20
31.1855262
11
117.0294703
21
31.6916262
0
LINE
8
DEFAULT_255_2_778
10
117.0294703
20
31.6916262
11
116.9299703
21
31.6916262
0
LINE
8
DEFAULT_255_2_778
10
116.9299703
20
31.6916262
11
116.9299703
21
31.1855262
0
LINE
8
DEFAULT_255_2_778
10
116.9299703
20
31.1855262
11
117.0294703
21
31.1855262
0
LINE
8
DEFAULT_255_2_778
10
117.3056703
20
30.9100262
11
117.3056703
21
30.8074262
0
LINE
8
DEFAULT_255_2_778
10
117.3056703
20
30.8074262
11
123.9435703
21
30.8103262
0
LINE
8
DEFAULT_255_2_778
10
123.9435703
20
30.8103262
11
123.9435703
21
30.9100262
0
LINE
8
DEFAULT_255_2_778
10
124.2197703
20
31.1860262
11
124.2197703
21
31.6914262
0
LINE
8
DEFAULT_255_2_778
10
123.9430703
20
31.9665262
11
117.3056703
21
31.9665262
0
LINE
8
DEFAULT_255_2_778
10
117.3056703
20
31.9665262
11
117.3056703
21
32.0692262
0
LINE
8
DEFAULT_255_2_778
10
117.3056703
20
32.0692262
11
123.4437703
21
32.0708262
0
LINE
8
DEFAULT_255_2_778
10
123.4437703
20
32.0708262
11
123.9438703
21
32.0660262
0
LINE
8
DEFAULT_255_2_778
10
123.9438703
20
32.0660262
11
123.9438703
21
31.9663262
0
LINE
8
DEFAULT_255_2_778
10
118.7177703
20
27.5384262
11
122.2097703
21
27.5384262
0
LINE
8
DEFAULT_255_2_778
10
122.4637703
20
27.7919262
11
122.4637703
21
30.0247262
0
LINE
8
DEFAULT_255_2_778
10
122.2092703
20
30.2779262
11
118.7177703
21
30.2779262
0
LINE
8
DEFAULT_255_2_778
10
118.4637703
20
30.0245262
11
118.4637703
21
27.7917262
0
LINE
8
DEFAULT_255_2_778
10
118.7182703
20
27.5384262
11
118.7177703
21
27.5384262
0
ARC
8
DEFAULT_255_2_778
10
117.2069807
20
39.0579321
40
0.1774924
50
179.9695893
51
180.0912363
0
ARC
8
DEFAULT_255_2_778
10
117.3044631
20
39.0580509
40
0.2749748
50
134.9522636
51
180.0051266
0
ARC
8
DEFAULT_255_2_778
10
117.3066677
20
39.0548596
40
0.2787918
50
90.2012219
51
134.8095151
0
ARC
8
DEFAULT_255_2_778
10
123.9430956
20
39.0562665
40
0.277383
50
45.2176303
51
90.0221037
0
ARC
8
DEFAULT_255_2_778
10
123.9444424
20
39.0577984
40
0.275347
50
0.1354773
51
45.1920031
0
ARC
8
DEFAULT_255_2_778
10
124.0430303
20
36.6549674
40
0.1767585
50
359.9695247
51
0.0914305
0
ARC
8
DEFAULT_255_2_778
10
123.944568
20
36.6549499
40
0.2752208
50
314.9735243
51
359.9840749
0
ARC
8
DEFAULT_255_2_778
10
123.9425363
20
36.6582173
40
0.2789696
50
270.2161205
51
314.7944208
0
ARC
8
DEFAULT_255_2_778
10
117.305614
20
36.6554976
40
0.2762481
50
224.9739917
51
270.0154633
0
ARC
8
DEFAULT_255_2_778
10
117.304289
20
36.6547759
40
0.2748009
50
179.9799443
51
225.0628101
0
ARC
8
DEFAULT_255_2_778
10
117.2074114
20
36.6549664
40
0.1779231
50
179.9088603
51
180.0303784
0
ARC
8
DEFAULT_255_2_778
10
123.9396533
20
36.6594993
40
0.3797702
50
270.5937238
51
292.3862985
0
ARC
8
DEFAULT_255_2_778
10
123.9420905
20
36.6532825
40
0.3730939
50
292.4038176
51
314.8007384
0
ARC
8
DEFAULT_255_2_778
10
123.941401
20
36.6552236
40
0.3749579
50
314.6664913
51
337.1714749
0
ARC
8
DEFAULT_255_2_778
10
123.9427928
20
36.6542094
40
0.3732819
50
337.2320677
51
357.1404769
0
ARC
8
DEFAULT_255_2_778
10
123.943221
20
36.6544733
40
0.3728676
50
357.096699
51
359.9963412
0
ARC
8
DEFAULT_255_2_778
10
123.938065
20
39.0574028
40
0.3780243
50
0.1131692
51
22.628519
0
ARC
8
DEFAULT_255_2_778
10
123.941401
20
39.0573754
40
0.3749579
50
22.828511
51
45.3334979
0
ARC
8
DEFAULT_255_2_778
10
123.9420895
20
39.0593165
40
0.3730944
50
45.1991502
51
67.5960378
0
ARC
8
DEFAULT_255_2_778
10
123.9396543
20
39.0530997
40
0.37977
50
67.6138478
51
89.4064344
0
ARC
8
DEFAULT_255_2_778
10
117.2961747
20
39.0579326
40
0.3664861
50
177.3295168
51
179.997359
0
ARC
8
DEFAULT_255_2_778
10
117.3066563
20
39.057144
40
0.3769933
50
156.9004926
51
177.28402
0
ARC
8
DEFAULT_255_2_778
10
117.306516
20
39.0576388
40
0.3766702
50
134.1843297
51
156.9613532
0
ARC
8
DEFAULT_255_2_778
10
117.3113781
20
39.0528729
40
0.3834766
50
112.0703887
51
134.208976
0
ARC
8
DEFAULT_255_2_778
10
117.3130348
20
39.0471972
40
0.3893593
50
90.3452554
51
111.9824837
0
ARC
8
DEFAULT_255_2_778
10
117.3149701
20
36.6723884
40
0.3976589
50
248.2459507
51
269.4263158
0
ARC
8
DEFAULT_255_2_778
10
117.3101118
20
36.656366
40
0.3809796
50
225.7543304
51
248.0314921
0
ARC
8
DEFAULT_255_2_778
10
117.3095059
20
36.6555674
40
0.3799847
50
203.1386683
51
225.7357679
0
ARC
8
DEFAULT_255_2_778
10
117.3111949
20
36.6547
40
0.3811997
50
182.7680045
51
202.9190218
0
ARC
8
DEFAULT_255_2_778
10
117.3107641
20
36.6548904
40
0.3807787
50
180.2318673
51
182.7997547
0
ARC
8
DEFAULT_255_2_778
10
121.445915
20
38.2591769
40
0.5281207
50
206.1346163
51
245.8312091
0
ARC
8
DEFAULT_255_2_778
10
121.4296573
20
37.3452024
40
0.4761707
50
114.8315465
51
164.0630074
0
ARC
8
DEFAULT_255_2_778
10
121.9196408
20
37.5833585
40
0.4141485
50
271.4870825
51
287.2551506
0
ARC
8
DEFAULT_255_2_778
10
121.9299899
20
37.5478469
40
0.3771659
50
287.3539543
51
305.776148
0
ARC
8
DEFAULT_255_2_778
10
121.965626
20
37.5055684
40
0.3220588
50
305.0298136
51
327.9467436
0
ARC
8
DEFAULT_255_2_778
10
121.9878874
20
37.4808516
40
0.2902174
50
329.7504266
51
356.2656343
0
ARC
8
DEFAULT_255_2_778
10
122.0339187
20
37.4558476
40
0.8864909
50
359.9981479
51
0.394382
0
ARC
8
DEFAULT_255_2_778
10
122.0352407
20
37.4556973
40
0.885169
50
351.9505693
51
0.0078686
0
ARC
8
DEFAULT_255_2_778
10
122.1141826
20
37.4370451
40
0.8044271
50
343.178374
51
352.4786727
0
ARC
8
DEFAULT_255_2_778
10
122.1966635
20
37.4186377
40
0.7201757
50
321.9895165
51
342.6811591
0
ARC
8
DEFAULT_255_2_778
10
122.1295605
20
37.473199
40
0.8066469
50
303.7567557
51
321.8711607
0
ARC
8
DEFAULT_255_2_778
10
122.0434898
20
37.6054026
40
0.9643902
50
289.1083698
51
303.6437657
0
ARC
8
DEFAULT_255_2_778
10
121.9733262
20
37.801786
40
1.172923
50
277.8482437
51
289.2065734
0
ARC
8
DEFAULT_255_2_778
10
121.9200514
20
38.2228866
40
1.597361
50
269.9715334
51
277.6787475
0
ARC
8
DEFAULT_255_2_778
10
121.919221
20
38.2549158
40
1.6293898
50
269.6929304
51
270.0012933
0
ARC
8
DEFAULT_255_2_778
10
121.8684922
20
37.9077922
40
1.2801843
50
254.5701559
51
263.4557329
0
ARC
8
DEFAULT_255_2_778
10
121.8044059
20
37.6759658
40
1.0396631
50
242.6704509
51
254.5755085
0
ARC
8
DEFAULT_255_2_778
10
121.6881393
20
37.4587812
40
0.7933495
50
226.0357563
51
242.9288476
0
ARC
8
DEFAULT_255_2_778
10
121.5737608
20
37.3414044
40
0.6294629
50
203.8137481
51
226.1124448
0
ARC
8
DEFAULT_255_2_778
10
121.5270016
20
37.3090215
40
0.5737102
50
194.6678372
51
202.7404664
0
ARC
8
DEFAULT_255_2_778
10
121.6607243
20
38.2670295
40
0.777148
50
144.6332057
51
152.4357324
0
ARC
8
DEFAULT_255_2_778
10
121.6619869
20
38.2377428
40
0.7977031
50
116.722126
51
135.3195481
0
ARC
8
DEFAULT_255_2_778
10
121.8057708
20
37.9731168
40
1.0987614
50
104.6926016
51
117.2141126
0
ARC
8
DEFAULT_255_2_778
10
121.8849795
20
37.6831743
40
1.3993165
50
95.7909951
51
104.8186978
0
ARC
8
DEFAULT_255_2_778
10
121.9731865
20
37.1830556
40
1.9022211
50
90.0000198
51
90.6626036
0
ARC
8
DEFAULT_255_2_778
10
121.9727014
20
37.1581618
40
1.927115
50
82.9361656
51
89.9855974
0
ARC
8
DEFAULT_255_2_778
10
122.0629912
20
37.9253109
40
1.154695
50
69.3402135
51
82.7011764
0
ARC
8
DEFAULT_255_2_778
10
122.1602719
20
38.1857379
40
0.8766934
50
51.0928136
51
69.2841003
0
ARC
8
DEFAULT_255_2_778
10
122.2121928
20
38.2601011
40
0.7862424
50
30.1033228
51
50.6335916
0
ARC
8
DEFAULT_255_2_778
10
122.1497846
20
38.2312009
40
0.8547514
50
10.8739896
51
29.681062
0
ARC
8
DEFAULT_255_2_778
10
121.7790761
20
38.1618764
40
1.2318832
50
3.773496
51
10.7877466
0
ARC
8
DEFAULT_255_2_778
10
121.7961363
20
38.1390856
40
0.5227961
50
357.6390808
51
358.8057137
0
ARC
8
DEFAULT_255_2_778
10
121.7940982
20
38.1391466
40
0.524835
50
358.8036882
51
359.9998888
0
ARC
8
DEFAULT_255_2_778
10
121.790402
20
38.1390368
40
0.5285311
50
0.0117957
51
12.6574521
0
ARC
8
DEFAULT_255_2_778
10
121.89083
20
38.1696885
40
0.423901
50
11.5894933
51
31.9566013
0
ARC
8
DEFAULT_255_2_778
10
121.9871258
20
38.2264056
40
0.3121929
50
32.478838
51
62.3119494
0
ARC
8
DEFAULT_255_2_778
10
121.9837322
20
38.1938063
40
0.3428513
50
64.3415661
51
86.9223418
0
ARC
8
DEFAULT_255_2_778
10
121.9709066
20
38.0876671
40
0.4495823
50
86.0163837
51
90.0150464
0
ARC
8
DEFAULT_255_2_778
10
121.9674197
20
38.143191
40
0.3940729
50
89.5101853
51
89.9999412
0
ARC
8
DEFAULT_255_2_778
10
121.9670478
20
38.1516221
40
0.3856419
50
89.9446813
51
105.0996548
0
ARC
8
DEFAULT_255_2_778
10
121.9402327
20
38.2520947
40
0.2816531
50
105.1573606
51
127.5986777
0
ARC
8
DEFAULT_255_2_778
10
121.9219453
20
38.2790926
40
0.2491128
50
128.0547832
51
154.2931461
0
ARC
8
DEFAULT_255_2_778
10
121.9326485
20
38.2804964
40
0.2582151
50
155.6040932
51
179.9813084
0
ARC
8
DEFAULT_255_2_778
10
121.9320799
20
38.2805825
40
0.2576466
50
180.0003965
51
181.1860441
0
ARC
8
DEFAULT_255_2_778
10
121.8935826
20
38.2671597
40
0.2186522
50
183.2799862
51
210.0860186
0
ARC
8
DEFAULT_255_2_778
10
121.8953528
20
38.27971
40
0.2266948
50
212.6071989
51
242.9299301
0
ARC
8
DEFAULT_255_2_778
10
121.9483799
20
38.3795059
40
0.3396945
50
242.6258329
51
260.9399819
0
ARC
8
DEFAULT_255_2_778
10
121.8754759
20
37.2630425
40
0.3081768
50
98.2248688
51
114.8659516
0
ARC
8
DEFAULT_255_2_778
10
121.8250469
20
37.3648588
40
0.1946164
50
114.0002417
51
143.8551012
0
ARC
8
DEFAULT_255_2_778
10
121.8186557
20
37.3824123
40
0.179404
50
147.1800574
51
176.4823001
0
ARC
8
DEFAULT_255_2_778
10
121.8485526
20
37.3771555
40
0.2095949
50
175.5493932
51
179.0174987
0
ARC
8
DEFAULT_255_2_778
10
121.8679402
20
37.377708
40
0.2289719
50
179.2389243
51
180.0037806
0
LINE
8
DEFAULT_255_2_778
10
121.6389682
20
37.3776929
11
121.6389683
21
37.3775263
0
ARC
8
DEFAULT_255_2_778
10
121.8304064
20
37.3742812
40
0.1914657
50
179.028861
51
211.461825
0
ARC
8
DEFAULT_255_2_778
10
121.8341991
20
37.3858418
40
0.2008892
50
213.7103255
51
244.6813817
0
ARC
8
DEFAULT_255_2_778
10
121.8870567
20
37.4893414
40
0.317071
50
244.0455487
51
261.6274959
0
ARC
8
DEFAULT_255_2_778
10
117.2074114
20
67.1156325
40
0.177923
50
179.9696216
51
180.0911397
0
ARC
8
DEFAULT_255_2_778
10
117.304289
20
67.115823
40
0.2748007
50
134.9371899
51
180.0200557
0
ARC
8
DEFAULT_255_2_778
10
117.306667
20
67.1125602
40
0.2787909
50
90.2010913
51
134.8095165
0
ARC
8
DEFAULT_255_2_778
10
123.9430604
20
67.1136363
40
0.2777131
50
45.2749933
51
90.0148269
0
ARC
8
DEFAULT_255_2_778
10
123.9440362
20
67.1154291
40
0.2757534
50
0.1496697
51
45.1569104
0
ARC
8
DEFAULT_255_2_778
10
124.0430303
20
66.6105674
40
0.1767585
50
359.9695247
51
0.0914305
0
ARC
8
DEFAULT_255_2_778
10
123.944568
20
66.6105499
40
0.2752208
50
314.9735243
51
359.9840749
0
ARC
8
DEFAULT_255_2_778
10
123.9425364
20
66.6138166
40
0.2789691
50
270.216094
51
314.7944962
0
ARC
8
DEFAULT_255_2_778
10
123.9409677
20
66.6107605
40
0.3756216
50
270.430294
51
359.8915454
0
ARC
8
DEFAULT_255_2_778
10
123.9409677
20
67.1154386
40
0.3756216
50
0.1084383
51
89.5697083
0
ARC
8
DEFAULT_255_2_778
10
117.2074114
20
66.6105664
40
0.177923
50
179.9088603
51
180.0303784
0
ARC
8
DEFAULT_255_2_778
10
117.304289
20
66.6103759
40
0.2748007
50
179.9799443
51
225.0628101
0
ARC
8
DEFAULT_255_2_778
10
117.3066671
20
66.6136389
40
0.2787911
50
225.1905083
51
269.7988999
0
ARC
8
DEFAULT_255_2_778
10
117.3087027
20
67.1152462
40
0.3787152
50
90.4560095
51
179.8633525
0
ARC
8
DEFAULT_255_2_778
10
117.3089844
20
66.6111325
40
0.3789974
50
180.1637299
51
269.5017415
0
ARC
8
DEFAULT_255_2_778
10
117.2074114
20
61.6464325
40
0.177923
50
179.9696216
51
180.0911397
0
ARC
8
DEFAULT_255_2_778
10
117.304289
20
61.646623
40
0.2748007
50
134.9371899
51
180.0200557
0
ARC
8
DEFAULT_255_2_778
10
117.3066679
20
61.6433585
40
0.2787928
50
90.2012662
51
134.809389
0
ARC
8
DEFAULT_255_2_778
10
123.9430603
20
61.6444359
40
0.2777136
50
45.275044
51
90.0148091
0
ARC
8
DEFAULT_255_2_778
10
123.9440358
20
61.646229
40
0.2757538
50
0.1496996
51
45.1568702
0
ARC
8
DEFAULT_255_2_778
10
124.0434588
20
59.2434678
40
0.17633
50
359.9694921
51
0.0915278
0
ARC
8
DEFAULT_255_2_778
10
123.9443942
20
59.2435219
40
0.2753946
50
314.9885065
51
359.9692015
0
ARC
8
DEFAULT_255_2_778
10
123.9428541
20
59.2462933
40
0.2784448
50
270.1511225
51
314.809472
0
ARC
8
DEFAULT_255_2_778
10
117.3056485
20
59.2444218
40
0.2765723
50
225.0311098
51
270.0082922
0
ARC
8
DEFAULT_255_2_778
10
117.3044631
20
59.243348
40
0.2749749
50
179.9948734
51
225.0477364
0
ARC
8
DEFAULT_255_2_778
10
117.2069807
20
59.2434668
40
0.1774924
50
179.9087637
51
180.0304107
0
ARC
8
DEFAULT_255_2_778
10
123.9395173
20
59.2500054
40
0.3816777
50
270.6111696
51
292.2904773
0
ARC
8
DEFAULT_255_2_778
10
123.9402572
20
59.2445404
40
0.376343
50
292.5018366
51
314.7029214
0
ARC
8
DEFAULT_255_2_778
10
123.941401
20
59.2437236
40
0.3749579
50
314.6664913
51
337.1714749
0
ARC
8
DEFAULT_255_2_778
10
123.9421296
20
59.2428627
40
0.3739528
50
337.2497394
51
357.4406072
0
ARC
8
DEFAULT_255_2_778
10
123.9440289
20
59.2429575
40
0.3720597
50
357.4129592
51
359.9987639
0
ARC
8
DEFAULT_255_2_778
10
123.9373084
20
61.6458508
40
0.3787812
50
0.1359399
51
22.6057108
0
ARC
8
DEFAULT_255_2_778
10
123.9404955
20
61.6453627
40
0.3760303
50
22.8610264
51
45.3009949
0
ARC
8
DEFAULT_255_2_778
10
123.9415098
20
61.6466116
40
0.3744292
50
45.276907
51
67.5842954
0
ARC
8
DEFAULT_255_2_778
10
123.9396539
20
61.6416002
40
0.3797697
50
67.6137601
51
89.4063701
0
ARC
8
DEFAULT_255_2_778
10
117.2961747
20
61.6464326
40
0.3664861
50
177.3295168
51
179.997359
0
ARC
8
DEFAULT_255_2_778
10
117.3066563
20
61.645644
40
0.3769933
50
156.9004926
51
177.28402
0
ARC
8
DEFAULT_255_2_778
10
117.3078268
20
61.6454609
40
0.3781419
50
134.2446059
51
156.9445526
0
ARC
8
DEFAULT_255_2_778
10
117.3101294
20
61.6429467
40
0.3815495
50
111.9854184
51
134.228887
0
ARC
8
DEFAULT_255_2_778
10
117.3130329
20
61.6357055
40
0.3893509
50
90.3449842
51
111.9826827
0
ARC
8
DEFAULT_255_2_778
10
117.3158156
20
59.2651726
40
0.4019521
50
248.3603482
51
269.3119182
0
ARC
8
DEFAULT_255_2_778
10
117.3104428
20
59.245034
40
0.3812593
50
225.7258286
51
247.9948079
0
ARC
8
DEFAULT_255_2_778
10
117.3090825
20
59.2439982
40
0.3795681
50
203.1541852
51
225.7637138
0
ARC
8
DEFAULT_255_2_778
10
117.311332
20
59.2432264
40
0.3813363
50
182.2942249
51
202.9146612
0
ARC
8
DEFAULT_255_2_778
10
117.3114562
20
59.2434821
40
0.3814708
50
180.2301937
51
182.3318413
0
ARC
8
DEFAULT_255_2_778
10
1.793046
20
91.595482
40
0.0785574
50
180.0237679
51
184.5207882
0
ARC
8
DEFAULT_255_2_778
10
1.8135161
20
91.5985431
40
0.0992156
50
185.3512862
51
210.7939724
0
ARC
8
DEFAULT_255_2_778
10
1.8733067
20
91.6365163
40
0.1700289
50
211.4711491
51
232.1546992
0
ARC
8
DEFAULT_255_2_778
10
1.8125114
20
95.7764198
40
0.0980637
50
149.1885734
51
178.346477
0
ARC
8
DEFAULT_255_2_778
10
1.873447
20
95.7386387
40
0.1697553
50
127.9771255
51
148.7712155
0
ARC
8
DEFAULT_255_2_778
10
2.2420795
20
95.7999168
40
1.1734962
50
333.1527175
51
340.9321188
0
ARC
8
DEFAULT_255_2_778
10
2.7751552
20
95.6316794
40
0.6141184
50
346.138302
51
351.9942397
0
ARC
8
DEFAULT_255_2_778
10
3.1873504
20
95.5983647
40
0.1993437
50
0.4267475
51
13.2485478
0
ARC
8
DEFAULT_255_2_778
10
3.2792369
20
95.6208873
40
0.1047447
50
12.7754027
51
32.4889071
0
ARC
8
DEFAULT_255_2_778
10
2.2420712
20
91.574279
40
1.173505
50
19.0678959
51
26.8472387
0
ARC
8
DEFAULT_255_2_778
10
2.7785429
20
91.7433115
40
0.6106396
50
7.9671524
51
13.8657056
0
ARC
8
DEFAULT_255_2_778
10
3.1873504
20
91.7757343
40
0.1993437
50
346.7514242
51
359.5732238
0
ARC
8
DEFAULT_255_2_778
10
3.279773
20
91.7531578
40
0.10421
50
327.4241188
51
347.1882913
0
ARC
8
DEFAULT_255_2_778
10
2.4724792
20
93.982331
40
2.0456345
50
90.0000061
51
90.2266106
0
ARC
8
DEFAULT_255_2_778
10
2.4719913
20
93.9637893
40
2.0641762
50
81.7975878
51
89.9864624
0
ARC
8
DEFAULT_255_2_778
10
5.0388498
20
91.7966234
40
0.5021399
50
63.0291979
51
89.9809505
0
ARC
8
DEFAULT_255_2_778
10
5.0390208
20
91.7987807
40
0.4999825
50
90.0004636
51
92.5814981
0
ARC
8
DEFAULT_255_2_778
10
5.0389995
20
91.7991977
40
0.499565
50
92.5812123
51
101.5484278
0
ARC
8
DEFAULT_255_2_778
10
5.0395105
20
91.799555
40
0.9973331
50
76.9040546
51
90.0126039
0
ARC
8
DEFAULT_255_2_778
10
5.0392666
20
91.8014237
40
0.9954642
50
89.9985941
51
90.4665365
0
ARC
8
DEFAULT_255_2_778
10
5.0394662
20
91.7890125
40
1.0078767
50
90.4721346
51
101.4732753
0
ARC
8
DEFAULT_255_2_778
10
5.964171
20
87.2468458
40
5.6432145
50
101.5011026
51
117.6401467
0
ARC
8
DEFAULT_255_2_778
10
5.9632435
20
87.2534187
40
5.1383506
50
101.4980952
51
120.6145323
0
ARC
8
DEFAULT_255_2_778
10
3.4981972
20
91.4183236
40
0.2986313
50
120.5315744
51
170.2397152
0
ARC
8
DEFAULT_255_2_778
10
4.2179007
20
91.7710056
40
0.9865961
50
160.2588515
51
168.3904454
0
ARC
8
DEFAULT_255_2_778
10
6.1178748
20
91.4506527
40
2.9150706
50
172.47812
51
177.9397743
0
ARC
8
DEFAULT_255_2_778
10
4.2025398
20
95.6001453
40
0.9711296
50
191.5833254
51
199.8462496
0
ARC
8
DEFAULT_255_2_778
10
5.9631106
20
100.1257904
40
5.6413043
50
242.3561188
51
262.8749394
0
ARC
8
DEFAULT_255_2_778
10
2.465147
20
91.5975699
40
0.7491269
50
269.9622211
51
350.1757894
0
ARC
8
DEFAULT_255_2_778
10
2.4647192
20
91.609613
40
0.7611698
50
265.1669422
51
269.9950144
0
ARC
8
DEFAULT_255_2_778
10
2.4627355
20
91.5973146
40
0.7487487
50
180.1274165
51
265.238911
0
ARC
8
DEFAULT_255_2_778
10
2.4627355
20
95.7781843
40
0.7487488
50
94.7610902
51
179.8725806
0
ARC
8
DEFAULT_255_2_778
10
2.4646722
20
95.7670005
40
0.7600553
50
90.0047971
51
94.8366036
0
ARC
8
DEFAULT_255_2_778
10
2.4649607
20
95.7777077
40
0.7493482
50
9.8384556
51
90.0269221
0
ARC
8
DEFAULT_255_2_778
10
3.4981464
20
95.956754
40
0.2992367
50
189.8139254
51
239.4146886
0
ARC
8
DEFAULT_255_2_778
10
5.9626721
20
100.1209784
40
5.1381054
50
239.3834795
51
262.1722817
0
ARC
8
DEFAULT_255_2_778
10
2.4696632
20
93.4386004
40
2.0921571
50
269.8610259
51
278.1646748
0
LINE
8
DEFAULT_255_2_778
10
124.2199886
20
36.6544495
11
124.3165886
21
36.6544495
0
LINE
8
DEFAULT_255_2_778
10
124.3165886
20
39.0581495
11
124.2199886
21
39.0581495
0
LINE
8
DEFAULT_255_2_778
10
117.0294886
20
36.6544495
11
117.0294886
21
39.0581495
0
LINE
8
DEFAULT_255_2_778
10
117.0294886
20
39.0581495
11
116.9299886
21
39.0581495
0
LINE
8
DEFAULT_255_2_778
10
116.9299886
20
39.0581495
11
116.9299886
21
36.6544495
0
LINE
8
DEFAULT_255_2_778
10
116.9299886
20
36.6544495
11
117.0294886
21
36.6544495
0
LINE
8
DEFAULT_255_2_778
10
117.3056886
20
39.3336495
11
123.9429886
21
39.3336495
0
LINE
8
DEFAULT_255_2_778
10
124.2197886
20
39.0584495
11
124.2197886
21
36.6552495
0
LINE
8
DEFAULT_255_2_778
10
123.9435886
20
36.3792495
11
117.3056886
21
36.3792495
0
LINE
8
DEFAULT_255_2_778
10
124.3160886
20
36.6544495
11
124.3160886
21
39.0581495
0
LINE
8
DEFAULT_255_2_778
10
123.9437886
20
36.3787495
11
123.9437886
21
36.2789495
0
LINE
8
DEFAULT_255_2_778
10
123.9437886
20
36.2789495
11
117.3059886
21
36.2760495
0
LINE
8
DEFAULT_255_2_778
10
117.3059886
20
36.2760495
11
117.3059886
21
36.3787495
0
LINE
8
DEFAULT_255_2_778
10
117.3059886
20
39.3328495
11
117.3059886
21
39.4354495
0
LINE
8
DEFAULT_255_2_778
10
117.3059886
20
39.4354495
11
123.4439886
21
39.4370495
0
LINE
8
DEFAULT_255_2_778
10
123.4439886
20
39.4370495
11
123.9440886
21
39.4322495
0
LINE
8
DEFAULT_255_2_778
10
123.9440886
20
39.4322495
11
123.9440886
21
39.3325495
0
LINE
8
DEFAULT_255_2_778
10
120.9717886
20
37.4759495
11
120.9717886
21
38.0265495
0
LINE
8
DEFAULT_255_2_778
10
122.2774886
20
37.4619495
11
122.9203886
21
37.4619495
0
LINE
8
DEFAULT_255_2_778
10
121.9104886
20
36.6255495
11
121.7225886
21
36.6359495
0
LINE
8
DEFAULT_255_2_778
10
120.9719886
20
37.1637495
11
120.9719886
21
36.6660495
0
LINE
8
DEFAULT_255_2_778
10
120.9719886
20
36.6660495
11
119.9514886
21
36.6660495
0
LINE
8
DEFAULT_255_2_778
10
119.9514886
20
36.6660495
11
119.6046886
21
38.0368495
0
LINE
8
DEFAULT_255_2_778
10
119.6046886
20
38.0368495
11
119.2577886
21
36.6660495
0
LINE
8
DEFAULT_255_2_778
10
119.2577886
20
36.6660495
11
118.2375886
21
36.6660495
0
LINE
8
DEFAULT_255_2_778
10
118.2375886
20
36.6660495
11
118.2375886
21
39.0446495
0
LINE
8
DEFAULT_255_2_778
10
118.2375886
20
39.0446495
11
118.9312886
21
39.0446495
0
LINE
8
DEFAULT_255_2_778
10
118.9312886
20
39.0446495
11
118.9312886
21
37.5733495
0
LINE
8
DEFAULT_255_2_778
10
118.9312886
20
37.5733495
11
119.2984886
21
39.0446495
0
LINE
8
DEFAULT_255_2_778
10
119.2984886
20
39.0446495
11
119.9107886
21
39.0446495
0
LINE
8
DEFAULT_255_2_778
10
119.9107886
20
39.0446495
11
120.2779886
21
37.5733495
0
LINE
8
DEFAULT_255_2_778
10
120.2779886
20
37.5733495
11
120.2779886
21
39.0446495
0
LINE
8
DEFAULT_255_2_778
10
120.2779886
20
39.0446495
11
120.9717886
21
39.0446495
0
LINE
8
DEFAULT_255_2_778
10
120.9717886
20
39.0446495
11
120.9717886
21
38.6266495
0
LINE
8
DEFAULT_255_2_778
10
121.0269886
20
38.7168495
11
121.0947886
21
38.7986495
0
LINE
8
DEFAULT_255_2_778
10
121.7437886
20
39.0753495
11
121.9511886
21
39.0851495
0
LINE
8
DEFAULT_255_2_778
10
123.0082886
20
38.2429495
11
123.0121886
21
38.1175495
0
LINE
8
DEFAULT_255_2_778
10
123.0121886
20
38.1175495
11
122.3184886
21
38.1175495
0
LINE
8
DEFAULT_255_2_778
10
121.6744886
20
38.2752495
11
121.6752886
21
38.2546495
0
LINE
8
DEFAULT_255_2_778
10
121.8948886
20
38.0440495
11
121.9916886
21
38.0368495
0
LINE
8
DEFAULT_255_2_778
10
121.9916886
20
38.0368495
11
122.1549886
21
38.0368495
0
LINE
8
DEFAULT_255_2_778
10
122.1549886
20
38.0368495
11
122.1549886
21
37.5733495
0
LINE
8
DEFAULT_255_2_778
10
122.1549886
20
37.5733495
11
121.9099886
21
37.5733495
0
LINE
8
DEFAULT_255_2_778
10
121.9099886
20
37.5733495
11
121.8313886
21
37.5680495
0
LINE
8
DEFAULT_255_2_778
10
121.8408886
20
37.1756495
11
121.9268886
21
37.1698495
0
LINE
8
DEFAULT_255_2_778
10
121.9268886
20
37.1698495
11
121.9303886
21
37.1693495
0
LINE
8
DEFAULT_255_2_778
10
117.3056886
20
67.3913495
11
123.9429886
21
67.3913495
0
LINE
8
DEFAULT_255_2_778
10
124.2197886
20
67.1161495
11
124.2197886
21
66.6108495
0
LINE
8
DEFAULT_255_2_778
10
117.0294886
20
66.6100495
11
117.0294886
21
67.1161495
0
LINE
8
DEFAULT_255_2_778
10
117.0294886
20
67.1161495
11
116.9299886
21
67.1161495
0
LINE
8
DEFAULT_255_2_778
10
116.9299886
20
67.1161495
11
116.9299886
21
66.6100495
0
LINE
8
DEFAULT_255_2_778
10
116.9299886
20
66.6100495
11
117.0294886
21
66.6100495
0
LINE
8
DEFAULT_255_2_778
10
124.2199886
20
66.6100495
11
124.3165886
21
66.6100495
0
LINE
8
DEFAULT_255_2_778
10
124.3165886
20
66.6100495
11
124.3165886
21
67.1161495
0
LINE
8
DEFAULT_255_2_778
10
124.3165886
20
67.1161495
11
124.2199886
21
67.1161495
0
LINE
8
DEFAULT_255_2_778
10
117.3056886
20
66.3348495
11
117.3056886
21
66.2321495
0
LINE
8
DEFAULT_255_2_778
10
117.3056886
20
66.2321495
11
123.9435886
21
66.2351495
0
LINE
8
DEFAULT_255_2_778
10
123.9435886
20
66.2351495
11
123.9435886
21
66.3348495
0
LINE
8
DEFAULT_255_2_778
10
123.9435886
20
66.3348495
11
117.3056886
21
66.3348495
0
LINE
8
DEFAULT_255_2_778
10
117.3056886
20
67.3913495
11
117.3056886
21
67.4939495
0
LINE
8
DEFAULT_255_2_778
10
117.3056886
20
67.4939495
11
123.4437886
21
67.4955495
0
LINE
8
DEFAULT_255_2_778
10
123.4437886
20
67.4955495
11
123.9437886
21
67.4908495
0
LINE
8
DEFAULT_255_2_778
10
123.9437886
20
67.4908495
11
123.9437886
21
67.3910495
0
LINE
8
DEFAULT_255_2_778
10
124.2199886
20
59.2429495
11
124.3165886
21
59.2429495
0
LINE
8
DEFAULT_255_2_778
10
124.3165886
20
61.6467495
11
124.2199886
21
61.6467495
0
LINE
8
DEFAULT_255_2_778
10
117.0294886
20
59.2429495
11
117.0294886
21
61.6467495
0
LINE
8
DEFAULT_255_2_778
10
117.0294886
20
61.6467495
11
116.9299886
21
61.6467495
0
LINE
8
DEFAULT_255_2_778
10
116.9299886
20
61.6467495
11
116.9299886
21
59.2429495
0
LINE
8
DEFAULT_255_2_778
10
116.9299886
20
59.2429495
11
117.0294886
21
59.2429495
0
LINE
8
DEFAULT_255_2_778
10
117.3056886
20
61.9221495
11
123.9429886
21
61.9221495
0
LINE
8
DEFAULT_255_2_778
10
124.2197886
20
61.6469495
11
124.2197886
21
59.2437495
0
LINE
8
DEFAULT_255_2_778
10
123.9435886
20
58.9678495
11
117.3056886
21
58.9678495
0
LINE
8
DEFAULT_255_2_778
10
124.3160886
20
59.2429495
11
124.3160886
21
61.6467495
0
LINE
8
DEFAULT_255_2_778
10
123.9437886
20
58.9672495
11
123.9437886
21
58.8675495
0
LINE
8
DEFAULT_255_2_778
10
123.9437886
20
58.8675495
11
117.3059886
21
58.8646495
0
LINE
8
DEFAULT_255_2_778
10
117.3059886
20
58.8646495
11
117.3059886
21
58.9672495
0
LINE
8
DEFAULT_255_2_778
10
117.3059886
20
61.9213495
11
117.3059886
21
62.0240495
0
LINE
8
DEFAULT_255_2_778
10
117.3059886
20
62.0240495
11
123.4439886
21
62.0255495
0
LINE
8
DEFAULT_255_2_778
10
123.4439886
20
62.0255495
11
123.9440886
21
62.0208495
0
LINE
8
DEFAULT_255_2_778
10
123.9440886
20
62.0208495
11
123.9440886
21
61.9210495
0
LINE
8
DEFAULT_255_2_778
10
1.7689886
20
91.5022495
11
1.8359886
21
91.4596495
0
LINE
8
DEFAULT_255_2_778
10
1.8359886
20
91.4596495
11
1.9272886
21
91.4215495
0
LINE
8
DEFAULT_255_2_778
10
1.9272886
20
91.4215495
11
2.0401886
21
91.3895495
0
LINE
8
DEFAULT_255_2_778
10
2.0401886
20
91.3895495
11
2.1708886
21
91.3657495
0
LINE
8
DEFAULT_255_2_778
10
2.1708886
20
91.3657495
11
2.3145886
21
91.3514495
0
LINE
8
DEFAULT_255_2_778
10
2.3145886
20
91.3514495
11
2.4645886
21
91.3464495
0
LINE
8
DEFAULT_255_2_778
10
1.7689886
20
95.8724495
11
1.8359886
21
95.9150495
0
LINE
8
DEFAULT_255_2_778
10
1.8359886
20
95.9150495
11
1.9272886
21
95.9528495
0
LINE
8
DEFAULT_255_2_778
10
1.9272886
20
95.9528495
11
2.0401886
21
95.9843495
0
LINE
8
DEFAULT_255_2_778
10
2.0401886
20
95.9843495
11
2.1708886
21
96.0081495
0
LINE
8
DEFAULT_255_2_778
10
2.1708886
20
96.0081495
11
2.3142886
21
96.0229495
0
LINE
8
DEFAULT_255_2_778
10
2.3142886
20
96.0229495
11
2.4643886
21
96.0279495
0
LINE
8
DEFAULT_255_2_778
10
3.3511886
20
95.4165495
11
3.3713886
21
95.4845495
0
LINE
8
DEFAULT_255_2_778
10
3.3832886
20
95.5461495
11
3.3866886
21
95.5998495
0
LINE
8
DEFAULT_255_2_778
10
3.3675886
20
95.6771495
11
3.3458886
21
95.6985495
0
LINE
8
DEFAULT_255_2_778
10
3.3456886
20
92.2462495
11
3.2890886
21
92.1042495
0
LINE
8
DEFAULT_255_2_778
10
3.3511886
20
91.9576495
11
3.3713886
21
91.8896495
0
LINE
8
DEFAULT_255_2_778
10
3.3832886
20
91.8279495
11
3.3866886
21
91.7742495
0
LINE
8
DEFAULT_255_2_778
10
3.3675886
20
91.6970495
11
3.3458886
21
91.6755495
0
LINE
8
DEFAULT_255_2_778
10
3.0146886
20
96.2867495
11
3.0143886
21
96.2856495
0
LINE
8
DEFAULT_255_2_778
10
3.0143886
20
96.2856495
11
3.0143886
21
96.2814495
0
LINE
8
DEFAULT_255_2_778
10
3.0143886
20
96.2814495
11
3.0143886
21
96.2740495
0
LINE
8
DEFAULT_255_2_778
10
3.0143886
20
96.2740495
11
3.0143886
21
96.2634495
0
LINE
8
DEFAULT_255_2_778
10
3.0143886
20
96.2634495
11
3.0143886
21
96.2497495
0
LINE
8
DEFAULT_255_2_778
10
3.0143886
20
96.2497495
11
3.0146886
21
96.2327495
0
LINE
8
DEFAULT_255_2_778
10
3.0146886
20
96.2327495
11
3.0146886
21
96.1904495
0
LINE
8
DEFAULT_255_2_778
10
3.0146886
20
96.1904495
11
3.0146886
21
96.1385495
0
LINE
8
DEFAULT_255_2_778
10
3.0146886
20
96.1385495
11
3.0143886
21
96.0793495
0
LINE
8
DEFAULT_255_2_778
10
3.0143886
20
96.0793495
11
3.0141886
21
96.0150495
0
LINE
8
DEFAULT_255_2_778
10
3.0141886
20
96.0150495
11
3.0146886
21
95.9483495
0
LINE
8
DEFAULT_255_2_778
10
2.4643886
20
96.5261495
11
2.4643886
21
96.0279495
0
LINE
8
DEFAULT_255_2_778
10
2.7664886
20
96.0068495
11
2.9000886
21
95.9816495
0
LINE
8
DEFAULT_255_2_778
10
2.9000886
20
95.9816495
11
3.0143886
21
95.9483495
0
LINE
8
DEFAULT_255_2_778
10
3.0143886
20
95.9483495
11
3.1030886
21
95.9097495
0
LINE
8
DEFAULT_255_2_778
10
3.1030886
20
95.9097495
11
3.1667886
21
95.8663495
0
LINE
8
DEFAULT_255_2_778
10
3.1667886
20
95.8663495
11
3.1789886
21
95.8546495
0
LINE
8
DEFAULT_255_2_778
10
3.1789886
20
95.8546495
11
3.2046886
21
95.8189495
0
LINE
8
DEFAULT_255_2_778
10
3.2046886
20
95.8189495
11
3.2069886
21
95.8406495
0
LINE
8
DEFAULT_255_2_778
10
3.2069886
20
95.8406495
11
3.2038886
21
95.9049495
0
LINE
8
DEFAULT_255_2_778
10
4.8389886
20
92.7767495
11
4.9389886
21
92.2886495
0
LINE
8
DEFAULT_255_2_778
10
3.2038886
20
91.4689495
11
3.2077886
21
91.5335495
0
LINE
8
DEFAULT_255_2_778
10
3.2077886
20
91.5335495
11
3.2054886
21
91.5552495
0
LINE
8
DEFAULT_255_2_778
10
3.2054886
20
91.5552495
11
3.1985886
21
91.5432495
0
LINE
8
DEFAULT_255_2_778
10
3.1985886
20
91.5432495
11
3.1675886
21
91.5078495
0
LINE
8
DEFAULT_255_2_778
10
3.1675886
20
91.5078495
11
3.1038886
21
91.4644495
0
LINE
8
DEFAULT_255_2_778
10
3.1038886
20
91.4644495
11
3.0151886
21
91.4255495
0
LINE
8
DEFAULT_255_2_778
10
3.0151886
20
91.4255495
11
3.0149886
21
91.3588495
0
LINE
8
DEFAULT_255_2_778
10
3.0149886
20
91.3588495
11
3.0151886
21
91.2945495
0
LINE
8
DEFAULT_255_2_778
10
3.0151886
20
91.2945495
11
3.0154886
21
91.2353495
0
LINE
8
DEFAULT_255_2_778
10
3.0154886
20
91.2353495
11
3.0156886
21
91.1834495
0
LINE
8
DEFAULT_255_2_778
10
3.0156886
20
91.1834495
11
3.0154886
21
91.1413495
0
LINE
8
DEFAULT_255_2_778
10
3.0154886
20
91.1413495
11
3.0151886
21
91.1244495
0
LINE
8
DEFAULT_255_2_778
10
3.0151886
20
91.1244495
11
3.0151886
21
91.1107495
0
LINE
8
DEFAULT_255_2_778
10
3.0151886
20
91.1107495
11
3.0149886
21
91.1001495
0
LINE
8
DEFAULT_255_2_778
10
3.0149886
20
91.1001495
11
3.0149886
21
91.0927495
0
LINE
8
DEFAULT_255_2_778
10
3.0149886
20
91.0927495
11
3.0149886
21
91.0884495
0
LINE
8
DEFAULT_255_2_778
10
3.0149886
20
91.0884495
11
3.0151886
21
91.0874495
0
LINE
8
DEFAULT_255_2_778
10
3.2514886
20
91.9695495
11
3.2278886
21
91.8322495
0
LINE
8
DEFAULT_255_2_778
10
3.2046886
20
91.5554495
11
3.2046886
21
95.8192495
0
LINE
8
DEFAULT_255_2_778
10
3.2046886
20
95.8192495
11
3.2276886
21
95.5424495
0
LINE
8
DEFAULT_255_2_778
10
3.2276886
20
95.5424495
11
3.2511886
21
95.4051495
0
LINE
8
DEFAULT_255_2_778
10
3.2890886
20
95.2704495
11
3.3456886
21
95.1284495
0
LINE
8
DEFAULT_255_2_778
10
3.5782886
20
95.5691495
11
3.3456886
21
95.1284495
0
LINE
8
DEFAULT_255_2_778
10
3.3456886
20
95.1284495
11
3.3456886
21
92.2465495
0
LINE
8
DEFAULT_255_2_778
10
3.3456886
20
92.2465495
11
3.5782886
21
91.8057495
0
LINE
8
DEFAULT_255_2_778
10
1.7139886
20
91.5956495
11
1.7139886
21
95.7798495
0
LINE
8
DEFAULT_255_2_778
10
2.4645886
20
90.8482495
11
2.4645886
21
91.3464495
0
LINE
8
DEFAULT_255_2_778
10
2.7667886
20
91.3676495
11
2.9003886
21
91.3927495
0
LINE
8
DEFAULT_255_2_778
10
2.9003886
20
91.3927495
11
3.0146886
21
91.4260495
0
ARC
8
DEFAULT_255_2_778
10
131.2121532
20
62.3011277
40
2.0043286
50
127.3079104
51
127.3513724
0
ARC
8
DEFAULT_255_2_778
10
130.0444186
20
63.844641
40
0.0691987
50
99.3097487
51
132.8778879
0
ARC
8
DEFAULT_255_2_778
10
130.0027986
20
63.7136094
40
0.1386744
50
174.528447
51
179.9509084
0
ARC
8
DEFAULT_255_2_778
10
130.0233645
20
63.7113228
40
0.159365
50
163.2961661
51
174.4151297
0
ARC
8
DEFAULT_255_2_778
10
130.0562693
20
63.6913886
40
0.1968468
50
125.1559095
51
160.4904862
0
ARC
8
DEFAULT_255_2_778
10
130.6592695
20
68.0968334
40
1.0846092
50
127.6174058
51
127.6717902
0
ARC
8
DEFAULT_255_2_778
10
130.0449454
20
68.9053161
40
0.0695727
50
99.5319948
51
133.2906207
0
ARC
8
DEFAULT_255_2_778
10
130.0020037
20
68.7745811
40
0.1375794
50
176.3230457
51
179.9803873
0
ARC
8
DEFAULT_255_2_778
10
130.0200432
20
68.772953
40
0.1556869
50
163.1704923
51
176.1508556
0
ARC
8
DEFAULT_255_2_778
10
130.0567074
20
68.7523528
40
0.1969555
50
125.1827693
51
160.521522
0
ARC
8
DEFAULT_255_2_778
10
130.0380451
20
64.9953076
40
0.1742373
50
185.8982414
51
224.5253153
0
ARC
8
DEFAULT_255_2_778
10
129.9900122
20
64.9861644
40
0.125588
50
180.0165233
51
184.0005552
0
ARC
8
DEFAULT_255_2_778
10
130.8382753
20
65.8982868
40
1.3794081
50
232.4046193
51
232.4674341
0
ARC
8
DEFAULT_255_2_778
10
130.044757
20
64.8545463
40
0.0686108
50
226.9525904
51
260.7465756
0
ARC
8
DEFAULT_255_2_778
10
1.1925476
20
11.2284666
40
0.9385234
50
180.0084491
51
183.6978848
0
ARC
8
DEFAULT_255_2_778
10
1.237811
20
11.2328076
40
0.9839736
50
183.78014
51
210.2620729
0
ARC
8
DEFAULT_255_2_778
10
1.2483671
20
11.2455947
40
0.9995516
50
210.5902312
51
240.3259762
0
ARC
8
DEFAULT_255_2_778
10
1.2579906
20
11.1801743
40
0.9483508
50
237.8633271
51
267.6390884
0
ARC
8
DEFAULT_255_2_778
10
1.2492115
20
14.2948115
40
1.0005926
50
210.5960312
51
240.3042863
0
ARC
8
DEFAULT_255_2_778
10
1.2370529
20
14.2811899
40
0.983209
50
183.7631809
51
210.2733824
0
ARC
8
DEFAULT_255_2_778
10
1.1923433
20
14.2769569
40
0.9383189
50
180.0078582
51
183.6844431
0
ARC
8
DEFAULT_255_2_778
10
-39.8583093
20
35.185378
40
46.0679814
50
331.9436791
51
331.9537279
0
ARC
8
DEFAULT_255_2_778
10
1.3151948
20
13.2229583
40
0.5970492
50
150.407535
51
160.1768815
0
ARC
8
DEFAULT_255_2_778
10
121.9215737
20
5.6193053
40
0.4816771
50
270.0060133
51
272.7842333
0
ARC
8
DEFAULT_255_2_778
10
121.9194211
20
5.6459406
40
0.5083862
50
272.8807307
51
291.376375
0
ARC
8
DEFAULT_255_2_778
10
121.9205094
20
5.6400619
40
0.5025165
50
291.5051351
51
312.4257496
0
ARC
8
DEFAULT_255_2_778
10
121.9185218
20
5.6385437
40
0.5029115
50
315.2406294
51
359.6564479
0
ARC
8
DEFAULT_255_2_778
10
66.4137395
20
5.6506292
40
0.5309066
50
190.0778147
51
210.292984
0
ARC
8
DEFAULT_255_2_778
10
66.3875789
20
5.6398456
40
0.5028936
50
210.735594
51
233.7233231
0
ARC
8
DEFAULT_255_2_778
10
66.3889636
20
5.6433136
40
0.5065097
50
233.8291639
51
249.6139658
0
ARC
8
DEFAULT_255_2_778
10
66.3889816
20
5.6506625
40
0.5134108
50
249.8977672
51
266.0760539
0
ARC
8
DEFAULT_255_2_778
10
66.3870415
20
5.626717
40
0.4893888
50
266.1108138
51
269.9862674
0
ARC
8
DEFAULT_255_2_778
10
66.4849101
20
5.7327739
40
0.4891624
50
178.9862591
51
268.7482671
0
ARC
8
DEFAULT_255_2_778
10
121.8160904
20
5.7434676
40
0.5000395
50
270.026799
51
359.7319421
0
ARC
8
DEFAULT_255_2_778
10
5.3553031
20
98.3127689
40
0.2333153
50
65.5898638
51
87.3530095
0
ARC
8
DEFAULT_255_2_778
10
5.3660982
20
98.4110191
40
0.134816
50
90.008544
51
90.5839342
0
ARC
8
DEFAULT_255_2_778
10
5.1762281
20
99.0574684
40
0.2959904
50
344.9935474
51
353.7025775
0
ARC
8
DEFAULT_255_2_778
10
5.2845164
20
99.0441279
40
0.1868974
50
354.1262203
51
359.8737278
0
ARC
8
DEFAULT_255_2_778
10
5.3427867
20
99.0452242
40
0.1286354
50
359.3282238
51
17.4171805
0
ARC
8
DEFAULT_255_2_778
10
5.4106765
20
99.0731252
40
0.0548994
50
24.7717168
51
60.1227975
0
ARC
8
DEFAULT_255_2_778
10
2.9661069
20
98.9434611
40
2.3875173
50
359.9944105
51
7.9246128
0
ARC
8
DEFAULT_255_2_778
10
4.1491769
20
109.2902607
40
0.1994528
50
180.066782
51
269.1805066
0
ARC
8
DEFAULT_255_2_778
10
4.1834093
20
108.8313315
40
0.1999015
50
90.3969988
51
139.095089
0
ARC
8
DEFAULT_255_2_778
10
4.1824261
20
108.8321229
40
0.1986402
50
139.0819036
51
179.9837292
0
ARC
8
DEFAULT_255_2_778
10
4.1819521
20
108.83218
40
0.1981663
50
180.0001872
51
185.6730803
0
ARC
8
DEFAULT_255_2_778
10
4.1826036
20
108.8322501
40
0.1988215
50
185.6746318
51
188.0149278
0
ARC
8
DEFAULT_255_2_778
10
5.5290433
20
99.2984133
40
0.1997637
50
187.792472
51
266.0332804
0
ARC
8
DEFAULT_255_2_778
10
5.7342452
20
99.1819151
40
0.3720861
50
203.3855211
51
215.313979
0
ARC
8
DEFAULT_255_2_778
10
6.2092062
20
99.3726438
40
0.8838371
50
187.4968427
51
202.513037
0
ARC
8
DEFAULT_255_2_778
10
136.536697
20
34.6299132
40
0.1732862
50
185.1816062
51
224.605399
0
ARC
8
DEFAULT_255_2_778
10
136.4894468
20
34.6212537
40
0.1255227
50
180.0116129
51
183.1924662
0
ARC
8
DEFAULT_255_2_778
10
131.3968678
20
54.1259276
40
0.1999996
50
269.9302419
51
349.0473587
0
ARC
8
DEFAULT_255_2_778
10
132.193291
20
55.8133009
40
0.2007602
50
49.7061168
51
88.9630214
0
ARC
8
DEFAULT_255_2_778
10
134.7638011
20
53.6348378
40
0.1986232
50
0.0260941
51
49.7923316
0
ARC
8
DEFAULT_255_2_778
10
129.7157322
20
56.2080123
40
1.7902754
50
312.7478978
51
357.9165957
0
ARC
8
DEFAULT_255_2_778
10
129.7175399
20
56.2075095
40
1.7884507
50
357.9305878
51
359.9996602
0
ARC
8
DEFAULT_255_2_778
10
129.7168787
20
56.2069307
40
1.7891121
50
0.018196
51
43.1326427
0
ARC
8
DEFAULT_255_2_778
10
129.7160422
20
56.2074485
40
1.4899889
50
0.0200584
51
43.1479111
0
ARC
8
DEFAULT_255_2_778
10
129.7170784
20
56.2079689
40
1.4889526
50
357.8930714
51
0.0000466
0
ARC
8
DEFAULT_255_2_778
10
129.7135814
20
56.2079801
40
1.4924475
50
312.7378919
51
357.8975777
0
ARC
8
DEFAULT_255_2_778
10
134.6705225
20
88.7258713
40
0.0455018
50
353.2069992
51
359.9457621
0
ARC
8
DEFAULT_255_2_778
10
134.6649006
20
88.7266163
40
0.0511724
50
312.7316243
51
353.1232854
0
ARC
8
DEFAULT_255_2_778
10
134.6623179
20
88.7260053
40
0.2993067
50
312.2144392
51
359.9086649
0
ARC
8
DEFAULT_255_2_778
10
129.1554682
20
143.043801
40
0.8152014
50
320.0301403
51
329.0808933
0
ARC
8
DEFAULT_255_2_778
10
129.3128166
20
140.28095
40
0.7955077
50
0.020036
51
39.2645311
0
ARC
8
DEFAULT_255_2_778
10
129.3152413
20
140.2831265
40
0.7922529
50
39.2536457
51
53.0096645
0
ARC
8
DEFAULT_255_2_778
10
120.0606194
20
142.2860322
40
0.9987449
50
91.2791321
51
132.9196018
0
ARC
8
DEFAULT_255_2_778
10
120.0542256
20
142.2893094
40
0.9919941
50
132.7780603
51
179.26267
0
ARC
8
DEFAULT_255_2_778
10
120.0742778
20
142.2886232
40
1.0120536
50
179.2384356
51
179.9997153
0
ARC
8
DEFAULT_255_2_778
10
124.9218921
20
139.7508261
40
0.2004281
50
37.0649635
51
89.07599
0
ARC
8
DEFAULT_255_2_778
10
127.2627049
20
139.8947184
40
1.2926135
50
8.2244386
51
25.0404879
0
ARC
8
DEFAULT_255_2_778
10
127.4301895
20
139.9727903
40
1.1078264
50
25.0485279
51
34.8684495
0
ARC
8
DEFAULT_255_2_778
10
127.6248448
20
140.1108111
40
0.8692147
50
34.7393773
51
47.2629384
0
ARC
8
DEFAULT_255_2_778
10
127.8089213
20
140.3129323
40
0.595844
50
47.0738115
51
65.3614451
0
ARC
8
DEFAULT_255_2_778
10
127.8624663
20
140.4225546
40
0.473889
50
65.7204567
51
88.7354767
0
ARC
8
DEFAULT_255_2_778
10
120.053276
20
141.0313896
40
0.9912522
50
179.9457449
51
224.3637741
0
ARC
8
DEFAULT_255_2_778
10
120.0603553
20
141.0349092
40
0.9987774
50
224.2241632
51
267.9910498
0
ARC
8
DEFAULT_255_2_778
10
120.0624138
20
141.0583201
40
1.0222468
50
267.9217455
51
269.002866
0
ARC
8
DEFAULT_255_2_778
10
127.8623717
20
139.7006003
40
0.1996528
50
0.0941132
51
89.0952621
0
ARC
8
DEFAULT_255_2_778
10
130.330427
20
142.2826922
40
0.5983875
50
1.784693
51
85.1398992
0
ARC
8
DEFAULT_255_2_778
10
130.3325642
20
142.2835866
40
0.2989937
50
1.713734
51
85.1921292
0
ARC
8
DEFAULT_255_2_778
10
136.5376453
20
29.5700935
40
0.1738012
50
185.6157051
51
224.6140267
0
ARC
8
DEFAULT_255_2_778
10
136.4896863
20
29.5610559
40
0.1252619
50
180.0126721
51
183.647934
0
ARC
8
DEFAULT_255_2_778
10
136.5030986
20
33.3495094
40
0.1386744
50
174.528447
51
179.9509084
0
ARC
8
DEFAULT_255_2_778
10
136.5236645
20
33.3472228
40
0.159365
50
163.2961661
51
174.4151297
0
ARC
8
DEFAULT_255_2_778
10
136.5565693
20
33.3272886
40
0.1968468
50
125.1559095
51
160.4904862
0
ARC
8
DEFAULT_255_2_778
10
1.0040262
20
97.5389252
40
0.752517
50
89.0026786
51
90.0013098
0
ARC
8
DEFAULT_255_2_778
10
1.003818
20
97.5398112
40
0.7516311
50
89.9854417
51
134.4112064
0
ARC
8
DEFAULT_255_2_778
10
1.0002567
20
97.5438789
40
0.7462332
50
134.4344444
51
179.9950122
0
ARC
8
DEFAULT_255_2_778
10
1.0319317
20
97.5439439
40
0.7779083
50
180.0000008
51
180.0821747
0
ARC
8
DEFAULT_255_2_778
10
1.0319317
20
45.2711125
40
0.7779083
50
179.9178253
51
179.9999992
0
ARC
8
DEFAULT_255_2_778
10
1.0002567
20
45.2711775
40
0.7462333
50
180.0049878
51
225.5655556
0
ARC
8
DEFAULT_255_2_778
10
1.0036688
20
45.2748578
40
0.7512499
50
225.5762406
51
269.9998307
0
ARC
8
DEFAULT_255_2_778
10
1.0036718
20
45.2764464
40
0.7528385
50
269.9996061
51
271.0238728
0
ARC
8
DEFAULT_255_2_778
10
137.0638995
20
53.3365327
40
0.9175748
50
246.0103881
51
268.8962413
0
ARC
8
DEFAULT_255_2_778
10
136.9399717
20
53.0735073
40
0.6269157
50
218.0673249
51
246.5847405
0
ARC
8
DEFAULT_255_2_778
10
136.7558738
20
52.9273105
40
0.3918379
50
180.6791485
51
217.835357
0
ARC
8
DEFAULT_255_2_778
10
136.7296287
20
52.9226612
40
0.3655654
50
178.9550023
51
179.9992403
0
ARC
8
DEFAULT_255_2_778
10
38.6628637
20
70.8222459
40
0.2066747
50
184.8343753
51
187.7291629
0
ARC
8
DEFAULT_255_2_778
10
38.6150168
20
70.8156618
40
0.1583768
50
187.6968777
51
194.1188967
0
ARC
8
DEFAULT_255_2_778
10
38.5877991
20
70.8092381
40
0.130415
50
194.2988879
51
197.1267641
0
ARC
8
DEFAULT_255_2_778
10
38.5177723
20
70.7817003
40
0.055676
50
191.2561011
51
243.8381391
0
ARC
8
DEFAULT_255_2_778
10
134.0161328
20
136.3882722
40
2.3786251
50
2.9413502
51
3.5876128
0
ARC
8
DEFAULT_255_2_778
10
135.6588666
20
136.5116271
40
0.7316739
50
1.9962323
51
17.5396235
0
ARC
8
DEFAULT_255_2_778
10
135.8743877
20
136.555832
40
0.5133576
50
20.0852554
51
89.1141665
0
ARC
8
DEFAULT_255_2_778
10
136.9314505
20
29.9356554
40
0.7055566
50
231.9131579
51
232.0347002
0
ARC
8
DEFAULT_255_2_778
10
136.5439848
20
29.4290441
40
0.0680716
50
226.8192936
51
260.9046962
0
ARC
8
DEFAULT_255_2_778
10
137.3377753
20
35.5336868
40
1.3794081
50
232.4046193
51
232.4674341
0
ARC
8
DEFAULT_255_2_778
10
136.544257
20
34.4899463
40
0.0686108
50
226.9525904
51
260.7465756
0
ARC
8
DEFAULT_255_2_778
10
136.5432208
20
33.4822851
40
0.0669931
50
98.5815475
51
134.5484792
0
ARC
8
DEFAULT_255_2_778
10
1.2518221
20
130.9764725
40
0.9981784
50
91.8542291
51
133.9006139
0
ARC
8
DEFAULT_255_2_778
10
1.2454389
20
130.979722
40
0.9914137
50
133.7650245
51
179.9450168
0
ARC
8
DEFAULT_255_2_778
10
1.3817775
20
130.9788912
40
1.1277534
50
179.9094543
51
179.9930367
0
ARC
8
DEFAULT_255_2_778
10
130.036697
20
70.0547132
40
0.1732862
50
185.1816062
51
224.605399
0
ARC
8
DEFAULT_255_2_778
10
129.9894468
20
70.0460537
40
0.1255227
50
180.0116129
51
183.1924662
0
ARC
8
DEFAULT_255_2_778
10
1.2521572
20
99.8228076
40
0.9984227
50
225.7462568
51
268.1097594
0
ARC
8
DEFAULT_255_2_778
10
1.2460259
20
99.8198097
40
0.9919995
50
180.1414562
51
225.8790734
0
ARC
8
DEFAULT_255_2_778
10
1.2802256
20
99.8206904
40
1.0262015
50
180.0034725
51
180.1859117
0
ARC
8
DEFAULT_255_2_778
10
5.7630498
20
97.1815536
40
0.4986264
50
180.1063284
51
270.1054642
0
LINE
8
DEFAULT_255_2_778
10
5.7639676
20
96.6829279
11
5.7645243
21
96.6829282
0
ARC
8
DEFAULT_255_2_778
10
135.7758114
20
136.4630095
40
0.5000187
50
0.2771502
51
89.975608
0
ARC
8
DEFAULT_255_2_778
10
136.0672895
20
131.3717561
40
0.9967355
50
0.0673773
51
72.686111
0
ARC
8
DEFAULT_255_2_778
10
34.0369166
20
136.3882721
40
2.378626
50
176.4123872
51
177.0586498
0
ARC
8
DEFAULT_255_2_778
10
32.3908436
20
136.5118472
40
0.7283298
50
162.3953775
51
178.0119289
0
ARC
8
DEFAULT_255_2_778
10
32.1785978
20
136.5560636
40
0.513125
50
90.8791987
51
159.9327842
0
ARC
8
DEFAULT_255_2_778
10
1.2457528
20
42.9951448
40
0.9917288
50
134.4520862
51
180.0413972
0
ARC
8
DEFAULT_255_2_778
10
1.2523909
20
42.9918311
40
0.9987458
50
91.9907395
51
134.5907955
0
ARC
8
DEFAULT_255_2_778
10
1.2526018
20
43.0276163
40
0.9629906
50
91.9862875
51
92.0772425
0
ARC
8
DEFAULT_255_2_778
10
1.2226964
20
43.9825013
40
0.0082892
50
114.7637618
51
192.2663237
0
ARC
8
DEFAULT_255_2_778
10
1.044009
20
43.9993922
40
0.171604
50
353.2519892
51
353.7358031
0
ARC
8
DEFAULT_255_2_778
10
1.2456422
20
11.2281039
40
0.9916182
50
179.9581467
51
225.5505956
0
ARC
8
DEFAULT_255_2_778
10
1.2525647
20
11.2317348
40
0.9990608
50
225.4130092
51
267.9999123
0
ARC
8
DEFAULT_255_2_778
10
1.2528514
20
11.1955726
40
0.9629318
50
267.9077726
51
267.9987337
0
ARC
8
DEFAULT_255_2_778
10
137.0419019
20
88.902833
40
0.1104833
50
240.337172
51
266.7426958
0
ARC
8
DEFAULT_255_2_778
10
5.7634775
20
10.337281
40
0.4990539
50
180.0979124
51
270.1201764
0
ARC
8
DEFAULT_255_2_778
10
4.1488772
20
132.0235955
40
0.1994531
50
90.8195692
51
179.9331541
0
LINE
8
DEFAULT_255_2_778
10
129.9427243
20
63.8521282
11
129.9961243
21
63.8944282
0
LINE
8
DEFAULT_255_2_778
10
129.9429243
20
63.8523282
11
130.5642243
21
63.2446282
0
LINE
8
DEFAULT_255_2_778
10
129.9429243
20
68.9130282
11
129.9964243
21
68.9553282
0
LINE
8
DEFAULT_255_2_778
10
129.9432243
20
68.9133282
11
130.5645243
21
68.3055282
0
LINE
8
DEFAULT_255_2_778
10
129.9432243
20
64.8477282
11
129.9138243
21
64.8731282
0
LINE
8
DEFAULT_255_2_778
10
130.5645243
20
65.4554282
11
129.9432243
21
64.8477282
0
LINE
8
DEFAULT_255_2_778
10
129.9432243
20
64.8477282
11
129.9967243
21
64.8053282
0
LINE
8
DEFAULT_255_2_778
10
130.0490243
20
68.9752282
11
130.0448243
21
68.9744282
0
LINE
8
DEFAULT_255_2_778
10
130.0448243
20
68.9744282
11
130.0337243
21
68.9739282
0
LINE
8
DEFAULT_255_2_778
10
130.0337243
20
68.9739282
11
125.5305243
21
68.9739282
0
LINE
8
DEFAULT_255_2_778
10
125.5305243
20
68.9739282
11
125.0767243
21
68.5217282
0
LINE
8
DEFAULT_255_2_778
10
125.0767243
20
68.5217282
11
125.2180243
21
68.3809282
0
LINE
8
DEFAULT_255_2_778
10
125.2180243
20
68.3809282
11
125.0180243
21
68.3809282
0
LINE
8
DEFAULT_255_2_778
10
125.0180243
20
68.3809282
11
125.0180243
21
65.3798282
0
LINE
8
DEFAULT_255_2_778
10
125.0180243
20
65.3798282
11
125.2180243
21
65.3798282
0
LINE
8
DEFAULT_255_2_778
10
125.2180243
20
65.3798282
11
125.6133243
21
64.9861282
0
LINE
8
DEFAULT_255_2_778
10
125.6133243
20
64.9861282
11
129.8646243
21
64.9861282
0
LINE
8
DEFAULT_255_2_778
10
129.8646243
20
64.9861282
11
129.8646243
21
68.7746282
0
LINE
8
DEFAULT_255_2_778
10
129.8646243
20
68.7746282
11
125.6133243
21
68.7746282
0
LINE
8
DEFAULT_255_2_778
10
125.6133243
20
68.7746282
11
125.2180243
21
68.3809282
0
LINE
8
DEFAULT_255_2_778
10
125.2180243
20
68.3809282
11
125.2180243
21
65.3798282
0
LINE
8
DEFAULT_255_2_778
10
125.2180243
20
65.3798282
11
125.0767243
21
65.2390282
0
LINE
8
DEFAULT_255_2_778
10
125.0767243
20
65.2390282
11
125.5305243
21
64.7868282
0
LINE
8
DEFAULT_255_2_778
10
125.5305243
20
64.7868282
11
130.0337243
21
64.7868282
0
LINE
8
DEFAULT_255_2_778
10
130.0337243
20
64.7868282
11
130.0448243
21
64.7863282
0
LINE
8
DEFAULT_255_2_778
10
130.0448243
20
64.7863282
11
130.0490243
21
64.7855282
0
LINE
8
DEFAULT_255_2_778
10
130.0490243
20
64.7855282
11
130.5645243
21
65.2898282
0
LINE
8
DEFAULT_255_2_778
10
0.2540243
20
14.2768282
11
1.2192243
21
14.2768282
0
LINE
8
DEFAULT_255_2_778
10
1.2192243
20
14.2768282
11
1.0480243
21
13.9786282
0
LINE
8
DEFAULT_255_2_778
10
1.0480243
20
13.9786282
11
0.9022243
21
13.7172282
0
LINE
8
DEFAULT_255_2_778
10
0.9022243
20
13.7172282
11
0.7998243
21
13.5249282
0
LINE
8
DEFAULT_255_2_778
10
5.2885243
20
10.2189282
11
0.7535243
21
10.3766282
0
LINE
8
DEFAULT_255_2_778
10
0.7535243
20
10.3766282
11
0.7535243
21
13.4251282
0
LINE
8
DEFAULT_255_2_778
10
0.7535243
20
13.4251282
11
5.2591243
21
10.8219282
0
LINE
8
DEFAULT_255_2_778
10
32.8478243
20
96.6249282
11
36.3868243
21
71.4424282
0
LINE
8
DEFAULT_255_2_778
10
36.3868243
20
71.4424282
11
38.3162243
21
70.9275282
0
LINE
8
DEFAULT_255_2_778
10
38.3162243
20
70.9275282
11
34.6763243
21
96.8276282
0
LINE
8
DEFAULT_255_2_778
10
34.6763243
20
96.8276282
11
34.9837243
21
97.1798282
0
LINE
8
DEFAULT_255_2_778
10
34.9837243
20
97.1798282
11
38.6789243
21
70.8855282
0
LINE
8
DEFAULT_255_2_778
10
38.6789243
20
70.8855282
11
41.6351243
21
70.0454282
0
LINE
8
DEFAULT_255_2_778
10
41.6351243
20
70.0454282
11
41.6018243
21
69.8078282
0
LINE
8
DEFAULT_255_2_778
10
41.6018243
20
69.8078282
11
36.3937243
21
71.2876282
0
LINE
8
DEFAULT_255_2_778
10
36.3937243
20
71.2876282
11
32.9020243
21
96.1341282
0
LINE
8
DEFAULT_255_2_778
10
32.9020243
20
96.1341282
11
5.2644243
21
96.1341282
0
LINE
8
DEFAULT_255_2_778
10
41.6351243
20
70.0452282
11
115.3152243
21
70.0452282
0
LINE
8
DEFAULT_255_2_778
10
115.3152243
20
70.0452282
11
115.7105243
21
70.4389282
0
LINE
8
DEFAULT_255_2_778
10
115.7105243
20
70.4389282
11
115.7105243
21
72.3814282
0
LINE
8
DEFAULT_255_2_778
10
115.7105243
20
72.3814282
11
115.9105243
21
72.3814282
0
LINE
8
DEFAULT_255_2_778
10
115.9105243
20
72.3814282
11
115.9105243
21
70.4389282
0
LINE
8
DEFAULT_255_2_778
10
115.9105243
20
70.4389282
11
115.7105243
21
70.4389282
0
LINE
8
DEFAULT_255_2_778
10
115.7105243
20
70.4389282
11
115.8518243
21
70.2981282
0
LINE
8
DEFAULT_255_2_778
10
115.8518243
20
70.2981282
11
115.3980243
21
69.8459282
0
LINE
8
DEFAULT_255_2_778
10
115.3980243
20
69.8459282
11
41.6047243
21
69.8459282
0
LINE
8
DEFAULT_255_2_778
10
66.3464243
20
5.1376282
11
66.3459243
21
5.1370282
0
LINE
8
DEFAULT_255_2_778
10
66.3459243
20
5.1370282
11
121.9226243
21
5.1370282
0
LINE
8
DEFAULT_255_2_778
10
121.9226243
20
5.1370282
11
121.9221243
21
5.1376282
0
LINE
8
DEFAULT_255_2_778
10
121.9221243
20
5.1376282
11
66.3464243
21
5.1376282
0
LINE
8
DEFAULT_255_2_778
10
66.3464243
20
5.1376282
11
66.4522243
21
5.2431282
0
LINE
8
DEFAULT_255_2_778
10
66.4522243
20
5.2431282
11
121.8158243
21
5.2431282
0
LINE
8
DEFAULT_255_2_778
10
121.8158243
20
5.2431282
11
121.9216243
21
5.1376282
0
LINE
8
DEFAULT_255_2_778
10
122.2595243
20
5.2691282
11
122.2756243
21
5.2844282
0
LINE
8
DEFAULT_255_2_778
10
65.8860243
20
6.2388282
11
122.4235243
21
6.2388282
0
LINE
8
DEFAULT_255_2_778
10
65.8696243
20
6.1152282
11
65.8707243
21
5.9528282
0
LINE
8
DEFAULT_255_2_778
10
65.8707243
20
5.9528282
11
65.8730243
21
5.8220282
0
LINE
8
DEFAULT_255_2_778
10
65.8730243
20
5.8220282
11
65.8786243
21
5.6786282
0
LINE
8
DEFAULT_255_2_778
10
65.8786243
20
5.6786282
11
65.8910243
21
5.5577282
0
LINE
8
DEFAULT_255_2_778
10
66.9864243
20
8.8412282
11
66.4908243
21
8.3258282
0
LINE
8
DEFAULT_255_2_778
10
66.4908243
20
8.3258282
11
66.4908243
21
6.2390282
0
LINE
8
DEFAULT_255_2_778
10
66.4908243
20
6.2390282
11
66.4895243
21
5.8660282
0
LINE
8
DEFAULT_255_2_778
10
66.4895243
20
5.8660282
11
66.4879243
21
5.6966282
0
LINE
8
DEFAULT_255_2_778
10
66.4879243
20
5.6966282
11
66.4858243
21
5.5471282
0
LINE
8
DEFAULT_255_2_778
10
66.4858243
20
5.5471282
11
66.4834243
21
5.4233282
0
LINE
8
DEFAULT_255_2_778
10
66.4834243
20
5.4233282
11
66.4805243
21
5.3291282
0
LINE
8
DEFAULT_255_2_778
10
66.4805243
20
5.3291282
11
66.4773243
21
5.2685282
0
LINE
8
DEFAULT_255_2_778
10
66.4773243
20
5.2685282
11
66.4742243
21
5.2437282
0
LINE
8
DEFAULT_255_2_778
10
65.9958243
20
5.7414282
11
65.8945243
21
5.6358282
0
LINE
8
DEFAULT_255_2_778
10
65.8945243
20
5.6358282
11
65.8913243
21
5.6419282
0
LINE
8
DEFAULT_255_2_778
10
65.8913243
20
5.6419282
11
65.8881243
21
5.6670282
0
LINE
8
DEFAULT_255_2_778
10
65.8881243
20
5.6670282
11
65.8852243
21
5.7101282
0
LINE
8
DEFAULT_255_2_778
10
65.8852243
20
5.7101282
11
65.8826243
21
5.7694282
0
LINE
8
DEFAULT_255_2_778
10
65.8826243
20
5.7694282
11
65.8789243
21
5.9271282
0
LINE
8
DEFAULT_255_2_778
10
65.8789243
20
5.9271282
11
65.8773243
21
6.1163282
0
LINE
8
DEFAULT_255_2_778
10
65.8773243
20
6.1163282
11
65.8730243
21
9.8376282
0
LINE
8
DEFAULT_255_2_778
10
122.4317243
20
6.9434282
11
122.4312243
21
7.8451282
0
LINE
8
DEFAULT_255_2_778
10
122.4312243
20
7.8451282
11
121.4398243
21
8.8412282
0
LINE
8
DEFAULT_255_2_778
10
121.4398243
20
8.8412282
11
66.8782243
21
8.8412282
0
LINE
8
DEFAULT_255_2_778
10
66.8782243
20
8.8412282
11
65.8738243
21
7.8448282
0
LINE
8
DEFAULT_255_2_778
10
65.8738243
20
7.8448282
11
65.8738243
21
6.9434282
0
LINE
8
DEFAULT_255_2_778
10
121.2813243
20
8.8412282
11
121.7991243
21
8.3258282
0
LINE
8
DEFAULT_255_2_778
10
121.7991243
20
8.3258282
11
121.7991243
21
6.2390282
0
LINE
8
DEFAULT_255_2_778
10
121.7991243
20
6.2390282
11
121.8004243
21
5.8657282
0
LINE
8
DEFAULT_255_2_778
10
121.8004243
20
5.8657282
11
121.8020243
21
5.6964282
0
LINE
8
DEFAULT_255_2_778
10
121.8020243
20
5.6964282
11
121.8041243
21
5.5469282
0
LINE
8
DEFAULT_255_2_778
10
121.8041243
20
5.5469282
11
121.8068243
21
5.4231282
0
LINE
8
DEFAULT_255_2_778
10
121.8068243
20
5.4231282
11
121.8097243
21
5.3289282
0
LINE
8
DEFAULT_255_2_778
10
121.8097243
20
5.3289282
11
121.8128243
21
5.2683282
0
LINE
8
DEFAULT_255_2_778
10
121.8128243
20
5.2683282
11
121.8163243
21
5.2434282
0
LINE
8
DEFAULT_255_2_778
10
122.3161243
20
5.7411282
11
122.4219243
21
5.6355282
0
LINE
8
DEFAULT_255_2_778
10
122.4219243
20
5.6355282
11
122.4254243
21
5.6416282
0
LINE
8
DEFAULT_255_2_778
10
122.4254243
20
5.6416282
11
122.4288243
21
5.6665282
0
LINE
8
DEFAULT_255_2_778
10
122.4288243
20
5.6665282
11
122.4320243
21
5.7096282
0
LINE
8
DEFAULT_255_2_778
10
122.4320243
20
5.7096282
11
122.4346243
21
5.7689282
0
LINE
8
DEFAULT_255_2_778
10
122.4346243
20
5.7689282
11
122.4386243
21
5.9266282
0
LINE
8
DEFAULT_255_2_778
10
122.4386243
20
5.9266282
11
122.4402243
21
6.1157282
0
LINE
8
DEFAULT_255_2_778
10
122.4402243
20
6.1157282
11
122.4447243
21
9.8371282
0
LINE
8
DEFAULT_255_2_778
10
5.7645243
20
98.3500282
11
5.5515243
21
98.4773282
0
LINE
8
DEFAULT_255_2_778
10
5.5515243
20
98.4773282
11
5.4517243
21
98.5252282
0
LINE
8
DEFAULT_255_2_778
10
5.5274243
20
98.8993282
11
5.5301243
21
98.9477282
0
LINE
8
DEFAULT_255_2_778
10
5.5301243
20
98.9477282
11
5.5264243
21
99.0715282
0
LINE
8
DEFAULT_255_2_778
10
5.5409243
20
98.8985282
11
5.4904243
21
98.9130282
0
LINE
8
DEFAULT_255_2_778
10
5.4904243
20
98.9130282
11
5.4504243
21
98.9435282
0
LINE
8
DEFAULT_255_2_778
10
5.4504243
20
98.9435282
11
5.4621243
21
98.9808282
0
LINE
8
DEFAULT_255_2_778
10
5.4655243
20
99.0837282
11
5.4605243
21
99.0961282
0
LINE
8
DEFAULT_255_2_778
10
4.1817243
20
109.0318282
11
4.1801243
21
109.0254282
0
LINE
8
DEFAULT_255_2_778
10
4.1801243
20
109.0254282
11
4.1786243
21
109.0066282
0
LINE
8
DEFAULT_255_2_778
10
4.1786243
20
109.0066282
11
4.1775243
21
108.9767282
0
LINE
8
DEFAULT_255_2_778
10
4.1775243
20
108.9767282
11
4.1767243
21
108.9376282
0
LINE
8
DEFAULT_255_2_778
10
4.1767243
20
108.9376282
11
4.1765243
21
108.8323282
0
LINE
8
DEFAULT_255_2_778
10
4.1765243
20
108.8323282
11
4.0143243
21
108.8090282
0
LINE
8
DEFAULT_255_2_778
10
4.0143243
20
108.8090282
11
3.9928243
21
108.8058282
0
LINE
8
DEFAULT_255_2_778
10
3.9928243
20
108.8058282
11
3.9854243
21
108.8045282
0
LINE
8
DEFAULT_255_2_778
10
5.5467243
20
98.8980282
11
5.5491243
21
98.9329282
0
LINE
8
DEFAULT_255_2_778
10
5.5491243
20
98.9329282
11
5.5528243
21
98.9998282
0
LINE
8
DEFAULT_255_2_778
10
5.5528243
20
98.9998282
11
5.5544243
21
99.0401282
0
LINE
8
DEFAULT_255_2_778
10
5.5544243
20
99.0401282
11
5.5552243
21
99.0707282
0
LINE
8
DEFAULT_255_2_778
10
5.5552243
20
99.0707282
11
5.5549243
21
99.0901282
0
LINE
8
DEFAULT_255_2_778
10
5.5549243
20
99.0901282
11
5.5536243
21
99.0967282
0
LINE
8
DEFAULT_255_2_778
10
4.1849243
20
107.3919282
11
4.3759243
21
107.4191282
0
LINE
8
DEFAULT_255_2_778
10
4.3759243
20
107.4191282
11
6.2495243
21
107.4191282
0
LINE
8
DEFAULT_255_2_778
10
5.4512243
20
109.2675282
11
4.1476243
21
109.2903282
0
LINE
8
DEFAULT_255_2_778
10
4.1476243
20
109.2903282
11
4.1466243
21
109.2141282
0
LINE
8
DEFAULT_255_2_778
10
4.1466243
20
109.2141282
11
4.1463243
21
109.1797282
0
LINE
8
DEFAULT_255_2_778
10
4.1463243
20
109.1797282
11
4.1463243
21
109.1495282
0
LINE
8
DEFAULT_255_2_778
10
4.1463243
20
109.1495282
11
4.1463243
21
109.1246282
0
LINE
8
DEFAULT_255_2_778
10
4.1463243
20
109.1246282
11
4.1466243
21
109.1061282
0
LINE
8
DEFAULT_255_2_778
10
4.1466243
20
109.1061282
11
4.1468243
21
109.0995282
0
LINE
8
DEFAULT_255_2_778
10
4.1468243
20
109.0995282
11
4.1471243
21
109.0947282
0
LINE
8
DEFAULT_255_2_778
10
4.1471243
20
109.0947282
11
4.1473243
21
109.0918282
0
LINE
8
DEFAULT_255_2_778
10
4.1473243
20
109.0918282
11
4.1476243
21
109.0908282
0
LINE
8
DEFAULT_255_2_778
10
4.1463243
20
109.0908282
11
5.4499243
21
109.0680282
0
LINE
8
DEFAULT_255_2_778
10
6.2495243
20
109.0492282
11
4.1820243
21
109.0312282
0
LINE
8
DEFAULT_255_2_778
10
3.9857243
20
108.8045282
11
5.3311243
21
99.2713282
0
LINE
8
DEFAULT_255_2_778
10
5.5152243
20
99.0991282
11
7.4438243
21
98.9646282
0
LINE
8
DEFAULT_255_2_778
10
5.3311243
20
99.2700282
11
5.5221243
21
99.2967282
0
LINE
8
DEFAULT_255_2_778
10
5.5221243
20
99.2967282
11
5.5187243
21
99.2456282
0
LINE
8
DEFAULT_255_2_778
10
5.5187243
20
99.2456282
11
5.5134243
21
99.1255282
0
LINE
8
DEFAULT_255_2_778
10
5.5134243
20
99.1255282
11
5.5137243
21
99.1057282
0
LINE
8
DEFAULT_255_2_778
10
5.5137243
20
99.1057282
11
5.5150243
21
99.0988282
0
LINE
8
DEFAULT_255_2_778
10
7.3649243
20
99.1681282
11
5.5221243
21
99.2964282
0
LINE
8
DEFAULT_255_2_778
10
5.5221243
20
99.2964282
11
4.1765243
21
108.8317282
0
LINE
8
DEFAULT_255_2_778
10
4.1765243
20
108.8317282
11
6.2005243
21
108.8495282
0
LINE
8
DEFAULT_255_2_778
10
7.3933243
20
98.9681282
11
6.2005243
21
107.4186282
0
LINE
8
DEFAULT_255_2_778
10
6.2005243
20
107.4186282
11
6.2005243
21
109.0487282
0
LINE
8
DEFAULT_255_2_778
10
5.3536243
20
98.5445282
11
5.3536243
21
98.9429282
0
LINE
8
DEFAULT_255_2_778
10
5.3536243
20
98.9429282
11
5.4502243
21
98.9429282
0
LINE
8
DEFAULT_255_2_778
10
5.4502243
20
98.9429282
11
5.4306243
21
98.9668282
0
LINE
8
DEFAULT_255_2_778
10
5.5417243
20
98.5458282
11
5.5406243
21
98.8980282
0
LINE
8
DEFAULT_255_2_778
10
5.5406243
20
98.8980282
11
7.4716243
21
98.7636282
0
LINE
8
DEFAULT_255_2_778
10
136.4427243
20
34.4828282
11
136.4133243
21
34.5082282
0
LINE
8
DEFAULT_255_2_778
10
125.0709243
20
34.8463282
11
125.0326243
21
34.9387282
0
LINE
8
DEFAULT_255_2_778
10
125.0326243
20
34.9387282
11
125.0241243
21
34.9633282
0
LINE
8
DEFAULT_255_2_778
10
125.0241243
20
34.9633282
11
125.0191243
21
34.9889282
0
LINE
8
DEFAULT_255_2_778
10
125.0191243
20
34.9889282
11
125.0175243
21
35.0149282
0
LINE
8
DEFAULT_255_2_778
10
136.5536243
20
34.4148282
11
137.0536243
21
34.9130282
0
LINE
8
DEFAULT_255_2_778
10
125.0558243
20
34.7145282
11
124.7137243
21
34.7087282
0
LINE
8
DEFAULT_255_2_778
10
132.3229243
20
55.9662282
11
132.3210243
21
55.9632282
0
LINE
8
DEFAULT_255_2_778
10
132.3210243
20
55.9632282
11
132.3147243
21
55.9550282
0
LINE
8
DEFAULT_255_2_778
10
132.3147243
20
55.9550282
11
132.3041243
21
55.9418282
0
LINE
8
DEFAULT_255_2_778
10
132.3041243
20
55.9418282
11
132.2895243
21
55.9241282
0
LINE
8
DEFAULT_255_2_778
10
132.2895243
20
55.9241282
11
132.2702243
21
55.9008282
0
LINE
8
DEFAULT_255_2_778
10
132.2702243
20
55.9008282
11
132.1969243
21
55.8145282
0
LINE
8
DEFAULT_255_2_778
10
132.1969243
20
55.8145282
11
132.1980243
21
55.8907282
0
LINE
8
DEFAULT_255_2_778
10
132.1980243
20
55.8907282
11
132.1983243
21
55.9251282
0
LINE
8
DEFAULT_255_2_778
10
132.1983243
20
55.9251282
11
132.1983243
21
55.9553282
0
LINE
8
DEFAULT_255_2_778
10
132.1983243
20
55.9553282
11
132.1983243
21
55.9802282
0
LINE
8
DEFAULT_255_2_778
10
132.1983243
20
55.9802282
11
132.1980243
21
55.9987282
0
LINE
8
DEFAULT_255_2_778
10
132.1980243
20
55.9987282
11
132.1975243
21
56.0101282
0
LINE
8
DEFAULT_255_2_778
10
132.1975243
20
56.0101282
11
132.1969243
21
56.0140282
0
LINE
8
DEFAULT_255_2_778
10
134.7658243
20
53.4349282
11
134.7658243
21
53.6349282
0
LINE
8
DEFAULT_255_2_778
10
134.7658243
20
53.6349282
11
134.8147243
21
53.6926282
0
LINE
8
DEFAULT_255_2_778
10
134.8147243
20
53.6926282
11
134.8367243
21
53.7188282
0
LINE
8
DEFAULT_255_2_778
10
134.8367243
20
53.7188282
11
134.8557243
21
53.7418282
0
LINE
8
DEFAULT_255_2_778
10
134.8557243
20
53.7418282
11
134.8714243
21
53.7606282
0
LINE
8
DEFAULT_255_2_778
10
134.8714243
20
53.7606282
11
134.8827243
21
53.7746282
0
LINE
8
DEFAULT_255_2_778
10
134.8827243
20
53.7746282
11
134.8896243
21
53.7833282
0
LINE
8
DEFAULT_255_2_778
10
134.8896243
20
53.7833282
11
134.8917243
21
53.7865282
0
LINE
8
DEFAULT_255_2_778
10
130.5639243
20
53.9259282
11
131.3966243
21
53.9259282
0
LINE
8
DEFAULT_255_2_778
10
131.5932243
20
54.0879282
11
131.9623243
21
56.0180282
0
LINE
8
DEFAULT_255_2_778
10
131.9623243
20
56.0180282
11
132.1969243
21
56.0140282
0
LINE
8
DEFAULT_255_2_778
10
132.3231243
20
55.9664282
11
134.8920243
21
53.7865282
0
LINE
8
DEFAULT_255_2_778
10
134.9624243
20
53.4333282
11
134.9624243
21
53.6349282
0
LINE
8
DEFAULT_255_2_778
10
134.9624243
20
53.6349282
11
134.7658243
21
53.6349282
0
LINE
8
DEFAULT_255_2_778
10
134.7658243
20
53.6349282
11
132.1969243
21
55.8148282
0
LINE
8
DEFAULT_255_2_778
10
132.1969243
20
55.8148282
11
131.9244243
21
55.8196282
0
LINE
8
DEFAULT_255_2_778
10
130.9309243
20
54.8933282
11
130.7264243
21
55.1118282
0
LINE
8
DEFAULT_255_2_778
10
130.5724243
20
54.5602282
11
130.9309243
21
54.8933282
0
LINE
8
DEFAULT_255_2_778
10
130.7264243
20
55.1118282
11
130.5645243
21
54.9613282
0
LINE
8
DEFAULT_255_2_778
10
130.5645243
20
57.4812282
11
130.8031243
21
57.2261282
0
LINE
8
DEFAULT_255_2_778
10
130.8031243
20
57.2261282
11
131.0225243
21
57.4298282
0
LINE
8
DEFAULT_255_2_778
10
131.0225243
20
57.4298282
11
130.5642243
21
57.9193282
0
LINE
8
DEFAULT_255_2_778
10
134.8634243
20
88.5043282
11
134.8629243
21
88.5054282
0
LINE
8
DEFAULT_255_2_778
10
134.8629243
20
88.5054282
11
134.8608243
21
88.5081282
0
LINE
8
DEFAULT_255_2_778
10
134.8608243
20
88.5081282
11
134.8571243
21
88.5125282
0
LINE
8
DEFAULT_255_2_778
10
134.8571243
20
88.5125282
11
134.8518243
21
88.5189282
0
LINE
8
DEFAULT_255_2_778
10
134.8518243
20
88.5189282
11
134.8362243
21
88.5369282
0
LINE
8
DEFAULT_255_2_778
10
134.8362243
20
88.5369282
11
134.8145243
21
88.5615282
0
LINE
8
DEFAULT_255_2_778
10
134.8145243
20
88.5615282
11
134.7880243
21
88.5911282
0
LINE
8
DEFAULT_255_2_778
10
134.7880243
20
88.5911282
11
134.7589243
21
88.6237282
0
LINE
8
DEFAULT_255_2_778
10
134.7589243
20
88.6237282
11
134.6996243
21
88.6890282
0
LINE
8
DEFAULT_255_2_778
10
134.6996243
20
88.6890282
11
132.0017243
21
86.2445282
0
LINE
8
DEFAULT_255_2_778
10
134.7160243
20
88.7726282
11
134.7160243
21
88.7255282
0
LINE
8
DEFAULT_255_2_778
10
134.7160243
20
88.7255282
11
134.9616243
21
88.7255282
0
LINE
8
DEFAULT_255_2_778
10
134.9616243
20
88.7255282
11
134.9616243
21
88.7747282
0
LINE
8
DEFAULT_255_2_778
10
134.8634243
20
88.5043282
11
132.3115243
21
86.1924282
0
LINE
8
DEFAULT_255_2_778
10
132.3115243
20
86.1924282
11
132.0115243
21
86.1924282
0
LINE
8
DEFAULT_255_2_778
10
132.0115243
20
86.1924282
11
131.5146243
21
88.7446282
0
LINE
8
DEFAULT_255_2_778
10
127.8729243
20
139.9002282
11
127.8713243
21
139.9044282
0
LINE
8
DEFAULT_255_2_778
10
127.8713243
20
139.9044282
11
127.8699243
21
139.9171282
0
LINE
8
DEFAULT_255_2_778
10
127.8699243
20
139.9171282
11
127.8686243
21
139.9388282
0
LINE
8
DEFAULT_255_2_778
10
127.8686243
20
139.9388282
11
127.8676243
21
139.9703282
0
LINE
8
DEFAULT_255_2_778
10
127.8676243
20
139.9703282
11
127.8668243
21
140.0118282
0
LINE
8
DEFAULT_255_2_778
10
127.8668243
20
140.0118282
11
127.8662243
21
140.0632282
0
LINE
8
DEFAULT_255_2_778
10
127.8662243
20
140.0632282
11
127.8657243
21
140.1923282
0
LINE
8
DEFAULT_255_2_778
10
127.8657243
20
140.1923282
11
127.8662243
21
140.3516282
0
LINE
8
DEFAULT_255_2_778
10
127.8662243
20
140.3516282
11
127.8678243
21
140.5299282
0
LINE
8
DEFAULT_255_2_778
10
127.8678243
20
140.5299282
11
127.8702243
21
140.7151282
0
LINE
8
DEFAULT_255_2_778
10
127.8702243
20
140.7151282
11
127.8731243
21
140.8966282
0
LINE
8
DEFAULT_255_2_778
10
120.0507243
20
142.2888282
11
120.0465243
21
142.4828282
0
LINE
8
DEFAULT_255_2_778
10
120.0465243
20
142.4828282
11
120.0430243
21
142.6693282
0
LINE
8
DEFAULT_255_2_778
10
120.0430243
20
142.6693282
11
120.0407243
21
142.8410282
0
LINE
8
DEFAULT_255_2_778
10
120.0407243
20
142.8410282
11
120.0393243
21
142.9916282
0
LINE
8
DEFAULT_255_2_778
10
120.0393243
20
142.9916282
11
120.0391243
21
143.1151282
0
LINE
8
DEFAULT_255_2_778
10
120.0391243
20
143.1151282
11
120.0393243
21
143.1651282
0
LINE
8
DEFAULT_255_2_778
10
120.0393243
20
143.1651282
11
120.0399243
21
143.2069282
0
LINE
8
DEFAULT_255_2_778
10
120.0399243
20
143.2069282
11
120.0407243
21
143.2398282
0
LINE
8
DEFAULT_255_2_778
10
120.0407243
20
143.2398282
11
120.0417243
21
143.2636282
0
LINE
8
DEFAULT_255_2_778
10
120.0417243
20
143.2636282
11
120.0430243
21
143.2779282
0
LINE
8
DEFAULT_255_2_778
10
120.0430243
20
143.2779282
11
120.0446243
21
143.2826282
0
LINE
8
DEFAULT_255_2_778
10
125.7988243
20
139.9362282
11
125.7993243
21
139.9325282
0
LINE
8
DEFAULT_255_2_778
10
125.7993243
20
139.9325282
11
125.7999243
21
139.9213282
0
LINE
8
DEFAULT_255_2_778
10
125.7999243
20
139.9213282
11
125.8001243
21
139.9031282
0
LINE
8
DEFAULT_255_2_778
10
125.8001243
20
139.9031282
11
125.8001243
21
139.8780282
0
LINE
8
DEFAULT_255_2_778
10
125.8001243
20
139.8780282
11
125.8001243
21
139.8465282
0
LINE
8
DEFAULT_255_2_778
10
125.8001243
20
139.8465282
11
125.7999243
21
139.8108282
0
LINE
8
DEFAULT_255_2_778
10
125.7999243
20
139.8108282
11
125.7988243
21
139.7369282
0
LINE
8
DEFAULT_255_2_778
10
125.7988243
20
139.7369282
11
125.5617243
21
139.7811282
0
LINE
8
DEFAULT_255_2_778
10
125.5617243
20
139.7811282
11
125.4477243
21
139.8023282
0
LINE
8
DEFAULT_255_2_778
10
125.4477243
20
139.8023282
11
125.3397243
21
139.8224282
0
LINE
8
DEFAULT_255_2_778
10
125.3397243
20
139.8224282
11
125.2418243
21
139.8409282
0
LINE
8
DEFAULT_255_2_778
10
125.2418243
20
139.8409282
11
125.1982243
21
139.8491282
0
LINE
8
DEFAULT_255_2_778
10
125.1982243
20
139.8491282
11
125.1596243
21
139.8565282
0
LINE
8
DEFAULT_255_2_778
10
125.1596243
20
139.8565282
11
125.1270243
21
139.8626282
0
LINE
8
DEFAULT_255_2_778
10
125.1270243
20
139.8626282
11
125.1021243
21
139.8674282
0
LINE
8
DEFAULT_255_2_778
10
125.1021243
20
139.8674282
11
125.0863243
21
139.8705282
0
LINE
8
DEFAULT_255_2_778
10
125.0863243
20
139.8705282
11
125.0807243
21
139.8716282
0
LINE
8
DEFAULT_255_2_778
10
129.7107243
20
142.4481282
11
129.7802243
21
142.5201282
0
LINE
8
DEFAULT_255_2_778
10
129.8548243
20
142.6249282
11
130.3110243
21
142.5854282
0
LINE
8
DEFAULT_255_2_778
10
130.3110243
20
142.5854282
11
130.3285243
21
142.7960282
0
LINE
8
DEFAULT_255_2_778
10
130.3285243
20
142.7960282
11
130.3345243
21
142.8606282
0
LINE
8
DEFAULT_255_2_778
10
130.3345243
20
142.8606282
11
130.3356243
21
142.8704282
0
LINE
8
DEFAULT_255_2_778
10
130.3356243
20
142.8704282
11
130.3364243
21
142.8775282
0
LINE
8
DEFAULT_255_2_778
10
130.3364243
20
142.8775282
11
130.3369243
21
142.8818282
0
LINE
8
DEFAULT_255_2_778
10
130.3369243
20
142.8818282
11
130.3372243
21
142.8831282
0
LINE
8
DEFAULT_255_2_778
10
129.7919243
20
140.9159282
11
129.7403243
21
140.9519282
0
LINE
8
DEFAULT_255_2_778
10
130.3578243
20
142.5815282
11
130.3753243
21
142.7889282
0
LINE
8
DEFAULT_255_2_778
10
130.3753243
20
142.7889282
11
130.3803243
21
142.8553282
0
LINE
8
DEFAULT_255_2_778
10
130.3803243
20
142.8553282
11
130.3811243
21
142.8656282
0
LINE
8
DEFAULT_255_2_778
10
130.3811243
20
142.8656282
11
130.3816243
21
142.8730282
0
LINE
8
DEFAULT_255_2_778
10
130.3816243
20
142.8730282
11
130.3819243
21
142.8775282
0
LINE
8
DEFAULT_255_2_778
10
130.3819243
20
142.8775282
11
130.3819243
21
142.8791282
0
LINE
8
DEFAULT_255_2_778
10
125.0818243
20
139.8716282
11
127.1916243
21
137.0691282
0
LINE
8
DEFAULT_255_2_778
10
128.7417243
20
143.4250282
11
129.6940243
21
143.3847282
0
LINE
8
DEFAULT_255_2_778
10
129.6940243
20
143.3847282
11
129.7114243
21
142.3899282
0
LINE
8
DEFAULT_255_2_778
10
128.5605243
20
139.7012282
11
128.5420243
21
140.0796282
0
LINE
8
DEFAULT_255_2_778
10
127.8729243
20
140.8963282
11
120.0520243
21
141.0323282
0
LINE
8
DEFAULT_255_2_778
10
120.0520243
20
141.0323282
11
120.0489243
21
140.8381282
0
LINE
8
DEFAULT_255_2_778
10
120.0489243
20
140.8381282
11
120.0465243
21
140.6511282
0
LINE
8
DEFAULT_255_2_778
10
120.0465243
20
140.6511282
11
120.0452243
21
140.4788282
0
LINE
8
DEFAULT_255_2_778
10
120.0452243
20
140.4788282
11
120.0446243
21
140.3280282
0
LINE
8
DEFAULT_255_2_778
10
120.0446243
20
140.3280282
11
120.0452243
21
140.2042282
0
LINE
8
DEFAULT_255_2_778
10
120.0452243
20
140.2042282
11
120.0457243
21
140.1539282
0
LINE
8
DEFAULT_255_2_778
10
120.0457243
20
140.1539282
11
120.0465243
21
140.1121282
0
LINE
8
DEFAULT_255_2_778
10
120.0465243
20
140.1121282
11
120.0475243
21
140.0790282
0
LINE
8
DEFAULT_255_2_778
10
120.0475243
20
140.0790282
11
120.0489243
21
140.0552282
0
LINE
8
DEFAULT_255_2_778
10
120.0489243
20
140.0552282
11
120.0502243
21
140.0409282
0
LINE
8
DEFAULT_255_2_778
10
120.0502243
20
140.0409282
11
120.0518243
21
140.0362282
0
LINE
8
DEFAULT_255_2_778
10
120.0446243
20
140.0362282
11
127.8655243
21
139.9002282
0
LINE
8
DEFAULT_255_2_778
10
128.0620243
20
139.7009282
11
127.5707243
21
139.7060282
0
LINE
8
DEFAULT_255_2_778
10
127.5707243
20
139.7060282
11
127.5707243
21
137.3829282
0
LINE
8
DEFAULT_255_2_778
10
127.5707243
20
137.3829282
11
128.0620243
21
137.3829282
0
LINE
8
DEFAULT_255_2_778
10
127.6630243
20
137.0689282
11
127.5710243
21
137.3829282
0
LINE
8
DEFAULT_255_2_778
10
127.5710243
20
137.3829282
11
125.7988243
21
139.7367282
0
LINE
8
DEFAULT_255_2_778
10
125.7988243
20
139.7367282
11
127.5710243
21
139.7060282
0
LINE
8
DEFAULT_255_2_778
10
127.5710243
20
139.7060282
11
127.5720243
21
139.7822282
0
LINE
8
DEFAULT_255_2_778
10
127.5720243
20
139.7822282
11
127.5723243
21
139.8166282
0
LINE
8
DEFAULT_255_2_778
10
127.5723243
20
139.8166282
11
127.5723243
21
139.8467282
0
LINE
8
DEFAULT_255_2_778
10
127.5723243
20
139.8467282
11
127.5723243
21
139.8716282
0
LINE
8
DEFAULT_255_2_778
10
127.5723243
20
139.8716282
11
127.5720243
21
139.8901282
0
LINE
8
DEFAULT_255_2_778
10
127.5720243
20
139.8901282
11
127.5715243
21
139.9015282
0
LINE
8
DEFAULT_255_2_778
10
127.5715243
20
139.9015282
11
127.5710243
21
139.9055282
0
LINE
8
DEFAULT_255_2_778
10
128.7383243
20
143.4292282
11
127.7321243
21
143.4665282
0
LINE
8
DEFAULT_255_2_778
10
127.7321243
20
143.4665282
11
120.0380243
21
143.2824282
0
LINE
8
DEFAULT_255_2_778
10
130.3811243
20
142.8789282
11
130.3113243
21
142.8849282
0
LINE
8
DEFAULT_255_2_778
10
130.3113243
20
142.8849282
11
129.7273243
21
142.8487282
0
LINE
8
DEFAULT_255_2_778
10
130.3113243
20
137.0689282
11
130.3113243
21
142.5852282
0
LINE
8
DEFAULT_255_2_778
10
130.3113243
20
142.5852282
11
130.3576243
21
142.5815282
0
LINE
8
DEFAULT_255_2_778
10
129.7487243
20
137.0691282
11
129.7487243
21
140.2809282
0
LINE
8
DEFAULT_255_2_778
10
129.7487243
20
140.2809282
11
130.1086243
21
140.2809282
0
LINE
8
DEFAULT_255_2_778
10
130.1086243
20
140.2809282
11
130.1086243
21
137.0691282
0
LINE
8
DEFAULT_255_2_778
10
129.7620243
20
137.0691282
11
129.7620243
21
139.4983282
0
LINE
8
DEFAULT_255_2_778
10
129.7620243
20
139.4983282
11
129.7114243
21
142.3878282
0
LINE
8
DEFAULT_255_2_778
10
129.7114243
20
142.3878282
11
127.7620243
21
142.4693282
0
LINE
8
DEFAULT_255_2_778
10
131.0844243
20
137.0691282
11
130.9285243
21
142.3015282
0
LINE
8
DEFAULT_255_2_778
10
130.9285243
20
142.3015282
11
130.6314243
21
142.2925282
0
LINE
8
DEFAULT_255_2_778
10
130.6314243
20
142.2925282
11
130.7870243
21
137.0691282
0
LINE
8
DEFAULT_255_2_778
10
128.0620243
20
137.0691282
11
128.0620243
21
139.7009282
0
LINE
8
DEFAULT_255_2_778
10
128.0620243
20
139.7009282
11
128.5534243
21
139.7009282
0
LINE
8
DEFAULT_255_2_778
10
128.5534243
20
139.7009282
11
128.5534243
21
137.0691282
0
LINE
8
DEFAULT_255_2_778
10
129.7585243
20
139.7009282
11
127.7620243
21
141.6898282
0
LINE
8
DEFAULT_255_2_778
10
127.7620243
20
141.6898282
11
127.7620243
21
142.4693282
0
LINE
8
DEFAULT_255_2_778
10
127.7620243
20
142.4693282
11
120.0446243
21
142.2886282
0
LINE
8
DEFAULT_255_2_778
10
120.0446243
20
142.2886282
11
120.0446243
21
141.0321282
0
LINE
8
DEFAULT_255_2_778
10
120.0446243
20
141.0321282
11
119.0620243
21
141.0321282
0
LINE
8
DEFAULT_255_2_778
10
119.0620243
20
141.0321282
11
119.0620243
21
142.2886282
0
LINE
8
DEFAULT_255_2_778
10
119.0620243
20
142.2886282
11
120.0446243
21
142.2886282
0
LINE
8
DEFAULT_255_2_778
10
36.3868243
20
71.4432282
11
36.3958243
21
71.3755282
0
LINE
8
DEFAULT_255_2_778
10
36.3958243
20
71.3755282
11
36.4011243
21
71.3255282
0
LINE
8
DEFAULT_255_2_778
10
36.4011243
20
71.3255282
11
36.4027243
21
71.2985282
0
LINE
8
DEFAULT_255_2_778
10
36.4027243
20
71.2985282
11
36.4014243
21
71.2900282
0
LINE
8
DEFAULT_255_2_778
10
36.4014243
20
71.2900282
11
38.4940243
21
70.7317282
0
LINE
8
DEFAULT_255_2_778
10
38.4940243
20
70.7317282
11
41.6076243
21
69.8470282
0
LINE
8
DEFAULT_255_2_778
10
136.4432243
20
29.4226282
11
136.4139243
21
29.4480282
0
LINE
8
DEFAULT_255_2_778
10
1.2380243
20
98.2873282
11
1.0171243
21
98.2913282
0
LINE
8
DEFAULT_255_2_778
10
0.2540243
20
97.5428282
11
0.2540243
21
45.2722282
0
LINE
8
DEFAULT_255_2_778
10
1.0171243
20
44.5237282
11
1.2380243
21
44.5277282
0
LINE
8
DEFAULT_255_2_778
10
136.5536243
20
29.3652282
11
137.0536243
21
29.8634282
0
LINE
8
DEFAULT_255_2_778
10
136.3641243
20
52.9293282
11
136.3641243
21
52.9356282
0
LINE
8
DEFAULT_255_2_778
10
129.8639243
20
52.9859282
11
129.8639243
21
52.9922282
0
LINE
8
DEFAULT_255_2_778
10
38.4572243
20
70.8048282
11
38.5106243
21
70.8217282
0
LINE
8
DEFAULT_255_2_778
10
38.5106243
20
70.8217282
11
38.6789243
21
70.8860282
0
LINE
8
DEFAULT_255_2_778
10
38.3159243
20
70.9283282
11
38.3482243
21
70.8966282
0
LINE
8
DEFAULT_255_2_778
10
38.3482243
20
70.8966282
11
38.4569243
21
70.8048282
0
LINE
8
DEFAULT_255_2_778
10
137.0640243
20
30.0304282
11
136.4427243
21
29.4226282
0
LINE
8
DEFAULT_255_2_778
10
136.4427243
20
29.4226282
11
136.4962243
21
29.3803282
0
LINE
8
DEFAULT_255_2_778
10
136.5332243
20
29.3618282
11
125.5300243
21
29.3618282
0
LINE
8
DEFAULT_255_2_778
10
125.5300243
20
29.3618282
11
125.0762243
21
29.8139282
0
LINE
8
DEFAULT_255_2_778
10
125.0762243
20
29.8139282
11
125.2175243
21
29.9547282
0
LINE
8
DEFAULT_255_2_778
10
125.2175243
20
29.9547282
11
125.2175243
21
32.9559282
0
LINE
8
DEFAULT_255_2_778
10
125.2175243
20
32.9559282
11
125.6128243
21
33.3496282
0
LINE
8
DEFAULT_255_2_778
10
137.0640243
20
35.0908282
11
136.4427243
21
34.4830282
0
LINE
8
DEFAULT_255_2_778
10
136.4427243
20
34.4830282
11
136.4962243
21
34.4407282
0
LINE
8
DEFAULT_255_2_778
10
136.4962243
20
33.5300282
11
136.4427243
21
33.4877282
0
LINE
8
DEFAULT_255_2_778
10
136.4427243
20
33.4877282
11
137.0640243
21
32.8797282
0
LINE
8
DEFAULT_255_2_778
10
4.1473243
20
132.2230282
11
4.1471243
21
132.2217282
0
LINE
8
DEFAULT_255_2_778
10
4.1471243
20
132.2217282
11
4.1471243
21
132.2180282
0
LINE
8
DEFAULT_255_2_778
10
4.1471243
20
132.2180282
11
4.1468243
21
132.2119282
0
LINE
8
DEFAULT_255_2_778
10
4.1468243
20
132.2119282
11
4.1468243
21
132.2035282
0
LINE
8
DEFAULT_255_2_778
10
4.1468243
20
132.2035282
11
4.1468243
21
132.1929282
0
LINE
8
DEFAULT_255_2_778
10
4.1468243
20
132.1929282
11
4.1468243
21
132.1799282
0
LINE
8
DEFAULT_255_2_778
10
4.1468243
20
132.1799282
11
4.1466243
21
132.1471282
0
LINE
8
DEFAULT_255_2_778
10
4.1466243
20
132.1471282
11
4.1463243
21
132.1053282
0
LINE
8
DEFAULT_255_2_778
10
4.1463243
20
132.1053282
11
4.1463243
21
132.0550282
0
LINE
8
DEFAULT_255_2_778
10
4.1463243
20
132.0550282
11
4.1463243
21
131.9968282
0
LINE
8
DEFAULT_255_2_778
10
4.1463243
20
131.9968282
11
4.1463243
21
131.9312282
0
LINE
8
DEFAULT_255_2_778
10
4.1463243
20
131.9312282
11
4.1463243
21
131.7801282
0
LINE
8
DEFAULT_255_2_778
10
4.1463243
20
131.7801282
11
4.1466243
21
131.6079282
0
LINE
8
DEFAULT_255_2_778
10
4.1466243
20
131.6079282
11
4.1471243
21
131.4208282
0
LINE
8
DEFAULT_255_2_778
10
4.1471243
20
131.4208282
11
4.1476243
21
131.2266282
0
LINE
8
DEFAULT_255_2_778
10
4.1476243
20
131.2266282
11
5.4512243
21
131.2494282
0
LINE
8
DEFAULT_255_2_778
10
3.9481243
20
132.0690282
11
1.2195243
21
131.9741282
0
LINE
8
DEFAULT_255_2_778
10
1.2229243
20
131.9746282
11
1.2197243
21
131.9696282
0
LINE
8
DEFAULT_255_2_778
10
1.2197243
20
131.9696282
11
1.2168243
21
131.9550282
0
LINE
8
DEFAULT_255_2_778
10
1.2168243
20
131.9550282
11
1.2144243
21
131.9312282
0
LINE
8
DEFAULT_255_2_778
10
1.2144243
20
131.9312282
11
1.2123243
21
131.8981282
0
LINE
8
DEFAULT_255_2_778
10
1.2123243
20
131.8981282
11
1.2094243
21
131.8060282
0
LINE
8
DEFAULT_255_2_778
10
1.2094243
20
131.8060282
11
1.2084243
21
131.6822282
0
LINE
8
DEFAULT_255_2_778
10
1.2084243
20
131.6822282
11
1.2094243
21
131.5314282
0
LINE
8
DEFAULT_255_2_778
10
1.2094243
20
131.5314282
11
1.2123243
21
131.3594282
0
LINE
8
DEFAULT_255_2_778
10
1.2123243
20
131.3594282
11
1.2229243
21
130.9787282
0
LINE
8
DEFAULT_255_2_778
10
1.2229243
20
130.9787282
11
3.9531243
21
131.0737282
0
LINE
8
DEFAULT_255_2_778
10
130.5639243
20
68.4701282
11
130.0485243
21
68.9744282
0
LINE
8
DEFAULT_255_2_778
10
130.5639243
20
63.4094282
11
130.0485243
21
63.9137282
0
LINE
8
DEFAULT_255_2_778
10
130.0485243
20
63.9137282
11
130.0443243
21
63.9132282
0
LINE
8
DEFAULT_255_2_778
10
130.0443243
20
63.9132282
11
130.0332243
21
63.9126282
0
LINE
8
DEFAULT_255_2_778
10
130.0332243
20
63.9126282
11
125.5300243
21
63.9126282
0
LINE
8
DEFAULT_255_2_778
10
125.5300243
20
63.9126282
11
125.0762243
21
63.4605282
0
LINE
8
DEFAULT_255_2_778
10
125.0762243
20
63.4605282
11
125.2175243
21
63.3197282
0
LINE
8
DEFAULT_255_2_778
10
125.2175243
20
63.3197282
11
125.0175243
21
63.3197282
0
LINE
8
DEFAULT_255_2_778
10
125.0175243
20
63.3197282
11
125.0175243
21
35.0154282
0
LINE
8
DEFAULT_255_2_778
10
125.0175243
20
35.0154282
11
125.2175243
21
35.0154282
0
LINE
8
DEFAULT_255_2_778
10
125.2175243
20
35.0154282
11
125.6128243
21
34.6217282
0
LINE
8
DEFAULT_255_2_778
10
125.6128243
20
34.6217282
11
136.3641243
21
34.6217282
0
LINE
8
DEFAULT_255_2_778
10
136.3641243
20
34.6217282
11
136.3641243
21
52.9226282
0
LINE
8
DEFAULT_255_2_778
10
136.3641243
20
52.9226282
11
129.8641243
21
52.9790282
0
LINE
8
DEFAULT_255_2_778
10
129.8641243
20
52.9790282
11
129.8641243
21
63.7134282
0
LINE
8
DEFAULT_255_2_778
10
129.8641243
20
63.7134282
11
125.6128243
21
63.7134282
0
LINE
8
DEFAULT_255_2_778
10
125.6128243
20
63.7134282
11
125.2175243
21
63.3197282
0
LINE
8
DEFAULT_255_2_778
10
125.2175243
20
63.3197282
11
125.2175243
21
35.0154282
0
LINE
8
DEFAULT_255_2_778
10
125.2175243
20
35.0154282
11
125.0762243
21
34.8746282
0
LINE
8
DEFAULT_255_2_778
10
125.0762243
20
34.8746282
11
125.5300243
21
34.4224282
0
LINE
8
DEFAULT_255_2_778
10
125.5300243
20
34.4224282
11
136.5332243
21
34.4224282
0
LINE
8
DEFAULT_255_2_778
10
136.5332243
20
34.4224282
11
136.5443243
21
34.4219282
0
LINE
8
DEFAULT_255_2_778
10
136.5443243
20
34.4219282
11
136.5486243
21
34.4211282
0
LINE
8
DEFAULT_255_2_778
10
130.5639243
20
70.5153282
11
129.9427243
21
69.9076282
0
LINE
8
DEFAULT_255_2_778
10
129.9427243
20
69.9076282
11
129.9133243
21
69.9330282
0
LINE
8
DEFAULT_255_2_778
10
1.2541243
20
98.8236282
11
1.2192243
21
98.8249282
0
LINE
8
DEFAULT_255_2_778
10
34.9837243
20
97.1806282
11
5.2644243
21
97.1806282
0
LINE
8
DEFAULT_255_2_778
10
5.7645243
20
96.6829282
11
34.6908243
21
96.8075282
0
LINE
8
DEFAULT_255_2_778
10
34.6908243
20
96.8075282
11
32.9157243
21
96.6331282
0
LINE
8
DEFAULT_255_2_778
10
137.0642243
20
33.0461282
11
136.5488243
21
33.5504282
0
LINE
8
DEFAULT_255_2_778
10
136.5488243
20
33.5504282
11
136.5642243
21
33.5874282
0
LINE
8
DEFAULT_255_2_778
10
136.4043243
20
132.3101282
11
136.3999243
21
136.0907282
0
LINE
8
DEFAULT_255_2_778
10
136.3999243
20
136.0907282
11
136.3983243
21
136.2799282
0
LINE
8
DEFAULT_255_2_778
10
136.3983243
20
136.2799282
11
136.3943243
21
136.4376282
0
LINE
8
DEFAULT_255_2_778
10
136.3943243
20
136.4376282
11
136.3916243
21
136.4968282
0
LINE
8
DEFAULT_255_2_778
10
136.3916243
20
136.4968282
11
136.3885243
21
136.5400282
0
LINE
8
DEFAULT_255_2_778
10
136.3885243
20
136.5400282
11
136.3850243
21
136.5648282
0
LINE
8
DEFAULT_255_2_778
10
136.3850243
20
136.5648282
11
136.3816243
21
136.5709282
0
LINE
8
DEFAULT_255_2_778
10
136.3816243
20
136.5709282
11
136.2758243
21
136.4654282
0
LINE
8
DEFAULT_255_2_778
10
135.7760243
20
136.9630282
11
135.7725243
21
136.9382282
0
LINE
8
DEFAULT_255_2_778
10
135.7725243
20
136.9382282
11
135.7694243
21
136.8776282
0
LINE
8
DEFAULT_255_2_778
10
135.7694243
20
136.8776282
11
135.7664243
21
136.7834282
0
LINE
8
DEFAULT_255_2_778
10
135.7664243
20
136.7834282
11
135.7638243
21
136.6596282
0
LINE
8
DEFAULT_255_2_778
10
135.7638243
20
136.6596282
11
135.7617243
21
136.5101282
0
LINE
8
DEFAULT_255_2_778
10
135.7617243
20
136.5101282
11
135.7601243
21
136.3407282
0
LINE
8
DEFAULT_255_2_778
10
135.7601243
20
136.3407282
11
135.7588243
21
135.9674282
0
LINE
8
DEFAULT_255_2_778
10
135.7588243
20
135.9674282
11
135.7588243
21
133.8806282
0
LINE
8
DEFAULT_255_2_778
10
135.7588243
20
133.8806282
11
135.2410243
21
133.3652282
0
LINE
8
DEFAULT_255_2_778
10
129.9287243
20
69.8467282
11
125.5297243
21
69.8467282
0
LINE
8
DEFAULT_255_2_778
10
125.5297243
20
69.8467282
11
125.0759243
21
70.2989282
0
LINE
8
DEFAULT_255_2_778
10
125.0759243
20
70.2989282
11
125.2172243
21
70.4397282
0
LINE
8
DEFAULT_255_2_778
10
125.2172243
20
70.4397282
11
125.2172243
21
72.3822282
0
LINE
8
DEFAULT_255_2_778
10
125.2172243
20
72.3822282
11
125.0172243
21
72.3822282
0
LINE
8
DEFAULT_255_2_778
10
125.0172243
20
72.3822282
11
125.0172243
21
70.4397282
0
LINE
8
DEFAULT_255_2_778
10
125.0172243
20
70.4397282
11
125.2172243
21
70.4397282
0
LINE
8
DEFAULT_255_2_778
10
125.2172243
20
70.4397282
11
125.6125243
21
70.0460282
0
LINE
8
DEFAULT_255_2_778
10
125.6125243
20
70.0460282
11
129.8639243
21
70.0460282
0
LINE
8
DEFAULT_255_2_778
10
129.8639243
20
70.0460282
11
129.8639243
21
89.2280282
0
LINE
8
DEFAULT_255_2_778
10
129.8639243
20
89.2280282
11
136.3639243
21
89.2846282
0
LINE
8
DEFAULT_255_2_778
10
136.3639243
20
89.2846282
11
136.3639243
21
132.3233282
0
LINE
8
DEFAULT_255_2_778
10
137.0640243
20
131.3729282
11
137.0640243
21
88.7925282
0
LINE
8
DEFAULT_255_2_778
10
115.8428243
20
70.2769282
11
115.8134243
21
70.2063282
0
LINE
8
DEFAULT_255_2_778
10
115.8134243
20
70.2063282
11
115.4139243
21
69.8084282
0
LINE
8
DEFAULT_255_2_778
10
115.4139243
20
69.8084282
11
41.6047243
21
69.8084282
0
LINE
8
DEFAULT_255_2_778
10
31.6532243
20
136.0910282
11
31.6542243
21
136.2460282
0
LINE
8
DEFAULT_255_2_778
10
31.6542243
20
136.2460282
11
31.6614243
21
136.5103282
0
LINE
8
DEFAULT_255_2_778
10
32.1707243
20
137.0691282
11
135.8823243
21
137.0691282
0
LINE
8
DEFAULT_255_2_778
10
135.8823243
20
137.0691282
11
135.8818243
21
137.0686282
0
LINE
8
DEFAULT_255_2_778
10
135.8818243
20
137.0686282
11
135.7760243
21
136.9630282
0
LINE
8
DEFAULT_255_2_778
10
135.7760243
20
136.9630282
11
32.2773243
21
136.9630282
0
LINE
8
DEFAULT_255_2_778
10
32.2773243
20
136.9630282
11
32.1715243
21
137.0686282
0
LINE
8
DEFAULT_255_2_778
10
32.1715243
20
137.0686282
11
32.1709243
21
137.0691282
0
LINE
8
DEFAULT_255_2_778
10
1.2192243
20
43.9900282
11
1.2541243
21
43.9914282
0
LINE
8
DEFAULT_255_2_778
10
137.0642243
20
33.0892282
11
136.5642243
21
33.5874282
0
LINE
8
DEFAULT_255_2_778
10
136.5642243
20
33.5874282
11
125.5141243
21
33.5874282
0
LINE
8
DEFAULT_255_2_778
10
125.5141243
20
33.5874282
11
125.6128243
21
33.3498282
0
LINE
8
DEFAULT_255_2_778
10
125.6128243
20
33.3498282
11
136.3641243
21
33.3498282
0
LINE
8
DEFAULT_255_2_778
10
136.3641243
20
33.3498282
11
136.3641243
21
29.5613282
0
LINE
8
DEFAULT_255_2_778
10
136.3641243
20
29.5613282
11
125.6128243
21
29.5613282
0
LINE
8
DEFAULT_255_2_778
10
125.6128243
20
29.5613282
11
125.2175243
21
29.9550282
0
LINE
8
DEFAULT_255_2_778
10
125.2175243
20
29.9550282
11
125.0175243
21
29.9550282
0
LINE
8
DEFAULT_255_2_778
10
125.0175243
20
29.9550282
11
125.0175243
21
32.9561282
0
LINE
8
DEFAULT_255_2_778
10
125.0175243
20
32.9561282
11
125.2175243
21
32.9561282
0
LINE
8
DEFAULT_255_2_778
10
125.2175243
20
32.9561282
11
125.0762243
21
33.0969282
0
LINE
8
DEFAULT_255_2_778
10
125.0762243
20
33.0969282
11
125.5300243
21
33.5491282
0
LINE
8
DEFAULT_255_2_778
10
125.5300243
20
33.5491282
11
136.5332243
21
33.5491282
0
LINE
8
DEFAULT_255_2_778
10
136.5332243
20
33.5491282
11
136.5443243
21
33.5496282
0
LINE
8
DEFAULT_255_2_778
10
136.5443243
20
33.5496282
11
136.5486243
21
33.5504282
0
LINE
8
DEFAULT_255_2_778
10
31.6489243
20
132.3691282
11
31.6534243
21
136.0904282
0
LINE
8
DEFAULT_255_2_778
10
31.6534243
20
136.0904282
11
31.6550243
21
136.2796282
0
LINE
8
DEFAULT_255_2_778
10
31.6550243
20
136.2796282
11
31.6590243
21
136.4373282
0
LINE
8
DEFAULT_255_2_778
10
31.6590243
20
136.4373282
11
31.6616243
21
136.4966282
0
LINE
8
DEFAULT_255_2_778
10
31.6616243
20
136.4966282
11
31.6648243
21
136.5397282
0
LINE
8
DEFAULT_255_2_778
10
31.6648243
20
136.5397282
11
31.6682243
21
136.5648282
0
LINE
8
DEFAULT_255_2_778
10
31.6682243
20
136.5648282
11
31.6717243
21
136.5709282
0
LINE
8
DEFAULT_255_2_778
10
31.6759243
20
134.3619282
11
32.7607243
21
133.3655282
0
LINE
8
DEFAULT_255_2_778
10
32.7607243
20
133.3655282
11
135.2920243
21
133.3655282
0
LINE
8
DEFAULT_255_2_778
10
135.2920243
20
133.3655282
11
135.7900243
21
133.8608282
0
LINE
8
DEFAULT_255_2_778
10
135.7900243
20
133.8608282
11
136.2689243
21
134.3617282
0
LINE
8
DEFAULT_255_2_778
10
5.4589243
20
131.3732282
11
31.6473243
21
131.3732282
0
LINE
8
DEFAULT_255_2_778
10
31.6473243
20
131.3732282
11
31.6550243
21
135.2316282
0
LINE
8
DEFAULT_255_2_778
10
1.2144243
20
43.9792282
11
1.2105243
21
43.9469282
0
LINE
8
DEFAULT_255_2_778
10
1.2105243
20
43.9469282
11
1.2076243
21
43.8943282
0
LINE
8
DEFAULT_255_2_778
10
1.2076243
20
43.8943282
11
1.2057243
21
43.8220282
0
LINE
8
DEFAULT_255_2_778
10
1.2057243
20
43.8220282
11
1.2049243
21
43.7321282
0
LINE
8
DEFAULT_255_2_778
10
1.2049243
20
43.7321282
11
1.2052243
21
43.6262282
0
LINE
8
DEFAULT_255_2_778
10
1.2052243
20
43.6262282
11
1.2086243
21
43.3759282
0
LINE
8
DEFAULT_255_2_778
10
1.2086243
20
43.3759282
11
1.2192243
21
42.9950282
0
LINE
8
DEFAULT_255_2_778
10
1.2192243
20
42.9950282
11
0.2540243
21
42.9950282
0
LINE
8
DEFAULT_255_2_778
10
0.2540243
20
42.9950282
11
0.2540243
21
11.2288282
0
LINE
8
DEFAULT_255_2_778
10
1.2192243
20
10.2332282
11
5.3401243
21
10.0898282
0
LINE
8
DEFAULT_255_2_778
10
5.2647243
20
10.8346282
11
44.8900243
21
10.8346282
0
LINE
8
DEFAULT_255_2_778
10
44.8900243
20
10.8346282
11
42.6117243
21
27.0469282
0
LINE
8
DEFAULT_255_2_778
10
42.6117243
20
27.0469282
11
47.4038243
21
28.5267282
0
LINE
8
DEFAULT_255_2_778
10
46.7688243
20
10.7856282
11
46.7733243
21
10.7367282
0
LINE
8
DEFAULT_255_2_778
10
46.7733243
20
10.7367282
11
44.9188243
21
10.7367282
0
LINE
8
DEFAULT_255_2_778
10
44.9188243
20
10.7367282
11
42.6516243
21
26.8691282
0
LINE
8
DEFAULT_255_2_778
10
42.6516243
20
26.8691282
11
44.4360243
21
27.3867282
0
LINE
8
DEFAULT_255_2_778
10
44.4360243
20
27.3867282
11
46.7691243
21
10.7854282
0
LINE
8
DEFAULT_255_2_778
10
46.7691243
20
10.7854282
11
47.1191243
21
10.8343282
0
LINE
8
DEFAULT_255_2_778
10
47.1191243
20
10.8343282
11
65.8646243
21
10.8343282
0
LINE
8
DEFAULT_255_2_778
10
65.8646243
20
10.8343282
11
65.8646243
21
6.9492282
0
LINE
8
DEFAULT_255_2_778
10
122.4462243
20
6.9492282
11
122.4047243
21
10.8343282
0
LINE
8
DEFAULT_255_2_778
10
122.4047243
20
10.8343282
11
137.0648243
21
10.8343282
0
LINE
8
DEFAULT_255_2_778
10
137.0648243
20
10.8343282
11
137.0648243
21
53.4145282
0
LINE
8
DEFAULT_255_2_778
10
137.0648243
20
53.4145282
11
130.5647243
21
53.4711282
0
LINE
8
DEFAULT_255_2_778
10
130.5647243
20
53.4711282
11
130.5647243
21
88.7361282
0
LINE
8
DEFAULT_255_2_778
10
130.5647243
20
88.7361282
11
137.0356243
21
88.7925282
0
LINE
8
DEFAULT_255_2_778
10
136.9872243
20
88.8068282
11
136.9205243
21
88.8451282
0
LINE
8
DEFAULT_255_2_778
10
136.9205243
20
88.8451282
11
136.8412243
21
88.9004282
0
LINE
8
DEFAULT_255_2_778
10
136.8412243
20
88.9004282
11
136.7533243
21
88.9671282
0
LINE
8
DEFAULT_255_2_778
10
136.7533243
20
88.9671282
11
136.5634243
21
89.1200282
0
LINE
8
DEFAULT_255_2_778
10
136.5634243
20
89.1200282
11
136.3649243
21
89.2849282
0
LINE
8
DEFAULT_255_2_778
10
31.6516243
20
132.3691282
11
5.4589243
21
132.3691282
0
LINE
8
DEFAULT_255_2_778
10
5.4589243
20
132.3691282
11
5.4589243
21
109.2575282
0
LINE
8
DEFAULT_255_2_778
10
5.4589243
20
109.2575282
11
6.2489243
21
109.2575282
0
LINE
8
DEFAULT_255_2_778
10
6.2489243
20
109.2575282
11
6.2489243
21
107.4943282
0
LINE
8
DEFAULT_255_2_778
10
6.2489243
20
107.4943282
11
7.5285243
21
98.3577282
0
LINE
8
DEFAULT_255_2_778
10
7.5285243
20
98.3577282
11
5.7645243
21
98.3577282
0
LINE
8
DEFAULT_255_2_778
10
5.7645243
20
98.3577282
11
5.7645243
21
9.8382282
0
LINE
8
DEFAULT_255_2_778
10
5.7645243
20
9.8382282
11
65.8265243
21
9.8382282
0
LINE
8
DEFAULT_255_2_778
10
5.4494243
20
109.0426282
11
5.4494243
21
131.5081282
0
LINE
8
DEFAULT_255_2_778
10
5.2644243
20
10.3364282
11
5.2644243
21
98.5447282
0
LINE
8
DEFAULT_255_2_778
10
5.2644243
20
98.5447282
11
7.4996243
21
98.5641282
0
LINE
8
DEFAULT_255_2_778
10
3.9494243
20
131.2269282
11
4.1460243
21
131.2269282
0
LINE
8
DEFAULT_255_2_778
10
4.1460243
20
131.2269282
11
4.1460243
21
109.2903282
0
LINE
8
DEFAULT_255_2_778
10
4.1460243
20
109.2903282
11
3.9494243
21
109.2903282
0
LINE
8
DEFAULT_255_2_778
10
3.9494243
20
109.2903282
11
3.9494243
21
132.0238282
0
LINE
8
DEFAULT_255_2_778
10
4.1460243
20
132.2230282
11
5.4496243
21
132.2458282
0
LINE
8
DEFAULT_255_2_778
10
1.2192243
20
99.8203282
11
0.2540243
21
99.8203282
0
LINE
8
DEFAULT_255_2_778
10
0.2540243
20
99.8203282
11
0.2540243
21
130.9790282
0
LINE
8
DEFAULT_255_2_778
10
0.2540243
20
130.9790282
11
1.2192243
21
130.9790282
0
LINE
8
DEFAULT_255_2_778
10
1.2192243
20
130.9790282
11
1.2192243
21
99.8200282
0
LINE
8
DEFAULT_255_2_778
10
1.2192243
20
99.8200282
11
1.2541243
21
99.8200282
0
LINE
8
DEFAULT_255_2_778
10
1.2541243
20
99.8200282
11
1.2192243
21
45.6011282
0
LINE
8
DEFAULT_255_2_778
10
1.2192243
20
45.6011282
11
1.2192243
21
14.2771282
0
LINE
8
DEFAULT_255_2_778
10
1.2192243
20
14.2771282
11
5.2647243
21
11.9397282
0
ENDSEC
0
EOF