0
SECTION
2
HEADER
9
$MEASUREMENT
70
1
0
ENDSEC
0
SECTION
2
TABLES
0
TABLE
2
LTYPE
0
LTYPE
72
65
70
64
2
CONTINUOUS
3
______
73
0
40
0
0
ENDTAB
0
TABLE
2
LAYER
0
LAYER
2
DEFAULT_255_2_778
70
0
62
255
6
CONTINUOUS
0
ENDTAB
0
ENDSEC
0
SECTION
2
ENTITIES
0
LINE
8
DEFAULT_255_2_778
10
75.4800789
20
127.7121134
11
77.2278789
21
127.7121134
0
LINE
8
DEFAULT_255_2_778
10
77.2278789
20
127.7121134
11
77.2278789
21
125.9627134
0
LINE
8
DEFAULT_255_2_778
10
77.2278789
20
125.9627134
11
75.4800789
21
125.9627134
0
LINE
8
DEFAULT_255_2_778
10
75.4800789
20
125.9627134
11
75.4800789
21
127.7121134
0
LINE
8
DEFAULT_255_2_778
10
75.4800789
20
118.5048124
11
77.2278789
21
118.5048124
0
LINE
8
DEFAULT_255_2_778
10
77.2278789
20
118.5048124
11
77.2278789
21
116.7554124
0
LINE
8
DEFAULT_255_2_778
10
77.2278789
20
116.7554124
11
75.4800789
21
116.7554124
0
LINE
8
DEFAULT_255_2_778
10
75.4800789
20
116.7554124
11
75.4800789
21
118.5048124
0
LINE
8
DEFAULT_255_2_778
10
89.4681189
20
118.5048124
11
89.4681189
21
116.7554124
0
LINE
8
DEFAULT_255_2_778
10
89.4681189
20
116.7554124
11
79.4803189
21
116.7554124
0
LINE
8
DEFAULT_255_2_778
10
79.4803189
20
116.7554124
11
79.4803189
21
118.5048124
0
LINE
8
DEFAULT_255_2_778
10
79.4803189
20
118.5048124
11
89.4681189
21
118.5048124
0
LINE
8
DEFAULT_255_2_778
10
89.4681189
20
127.7121134
11
89.4681189
21
125.9627134
0
LINE
8
DEFAULT_255_2_778
10
89.4681189
20
125.9627134
11
79.4803189
21
125.9627134
0
LINE
8
DEFAULT_255_2_778
10
79.4803189
20
125.9627134
11
79.4803189
21
127.7121134
0
LINE
8
DEFAULT_255_2_778
10
79.4803189
20
127.7121134
11
89.4681189
21
127.7121134
0
LINE
8
DEFAULT_255_2_778
10
90.2031189
20
112.6665124
11
90.2031189
21
110.9171124
0
LINE
8
DEFAULT_255_2_778
10
90.2031189
20
110.9171124
11
80.2153189
21
110.9171124
0
LINE
8
DEFAULT_255_2_778
10
80.2153189
20
110.9171124
11
80.2153189
21
112.6665124
0
LINE
8
DEFAULT_255_2_778
10
80.2153189
20
112.6665124
11
90.2031189
21
112.6665124
0
LINE
8
DEFAULT_255_2_778
10
76.7196506
20
131.4609124
11
93.6987506
21
131.4609124
0
LINE
8
DEFAULT_255_2_778
10
93.6987506
20
131.4609124
11
93.6987506
21
129.7115124
0
LINE
8
DEFAULT_255_2_778
10
93.6987506
20
129.7115124
11
76.7196506
21
129.7115124
0
LINE
8
DEFAULT_255_2_778
10
76.7196506
20
129.7115124
11
76.7196506
21
131.4609124
0
LINE
8
DEFAULT_255_2_778
10
7.5543996
20
110.315927
11
5.5567996
21
110.315927
0
LINE
8
DEFAULT_255_2_778
10
5.5567996
20
110.315927
11
5.5567996
21
108.316427
0
LINE
8
DEFAULT_255_2_778
10
5.5567996
20
108.316427
11
7.5543996
21
108.316427
0
LINE
8
DEFAULT_255_2_778
10
7.5543996
20
108.316427
11
7.5543996
21
110.315927
0
ARC
8
DEFAULT_255_2_778
10
19.2391386
20
138.9339146
40
0.1989401
50
134.7837935
51
180.0283124
0
ARC
8
DEFAULT_255_2_778
10
19.2399155
20
138.93566
40
0.1982565
50
89.9973858
51
135.2984889
0
LINE
8
DEFAULT_255_2_778
10
19.2399246
20
139.1339166
11
19.2402986
21
139.1339163
0
LINE
8
DEFAULT_255_2_778
10
23.8346986
20
139.1339163
11
23.8350726
21
139.1339166
0
ARC
8
DEFAULT_255_2_778
10
23.8350816
20
138.93566
40
0.1982567
50
44.7015111
51
90.0026142
0
ARC
8
DEFAULT_255_2_778
10
23.8358585
20
138.9339146
40
0.1989401
50
359.9716876
51
45.2162065
0
ARC
8
DEFAULT_255_2_778
10
19.5485436
20
135.1424118
40
0.5081671
50
178.7490664
51
265.6385705
0
ARC
8
DEFAULT_255_2_778
10
19.6790821
20
135.1535055
40
0.6385845
50
179.9093084
51
179.9999841
0
ARC
8
DEFAULT_255_2_778
10
23.5743909
20
135.1540613
40
0.4601079
50
359.9811166
51
0.0566549
0
ARC
8
DEFAULT_255_2_778
10
23.5260681
20
135.1427692
40
0.5085528
50
274.4016718
51
1.2552302
0
ARC
8
DEFAULT_255_2_778
10
21.5371865
20
161.7972358
40
18.9921945
50
258.0530782
51
269.9928957
0
LINE
8
DEFAULT_255_2_778
10
21.5348316
20
142.8050414
11
21.5371361
21
142.8050413
0
ARC
8
DEFAULT_255_2_778
10
21.5371227
20
161.7961625
40
18.9911212
50
270.0000402
51
281.9472613
0
ARC
8
DEFAULT_255_2_778
10
19.3764042
20
137.610826
40
2.7939057
50
179.9981478
51
181.6921638
0
ARC
8
DEFAULT_255_2_778
10
19.236703
20
137.6035041
40
2.6540512
50
181.6232257
51
191.1555469
0
ARC
8
DEFAULT_255_2_778
10
18.7437197
20
137.4952403
40
2.1494638
50
190.8666173
51
204.8389693
0
ARC
8
DEFAULT_255_2_778
10
18.2273022
20
137.2640907
40
1.5837364
50
205.0981767
51
214.5762532
0
ARC
8
DEFAULT_255_2_778
10
17.8751473
20
137.0177861
40
1.1540073
50
214.4297173
51
227.4519884
0
ARC
8
DEFAULT_255_2_778
10
17.6474735
20
136.7655617
40
0.814241
50
227.2531081
51
245.7074768
0
ARC
8
DEFAULT_255_2_778
10
17.5736018
20
136.6095807
40
0.6416882
50
245.9897186
51
267.6881216
0
ARC
8
DEFAULT_255_2_778
10
17.5660529
20
136.5286107
40
0.5604958
50
268.1252929
51
269.9971013
0
ARC
8
DEFAULT_255_2_778
10
17.5663432
20
136.3737768
40
0.4056622
50
269.9549839
51
270.1349327
0
ARC
8
DEFAULT_255_2_778
10
19.1982547
20
138.7004137
40
0.714518
50
179.9988745
51
180.7535804
0
ARC
8
DEFAULT_255_2_778
10
19.2006089
20
138.7004532
40
0.7168721
50
160.7062252
51
180.0020398
0
ARC
8
DEFAULT_255_2_778
10
19.1842083
20
138.705243
40
0.6998106
50
139.2321561
51
160.6326867
0
ARC
8
DEFAULT_255_2_778
10
19.1747753
20
138.7122681
40
0.6880796
50
115.5969871
51
139.1622807
0
ARC
8
DEFAULT_255_2_778
10
19.1746144
20
138.7079542
40
0.6919035
50
93.2540896
51
115.4306347
0
ARC
8
DEFAULT_255_2_778
10
19.1733595
20
138.726436
40
0.6733803
50
90.0051873
51
93.2367506
0
ARC
8
DEFAULT_255_2_778
10
19.514257
20
134.7005124
40
0.9667977
50
246.231623
51
269.8957919
0
ARC
8
DEFAULT_255_2_778
10
19.5294581
20
134.7254907
40
0.9957915
50
223.0351124
51
246.0104142
0
ARC
8
DEFAULT_255_2_778
10
19.5650786
20
134.7577843
40
1.0438668
50
201.0693681
51
222.9964411
0
ARC
8
DEFAULT_255_2_778
10
19.6013857
20
134.7719332
40
1.0828332
50
182.9476018
51
201.077338
0
ARC
8
DEFAULT_255_2_778
10
19.6049503
20
134.7730668
40
1.0864517
50
180.0026653
51
182.9976415
0
ARC
8
DEFAULT_255_2_778
10
23.4785756
20
134.7730544
40
1.0763229
50
357.6001519
51
359.9979697
0
ARC
8
DEFAULT_255_2_778
10
23.4636475
20
134.773673
40
1.0912639
50
338.9953545
51
357.6005248
0
ARC
8
DEFAULT_255_2_778
10
23.5083167
20
134.7577852
40
1.0438689
50
317.0035894
51
338.9306216
0
ARC
8
DEFAULT_255_2_778
10
23.5464483
20
134.7219702
40
0.9915553
50
293.9398217
51
317.0146271
0
ARC
8
DEFAULT_255_2_778
10
23.5592156
20
134.7001555
40
0.9664407
50
270.0997731
51
293.7728114
0
ARC
8
DEFAULT_255_2_778
10
24.2725016
20
136.5789017
40
0.2139956
50
182.9961845
51
215.736338
0
ARC
8
DEFAULT_255_2_778
10
24.3762246
20
136.6560159
40
0.3432339
50
216.0726331
51
240.5556803
0
ARC
8
DEFAULT_255_2_778
10
24.5161322
20
136.8864815
40
0.6127661
50
239.7567128
51
256.0778474
0
ARC
8
DEFAULT_255_2_778
10
24.5603006
20
137.0465195
40
0.778742
50
255.7566725
51
267.1386928
0
ARC
8
DEFAULT_255_2_778
10
24.5660738
20
137.1205385
40
0.8529595
50
266.9995737
51
269.4642755
0
ARC
8
DEFAULT_255_2_778
10
23.4466473
20
134.7708095
40
0.6087553
50
359.9999788
51
0.2077031
0
ARC
8
DEFAULT_255_2_778
10
23.4435291
20
134.7711234
40
0.6118737
50
353.8508317
51
359.9705885
0
ARC
8
DEFAULT_255_2_778
10
23.445759
20
134.7671303
40
0.6092403
50
321.9010841
51
354.2017361
0
ARC
8
DEFAULT_255_2_778
10
23.5464492
20
134.6929259
40
0.4842312
50
296.749686
51
321.4593735
0
ARC
8
DEFAULT_255_2_778
10
23.5601494
20
134.6672787
40
0.455163
50
270.0943002
51
296.6627719
0
ARC
8
DEFAULT_255_2_778
10
19.5137488
20
134.6668613
40
0.4547456
50
243.3247657
51
269.9054737
0
ARC
8
DEFAULT_255_2_778
10
19.5285554
20
134.6944556
40
0.4860509
50
218.6003369
51
243.2254355
0
ARC
8
DEFAULT_255_2_778
10
19.6289887
20
134.7674599
40
0.610113
50
185.821054
51
218.0739889
0
ARC
8
DEFAULT_255_2_778
10
19.6292877
20
134.7711302
40
0.6107934
50
180.0296619
51
186.1607349
0
ARC
8
DEFAULT_255_2_778
10
19.6246155
20
134.7708143
40
0.606121
50
179.7918441
51
180.0000213
0
ARC
8
DEFAULT_255_2_778
10
18.5094121
20
137.0749101
40
0.8073191
50
270.4532582
51
284.0423068
0
ARC
8
DEFAULT_255_2_778
10
18.5617416
20
136.87646
40
0.6021078
50
283.793544
51
300.3967033
0
ARC
8
DEFAULT_255_2_778
10
18.6984007
20
136.6551979
40
0.3421636
50
299.4054654
51
323.9662827
0
ARC
8
DEFAULT_255_2_778
10
18.8038369
20
136.5780437
40
0.211514
50
324.0660567
51
357.2013442
0
ARC
8
DEFAULT_255_2_778
10
23.692656
20
137.6111402
40
2.7985426
50
358.5535025
51
0.0015567
0
ARC
8
DEFAULT_255_2_778
10
23.8337588
20
137.6041438
40
2.6573105
50
348.8486497
51
358.6275093
0
ARC
8
DEFAULT_255_2_778
10
24.3299774
20
137.4954403
40
2.1494638
50
335.1610307
51
349.1333827
0
ARC
8
DEFAULT_255_2_778
10
24.8463949
20
137.2642907
40
1.5837364
50
325.4237468
51
334.9018233
0
ARC
8
DEFAULT_255_2_778
10
25.1963576
20
137.0203194
40
1.157135
50
312.5532035
51
325.5363599
0
ARC
8
DEFAULT_255_2_778
10
25.4253393
20
136.7671964
40
0.8158214
50
294.3105678
51
312.7288757
0
ARC
8
DEFAULT_255_2_778
10
25.5003494
20
136.6085705
40
0.6403879
50
272.2938187
51
294.0372117
0
ARC
8
DEFAULT_255_2_778
10
25.5082694
20
136.523537
40
0.555124
50
270.0023215
51
271.828296
0
ARC
8
DEFAULT_255_2_778
10
25.5082918
20
136.5284362
40
0.5600231
50
269.8063069
51
270.0000163
0
ARC
8
DEFAULT_255_2_778
10
26.4655821
20
139.6997334
40
0.5001837
50
90.1012078
51
179.9561396
0
ARC
8
DEFAULT_255_2_778
10
25.7327056
20
139.6860477
40
0.2331179
50
3.4598722
51
28.8457706
0
ARC
8
DEFAULT_255_2_778
10
25.6514336
20
139.6377976
40
0.3275985
50
29.3798003
51
51.3142387
0
ARC
8
DEFAULT_255_2_778
10
25.5312174
20
139.4894942
40
0.5185042
50
51.1880274
51
70.2887509
0
ARC
8
DEFAULT_255_2_778
10
25.4566899
20
139.2935064
40
0.7281559
50
69.9694618
51
87.9103693
0
ARC
8
DEFAULT_255_2_778
10
25.4504397
20
139.2233476
40
0.7985044
50
87.6457502
51
89.4576155
0
ARC
8
DEFAULT_255_2_778
10
17.6244124
20
139.21967
40
0.8021824
50
90.5438278
51
91.8331329
0
ARC
8
DEFAULT_255_2_778
10
17.6186266
20
139.290822
40
0.7308903
50
91.5582259
51
110.0040764
0
ARC
8
DEFAULT_255_2_778
10
17.5431282
20
139.489349
40
0.5185225
50
109.6692737
51
128.7888737
0
ARC
8
DEFAULT_255_2_778
10
17.4207038
20
139.6398022
40
0.3245593
50
128.5817743
51
150.7241887
0
ARC
8
DEFAULT_255_2_778
10
17.3418029
20
139.6858079
40
0.2332436
50
151.1039728
51
176.4829719
0
ARC
8
DEFAULT_255_2_778
10
16.6089004
20
139.6998189
40
0.5000982
50
0.0340737
51
89.8971025
0
ARC
8
DEFAULT_255_2_778
10
21.0048585
20
137.5952701
40
3.9230911
50
179.7714914
51
180.0000026
0
ARC
8
DEFAULT_255_2_778
10
20.9713042
20
137.5952408
40
3.8895368
50
179.9995699
51
180.3858544
0
ARC
8
DEFAULT_255_2_778
10
20.6835984
20
137.5893421
40
3.6018
50
180.3228446
51
185.6503788
0
ARC
8
DEFAULT_255_2_778
10
19.811362
20
137.4891484
40
2.7239721
50
185.3595136
51
193.2953098
0
ARC
8
DEFAULT_255_2_778
10
19.1809405
20
137.3477443
40
2.0779417
50
193.4983601
51
198.7091085
0
ARC
8
DEFAULT_255_2_778
10
18.4568106
20
137.0951097
40
1.3110583
50
198.4027254
51
202.3198899
0
ARC
8
DEFAULT_255_2_778
10
18.1905429
20
136.9872348
40
1.0237723
50
202.39431
51
207.9991514
0
ARC
8
DEFAULT_255_2_778
10
18.1095723
20
136.9461839
40
0.9330088
50
208.1076158
51
209.8948913
0
ARC
8
DEFAULT_255_2_778
10
17.6943375
20
136.6724947
40
0.4376663
50
205.9230995
51
243.9420227
0
ARC
8
DEFAULT_255_2_778
10
17.5662434
20
136.4540415
40
0.1861334
50
249.8352018
51
269.8290771
0
ARC
8
DEFAULT_255_2_778
10
17.5656874
20
136.4481893
40
0.1802802
50
270.0002548
51
270.5120667
0
ARC
8
DEFAULT_255_2_778
10
18.4790792
20
139.4830456
40
0.7918417
50
270.3197742
51
284.1757255
0
ARC
8
DEFAULT_255_2_778
10
18.5294429
20
139.3000567
40
0.6021043
50
283.7934981
51
300.3967543
0
ARC
8
DEFAULT_255_2_778
10
18.6653043
20
139.0799792
40
0.3435838
50
299.4244424
51
323.8949134
0
ARC
8
DEFAULT_255_2_778
10
18.7719293
20
139.0013556
40
0.2111082
50
324.0828073
51
357.2742446
0
ARC
8
DEFAULT_255_2_778
10
19.1969851
20
139.0003542
40
0.2143771
50
180.0002037
51
182.4162421
0
ARC
8
DEFAULT_255_2_778
10
19.1959788
20
139.0004447
40
0.2133708
50
150.1591898
51
180.0245048
0
ARC
8
DEFAULT_255_2_778
10
19.1697667
20
139.0156037
40
0.1830912
50
126.7969733
51
150.1924163
0
ARC
8
DEFAULT_255_2_778
10
19.1754417
20
139.0072999
40
0.1931401
50
95.7598523
51
126.669555
0
ARC
8
DEFAULT_255_2_778
10
19.1733871
20
139.0235046
40
0.1768116
50
90.0286965
51
95.6244411
0
ARC
8
DEFAULT_255_2_778
10
23.9005257
20
139.023965
40
0.1763513
50
85.0836719
51
89.9763316
0
ARC
8
DEFAULT_255_2_778
10
23.8982828
20
139.0058878
40
0.1945556
50
53.4671502
51
84.8818117
0
ARC
8
DEFAULT_255_2_778
10
23.9017226
20
139.0137882
40
0.1861699
50
29.9087487
51
52.8703814
0
ARC
8
DEFAULT_255_2_778
10
23.8770566
20
139.0003901
40
0.2142326
50
359.9909805
51
29.7254788
0
ARC
8
DEFAULT_255_2_778
10
23.8767748
20
139.0003572
40
0.2145144
50
357.5845051
51
359.9997967
0
ARC
8
DEFAULT_255_2_778
10
24.3045141
20
139.0024007
40
0.2137032
50
182.9731553
51
215.7593706
0
ARC
8
DEFAULT_255_2_778
10
24.4085246
20
139.0796159
40
0.3432339
50
216.0726331
51
240.5556803
0
ARC
8
DEFAULT_255_2_778
10
24.5479064
20
139.308785
40
0.6113812
50
239.738074
51
256.0964323
0
ARC
8
DEFAULT_255_2_778
10
24.5926006
20
139.4701195
40
0.778742
50
255.7566725
51
267.1386928
0
ARC
8
DEFAULT_255_2_778
10
24.5983738
20
139.5441385
40
0.8529595
50
266.9995737
51
269.4642755
0
ARC
8
DEFAULT_255_2_778
10
25.5086177
20
136.4484295
40
0.1805234
50
269.3908675
51
269.9936317
0
ARC
8
DEFAULT_255_2_778
10
25.4816589
20
136.5442394
40
0.2776432
50
275.5679694
51
327.2015633
0
ARC
8
DEFAULT_255_2_778
10
25.1347189
20
136.8442315
40
0.7345897
50
322.1849903
51
330.4220422
0
ARC
8
DEFAULT_255_2_778
10
24.9669756
20
136.9440614
40
0.929759
50
330.1742327
51
331.9337011
0
ARC
8
DEFAULT_255_2_778
10
24.9057619
20
136.9765927
40
0.9990801
50
331.9391422
51
337.4785824
0
ARC
8
DEFAULT_255_2_778
10
24.5866225
20
137.1067266
40
1.3437274
50
337.5651451
51
341.5386906
0
ARC
8
DEFAULT_255_2_778
10
23.6825536
20
137.4085178
40
2.2968373
50
341.5393381
51
346.2531915
0
ARC
8
DEFAULT_255_2_778
10
23.2548606
20
137.4904246
40
2.7318319
50
346.716139
51
354.6290667
0
ARC
8
DEFAULT_255_2_778
10
22.389489
20
137.5904416
40
3.6028139
50
354.3336452
51
358.3300692
0
ARC
8
DEFAULT_255_2_778
10
22.4434333
20
137.5885382
40
3.5488369
50
358.3354064
51
359.9983097
0
ARC
8
DEFAULT_255_2_778
10
22.4628524
20
137.5884036
40
3.5294179
50
0.0004856
51
0.3654684
0
ARC
8
DEFAULT_255_2_778
10
27.2461662
20
142.4932047
40
1.0124378
50
0.1874101
51
26.4661149
0
ARC
8
DEFAULT_255_2_778
10
27.2557695
20
142.4942789
40
1.0033677
50
26.6555986
51
53.172311
0
ARC
8
DEFAULT_255_2_778
10
27.2588285
20
142.4959261
40
1.0002165
50
53.2560149
51
79.8263684
0
ARC
8
DEFAULT_255_2_778
10
27.2599984
20
142.4896884
40
1.0061521
50
79.9546814
51
88.8427937
0
ARC
8
DEFAULT_255_2_778
10
27.2600154
20
142.4893755
40
1.0064645
50
88.8441212
51
89.9999107
0
ARC
8
DEFAULT_255_2_778
10
27.2600122
20
142.4902585
40
1.0055816
50
89.9997267
51
106.3819612
0
ARC
8
DEFAULT_255_2_778
10
21.5375931
20
161.7933715
40
19.1278822
50
277.2069975
51
286.5193496
0
ARC
8
DEFAULT_255_2_778
10
21.5375281
20
161.7946567
40
19.1291654
50
269.9999115
51
277.2067077
0
ARC
8
DEFAULT_255_2_778
10
21.5373877
20
161.7932581
40
19.1277668
50
257.1440909
51
270.000332
0
ARC
8
DEFAULT_255_2_778
10
21.5384513
20
161.7974402
40
19.1320807
50
253.4811083
51
257.1437723
0
ARC
8
DEFAULT_255_2_778
10
15.8149849
20
142.4902585
40
1.0055815
50
73.6180388
51
90.0002733
0
ARC
8
DEFAULT_255_2_778
10
15.8149817
20
142.4893755
40
1.0064646
50
90.0000893
51
91.1558788
0
ARC
8
DEFAULT_255_2_778
10
15.8149987
20
142.4896884
40
1.006152
50
91.1572063
51
100.0453186
0
ARC
8
DEFAULT_255_2_778
10
15.815282
20
142.4979692
40
0.9980491
50
100.1442507
51
126.773366
0
ARC
8
DEFAULT_255_2_778
10
15.8188023
20
142.4946341
40
1.0028284
50
126.8204003
51
153.3516349
0
ARC
8
DEFAULT_255_2_778
10
15.828831
20
142.4932047
40
1.0124378
50
153.5338851
51
179.8125899
0
ARC
8
DEFAULT_255_2_778
10
27.5233593
20
139.6539673
40
0.3853907
50
2.773617
51
37.2825567
0
ARC
8
DEFAULT_255_2_778
10
27.307958
20
139.5181208
40
0.6394572
50
35.2758791
51
54.2237305
0
ARC
8
DEFAULT_255_2_778
10
27.1863215
20
139.3469978
40
0.8494027
50
54.3153201
51
67.2497301
0
ARC
8
DEFAULT_255_2_778
10
27.3917235
20
141.1473514
40
0.9749351
50
270.0044128
51
272.724968
0
ARC
8
DEFAULT_255_2_778
10
27.3892457
20
141.1802974
40
1.0079621
50
272.776621
51
292.4337214
0
ARC
8
DEFAULT_255_2_778
10
27.3905379
20
141.171712
40
0.9995354
50
292.5530599
51
315.0310067
0
ARC
8
DEFAULT_255_2_778
10
27.390679
20
141.1716844
40
0.9994162
50
315.0264069
51
337.511904
0
ARC
8
DEFAULT_255_2_778
10
27.3815756
20
141.1741907
40
1.0087866
50
337.5781436
51
357.4503448
0
ARC
8
DEFAULT_255_2_778
10
27.4119715
20
141.1720768
40
0.9783271
50
357.4948335
51
359.9964541
0
ARC
8
DEFAULT_255_2_778
10
21.5378354
20
161.794341
40
20.129064
50
277.4639989
51
286.5172193
0
ARC
8
DEFAULT_255_2_778
10
21.5379308
20
161.7945548
40
20.1292635
50
269.9999083
51
277.4636507
0
ARC
8
DEFAULT_255_2_778
10
21.5377997
20
161.7934339
40
20.1281426
50
257.3720254
51
270.0002814
0
ARC
8
DEFAULT_255_2_778
10
21.5390595
20
161.7986189
40
20.1334775
50
253.4832465
51
257.3717529
0
ARC
8
DEFAULT_255_2_778
10
15.6715852
20
141.1720737
40
0.9860866
50
180.0033387
51
182.8636837
0
ARC
8
DEFAULT_255_2_778
10
15.6886884
20
141.1729892
40
1.003214
50
182.8670995
51
202.4789538
0
ARC
8
DEFAULT_255_2_778
10
15.6851141
20
141.1716819
40
0.9994115
50
202.4880488
51
224.973652
0
ARC
8
DEFAULT_255_2_778
10
15.6852553
20
141.1717065
40
0.9995287
50
224.9689307
51
247.447029
0
ARC
8
DEFAULT_255_2_778
10
15.6856182
20
141.1766458
40
1.0042309
50
247.5359902
51
269.9075916
0
ARC
8
DEFAULT_255_2_778
10
15.8894756
20
139.3469978
40
0.8494027
50
112.7502699
51
125.6846799
0
ARC
8
DEFAULT_255_2_778
10
15.7678338
20
139.5181259
40
0.63945
50
125.7761456
51
144.7242129
0
ARC
8
DEFAULT_255_2_778
10
15.5524389
20
139.6539667
40
0.385392
50
142.7174719
51
177.226301
0
ARC
8
DEFAULT_255_2_778
10
27.2605379
20
141.2776312
40
0.9740149
50
270.0035678
51
272.575408
0
ARC
8
DEFAULT_255_2_778
10
27.2580591
20
141.3109624
40
1.0074243
50
272.6310651
51
292.4393709
0
ARC
8
DEFAULT_255_2_778
10
27.2591704
20
141.3033388
40
0.9999555
50
292.5472509
51
315.0204857
0
ARC
8
DEFAULT_255_2_778
10
27.2581289
20
141.3037859
40
1.0010084
50
315.0445245
51
337.4937895
0
ARC
8
DEFAULT_255_2_778
10
27.2503756
20
141.3053907
40
1.0087866
50
337.5781436
51
357.4503448
0
ARC
8
DEFAULT_255_2_778
10
27.2807715
20
141.3032768
40
0.9783271
50
357.4948335
51
359.9964541
0
ARC
8
DEFAULT_255_2_778
10
15.8017485
20
141.3032933
40
0.9855499
50
180.0044785
51
183.0554129
0
ARC
8
DEFAULT_255_2_778
10
15.8204116
20
141.3044166
40
1.0042464
50
183.0626537
51
202.468623
0
ARC
8
DEFAULT_255_2_778
10
15.8158125
20
141.302881
40
0.9994097
50
202.4880386
51
224.9736822
0
ARC
8
DEFAULT_255_2_778
10
15.8159571
20
141.3029088
40
0.9995316
50
224.9689515
51
247.4469848
0
ARC
8
DEFAULT_255_2_778
10
15.8163182
20
141.3078458
40
1.0042309
50
247.5359902
51
269.9075916
0
ARC
8
DEFAULT_255_2_778
10
26.4936179
20
139.6722976
40
0.5001194
50
90.0938616
51
179.963494
0
ARC
8
DEFAULT_255_2_778
10
27.4304248
20
142.7156843
40
1.0074594
50
89.9971705
51
107.0400644
0
ARC
8
DEFAULT_255_2_778
10
27.4304635
20
142.7143703
40
1.0087733
50
88.7218342
51
89.9993732
0
ARC
8
DEFAULT_255_2_778
10
27.4304685
20
142.7146292
40
1.0085145
50
80.5013138
51
88.7217875
0
ARC
8
DEFAULT_255_2_778
10
27.429378
20
142.7242097
40
0.9992487
50
53.5823645
51
80.3489879
0
ARC
8
DEFAULT_255_2_778
10
27.4261001
20
142.7215965
40
1.0032982
50
26.8419254
51
53.5203248
0
ARC
8
DEFAULT_255_2_778
10
27.4203602
20
142.7215644
40
1.0084374
50
3.4816182
51
26.6963001
0
ARC
8
DEFAULT_255_2_778
10
27.4536325
20
142.7242096
40
0.9750659
50
0.0062664
51
3.4451978
0
ARC
8
DEFAULT_255_2_778
10
23.8762924
20
138.7003828
40
0.7144675
50
359.2488404
51
359.9986823
0
ARC
8
DEFAULT_255_2_778
10
23.8736163
20
138.7001225
40
0.7171437
50
0.0194866
51
19.3141768
0
ARC
8
DEFAULT_255_2_778
10
23.8919678
20
138.7065076
40
0.6977132
50
19.3177909
51
40.7792283
0
ARC
8
DEFAULT_255_2_778
10
23.8990631
20
138.7114059
40
0.6891418
50
40.8561428
51
64.3845959
0
ARC
8
DEFAULT_255_2_778
10
23.8997873
20
138.7075791
40
0.6922833
50
64.5755639
51
86.4094977
0
ARC
8
DEFAULT_255_2_778
10
23.9011203
20
138.7266375
40
0.6731788
50
86.4211503
51
89.9933415
0
ARC
8
DEFAULT_255_2_778
10
16.581615
20
139.6722334
40
0.5001837
50
0.0438604
51
89.8987922
0
ARC
8
DEFAULT_255_2_778
10
15.6442126
20
142.7156687
40
1.0076678
50
72.9243304
51
90.0022165
0
ARC
8
DEFAULT_255_2_778
10
15.6441848
20
142.7139871
40
1.0093494
50
90.0006356
51
91.2405986
0
ARC
8
DEFAULT_255_2_778
10
15.6441749
20
142.7149686
40
1.0083679
50
91.241244
51
99.4624194
0
ARC
8
DEFAULT_255_2_778
10
15.6464165
20
142.7233396
40
1.0004858
50
99.667855
51
126.4007704
0
ARC
8
DEFAULT_255_2_778
10
15.648389
20
142.7225789
40
1.0022691
50
126.4657276
51
153.1720265
0
ARC
8
DEFAULT_255_2_778
10
15.6553719
20
142.7217941
40
1.0088576
50
153.3112316
51
176.9733714
0
ARC
8
DEFAULT_255_2_778
10
15.6233133
20
142.7242383
40
0.9767147
50
177.0172562
51
179.9954255
0
LINE
8
DEFAULT_255_2_778
10
19.5373986
20
134.6349163
11
19.5098986
21
134.6357163
0
LINE
8
DEFAULT_255_2_778
10
23.5650986
20
134.6357163
11
23.5375986
21
134.6349163
0
LINE
8
DEFAULT_255_2_778
10
24.0564986
20
135.9679163
11
24.0598986
21
136.5677163
0
LINE
8
DEFAULT_255_2_778
10
24.0598986
20
136.5677163
11
24.0916986
21
138.9907163
0
LINE
8
DEFAULT_255_2_778
10
24.0916986
20
138.9907163
11
24.0344986
21
138.9336163
0
LINE
8
DEFAULT_255_2_778
10
24.0344986
20
138.9336163
11
24.0344986
21
135.1545163
0
LINE
8
DEFAULT_255_2_778
10
24.0344986
20
135.1545163
11
24.0564986
21
134.7730163
0
LINE
8
DEFAULT_255_2_778
10
24.0564986
20
134.7730163
11
24.0564986
21
135.9679163
0
LINE
8
DEFAULT_255_2_778
10
24.0564986
20
135.9679163
11
25.5073986
21
135.9679163
0
LINE
8
DEFAULT_255_2_778
10
25.5073986
20
135.9679163
11
25.5073986
21
136.2679163
0
LINE
8
DEFAULT_255_2_778
10
25.5073986
20
136.2679163
11
25.4581986
21
140.0218163
0
LINE
8
DEFAULT_255_2_778
10
25.4581986
20
140.0218163
11
25.4581986
21
140.2216163
0
LINE
8
DEFAULT_255_2_778
10
25.4581986
20
140.2216163
11
17.6167986
21
140.2216163
0
LINE
8
DEFAULT_255_2_778
10
17.6167986
20
140.2216163
11
17.6167986
21
140.0218163
0
LINE
8
DEFAULT_255_2_778
10
17.6167986
20
140.0218163
11
17.5675986
21
136.2679163
0
LINE
8
DEFAULT_255_2_778
10
17.5675986
20
136.2679163
11
17.5675986
21
135.9679163
0
LINE
8
DEFAULT_255_2_778
10
17.5675986
20
135.9679163
11
19.0184986
21
135.9679163
0
LINE
8
DEFAULT_255_2_778
10
19.0184986
20
135.9679163
11
19.0184986
21
134.7733163
0
LINE
8
DEFAULT_255_2_778
10
19.0184986
20
134.7733163
11
19.0404986
21
135.1548163
0
LINE
8
DEFAULT_255_2_778
10
19.0404986
20
135.1548163
11
19.0404986
21
138.9336163
0
LINE
8
DEFAULT_255_2_778
10
19.0404986
20
138.9336163
11
18.9832986
21
138.9907163
0
LINE
8
DEFAULT_255_2_778
10
18.9832986
20
138.9907163
11
19.0150986
21
136.5677163
0
LINE
8
DEFAULT_255_2_778
10
19.0150986
20
136.5677163
11
19.0184986
21
135.9679163
0
LINE
8
DEFAULT_255_2_778
10
17.1042986
20
143.3384163
11
15.9323986
21
143.6786163
0
LINE
8
DEFAULT_255_2_778
10
15.9323986
20
143.6786163
11
17.1142986
21
143.3341163
0
LINE
8
DEFAULT_255_2_778
10
17.1142986
20
143.3341163
11
17.1264986
21
143.3304163
0
LINE
8
DEFAULT_255_2_778
10
17.1264986
20
143.3304163
11
17.1433986
21
143.3257163
0
LINE
8
DEFAULT_255_2_778
10
17.1433986
20
143.3257163
11
17.1904986
21
143.3130163
0
LINE
8
DEFAULT_255_2_778
10
17.1904986
20
143.3130163
11
17.2534986
21
143.2968163
0
LINE
8
DEFAULT_255_2_778
10
17.2534986
20
143.2968163
11
17.3293986
21
143.2783163
0
LINE
8
DEFAULT_255_2_778
10
17.3293986
20
143.2783163
11
17.4156986
21
143.2582163
0
LINE
8
DEFAULT_255_2_778
10
17.4156986
20
143.2582163
11
17.6056986
21
143.2164163
0
LINE
8
DEFAULT_255_2_778
10
25.4684986
20
143.2164163
11
25.6584986
21
143.2582163
0
LINE
8
DEFAULT_255_2_778
10
25.6584986
20
143.2582163
11
25.7447986
21
143.2783163
0
LINE
8
DEFAULT_255_2_778
10
25.7447986
20
143.2783163
11
25.8206986
21
143.2968163
0
LINE
8
DEFAULT_255_2_778
10
25.8206986
20
143.2968163
11
25.8836986
21
143.3130163
0
LINE
8
DEFAULT_255_2_778
10
25.8836986
20
143.3130163
11
25.9307986
21
143.3257163
0
LINE
8
DEFAULT_255_2_778
10
25.9307986
20
143.3257163
11
25.9476986
21
143.3304163
0
LINE
8
DEFAULT_255_2_778
10
25.9476986
20
143.3304163
11
25.9598986
21
143.3341163
0
LINE
8
DEFAULT_255_2_778
10
25.9598986
20
143.3341163
11
25.9672986
21
143.3368163
0
LINE
8
DEFAULT_255_2_778
10
25.9672986
20
143.3368163
11
27.1602986
21
143.6863163
0
LINE
8
DEFAULT_255_2_778
10
17.6164986
20
140.2218163
11
17.1949986
21
140.2197163
0
LINE
8
DEFAULT_255_2_778
10
17.1949986
20
140.2197163
11
17.0185986
21
140.2173163
0
LINE
8
DEFAULT_255_2_778
10
17.0185986
20
140.2173163
11
16.8729986
21
140.2144163
0
LINE
8
DEFAULT_255_2_778
10
16.8729986
20
140.2144163
11
16.7600986
21
140.2110163
0
LINE
8
DEFAULT_255_2_778
10
16.7600986
20
140.2110163
11
16.6790986
21
140.2073163
0
LINE
8
DEFAULT_255_2_778
10
16.6790986
20
140.2073163
11
16.6502986
21
140.2054163
0
LINE
8
DEFAULT_255_2_778
10
16.6502986
20
140.2054163
11
16.6290986
21
140.2036163
0
LINE
8
DEFAULT_255_2_778
10
16.6290986
20
140.2036163
11
16.6155986
21
140.2017163
0
LINE
8
DEFAULT_255_2_778
10
16.6155986
20
140.2017163
11
16.6097986
21
140.1999163
0
LINE
8
DEFAULT_255_2_778
10
24.5580986
20
136.2676163
11
24.5546986
21
135.9679163
0
LINE
8
DEFAULT_255_2_778
10
24.5546986
20
135.9679163
11
24.5546986
21
134.7730163
0
LINE
8
DEFAULT_255_2_778
10
24.5546986
20
134.7730163
11
24.0553986
21
134.7730163
0
LINE
8
DEFAULT_255_2_778
10
23.5608986
20
134.2121163
11
23.5608986
21
133.7337163
0
LINE
8
DEFAULT_255_2_778
10
23.5608986
20
133.7337163
11
19.5129986
21
133.7337163
0
LINE
8
DEFAULT_255_2_778
10
19.5129986
20
133.7337163
11
19.5129986
21
134.2121163
0
LINE
8
DEFAULT_255_2_778
10
19.0184986
20
134.7730163
11
18.5192986
21
134.7730163
0
LINE
8
DEFAULT_255_2_778
10
18.5192986
20
134.7730163
11
18.5192986
21
135.9679163
0
LINE
8
DEFAULT_255_2_778
10
18.5192986
20
135.9679163
11
18.5157986
21
136.2676163
0
LINE
8
DEFAULT_255_2_778
10
14.6676986
20
139.6726163
11
14.6682986
21
140.1665163
0
LINE
8
DEFAULT_255_2_778
10
14.6682986
20
140.1665163
11
14.6692986
21
140.4057163
0
LINE
8
DEFAULT_255_2_778
10
14.6692986
20
140.4057163
11
14.6711986
21
140.6309163
0
LINE
8
DEFAULT_255_2_778
10
14.6711986
20
140.6309163
11
14.6735986
21
140.8336163
0
LINE
8
DEFAULT_255_2_778
10
14.6735986
20
140.8336163
11
14.6750986
21
140.9232163
0
LINE
8
DEFAULT_255_2_778
10
14.6750986
20
140.9232163
11
14.6766986
21
141.0032163
0
LINE
8
DEFAULT_255_2_778
10
14.6766986
20
141.0032163
11
14.6785986
21
141.0709163
0
LINE
8
DEFAULT_255_2_778
10
14.6785986
20
141.0709163
11
14.6803986
21
141.1238163
0
LINE
8
DEFAULT_255_2_778
10
14.6803986
20
141.1238163
11
14.6824986
21
141.1585163
0
LINE
8
DEFAULT_255_2_778
10
14.6824986
20
141.1585163
11
14.6846986
21
141.1720163
0
LINE
8
DEFAULT_255_2_778
10
26.4643986
20
140.1999163
11
26.4585986
21
140.2017163
0
LINE
8
DEFAULT_255_2_778
10
26.4585986
20
140.2017163
11
26.4450986
21
140.2036163
0
LINE
8
DEFAULT_255_2_778
10
26.4450986
20
140.2036163
11
26.4239986
21
140.2054163
0
LINE
8
DEFAULT_255_2_778
10
26.4239986
20
140.2054163
11
26.3950986
21
140.2073163
0
LINE
8
DEFAULT_255_2_778
10
26.3950986
20
140.2073163
11
26.3138986
21
140.2110163
0
LINE
8
DEFAULT_255_2_778
10
26.3138986
20
140.2110163
11
26.2008986
21
140.2144163
0
LINE
8
DEFAULT_255_2_778
10
26.2008986
20
140.2144163
11
26.0553986
21
140.2173163
0
LINE
8
DEFAULT_255_2_778
10
26.0553986
20
140.2173163
11
25.8788986
21
140.2197163
0
LINE
8
DEFAULT_255_2_778
10
25.8788986
20
140.2197163
11
25.4571986
21
140.2218163
0
LINE
8
DEFAULT_255_2_778
10
28.3889986
20
141.1725163
11
28.3910986
21
141.1590163
0
LINE
8
DEFAULT_255_2_778
10
28.3910986
20
141.1590163
11
28.3932986
21
141.1243163
0
LINE
8
DEFAULT_255_2_778
10
28.3932986
20
141.1243163
11
28.3950986
21
141.0714163
0
LINE
8
DEFAULT_255_2_778
10
28.3950986
20
141.0714163
11
28.3969986
21
141.0037163
0
LINE
8
DEFAULT_255_2_778
10
28.3969986
20
141.0037163
11
28.3984986
21
140.9238163
0
LINE
8
DEFAULT_255_2_778
10
28.3984986
20
140.9238163
11
28.4000986
21
140.8341163
0
LINE
8
DEFAULT_255_2_778
10
28.4000986
20
140.8341163
11
28.4024986
21
140.6314163
0
LINE
8
DEFAULT_255_2_778
10
28.4024986
20
140.6314163
11
28.4043986
21
140.4063163
0
LINE
8
DEFAULT_255_2_778
10
28.4043986
20
140.4063163
11
28.4053986
21
140.1671163
0
LINE
8
DEFAULT_255_2_778
10
28.4053986
20
140.1671163
11
28.4058986
21
139.6731163
0
LINE
8
DEFAULT_255_2_778
10
19.5362986
20
134.6354163
11
23.5362986
21
134.6354163
0
LINE
8
DEFAULT_255_2_778
10
23.5362986
20
134.6354163
11
23.5605986
21
134.2126163
0
LINE
8
DEFAULT_255_2_778
10
23.5605986
20
134.2126163
11
19.5127986
21
134.2126163
0
LINE
8
DEFAULT_255_2_778
10
19.5127986
20
134.2126163
11
19.5362986
21
134.6354163
0
LINE
8
DEFAULT_255_2_778
10
25.9926986
20
137.6109163
11
26.4919986
21
137.6109163
0
LINE
8
DEFAULT_255_2_778
10
26.4919986
20
137.6109163
11
26.4919986
21
140.1726163
0
LINE
8
DEFAULT_255_2_778
10
26.4919986
20
140.1726163
11
26.4646986
21
140.1999163
0
LINE
8
DEFAULT_255_2_778
10
25.9653986
20
139.7001163
11
25.9926986
21
139.6728163
0
LINE
8
DEFAULT_255_2_778
10
25.9926986
20
139.6728163
11
25.9926986
21
137.6109163
0
LINE
8
DEFAULT_255_2_778
10
25.9926986
20
137.6109163
11
25.9653986
21
139.7001163
0
LINE
8
DEFAULT_255_2_778
10
25.4579986
20
140.0218163
11
17.6167986
21
140.0218163
0
LINE
8
DEFAULT_255_2_778
10
16.6097986
20
140.1999163
11
16.5824986
21
140.1726163
0
LINE
8
DEFAULT_255_2_778
10
16.5824986
20
140.1726163
11
16.5824986
21
137.6109163
0
LINE
8
DEFAULT_255_2_778
10
16.5824986
20
137.6109163
11
17.0817986
21
137.6109163
0
LINE
8
DEFAULT_255_2_778
10
17.5672986
20
136.2679163
11
18.5152986
21
136.2679163
0
LINE
8
DEFAULT_255_2_778
10
18.5152986
20
136.2679163
11
18.4834986
21
138.6912163
0
LINE
8
DEFAULT_255_2_778
10
19.1732986
20
139.2003163
11
23.9005986
21
139.2003163
0
LINE
8
DEFAULT_255_2_778
10
24.5903986
20
138.6912163
11
24.5585986
21
136.2679163
0
LINE
8
DEFAULT_255_2_778
10
24.5585986
20
136.2679163
11
25.5066986
21
136.2679163
0
LINE
8
DEFAULT_255_2_778
10
25.9921986
20
137.6109163
11
25.9926986
21
137.6109163
0
LINE
8
DEFAULT_255_2_778
10
28.4286986
20
132.8357163
11
28.4286986
21
139.7837163
0
LINE
8
DEFAULT_255_2_778
10
28.4286986
20
139.7837163
11
28.4278986
21
142.7248163
0
LINE
8
DEFAULT_255_2_778
10
28.4278986
20
142.7248163
11
28.2585986
21
142.4965163
0
LINE
8
DEFAULT_255_2_778
10
14.8163986
20
142.4965163
11
14.6470986
21
142.7248163
0
LINE
8
DEFAULT_255_2_778
10
14.6470986
20
142.7248163
11
14.6462986
21
139.7837163
0
LINE
8
DEFAULT_255_2_778
10
14.6462986
20
139.7837163
11
14.6462986
21
132.8357163
0
LINE
8
DEFAULT_255_2_778
10
27.9082986
20
132.8357163
11
27.9082986
21
139.6726163
0
LINE
8
DEFAULT_255_2_778
10
27.5147986
20
140.1303163
11
27.4369986
21
140.1589163
0
LINE
8
DEFAULT_255_2_778
10
27.4369986
20
140.1589163
11
27.3917986
21
140.1724163
0
LINE
8
DEFAULT_255_2_778
10
28.3902986
20
141.1720163
11
28.2590986
21
141.3032163
0
LINE
8
DEFAULT_255_2_778
10
28.2590986
20
141.3032163
11
28.2590986
21
142.4959163
0
LINE
8
DEFAULT_255_2_778
10
28.2590986
20
142.4959163
11
27.2605986
21
142.4959163
0
LINE
8
DEFAULT_255_2_778
10
15.8151986
20
142.4959163
11
14.8166986
21
142.4959163
0
LINE
8
DEFAULT_255_2_778
10
14.8166986
20
142.4959163
11
14.8166986
21
141.3032163
0
LINE
8
DEFAULT_255_2_778
10
14.8166986
20
141.3032163
11
14.6854986
21
141.1720163
0
LINE
8
DEFAULT_255_2_778
10
15.6839986
20
140.1724163
11
15.6387986
21
140.1589163
0
LINE
8
DEFAULT_255_2_778
10
15.6387986
20
140.1589163
11
15.5609986
21
140.1303163
0
LINE
8
DEFAULT_255_2_778
10
15.1674986
20
139.6726163
11
15.1674986
21
132.8355163
0
LINE
8
DEFAULT_255_2_778
10
28.2590986
20
141.3032163
11
14.8161986
21
141.3032163
0
LINE
8
DEFAULT_255_2_778
10
15.8146986
20
140.3036163
11
27.2605986
21
140.3036163
0
LINE
8
DEFAULT_255_2_778
10
28.4074986
20
132.8355163
11
28.4074986
21
139.6726163
0
LINE
8
DEFAULT_255_2_778
10
28.4074986
20
139.6726163
11
25.9934986
21
139.6726163
0
LINE
8
DEFAULT_255_2_778
10
26.4927986
20
140.1724163
11
27.3917986
21
140.1724163
0
LINE
8
DEFAULT_255_2_778
10
27.3917986
20
140.1724163
11
27.2605986
21
140.3036163
0
LINE
8
DEFAULT_255_2_778
10
27.2605986
20
140.3036163
11
27.2605986
21
142.4959163
0
LINE
8
DEFAULT_255_2_778
10
27.2605986
20
142.4959163
11
26.9768986
21
143.4543163
0
LINE
8
DEFAULT_255_2_778
10
26.9768986
20
143.4543163
11
27.1351986
21
143.6789163
0
LINE
8
DEFAULT_255_2_778
10
23.9011986
20
139.3998163
11
19.1737986
21
139.3998163
0
LINE
8
DEFAULT_255_2_778
10
19.1737986
20
139.3998163
11
19.1737986
21
139.2000163
0
LINE
8
DEFAULT_255_2_778
10
19.1737986
20
139.2000163
11
19.2402986
21
139.1336163
0
LINE
8
DEFAULT_255_2_778
10
19.2402986
20
139.1336163
11
23.8344986
21
139.1336163
0
LINE
8
DEFAULT_255_2_778
10
23.8344986
20
139.1336163
11
23.9008986
21
139.2000163
0
LINE
8
DEFAULT_255_2_778
10
23.9008986
20
139.2000163
11
23.9008986
21
139.3998163
0
LINE
8
DEFAULT_255_2_778
10
14.6676986
20
132.8355163
11
14.6676986
21
139.6726163
0
LINE
8
DEFAULT_255_2_778
10
14.6676986
20
139.6726163
11
17.0817986
21
139.6726163
0
LINE
8
DEFAULT_255_2_778
10
17.0817986
20
139.6726163
11
17.0817986
21
137.6107163
0
LINE
8
DEFAULT_255_2_778
10
17.0817986
20
137.6107163
11
17.1089986
21
139.6998163
0
LINE
8
DEFAULT_255_2_778
10
17.1089986
20
139.6998163
11
17.0817986
21
139.6726163
0
LINE
8
DEFAULT_255_2_778
10
16.5824986
20
140.1724163
11
15.6834986
21
140.1724163
0
LINE
8
DEFAULT_255_2_778
10
15.6834986
20
140.1724163
11
15.8146986
21
140.3036163
0
LINE
8
DEFAULT_255_2_778
10
15.8146986
20
140.3036163
11
15.8146986
21
142.4959163
0
LINE
8
DEFAULT_255_2_778
10
15.8146986
20
142.4959163
11
16.0982986
21
143.4543163
0
LINE
8
DEFAULT_255_2_778
10
16.0982986
20
143.4543163
11
15.9400986
21
143.6789163
0
ARC
8
DEFAULT_255_2_778
10
81.1082165
20
138.9359284
40
0.199422
50
134.882012
51
179.999202
0
ARC
8
DEFAULT_255_2_778
10
81.1084156
20
138.9374278
40
0.1985037
50
89.9988864
51
135.2281298
0
LINE
8
DEFAULT_255_2_778
10
81.1084195
20
139.1359315
11
81.1087945
21
139.1359312
0
LINE
8
DEFAULT_255_2_778
10
85.7032945
20
139.1359312
11
85.7036703
21
139.1359315
0
ARC
8
DEFAULT_255_2_778
10
85.7037452
20
138.9376002
40
0.1983314
50
44.7511252
51
90.0216453
0
ARC
8
DEFAULT_255_2_778
10
85.7042912
20
138.9361023
40
0.1990034
50
359.9507223
51
45.1680673
0
ARC
8
DEFAULT_255_2_778
10
81.4170708
20
135.1444643
40
0.5080996
50
178.7419036
51
265.6457639
0
ARC
8
DEFAULT_255_2_778
10
81.5481624
20
135.15562
40
0.6390688
50
179.9093443
51
179.9999842
0
ARC
8
DEFAULT_255_2_778
10
85.6982036
20
135.1563275
40
0.2048912
50
359.971693
51
0.0849257
0
ARC
8
DEFAULT_255_2_778
10
85.3946514
20
135.1448995
40
0.5085694
50
274.402956
51
1.2761865
0
ARC
8
DEFAULT_255_2_778
10
83.4056854
20
161.7993772
40
18.9922211
50
258.0530859
51
269.9998766
0
ARC
8
DEFAULT_255_2_778
10
83.4056036
20
161.7993772
40
18.9922211
50
270.0001234
51
281.9469141
0
ARC
8
DEFAULT_255_2_778
10
81.2447002
20
137.6126409
40
2.7939057
50
179.9981478
51
181.6921638
0
ARC
8
DEFAULT_255_2_778
10
81.104999
20
137.605319
40
2.6540512
50
181.6232257
51
191.1555469
0
ARC
8
DEFAULT_255_2_778
10
80.5983798
20
137.4926633
40
2.1352452
50
190.8198621
51
204.8857245
0
ARC
8
DEFAULT_255_2_778
10
80.0839251
20
137.2592103
40
1.5703259
50
205.0576129
51
214.6168188
0
ARC
8
DEFAULT_255_2_778
10
79.7496817
20
137.0250135
40
1.1622135
50
214.4759151
51
227.4058438
0
ARC
8
DEFAULT_255_2_778
10
79.5166548
20
136.7687127
40
0.8158231
50
227.2711341
51
245.6894033
0
ARC
8
DEFAULT_255_2_778
10
79.4418978
20
136.6113956
40
0.6416882
50
245.9897186
51
267.6881216
0
ARC
8
DEFAULT_255_2_778
10
79.4343488
20
136.5304255
40
0.5604958
50
268.1252929
51
269.9971013
0
ARC
8
DEFAULT_255_2_778
10
79.4346392
20
136.3755917
40
0.4056622
50
269.9549839
51
270.1349327
0
ARC
8
DEFAULT_255_2_778
10
81.068192
20
138.7024394
40
0.7161593
50
179.9989076
51
180.7527169
0
ARC
8
DEFAULT_255_2_778
10
81.069489
20
138.7024689
40
0.7174562
50
160.7141559
51
180.0012659
0
ARC
8
DEFAULT_255_2_778
10
81.0534411
20
138.7068155
40
0.7008744
50
139.2485882
51
160.6162553
0
ARC
8
DEFAULT_255_2_778
10
81.0430713
20
138.714383
40
0.6880796
50
115.5969871
51
139.1622807
0
ARC
8
DEFAULT_255_2_778
10
81.0431549
20
138.7080658
40
0.693818
50
93.5948835
51
115.3778289
0
ARC
8
DEFAULT_255_2_778
10
81.0416792
20
138.7282417
40
0.6735894
50
90.0072025
51
93.5772145
0
ARC
8
DEFAULT_255_2_778
10
81.3809043
20
134.6707275
40
0.9348963
50
266.6455376
51
269.9932724
0
ARC
8
DEFAULT_255_2_778
10
81.384061
20
134.7083952
40
0.9726847
50
246.2872625
51
266.5897425
0
ARC
8
DEFAULT_255_2_778
10
81.3968683
20
134.7263628
40
0.994296
50
223.0175996
51
246.0279303
0
ARC
8
DEFAULT_255_2_778
10
81.4324542
20
134.7593233
40
1.0428009
50
201.0580201
51
223.0077846
0
ARC
8
DEFAULT_255_2_778
10
81.4696817
20
134.774048
40
1.0828332
50
182.9476018
51
201.077338
0
ARC
8
DEFAULT_255_2_778
10
81.4732462
20
134.7751817
40
1.0864517
50
180.0026653
51
182.9976415
0
ARC
8
DEFAULT_255_2_778
10
85.344274
20
134.7751971
40
1.0789206
50
356.9805987
51
359.9965008
0
ARC
8
DEFAULT_255_2_778
10
85.3388606
20
134.7749259
40
1.0843125
50
338.9030729
51
357.0099745
0
ARC
8
DEFAULT_255_2_778
10
85.3756764
20
134.7603616
40
1.0447218
50
317.0126165
51
338.9215217
0
ARC
8
DEFAULT_255_2_778
10
85.4133795
20
134.7258946
40
0.9936412
50
293.953596
51
316.98409
0
ARC
8
DEFAULT_255_2_778
10
85.4267761
20
134.7027362
40
0.9670426
50
272.622386
51
293.7852985
0
ARC
8
DEFAULT_255_2_778
10
85.4309013
20
134.6533304
40
0.9175016
50
270.0033756
51
272.5062065
0
ARC
8
DEFAULT_255_2_778
10
85.4309554
20
134.620625
40
0.8847962
50
269.8665481
51
270.0000008
0
ARC
8
DEFAULT_255_2_778
10
86.1401977
20
136.5807238
40
0.2135811
50
182.923361
51
215.7195729
0
ARC
8
DEFAULT_255_2_778
10
86.2455464
20
136.6594845
40
0.3451027
50
216.1246801
51
240.4970894
0
ARC
8
DEFAULT_255_2_778
10
86.3811118
20
136.881492
40
0.6051459
50
239.6775827
51
256.193205
0
ARC
8
DEFAULT_255_2_778
10
86.4280061
20
137.045891
40
0.7760116
50
255.7276248
51
266.846593
0
ARC
8
DEFAULT_255_2_778
10
86.432688
20
137.1023729
40
0.8326671
50
266.7387138
51
269.5531816
0
ARC
8
DEFAULT_255_2_778
10
85.3173752
20
134.7729291
40
0.6061233
50
359.9999786
51
0.2081558
0
ARC
8
DEFAULT_255_2_778
10
85.3123908
20
134.7732518
40
0.6111079
50
353.796449
51
359.9697282
0
ARC
8
DEFAULT_255_2_778
10
85.3134281
20
134.7694005
40
0.6096718
50
321.9143505
51
354.1457354
0
ARC
8
DEFAULT_255_2_778
10
85.4158131
20
134.6936458
40
0.4823703
50
296.67917
51
321.4951405
0
ARC
8
DEFAULT_255_2_778
10
85.4282203
20
134.6690784
40
0.4548477
50
270.0849279
51
296.6721525
0
ARC
8
DEFAULT_255_2_778
10
81.3810436
20
134.6693929
40
0.4551623
50
243.3371975
51
269.9057102
0
ARC
8
DEFAULT_255_2_778
10
81.3979445
20
134.6989774
40
0.4891884
50
218.6676909
51
243.1230898
0
ARC
8
DEFAULT_255_2_778
10
81.4962841
20
134.7695952
40
0.6101251
50
185.7301888
51
218.0755283
0
ARC
8
DEFAULT_255_2_778
10
81.4970349
20
134.7732216
40
0.6112445
50
180.0278766
51
186.0613904
0
ARC
8
DEFAULT_255_2_778
10
81.4945409
20
134.7729244
40
0.6087505
50
179.7922967
51
180.000021
0
ARC
8
DEFAULT_255_2_778
10
80.3781121
20
137.0651773
40
0.7954618
50
270.3588767
51
284.1442649
0
ARC
8
DEFAULT_255_2_778
10
80.4292588
20
136.8790438
40
0.6024868
50
283.7532404
51
300.3511768
0
ARC
8
DEFAULT_255_2_778
10
80.5615824
20
136.6616199
40
0.3480259
50
299.63931
51
323.791319
0
ARC
8
DEFAULT_255_2_778
10
80.6706097
20
136.5803424
40
0.2120456
50
324.1088023
51
357.158636
0
ARC
8
DEFAULT_255_2_778
10
85.5532336
20
137.6126131
40
2.8067609
50
358.3161556
51
0.0024103
0
ARC
8
DEFAULT_255_2_778
10
85.7169654
20
137.604105
40
2.6428523
50
348.8234019
51
358.3962248
0
ARC
8
DEFAULT_255_2_778
10
86.2124036
20
137.4926647
40
2.135251
50
335.114304
51
349.1801283
0
ARC
8
DEFAULT_255_2_778
10
86.7268638
20
137.2592103
40
1.570326
50
325.3831833
51
334.9423887
0
ARC
8
DEFAULT_255_2_778
10
87.0579995
20
137.02731
40
1.1660755
50
312.6338177
51
325.5175018
0
ARC
8
DEFAULT_255_2_778
10
87.2940434
20
136.7692343
40
0.8163357
50
294.3013328
51
312.7138623
0
ARC
8
DEFAULT_255_2_778
10
87.3695254
20
136.6092003
40
0.6394249
50
271.7247403
51
294.0384153
0
ARC
8
DEFAULT_255_2_778
10
87.3764507
20
136.5296662
40
0.5597366
50
270.0019821
51
271.2612072
0
ARC
8
DEFAULT_255_2_778
10
87.3761514
20
136.3768188
40
0.4068892
50
269.8652644
51
270.0448749
0
ARC
8
DEFAULT_255_2_778
10
88.3333138
20
139.7016124
40
0.5001195
50
90.0938617
51
179.9634775
0
ARC
8
DEFAULT_255_2_778
10
87.6017972
20
139.6883313
40
0.2318145
50
3.4375886
51
28.9756736
0
ARC
8
DEFAULT_255_2_778
10
87.5247777
20
139.6447109
40
0.3203258
50
29.1275401
51
51.566371
0
ARC
8
DEFAULT_255_2_778
10
87.3992031
20
139.4917107
40
0.5182435
50
51.2059428
51
70.3359293
0
ARC
8
DEFAULT_255_2_778
10
87.3249233
20
139.3006014
40
0.7232251
50
69.8892063
51
87.9545709
0
ARC
8
DEFAULT_255_2_778
10
87.3209524
20
139.2571379
40
0.7668067
50
87.7739683
51
89.6606081
0
ARC
8
DEFAULT_255_2_778
10
79.4866586
20
139.2916874
40
0.7322476
50
90.1849771
51
110.0100422
0
ARC
8
DEFAULT_255_2_778
10
79.411782
20
139.4893944
40
0.5208611
50
109.7125783
51
128.7455348
0
ARC
8
DEFAULT_255_2_778
10
79.2915809
20
139.6390445
40
0.3289145
50
128.7301401
51
150.5757391
0
ARC
8
DEFAULT_255_2_778
10
79.2071056
20
139.6887948
40
0.2309023
50
151.030425
51
176.6640305
0
ARC
8
DEFAULT_255_2_778
10
78.4764967
20
139.7018337
40
0.500098
50
0.0455342
51
89.9085948
0
ARC
8
DEFAULT_255_2_778
10
82.5956517
20
137.5927144
40
3.6464138
50
179.6807624
51
179.9994338
0
ARC
8
DEFAULT_255_2_778
10
82.555077
20
137.5922247
40
3.605839
50
179.9916469
51
185.6562877
0
ARC
8
DEFAULT_255_2_778
10
81.67411
20
137.4904827
40
2.719172
50
185.3524834
51
193.3023112
0
ARC
8
DEFAULT_255_2_778
10
81.0824468
20
137.3596771
40
2.1133049
50
193.541958
51
198.6654533
0
ARC
8
DEFAULT_255_2_778
10
80.1460339
20
137.030602
40
1.1208913
50
198.0481808
51
207.7539014
0
ARC
8
DEFAULT_255_2_778
10
79.9763179
20
136.9481581
40
0.9323278
50
208.1271341
51
209.931348
0
ARC
8
DEFAULT_255_2_778
10
79.5616276
20
136.6744479
40
0.4374262
50
205.9607876
51
243.9632136
0
ARC
8
DEFAULT_255_2_778
10
79.4337389
20
136.4561615
40
0.1861384
50
249.8506881
51
269.8292456
0
ARC
8
DEFAULT_255_2_778
10
79.4331833
20
136.4503042
40
0.1802802
50
270.0002548
51
270.5120667
0
ARC
8
DEFAULT_255_2_778
10
80.344522
20
139.5328411
40
0.8395356
50
270.4485588
51
271.100756
0
ARC
8
DEFAULT_255_2_778
10
80.3477215
20
139.4770986
40
0.7837449
50
270.9451834
51
284.2388099
0
ARC
8
DEFAULT_255_2_778
10
80.3978337
20
139.300759
40
0.6005193
50
283.7427159
51
300.3864787
0
ARC
8
DEFAULT_255_2_778
10
80.5316409
20
139.083087
40
0.3451055
50
299.5029633
51
323.8751644
0
ARC
8
DEFAULT_255_2_778
10
80.6394668
20
139.0034648
40
0.2110712
50
324.0774434
51
357.2481398
0
ARC
8
DEFAULT_255_2_778
10
81.06393
20
139.0023194
40
0.2138244
50
180.0006154
51
182.4091813
0
ARC
8
DEFAULT_255_2_778
10
81.0649383
20
139.0021734
40
0.2148329
50
150.2640665
51
179.9616511
0
ARC
8
DEFAULT_255_2_778
10
81.040245
20
139.015079
40
0.1869927
50
127.0442645
51
149.9448764
0
ARC
8
DEFAULT_255_2_778
10
81.0429376
20
139.0094148
40
0.1931401
50
95.7598523
51
126.669555
0
ARC
8
DEFAULT_255_2_778
10
81.0408831
20
139.0256195
40
0.1768116
50
90.0286965
51
95.6244411
0
ARC
8
DEFAULT_255_2_778
10
85.7680285
20
139.0239912
40
0.17844
50
85.1435601
51
89.9788028
0
ARC
8
DEFAULT_255_2_778
10
85.7664593
20
139.0098338
40
0.1926799
50
53.305618
51
85.0350213
0
ARC
8
DEFAULT_255_2_778
10
85.7703911
20
139.0169364
40
0.1846386
50
29.8122233
51
52.9669092
0
ARC
8
DEFAULT_255_2_778
10
85.7441823
20
139.0024068
40
0.2146029
50
359.9956546
51
29.6992258
0
ARC
8
DEFAULT_255_2_778
10
85.743287
20
139.0023927
40
0.2154981
50
357.590034
51
359.9994188
0
ARC
8
DEFAULT_255_2_778
10
86.1695337
20
139.0036541
40
0.2111917
50
182.8017036
51
215.9623209
0
ARC
8
DEFAULT_255_2_778
10
86.2771768
20
139.0827193
40
0.3447504
50
216.0922735
51
240.4772736
0
ARC
8
DEFAULT_255_2_778
10
86.4137345
20
139.3075911
40
0.6077692
50
239.7214429
51
256.1741127
0
ARC
8
DEFAULT_255_2_778
10
86.4599858
20
139.4702277
40
0.77677
50
255.7281747
51
267.1396025
0
ARC
8
DEFAULT_255_2_778
10
86.4643893
20
139.5259129
40
0.8326071
50
267.0281767
51
269.5530572
0
ARC
8
DEFAULT_255_2_778
10
87.3761152
20
136.4508395
40
0.1808186
50
269.3913798
51
269.9936372
0
ARC
8
DEFAULT_255_2_778
10
87.3491626
20
136.546468
40
0.2777557
50
275.5644179
51
327.2060436
0
ARC
8
DEFAULT_255_2_778
10
87.0024862
20
136.8461915
40
0.734327
50
322.1913824
51
330.4351034
0
ARC
8
DEFAULT_255_2_778
10
86.8358188
20
136.9453648
40
0.9282357
50
330.1866271
51
331.9333262
0
ARC
8
DEFAULT_255_2_778
10
86.7719889
20
136.9793856
40
1.0005659
50
331.9340107
51
337.4687291
0
ARC
8
DEFAULT_255_2_778
10
86.4814545
20
137.0978386
40
1.314315
50
337.5523251
51
341.6163021
0
ARC
8
DEFAULT_255_2_778
10
85.7364672
20
137.3568117
40
2.102985
50
341.3219683
51
346.470623
0
ARC
8
DEFAULT_255_2_778
10
85.12487
20
137.4921267
40
2.7292908
50
346.7124493
51
354.632756
0
ARC
8
DEFAULT_255_2_778
10
84.276273
20
137.5912725
40
3.5834934
50
354.3236257
51
359.9876627
0
ARC
8
DEFAULT_255_2_778
10
84.3143859
20
137.5904677
40
3.5453803
50
0.000536
51
0.3646439
0
ARC
8
DEFAULT_255_2_778
10
89.1142832
20
142.4950956
40
1.0121165
50
0.1831639
51
26.4703605
0
ARC
8
DEFAULT_255_2_778
10
89.1258385
20
142.4973137
40
1.000789
50
26.6515632
51
53.2243168
0
ARC
8
DEFAULT_255_2_778
10
89.12419
20
142.4922741
40
1.0058139
50
53.3209711
51
79.748472
0
ARC
8
DEFAULT_255_2_778
10
89.1279575
20
142.4896422
40
1.007742
50
79.9858831
51
88.9976758
0
ARC
8
DEFAULT_255_2_778
10
89.1279449
20
142.4895271
40
1.0078573
50
88.9970775
51
89.9999384
0
ARC
8
DEFAULT_255_2_778
10
89.1279503
20
142.4891428
40
1.0082415
50
90.000244
51
106.3459456
0
ARC
8
DEFAULT_255_2_778
10
83.405453
20
161.7948979
40
19.1277791
50
277.2066688
51
286.5192413
0
ARC
8
DEFAULT_255_2_778
10
83.405179
20
161.7976555
40
19.1305493
50
269.9998968
51
277.206447
0
ARC
8
DEFAULT_255_2_778
10
83.4050062
20
161.7958714
40
19.1287652
50
257.1282507
51
270.0004143
0
ARC
8
DEFAULT_255_2_778
10
83.4056889
20
161.7982175
40
19.1312044
50
253.481137
51
257.1278229
0
ARC
8
DEFAULT_255_2_778
10
77.6826113
20
142.4892931
40
1.0080207
50
73.6665144
51
89.9978316
0
ARC
8
DEFAULT_255_2_778
10
77.6826502
20
142.4901374
40
1.0071763
50
90.0000448
51
90.9191644
0
ARC
8
DEFAULT_255_2_778
10
77.6826278
20
142.4907488
40
1.0065647
50
90.9184488
51
99.9968322
0
ARC
8
DEFAULT_255_2_778
10
77.6846849
20
142.4973748
40
1.0004014
50
100.1787338
51
126.7518283
0
ARC
8
DEFAULT_255_2_778
10
77.6873272
20
142.4955751
40
1.003425
50
126.8112255
51
153.3128988
0
ARC
8
DEFAULT_255_2_778
10
77.6968057
20
142.4950957
40
1.0121163
50
153.5296363
51
179.8168381
0
ARC
8
DEFAULT_255_2_778
10
89.3913495
20
139.6559794
40
0.3856963
50
2.7718289
51
37.2671862
0
ARC
8
DEFAULT_255_2_778
10
89.176254
20
139.5202357
40
0.6394572
50
35.2758791
51
54.2237305
0
ARC
8
DEFAULT_255_2_778
10
89.0498412
20
139.340571
40
0.8591274
50
54.3888839
51
67.1762698
0
ARC
8
DEFAULT_255_2_778
10
89.2577147
20
141.1824726
40
1.0080442
50
270.1352673
51
292.4211535
0
ARC
8
DEFAULT_255_2_778
10
89.2582373
20
141.1746175
40
1.0005867
50
292.5650455
51
315.0190654
0
ARC
8
DEFAULT_255_2_778
10
89.2566488
20
141.1755382
40
1.0023614
50
315.0460245
51
337.4678304
0
ARC
8
DEFAULT_255_2_778
10
89.2477665
20
141.1764831
40
1.010931
50
337.611274
51
359.8610331
0
ARC
8
DEFAULT_255_2_778
10
83.4061314
20
161.7964559
40
20.129064
50
277.4639989
51
286.5172193
0
ARC
8
DEFAULT_255_2_778
10
83.4062268
20
161.7966697
40
20.1292635
50
269.9999083
51
277.4636507
0
ARC
8
DEFAULT_255_2_778
10
83.4060957
20
161.7955488
40
20.1281426
50
257.3720254
51
270.0002814
0
ARC
8
DEFAULT_255_2_778
10
83.4073555
20
161.8007338
40
20.1334775
50
253.4832465
51
257.3717529
0
ARC
8
DEFAULT_255_2_778
10
77.5393445
20
141.1741082
40
0.9855499
50
180.0044785
51
183.0554129
0
ARC
8
DEFAULT_255_2_778
10
77.5580076
20
141.1752315
40
1.0042464
50
183.0626537
51
202.468623
0
ARC
8
DEFAULT_255_2_778
10
77.5565773
20
141.1758117
40
1.003147
50
202.5304659
51
224.931251
0
ARC
8
DEFAULT_255_2_778
10
77.5544581
20
141.175076
40
1.0011277
50
224.9871032
51
247.4288334
0
ARC
8
DEFAULT_255_2_778
10
77.5546743
20
141.1824723
40
1.008044
50
247.5788452
51
269.8647366
0
ARC
8
DEFAULT_255_2_778
10
77.7625479
20
139.340571
40
0.8591276
50
112.8237302
51
125.6111161
0
ARC
8
DEFAULT_255_2_778
10
77.6361297
20
139.5202407
40
0.63945
50
125.7761456
51
144.7242129
0
ARC
8
DEFAULT_255_2_778
10
77.4210407
20
139.6559788
40
0.3856976
50
142.7328424
51
177.2280892
0
ARC
8
DEFAULT_255_2_778
10
89.1273508
20
141.3090766
40
1.0033467
50
270.0881571
51
292.4740195
0
ARC
8
DEFAULT_255_2_778
10
89.1274664
20
141.3054537
40
0.9999555
50
292.5472509
51
315.0204857
0
ARC
8
DEFAULT_255_2_778
10
89.1264249
20
141.3059008
40
1.0010084
50
315.0445245
51
337.4937895
0
ARC
8
DEFAULT_255_2_778
10
89.1210389
20
141.3068725
40
1.0063568
50
337.5600569
51
359.912248
0
ARC
8
DEFAULT_255_2_778
10
77.6913428
20
141.3068707
40
1.0063495
50
180.0876532
51
202.4400095
0
ARC
8
DEFAULT_255_2_778
10
77.6859674
20
141.3059029
40
1.0010122
50
202.5062551
51
224.9554336
0
ARC
8
DEFAULT_255_2_778
10
77.6849205
20
141.3054505
40
0.9999518
50
224.9794724
51
247.4527938
0
ARC
8
DEFAULT_255_2_778
10
77.6851138
20
141.3094557
40
1.0037258
50
247.5302733
51
269.9075697
0
ARC
8
DEFAULT_255_2_778
10
88.3617855
20
139.6744407
40
0.499991
50
90.079179
51
179.9781765
0
ARC
8
DEFAULT_255_2_778
10
89.2987208
20
142.7177992
40
1.0074594
50
89.9971705
51
107.0400644
0
ARC
8
DEFAULT_255_2_778
10
89.2987595
20
142.7164852
40
1.0087733
50
88.7218342
51
89.9993732
0
ARC
8
DEFAULT_255_2_778
10
89.2987644
20
142.7167441
40
1.0085145
50
80.5013138
51
88.7217875
0
ARC
8
DEFAULT_255_2_778
10
89.297101
20
142.7249773
40
1.0006732
50
53.6017633
51
80.3295784
0
ARC
8
DEFAULT_255_2_778
10
89.294394
20
142.7237097
40
1.0033008
50
26.8419578
51
53.5202877
0
ARC
8
DEFAULT_255_2_778
10
89.288192
20
142.723573
40
1.0088998
50
3.2787449
51
26.6898472
0
ARC
8
DEFAULT_255_2_778
10
89.3216856
20
142.7262407
40
0.9753088
50
0.0053137
51
3.2348211
0
ARC
8
DEFAULT_255_2_778
10
85.743097
20
138.7024394
40
0.7161593
50
359.2472831
51
0.0010924
0
ARC
8
DEFAULT_255_2_778
10
85.7418001
20
138.7024689
40
0.7174562
50
359.9987341
51
19.2858441
0
ARC
8
DEFAULT_255_2_778
10
85.7585339
20
138.7072127
40
0.7000955
50
19.3717169
51
40.7634362
0
ARC
8
DEFAULT_255_2_778
10
85.7682168
20
138.714382
40
0.688081
50
40.837731
51
64.4029784
0
ARC
8
DEFAULT_255_2_778
10
85.76859
20
138.7095531
40
0.6922789
50
64.6035007
51
89.9085853
0
ARC
8
DEFAULT_255_2_778
10
78.4508394
20
139.6743765
40
0.5000552
50
0.0291764
51
89.9134763
0
ARC
8
DEFAULT_255_2_778
10
77.5138802
20
142.717211
40
1.0080475
50
72.9649465
51
89.9992245
0
ARC
8
DEFAULT_255_2_778
10
77.5138871
20
142.7181835
40
1.007075
50
89.9996163
51
91.2944394
0
ARC
8
DEFAULT_255_2_778
10
77.5139142
20
142.7168791
40
1.0083797
50
91.2943023
51
99.4993685
0
ARC
8
DEFAULT_255_2_778
10
77.5150159
20
142.7263227
40
0.9992507
50
99.6510393
51
126.4176085
0
ARC
8
DEFAULT_255_2_778
10
77.5189924
20
142.7228639
40
1.0043954
50
126.4830107
51
153.1227742
0
ARC
8
DEFAULT_255_2_778
10
77.5222112
20
142.7244003
40
1.0065759
50
153.2836093
51
176.8641802
0
ARC
8
DEFAULT_255_2_778
10
77.4942049
20
142.7262495
40
0.9785103
50
176.8825922
51
179.9952194
0
LINE
8
DEFAULT_255_2_778
10
81.4059945
20
134.6370312
11
81.3784945
21
134.6378312
0
LINE
8
DEFAULT_255_2_778
10
85.4336945
20
134.6378312
11
85.4061945
21
134.6370312
0
LINE
8
DEFAULT_255_2_778
10
85.9249945
20
135.9699312
11
85.9284945
21
136.5698312
0
LINE
8
DEFAULT_255_2_778
10
85.9284945
20
136.5698312
11
85.9601945
21
138.9928312
0
LINE
8
DEFAULT_255_2_778
10
85.9601945
20
138.9928312
11
85.9030945
21
138.9357312
0
LINE
8
DEFAULT_255_2_778
10
85.9030945
20
138.9357312
11
85.9030945
21
135.1566312
0
LINE
8
DEFAULT_255_2_778
10
85.9030945
20
135.1566312
11
85.9249945
21
134.7751312
0
LINE
8
DEFAULT_255_2_778
10
85.9249945
20
134.7751312
11
85.9249945
21
135.9699312
0
LINE
8
DEFAULT_255_2_778
10
85.9249945
20
135.9699312
11
87.3759945
21
135.9699312
0
LINE
8
DEFAULT_255_2_778
10
87.3759945
20
135.9699312
11
87.3759945
21
136.2700312
0
LINE
8
DEFAULT_255_2_778
10
87.3759945
20
136.2700312
11
87.3267945
21
140.0239312
0
LINE
8
DEFAULT_255_2_778
10
87.3267945
20
140.0239312
11
87.3267945
21
140.2236312
0
LINE
8
DEFAULT_255_2_778
10
87.3267945
20
140.2236312
11
79.4855945
21
140.2236312
0
LINE
8
DEFAULT_255_2_778
10
79.4855945
20
140.2236312
11
79.4855945
21
140.0239312
0
LINE
8
DEFAULT_255_2_778
10
79.4855945
20
140.0239312
11
79.4363945
21
136.2700312
0
LINE
8
DEFAULT_255_2_778
10
79.4363945
20
136.2700312
11
79.4363945
21
135.9699312
0
LINE
8
DEFAULT_255_2_778
10
79.4363945
20
135.9699312
11
80.8873945
21
135.9699312
0
LINE
8
DEFAULT_255_2_778
10
80.8873945
20
135.9699312
11
80.8873945
21
134.7751312
0
LINE
8
DEFAULT_255_2_778
10
80.8873945
20
134.7751312
11
80.9092945
21
135.1566312
0
LINE
8
DEFAULT_255_2_778
10
80.9092945
20
135.1566312
11
80.9092945
21
138.9357312
0
LINE
8
DEFAULT_255_2_778
10
80.9092945
20
138.9357312
11
80.8521945
21
138.9928312
0
LINE
8
DEFAULT_255_2_778
10
80.8521945
20
138.9928312
11
80.8838945
21
136.5695312
0
LINE
8
DEFAULT_255_2_778
10
80.8838945
20
136.5695312
11
80.8873945
21
135.9697312
0
LINE
8
DEFAULT_255_2_778
10
78.9730945
20
143.3402312
11
77.8009945
21
143.6807312
0
LINE
8
DEFAULT_255_2_778
10
77.8009945
20
143.6807312
11
78.9828945
21
143.3362312
0
LINE
8
DEFAULT_255_2_778
10
78.9828945
20
143.3362312
11
78.9950945
21
143.3325312
0
LINE
8
DEFAULT_255_2_778
10
78.9950945
20
143.3325312
11
79.0119945
21
143.3277312
0
LINE
8
DEFAULT_255_2_778
10
79.0119945
20
143.3277312
11
79.0590945
21
143.3150312
0
LINE
8
DEFAULT_255_2_778
10
79.0590945
20
143.3150312
11
79.1220945
21
143.2989312
0
LINE
8
DEFAULT_255_2_778
10
79.1220945
20
143.2989312
11
79.1979945
21
143.2804312
0
LINE
8
DEFAULT_255_2_778
10
79.1979945
20
143.2804312
11
79.2842945
21
143.2603312
0
LINE
8
DEFAULT_255_2_778
10
79.2842945
20
143.2603312
11
79.4741945
21
143.2185312
0
LINE
8
DEFAULT_255_2_778
10
87.3370945
20
143.2185312
11
87.5270945
21
143.2603312
0
LINE
8
DEFAULT_255_2_778
10
87.5270945
20
143.2603312
11
87.6132945
21
143.2804312
0
LINE
8
DEFAULT_255_2_778
10
87.6132945
20
143.2804312
11
87.6892945
21
143.2989312
0
LINE
8
DEFAULT_255_2_778
10
87.6892945
20
143.2989312
11
87.7522945
21
143.3150312
0
LINE
8
DEFAULT_255_2_778
10
87.7522945
20
143.3150312
11
87.7992945
21
143.3277312
0
LINE
8
DEFAULT_255_2_778
10
87.7992945
20
143.3277312
11
87.8162945
21
143.3325312
0
LINE
8
DEFAULT_255_2_778
10
87.8162945
20
143.3325312
11
87.8283945
21
143.3362312
0
LINE
8
DEFAULT_255_2_778
10
87.8283945
20
143.3362312
11
87.8358945
21
143.3389312
0
LINE
8
DEFAULT_255_2_778
10
87.8358945
20
143.3389312
11
89.0288945
21
143.6884312
0
LINE
8
DEFAULT_255_2_778
10
79.4847945
20
140.2236312
11
79.0632945
21
140.2215312
0
LINE
8
DEFAULT_255_2_778
10
79.0632945
20
140.2215312
11
78.8868945
21
140.2191312
0
LINE
8
DEFAULT_255_2_778
10
78.8868945
20
140.2191312
11
78.7412945
21
140.2162312
0
LINE
8
DEFAULT_255_2_778
10
78.7412945
20
140.2162312
11
78.6283945
21
140.2131312
0
LINE
8
DEFAULT_255_2_778
10
78.6283945
20
140.2131312
11
78.5473945
21
140.2094312
0
LINE
8
DEFAULT_255_2_778
10
78.5473945
20
140.2094312
11
78.5184945
21
140.2075312
0
LINE
8
DEFAULT_255_2_778
10
78.5184945
20
140.2075312
11
78.4973945
21
140.2057312
0
LINE
8
DEFAULT_255_2_778
10
78.4973945
20
140.2057312
11
78.4838945
21
140.2038312
0
LINE
8
DEFAULT_255_2_778
10
78.4838945
20
140.2038312
11
78.4780945
21
140.2019312
0
LINE
8
DEFAULT_255_2_778
10
86.4261945
20
136.2697312
11
86.4226945
21
135.9699312
0
LINE
8
DEFAULT_255_2_778
10
86.4226945
20
135.9699312
11
86.4226945
21
134.7751312
0
LINE
8
DEFAULT_255_2_778
10
86.4226945
20
134.7751312
11
85.9234945
21
134.7751312
0
LINE
8
DEFAULT_255_2_778
10
85.4288945
20
134.2142312
11
85.4288945
21
133.7358312
0
LINE
8
DEFAULT_255_2_778
10
85.4288945
20
133.7358312
11
81.3802945
21
133.7358312
0
LINE
8
DEFAULT_255_2_778
10
81.3802945
20
133.7358312
11
81.3802945
21
134.2142312
0
LINE
8
DEFAULT_255_2_778
10
80.8857945
20
134.7751312
11
80.3864945
21
134.7751312
0
LINE
8
DEFAULT_255_2_778
10
80.3864945
20
134.7751312
11
80.3864945
21
135.9699312
0
LINE
8
DEFAULT_255_2_778
10
80.3864945
20
135.9699312
11
80.3830945
21
136.2697312
0
LINE
8
DEFAULT_255_2_778
10
76.5362945
20
139.6746312
11
76.5367945
21
140.1686312
0
LINE
8
DEFAULT_255_2_778
10
76.5367945
20
140.1686312
11
76.5378945
21
140.4078312
0
LINE
8
DEFAULT_255_2_778
10
76.5378945
20
140.4078312
11
76.5396945
21
140.6330312
0
LINE
8
DEFAULT_255_2_778
10
76.5396945
20
140.6330312
11
76.5420945
21
140.8356312
0
LINE
8
DEFAULT_255_2_778
10
76.5420945
20
140.8356312
11
76.5436945
21
140.9253312
0
LINE
8
DEFAULT_255_2_778
10
76.5436945
20
140.9253312
11
76.5452945
21
141.0052312
0
LINE
8
DEFAULT_255_2_778
10
76.5452945
20
141.0052312
11
76.5471945
21
141.0730312
0
LINE
8
DEFAULT_255_2_778
10
76.5471945
20
141.0730312
11
76.5489945
21
141.1259312
0
LINE
8
DEFAULT_255_2_778
10
76.5489945
20
141.1259312
11
76.5510945
21
141.1605312
0
LINE
8
DEFAULT_255_2_778
10
76.5510945
20
141.1605312
11
76.5531945
21
141.1740312
0
LINE
8
DEFAULT_255_2_778
10
88.3329945
20
140.2017312
11
88.3271945
21
140.2035312
0
LINE
8
DEFAULT_255_2_778
10
88.3271945
20
140.2035312
11
88.3136945
21
140.2054312
0
LINE
8
DEFAULT_255_2_778
10
88.3136945
20
140.2054312
11
88.2924945
21
140.2072312
0
LINE
8
DEFAULT_255_2_778
10
88.2924945
20
140.2072312
11
88.2636945
21
140.2091312
0
LINE
8
DEFAULT_255_2_778
10
88.2636945
20
140.2091312
11
88.1826945
21
140.2128312
0
LINE
8
DEFAULT_255_2_778
10
88.1826945
20
140.2128312
11
88.0696945
21
140.2160312
0
LINE
8
DEFAULT_255_2_778
10
88.0696945
20
140.2160312
11
87.9241945
21
140.2189312
0
LINE
8
DEFAULT_255_2_778
10
87.9241945
20
140.2189312
11
87.7477945
21
140.2213312
0
LINE
8
DEFAULT_255_2_778
10
87.7477945
20
140.2213312
11
87.3259945
21
140.2234312
0
LINE
8
DEFAULT_255_2_778
10
90.2577945
20
141.1740312
11
90.2599945
21
141.1605312
0
LINE
8
DEFAULT_255_2_778
10
90.2599945
20
141.1605312
11
90.2620945
21
141.1259312
0
LINE
8
DEFAULT_255_2_778
10
90.2620945
20
141.1259312
11
90.2638945
21
141.0730312
0
LINE
8
DEFAULT_255_2_778
10
90.2638945
20
141.0730312
11
90.2657945
21
141.0052312
0
LINE
8
DEFAULT_255_2_778
10
90.2657945
20
141.0052312
11
90.2673945
21
140.9253312
0
LINE
8
DEFAULT_255_2_778
10
90.2673945
20
140.9253312
11
90.2689945
21
140.8356312
0
LINE
8
DEFAULT_255_2_778
10
90.2689945
20
140.8356312
11
90.2713945
21
140.6330312
0
LINE
8
DEFAULT_255_2_778
10
90.2713945
20
140.6330312
11
90.2731945
21
140.4078312
0
LINE
8
DEFAULT_255_2_778
10
90.2731945
20
140.4078312
11
90.2742945
21
140.1686312
0
LINE
8
DEFAULT_255_2_778
10
90.2742945
20
140.1686312
11
90.2747945
21
139.6746312
0
LINE
8
DEFAULT_255_2_778
10
81.4051945
20
134.6370312
11
85.4050945
21
134.6370312
0
LINE
8
DEFAULT_255_2_778
10
85.4050945
20
134.6370312
11
85.4294945
21
134.2142312
0
LINE
8
DEFAULT_255_2_778
10
85.4294945
20
134.2142312
11
81.3813945
21
134.2142312
0
LINE
8
DEFAULT_255_2_778
10
81.3813945
20
134.2142312
11
81.4051945
21
134.6370312
0
LINE
8
DEFAULT_255_2_778
10
87.8604945
20
137.6127312
11
88.3596945
21
137.6127312
0
LINE
8
DEFAULT_255_2_778
10
88.3596945
20
137.6127312
11
88.3596945
21
140.1744312
0
LINE
8
DEFAULT_255_2_778
10
88.3596945
20
140.1744312
11
88.3324945
21
140.2017312
0
LINE
8
DEFAULT_255_2_778
10
87.8331945
20
139.7019312
11
87.8604945
21
139.6746312
0
LINE
8
DEFAULT_255_2_778
10
87.8604945
20
139.6746312
11
87.8604945
21
137.6127312
0
LINE
8
DEFAULT_255_2_778
10
87.8604945
20
137.6127312
11
87.8331945
21
139.7022312
0
LINE
8
DEFAULT_255_2_778
10
87.3254945
20
140.0239312
11
79.4842945
21
140.0239312
0
LINE
8
DEFAULT_255_2_778
10
78.4772945
20
140.2019312
11
78.4499945
21
140.1747312
0
LINE
8
DEFAULT_255_2_778
10
78.4499945
20
140.1747312
11
78.4499945
21
137.6130312
0
LINE
8
DEFAULT_255_2_778
10
78.4499945
20
137.6130312
11
78.9492945
21
137.6130312
0
LINE
8
DEFAULT_255_2_778
10
79.4347945
20
136.2700312
11
80.3827945
21
136.2700312
0
LINE
8
DEFAULT_255_2_778
10
80.3827945
20
136.2700312
11
80.3510945
21
138.6933312
0
LINE
8
DEFAULT_255_2_778
10
81.0407945
20
139.2024312
11
85.7680945
21
139.2024312
0
LINE
8
DEFAULT_255_2_778
10
86.4578945
20
138.6933312
11
86.4261945
21
136.2700312
0
LINE
8
DEFAULT_255_2_778
10
86.4261945
20
136.2700312
11
87.3741945
21
136.2700312
0
LINE
8
DEFAULT_255_2_778
10
87.8596945
20
137.6130312
11
87.8604945
21
137.6127312
0
LINE
8
DEFAULT_255_2_778
10
90.2964945
20
132.8375312
11
90.2964945
21
139.7855312
0
LINE
8
DEFAULT_255_2_778
10
90.2964945
20
139.7855312
11
90.2956945
21
142.7266312
0
LINE
8
DEFAULT_255_2_778
10
90.2956945
20
142.7266312
11
90.1263945
21
142.4983312
0
LINE
8
DEFAULT_255_2_778
10
76.6846945
20
142.4983312
11
76.5153945
21
142.7266312
0
LINE
8
DEFAULT_255_2_778
10
76.5153945
20
142.7266312
11
76.5145945
21
139.7855312
0
LINE
8
DEFAULT_255_2_778
10
76.5145945
20
139.7855312
11
76.5145945
21
132.8375312
0
LINE
8
DEFAULT_255_2_778
10
89.7765945
20
132.8375312
11
89.7765945
21
139.6746312
0
LINE
8
DEFAULT_255_2_778
10
89.3830945
20
140.1324312
11
89.3053945
21
140.1609312
0
LINE
8
DEFAULT_255_2_778
10
89.3053945
20
140.1609312
11
89.2600945
21
140.1744312
0
LINE
8
DEFAULT_255_2_778
10
90.2586945
20
141.1740312
11
90.1273945
21
141.3053312
0
LINE
8
DEFAULT_255_2_778
10
90.1273945
20
141.3053312
11
90.1273945
21
142.4980312
0
LINE
8
DEFAULT_255_2_778
10
90.1273945
20
142.4980312
11
89.1288945
21
142.4980312
0
LINE
8
DEFAULT_255_2_778
10
77.6834945
20
142.4980312
11
76.6849945
21
142.4980312
0
LINE
8
DEFAULT_255_2_778
10
76.6849945
20
142.4980312
11
76.6849945
21
141.3053312
0
LINE
8
DEFAULT_255_2_778
10
76.6849945
20
141.3053312
11
76.5537945
21
141.1740312
0
LINE
8
DEFAULT_255_2_778
10
77.5522945
20
140.1744312
11
77.5069945
21
140.1609312
0
LINE
8
DEFAULT_255_2_778
10
77.5069945
20
140.1609312
11
77.4292945
21
140.1324312
0
LINE
8
DEFAULT_255_2_778
10
77.0357945
20
139.6746312
11
77.0357945
21
132.8375312
0
LINE
8
DEFAULT_255_2_778
10
90.1273945
20
141.3053312
11
76.6849945
21
141.3053312
0
LINE
8
DEFAULT_255_2_778
10
77.6834945
20
140.3057312
11
89.1288945
21
140.3057312
0
LINE
8
DEFAULT_255_2_778
10
90.2757945
20
132.8375312
11
90.2757945
21
139.6746312
0
LINE
8
DEFAULT_255_2_778
10
90.2757945
20
139.6746312
11
87.8617945
21
139.6746312
0
LINE
8
DEFAULT_255_2_778
10
88.3610945
20
140.1744312
11
89.2600945
21
140.1744312
0
LINE
8
DEFAULT_255_2_778
10
89.2600945
20
140.1744312
11
89.1288945
21
140.3057312
0
LINE
8
DEFAULT_255_2_778
10
89.1288945
20
140.3057312
11
89.1288945
21
142.4980312
0
LINE
8
DEFAULT_255_2_778
10
89.1288945
20
142.4980312
11
88.8451945
21
143.4563312
0
LINE
8
DEFAULT_255_2_778
10
88.8451945
20
143.4563312
11
89.0034945
21
143.6810312
0
LINE
8
DEFAULT_255_2_778
10
85.7696945
20
139.4018312
11
81.0423945
21
139.4018312
0
LINE
8
DEFAULT_255_2_778
10
81.0423945
20
139.4018312
11
81.0423945
21
139.2021312
0
LINE
8
DEFAULT_255_2_778
10
81.0423945
20
139.2021312
11
81.1087945
21
139.1357312
0
LINE
8
DEFAULT_255_2_778
10
81.1087945
20
139.1357312
11
85.7032945
21
139.1357312
0
LINE
8
DEFAULT_255_2_778
10
85.7032945
20
139.1357312
11
85.7696945
21
139.2021312
0
LINE
8
DEFAULT_255_2_778
10
85.7696945
20
139.2021312
11
85.7696945
21
139.4018312
0
LINE
8
DEFAULT_255_2_778
10
76.5365945
20
132.8375312
11
76.5365945
21
139.6746312
0
LINE
8
DEFAULT_255_2_778
10
76.5365945
20
139.6746312
11
78.9508945
21
139.6746312
0
LINE
8
DEFAULT_255_2_778
10
78.9508945
20
139.6746312
11
78.9508945
21
137.6127312
0
LINE
8
DEFAULT_255_2_778
10
78.9508945
20
137.6127312
11
78.9780945
21
139.7019312
0
LINE
8
DEFAULT_255_2_778
10
78.9780945
20
139.7019312
11
78.9508945
21
139.6746312
0
LINE
8
DEFAULT_255_2_778
10
78.4515945
20
140.1744312
11
77.5525945
21
140.1744312
0
LINE
8
DEFAULT_255_2_778
10
77.5525945
20
140.1744312
11
77.6837945
21
140.3057312
0
LINE
8
DEFAULT_255_2_778
10
77.6837945
20
140.3057312
11
77.6837945
21
142.4980312
0
LINE
8
DEFAULT_255_2_778
10
77.6837945
20
142.4980312
11
77.9673945
21
143.4563312
0
LINE
8
DEFAULT_255_2_778
10
77.9673945
20
143.4563312
11
77.8091945
21
143.6810312
0
ARC
8
DEFAULT_255_2_778
10
14.1956655
20
39.8897185
40
0.4998365
50
0.007528
51
32.5684905
0
ARC
8
DEFAULT_255_2_778
10
25.4572108
20
32.5746171
40
0.2499911
50
272.0381925
51
359.9924611
0
ARC
8
DEFAULT_255_2_778
10
25.4573002
20
32.5745374
40
0.2499018
50
0.0107249
51
87.9815719
0
ARC
8
DEFAULT_255_2_778
10
25.4573002
20
31.774731
40
0.2499018
50
272.0184281
51
359.9892751
0
ARC
8
DEFAULT_255_2_778
10
25.457211
20
31.7746513
40
0.2499909
50
0.0075389
51
87.9618474
0
ARC
8
DEFAULT_255_2_778
10
25.4573255
20
30.1748356
40
0.2497057
50
272.0141884
51
337.4271772
0
ARC
8
DEFAULT_255_2_778
10
25.4573031
20
30.1749209
40
0.2497592
50
337.4110647
51
357.102761
0
ARC
8
DEFAULT_255_2_778
10
25.4565706
20
30.1749584
40
0.2504928
50
357.1026845
51
359.9994858
0
ARC
8
DEFAULT_255_2_778
10
25.4560214
20
30.1749482
40
0.2510421
50
0.0017966
51
42.6036139
0
ARC
8
DEFAULT_255_2_778
10
25.473293
20
28.5564717
40
0.9964099
50
318.3874521
51
0.0812209
0
ARC
8
DEFAULT_255_2_778
10
25.4720717
20
28.5539566
40
0.9956565
50
271.5482282
51
318.542335
0
ARC
8
DEFAULT_255_2_778
10
25.4712236
20
28.573252
40
1.0149677
50
269.9987761
51
271.5666588
0
ARC
8
DEFAULT_255_2_778
10
15.113847
20
28.5564464
40
0.9964461
50
179.9173303
51
221.6087723
0
ARC
8
DEFAULT_255_2_778
10
15.114975
20
28.5539104
40
0.9956088
50
221.4565404
51
268.4547065
0
ARC
8
DEFAULT_255_2_778
10
15.1158802
20
28.5736064
40
1.0153222
50
268.4336135
51
270.0012245
0
ARC
8
DEFAULT_255_2_778
10
17.6418311
20
41.3244227
40
0.4964391
50
270.0214303
51
293.766592
0
LINE
8
DEFAULT_255_2_778
10
17.6420168
20
40.8279837
11
17.6413019
21
40.8279842
0
ARC
8
DEFAULT_255_2_778
10
15.5088498
20
39.9823366
40
0.3810479
50
90.0823794
51
179.9928537
0
ARC
8
DEFAULT_255_2_778
10
15.1153879
20
40.3724173
40
0.4994669
50
89.9983876
51
135.0015487
0
ARC
8
DEFAULT_255_2_778
10
15.1159902
20
40.3719993
40
0.5001884
50
135.016472
51
179.9902744
0
ARC
8
DEFAULT_255_2_778
10
25.4695092
20
40.372139
40
0.5000927
50
359.9937129
51
44.9718405
0
ARC
8
DEFAULT_255_2_778
10
25.470116
20
40.3724173
40
0.4994669
50
44.9984513
51
90.0016124
0
ARC
8
DEFAULT_255_2_778
10
15.1134474
20
40.3774018
40
0.9942833
50
89.9219428
51
132.2780174
0
ARC
8
DEFAULT_255_2_778
10
15.1137101
20
40.3734663
40
0.9973749
50
132.1370938
51
178.1085281
0
ARC
8
DEFAULT_255_2_778
10
15.1354112
20
40.3721032
40
1.0191094
50
178.0722047
51
180.0010706
0
ARC
8
DEFAULT_255_2_778
10
25.4811675
20
35.9779869
40
0.224882
50
12.4018781
51
89.9504822
0
ARC
8
DEFAULT_255_2_778
10
25.4813728
20
35.9761476
40
0.2267211
50
90.002758
51
94.1154266
0
ARC
8
DEFAULT_255_2_778
10
25.4812757
20
35.1780452
40
0.2249428
50
28.5305945
51
73.1971778
0
ARC
8
DEFAULT_255_2_778
10
25.4559633
20
33.3739326
40
0.2501078
50
41.3549297
51
87.9747766
0
ARC
8
DEFAULT_255_2_778
10
25.3297346
20
37.0966357
40
0.7537432
50
280.3615308
51
297.7339829
0
ARC
8
DEFAULT_255_2_778
10
25.4694716
20
28.5573997
40
0.4998155
50
270.0149426
51
314.9849936
0
ARC
8
DEFAULT_255_2_778
10
25.4690092
20
28.5573293
40
0.5000927
50
315.0281595
51
0.0062871
0
ARC
8
DEFAULT_255_2_778
10
15.5080498
20
28.9463317
40
0.3810479
50
180.0071463
51
269.9176206
0
ARC
8
DEFAULT_255_2_778
10
15.1155679
20
28.5571008
40
0.500266
50
180.001901
51
224.9636075
0
ARC
8
DEFAULT_255_2_778
10
15.1149323
20
28.5570997
40
0.4998155
50
225.0150064
51
269.9850574
0
ARC
8
DEFAULT_255_2_778
10
14.1944778
20
30.839377
40
0.4999241
50
327.8412734
51
0.0008176
0
ARC
8
DEFAULT_255_2_778
10
25.3310298
20
28.9200125
40
0.7502935
50
62.1960978
51
79.644266
0
ARC
8
DEFAULT_255_2_778
10
14.4372947
20
30.1168483
40
0.2017921
50
359.5540162
51
6.4692413
0
ARC
8
DEFAULT_255_2_778
10
9.4905988
20
29.9932316
40
5.1499283
50
0.5745887
51
1.3579559
0
ARC
8
DEFAULT_255_2_778
10
-6.500022
20
29.809505
40
21.1416005
50
0.3018808
51
0.637893
0
ARC
8
DEFAULT_255_2_778
10
-32.2192553
20
29.6653193
40
46.8612371
50
0.062576
51
0.3124867
0
ARC
8
DEFAULT_255_2_778
10
-46.3590612
20
29.6399738
40
61.0010633
50
359.9998219
51
0.0718772
0
ARC
8
DEFAULT_255_2_778
10
25.4714565
20
40.3769018
40
0.9942833
50
47.7219826
51
90.0780572
0
ARC
8
DEFAULT_255_2_778
10
25.4711937
20
40.3729663
40
0.9973749
50
1.8914719
51
47.8629062
0
ARC
8
DEFAULT_255_2_778
10
25.4494927
20
40.3716032
40
1.0191094
50
359.9989294
51
1.9277953
0
ARC
8
DEFAULT_255_2_778
10
24.3426044
20
27.6317079
40
0.4702787
50
90.0000018
51
90.1830549
0
ARC
8
DEFAULT_255_2_778
10
24.342702
20
27.6105095
40
0.491477
50
67.320716
51
90.0113732
0
LINE
8
DEFAULT_255_2_778
10
14.6169019
20
39.8897842
11
14.6955019
21
39.8897842
0
LINE
8
DEFAULT_255_2_778
10
14.6955019
20
39.8897842
11
14.6955019
21
30.8401842
0
LINE
8
DEFAULT_255_2_778
10
14.6955019
20
30.8401842
11
14.6169019
21
30.8401842
0
LINE
8
DEFAULT_255_2_778
10
25.7072019
20
28.5904842
11
25.4661019
21
28.6422842
0
LINE
8
DEFAULT_255_2_778
10
25.7072019
20
30.3435842
11
25.4661019
21
30.3435842
0
LINE
8
DEFAULT_255_2_778
10
25.7072019
20
31.3592842
11
25.4661019
21
31.3592842
0
LINE
8
DEFAULT_255_2_778
10
25.4661019
20
32.9031842
11
25.7072019
21
32.9031842
0
LINE
8
DEFAULT_255_2_778
10
25.4661019
20
33.5378842
11
25.7072019
21
33.5378842
0
LINE
8
DEFAULT_255_2_778
10
25.7072019
20
33.6444842
11
25.4661019
21
33.6444842
0
LINE
8
DEFAULT_255_2_778
10
25.7072019
20
35.2849842
11
25.4661019
21
35.2849842
0
LINE
8
DEFAULT_255_2_778
10
25.4661019
20
35.3915842
11
25.7072019
21
35.3915842
0
LINE
8
DEFAULT_255_2_778
10
25.4661019
20
36.0262842
11
25.7072019
21
36.0262842
0
LINE
8
DEFAULT_255_2_778
10
25.7072019
20
37.5701842
11
25.4661019
21
37.5701842
0
LINE
8
DEFAULT_255_2_778
10
25.4712019
20
27.5582842
11
25.4712019
21
28.0580842
0
LINE
8
DEFAULT_255_2_778
10
25.4712019
20
28.0580842
11
15.1159019
21
28.0580842
0
LINE
8
DEFAULT_255_2_778
10
15.1159019
20
28.0580842
11
15.1159019
21
27.5582842
0
LINE
8
DEFAULT_255_2_778
10
15.1159019
20
27.5582842
11
25.4712019
21
27.5582842
0
LINE
8
DEFAULT_255_2_778
10
25.6820019
20
40.8189842
11
25.6820019
21
40.4096842
0
LINE
8
DEFAULT_255_2_778
10
25.6820019
20
40.3334842
11
25.6820019
21
38.5855842
0
LINE
8
DEFAULT_255_2_778
10
25.6820019
20
37.5698842
11
25.6820019
21
36.0995842
0
LINE
8
DEFAULT_255_2_778
10
25.4947019
20
31.3587842
11
25.4947019
21
31.5452842
0
LINE
8
DEFAULT_255_2_778
10
25.4947019
20
32.0035842
11
25.4947019
21
32.3451842
0
LINE
8
DEFAULT_255_2_778
10
25.4947019
20
32.8031842
11
25.4947019
21
32.9023842
0
LINE
8
DEFAULT_255_2_778
10
25.4947019
20
33.6026842
11
25.4947019
21
33.6436842
0
LINE
8
DEFAULT_255_2_778
10
18.3412019
20
30.5340842
11
17.6077019
21
30.5340842
0
LINE
8
DEFAULT_255_2_778
10
17.6077019
20
30.5340842
11
16.2700019
21
32.1273842
0
LINE
8
DEFAULT_255_2_778
10
16.2700019
20
32.1273842
11
16.2700019
21
36.8020842
0
LINE
8
DEFAULT_255_2_778
10
16.2700019
20
36.8020842
11
17.6077019
21
38.3953842
0
LINE
8
DEFAULT_255_2_778
10
17.6077019
20
38.3953842
11
18.3412019
21
38.3953842
0
LINE
8
DEFAULT_255_2_778
10
17.5011019
20
30.6607842
11
18.1022019
21
30.6607842
0
LINE
8
DEFAULT_255_2_778
10
18.1022019
20
30.6607842
11
18.6036019
21
30.3940842
0
LINE
8
DEFAULT_255_2_778
10
18.6036019
20
30.3940842
11
19.1365019
21
30.3940842
0
LINE
8
DEFAULT_255_2_778
10
19.1365019
20
30.3940842
11
19.1365019
21
30.9348842
0
LINE
8
DEFAULT_255_2_778
10
19.1365019
20
30.9348842
11
19.4789019
21
32.2046842
0
LINE
8
DEFAULT_255_2_778
10
19.4789019
20
32.2046842
11
21.3307019
21
32.2046842
0
LINE
8
DEFAULT_255_2_778
10
21.3307019
20
32.2046842
11
21.6731019
21
30.9348842
0
LINE
8
DEFAULT_255_2_778
10
21.6731019
20
30.9348842
11
21.6731019
21
30.2670842
0
LINE
8
DEFAULT_255_2_778
10
21.6731019
20
30.2670842
11
23.8040019
21
30.2670842
0
LINE
8
DEFAULT_255_2_778
10
23.8040019
20
30.2670842
11
23.6773019
21
30.3940842
0
LINE
8
DEFAULT_255_2_778
10
23.6773019
20
30.3940842
11
21.6731019
21
30.3940842
0
LINE
8
DEFAULT_255_2_778
10
17.5009019
20
38.2683842
11
18.1020019
21
38.2683842
0
LINE
8
DEFAULT_255_2_778
10
18.1020019
20
38.2683842
11
18.6034019
21
38.5350842
0
LINE
8
DEFAULT_255_2_778
10
18.6034019
20
38.5350842
11
19.1362019
21
38.5350842
0
LINE
8
DEFAULT_255_2_778
10
19.1362019
20
38.5350842
11
19.1362019
21
37.9942842
0
LINE
8
DEFAULT_255_2_778
10
19.1362019
20
37.9942842
11
19.4786019
21
36.7245842
0
LINE
8
DEFAULT_255_2_778
10
19.4786019
20
36.7245842
11
21.3304019
21
36.7245842
0
LINE
8
DEFAULT_255_2_778
10
21.3304019
20
36.7245842
11
21.6728019
21
37.9942842
0
LINE
8
DEFAULT_255_2_778
10
21.6728019
20
37.9942842
11
21.6728019
21
38.6620842
0
LINE
8
DEFAULT_255_2_778
10
21.6728019
20
38.6620842
11
23.8038019
21
38.6620842
0
LINE
8
DEFAULT_255_2_778
10
23.8038019
20
38.6620842
11
23.8038019
21
30.2673842
0
LINE
8
DEFAULT_255_2_778
10
21.6728019
20
38.5350842
11
23.6770019
21
38.5350842
0
LINE
8
DEFAULT_255_2_778
10
23.6770019
20
38.5350842
11
23.6770019
21
30.3943842
0
LINE
8
DEFAULT_255_2_778
10
24.7425019
20
28.5660842
11
15.5088019
21
28.5660842
0
LINE
8
DEFAULT_255_2_778
10
15.5088019
20
28.5660842
11
15.5088019
21
40.3633842
0
LINE
8
DEFAULT_255_2_778
10
15.5088019
20
40.3633842
11
24.7430019
21
40.3633842
0
LINE
8
DEFAULT_255_2_778
10
24.7430019
20
40.3633842
11
24.7430019
21
28.5660842
0
LINE
8
DEFAULT_255_2_778
10
24.7430019
20
28.5660842
11
24.3626019
21
28.9470842
0
LINE
8
DEFAULT_255_2_778
10
24.3626019
20
28.9470842
11
24.3626019
21
39.9825842
0
LINE
8
DEFAULT_255_2_778
10
24.3626019
20
39.9825842
11
15.1283019
21
39.9825842
0
LINE
8
DEFAULT_255_2_778
10
15.1283019
20
39.9825842
11
15.1283019
21
28.9470842
0
LINE
8
DEFAULT_255_2_778
10
15.1283019
20
28.9470842
11
24.3626019
21
28.9470842
0
LINE
8
DEFAULT_255_2_778
10
16.3967019
20
31.9762842
11
16.3967019
21
36.9531842
0
LINE
8
DEFAULT_255_2_778
10
25.4661019
20
40.3633842
11
25.4661019
21
28.5660842
0
LINE
8
DEFAULT_255_2_778
10
18.8830019
20
36.3691842
11
18.8830019
21
32.5602842
0
LINE
8
DEFAULT_255_2_778
10
18.8830019
20
32.5602842
11
20.9127019
21
32.5602842
0
LINE
8
DEFAULT_255_2_778
10
20.9127019
20
32.5602842
11
20.6589019
21
32.8142842
0
LINE
8
DEFAULT_255_2_778
10
20.6589019
20
32.8142842
11
19.1368019
21
32.8142842
0
LINE
8
DEFAULT_255_2_778
10
19.1368019
20
32.8142842
11
19.1368019
21
36.1151842
0
LINE
8
DEFAULT_255_2_778
10
20.9127019
20
32.5602842
11
20.9127019
21
36.3691842
0
LINE
8
DEFAULT_255_2_778
10
20.9127019
20
36.3691842
11
18.8830019
21
36.3691842
0
LINE
8
DEFAULT_255_2_778
10
18.8830019
20
36.3691842
11
19.1368019
21
36.1151842
0
LINE
8
DEFAULT_255_2_778
10
19.1368019
20
36.1151842
11
20.6589019
21
36.1151842
0
LINE
8
DEFAULT_255_2_778
10
20.6589019
20
36.1151842
11
20.6589019
21
32.8142842
0
LINE
8
DEFAULT_255_2_778
10
20.9127019
20
32.8142842
11
21.6736019
21
32.8142842
0
LINE
8
DEFAULT_255_2_778
10
21.6736019
20
32.8142842
11
21.6736019
21
33.8299842
0
LINE
8
DEFAULT_255_2_778
10
21.6736019
20
33.8299842
11
20.9127019
21
33.8299842
0
LINE
8
DEFAULT_255_2_778
10
18.8830019
20
33.8299842
11
18.1221019
21
33.8299842
0
LINE
8
DEFAULT_255_2_778
10
18.1221019
20
33.8299842
11
18.1221019
21
32.8142842
0
LINE
8
DEFAULT_255_2_778
10
18.1221019
20
32.8142842
11
18.8830019
21
32.8142842
0
LINE
8
DEFAULT_255_2_778
10
20.9127019
20
35.0994842
11
21.6736019
21
35.0994842
0
LINE
8
DEFAULT_255_2_778
10
21.6736019
20
35.0994842
11
21.6736019
21
36.1151842
0
LINE
8
DEFAULT_255_2_778
10
21.6736019
20
36.1151842
11
20.9127019
21
36.1151842
0
LINE
8
DEFAULT_255_2_778
10
18.8830019
20
36.1151842
11
18.1221019
21
36.1151842
0
LINE
8
DEFAULT_255_2_778
10
18.1221019
20
36.1151842
11
18.1221019
21
35.0994842
0
LINE
8
DEFAULT_255_2_778
10
18.1221019
20
35.0994842
11
18.8830019
21
35.0994842
0
LINE
8
DEFAULT_255_2_778
10
18.3756019
20
36.0262842
11
18.3756019
21
36.1151842
0
LINE
8
DEFAULT_255_2_778
10
21.4199019
20
36.1151842
11
21.4199019
21
36.0262842
0
LINE
8
DEFAULT_255_2_778
10
18.3756019
20
35.0994842
11
18.3756019
21
35.3915842
0
LINE
8
DEFAULT_255_2_778
10
21.4199019
20
35.3915842
11
21.4199019
21
35.0994842
0
LINE
8
DEFAULT_255_2_778
10
18.3756019
20
33.5378842
11
18.3756019
21
33.8299842
0
LINE
8
DEFAULT_255_2_778
10
21.4199019
20
33.8299842
11
21.4199019
21
33.5378842
0
LINE
8
DEFAULT_255_2_778
10
18.3756019
20
32.8142842
11
18.3756019
21
32.9031842
0
LINE
8
DEFAULT_255_2_778
10
21.4199019
20
32.9031842
11
21.4199019
21
32.8142842
0
LINE
8
DEFAULT_255_2_778
10
14.6955019
20
31.8336842
11
15.1283019
21
31.8715842
0
LINE
8
DEFAULT_255_2_778
10
14.6955019
20
32.8340842
11
15.1283019
21
32.8719842
0
LINE
8
DEFAULT_255_2_778
10
14.6955019
20
35.7844842
11
15.1283019
21
35.8071842
0
LINE
8
DEFAULT_255_2_778
10
18.1218019
20
32.9031842
11
18.8828019
21
32.9031842
0
LINE
8
DEFAULT_255_2_778
10
18.1218019
20
33.5378842
11
18.8828019
21
33.5378842
0
LINE
8
DEFAULT_255_2_778
10
18.1218019
20
35.3915842
11
18.8828019
21
35.3915842
0
LINE
8
DEFAULT_255_2_778
10
18.1218019
20
36.0262842
11
18.8828019
21
36.0262842
0
LINE
8
DEFAULT_255_2_778
10
20.9124019
20
32.9031842
11
21.6733019
21
32.9031842
0
LINE
8
DEFAULT_255_2_778
10
20.9124019
20
33.5378842
11
21.6733019
21
33.5378842
0
LINE
8
DEFAULT_255_2_778
10
20.9124019
20
35.3915842
11
21.6733019
21
35.3915842
0
LINE
8
DEFAULT_255_2_778
10
20.9124019
20
36.0262842
11
21.6733019
21
36.0262842
0
LINE
8
DEFAULT_255_2_778
10
25.7069019
20
40.8062842
11
25.7069019
21
28.1242842
0
LINE
8
DEFAULT_255_2_778
10
25.7069019
20
30.3432842
11
25.7069019
21
28.1242842
0
LINE
8
DEFAULT_255_2_778
10
25.7069019
20
33.6442842
11
25.7069019
21
31.3590842
0
LINE
8
DEFAULT_255_2_778
10
25.7069019
20
37.5701842
11
25.7069019
21
35.2849842
0
LINE
8
DEFAULT_255_2_778
10
25.7069019
20
40.8065842
11
25.7069019
21
38.5858842
0
LINE
8
DEFAULT_255_2_778
10
25.7069019
20
38.5858842
11
25.4659019
21
38.5858842
0
LINE
8
DEFAULT_255_2_778
10
17.6413019
20
40.8279842
11
14.9352019
21
40.8358842
0
LINE
8
DEFAULT_255_2_778
10
15.1278019
20
29.5103842
11
14.6412019
21
29.5148842
0
LINE
8
DEFAULT_255_2_778
10
15.1278019
20
30.3139842
11
14.6161019
21
30.3141842
0
LINE
8
DEFAULT_255_2_778
10
24.7425019
20
40.3633842
11
24.3620019
21
39.9823842
0
LINE
8
DEFAULT_255_2_778
10
18.8820019
20
32.5594842
11
19.1357019
21
32.8134842
0
LINE
8
DEFAULT_255_2_778
10
23.6768019
20
38.5342842
11
23.8035019
21
38.6612842
0
LINE
8
DEFAULT_255_2_778
10
20.9113019
20
36.3683842
11
20.6576019
21
36.1143842
0
LINE
8
DEFAULT_255_2_778
10
25.6810019
20
28.5187842
11
25.6810019
21
28.1102842
0
LINE
8
DEFAULT_255_2_778
10
25.6810019
20
29.5836842
11
25.6810019
21
28.5949842
0
LINE
8
DEFAULT_255_2_778
10
25.3706019
20
28.5652842
11
25.3706019
21
28.0575842
0
LINE
8
DEFAULT_255_2_778
10
25.3706019
20
40.8713842
11
25.3706019
21
40.3627842
0
LINE
8
DEFAULT_255_2_778
10
14.6420019
20
29.6397842
11
14.6420019
21
28.3980842
0
LINE
8
DEFAULT_255_2_778
10
25.4651019
20
40.2865842
11
25.7061019
21
40.3384842
0
LINE
8
DEFAULT_255_2_778
10
25.4701019
20
40.8713842
11
25.4701019
21
41.3711842
0
LINE
8
DEFAULT_255_2_778
10
25.4701019
20
41.3711842
11
15.1159019
21
41.3711842
0
LINE
8
DEFAULT_255_2_778
10
15.1159019
20
41.3711842
11
15.1159019
21
40.8713842
0
LINE
8
DEFAULT_255_2_778
10
15.1159019
20
40.8713842
11
25.4701019
21
40.8713842
0
LINE
8
DEFAULT_255_2_778
10
14.6156019
20
40.3715842
11
14.6156019
21
28.5570842
0
LINE
8
DEFAULT_255_2_778
10
14.6156019
20
28.5570842
11
14.1163019
21
28.5570842
0
LINE
8
DEFAULT_255_2_778
10
14.1163019
20
28.5570842
11
14.1163019
21
40.3715842
0
LINE
8
DEFAULT_255_2_778
10
14.1163019
20
40.3715842
11
14.6156019
21
40.3715842
0
LINE
8
DEFAULT_255_2_778
10
25.7061019
20
40.4143842
11
25.4651019
21
40.3625842
0
LINE
8
DEFAULT_255_2_778
10
25.4651019
20
40.3625842
11
25.1555019
21
40.3625842
0
LINE
8
DEFAULT_255_2_778
10
25.1555019
20
40.3625842
11
25.1555019
21
40.1593842
0
LINE
8
DEFAULT_255_2_778
10
25.1555019
20
40.1593842
11
24.7420019
21
40.1593842
0
LINE
8
DEFAULT_255_2_778
10
15.1273019
20
30.8745842
11
14.6939019
21
30.8367842
0
LINE
8
DEFAULT_255_2_778
10
25.7061019
20
28.5134842
11
25.4651019
21
28.5652842
0
LINE
8
DEFAULT_255_2_778
10
25.4651019
20
28.5652842
11
25.1555019
21
28.5652842
0
LINE
8
DEFAULT_255_2_778
10
25.1555019
20
28.5652842
11
25.1555019
21
28.7684842
0
LINE
8
DEFAULT_255_2_778
10
25.1555019
20
28.7684842
11
24.7420019
21
28.7684842
0
LINE
8
DEFAULT_255_2_778
10
26.4686019
20
40.3715842
11
26.4686019
21
28.5570842
0
LINE
8
DEFAULT_255_2_778
10
26.4686019
20
28.5570842
11
25.9694019
21
28.5570842
0
LINE
8
DEFAULT_255_2_778
10
25.9694019
20
28.5570842
11
25.9694019
21
40.3715842
0
LINE
8
DEFAULT_255_2_778
10
25.9694019
20
40.3715842
11
26.4686019
21
40.3715842
0
LINE
8
DEFAULT_255_2_778
10
14.9233019
20
28.1019842
11
24.3411019
21
28.1019842
0
LINE
8
DEFAULT_255_2_778
10
24.5322019
20
28.0639842
11
24.5364019
21
28.0620842
0
LINE
8
DEFAULT_255_2_778
10
7.5543996
20
105.317427
11
5.5567996
21
105.317427
0
LINE
8
DEFAULT_255_2_778
10
5.5567996
20
105.317427
11
5.5567996
21
103.317927
0
LINE
8
DEFAULT_255_2_778
10
5.5567996
20
103.317927
11
7.5543996
21
103.317927
0
LINE
8
DEFAULT_255_2_778
10
7.5543996
20
103.317927
11
7.5543996
21
105.317427
0
LINE
8
DEFAULT_255_2_778
10
22.5360996
20
110.315927
11
20.5384996
21
110.315927
0
LINE
8
DEFAULT_255_2_778
10
20.5384996
20
110.315927
11
20.5384996
21
108.316427
0
LINE
8
DEFAULT_255_2_778
10
20.5384996
20
108.316427
11
22.5360996
21
108.316427
0
LINE
8
DEFAULT_255_2_778
10
22.5360996
20
108.316427
11
22.5360996
21
110.315927
0
LINE
8
DEFAULT_255_2_778
10
22.5360996
20
105.317427
11
20.5384996
21
105.317427
0
LINE
8
DEFAULT_255_2_778
10
20.5384996
20
105.317427
11
20.5384996
21
103.317927
0
LINE
8
DEFAULT_255_2_778
10
20.5384996
20
103.317927
11
22.5360996
21
103.317927
0
LINE
8
DEFAULT_255_2_778
10
22.5360996
20
103.317927
11
22.5360996
21
105.317427
0
LINE
8
DEFAULT_255_2_778
10
37.5175996
20
110.315927
11
35.5199996
21
110.315927
0
LINE
8
DEFAULT_255_2_778
10
35.5199996
20
110.315927
11
35.5199996
21
108.316427
0
LINE
8
DEFAULT_255_2_778
10
35.5199996
20
108.316427
11
37.5175996
21
108.316427
0
LINE
8
DEFAULT_255_2_778
10
37.5175996
20
108.316427
11
37.5175996
21
110.315927
0
LINE
8
DEFAULT_255_2_778
10
37.5175996
20
105.317427
11
35.5199996
21
105.317427
0
LINE
8
DEFAULT_255_2_778
10
35.5199996
20
105.317427
11
35.5199996
21
103.317927
0
LINE
8
DEFAULT_255_2_778
10
35.5199996
20
103.317927
11
37.5175996
21
103.317927
0
LINE
8
DEFAULT_255_2_778
10
37.5175996
20
103.317927
11
37.5175996
21
105.317427
0
LINE
8
DEFAULT_255_2_778
10
52.4993996
20
110.315927
11
50.5017996
21
110.315927
0
LINE
8
DEFAULT_255_2_778
10
50.5017996
20
110.315927
11
50.5017996
21
108.316427
0
LINE
8
DEFAULT_255_2_778
10
50.5017996
20
108.316427
11
52.4993996
21
108.316427
0
LINE
8
DEFAULT_255_2_778
10
52.4993996
20
108.316427
11
52.4993996
21
110.315927
0
LINE
8
DEFAULT_255_2_778
10
52.4993996
20
105.317427
11
50.5017996
21
105.317427
0
LINE
8
DEFAULT_255_2_778
10
50.5017996
20
105.317427
11
50.5017996
21
103.317927
0
LINE
8
DEFAULT_255_2_778
10
50.5017996
20
103.317927
11
52.4993996
21
103.317927
0
LINE
8
DEFAULT_255_2_778
10
52.4993996
20
103.317927
11
52.4993996
21
105.317427
0
ARC
8
DEFAULT_255_2_778
10
18.1245537
20
123.3591049
40
1.5013192
50
16.0521491
51
90.3174058
0
ARC
8
DEFAULT_255_2_778
10
18.1874027
20
123.4083396
40
1.4276206
50
359.9044132
51
14.8505963
0
ARC
8
DEFAULT_255_2_778
10
18.1160935
20
123.4059985
40
1.4989279
50
358.2682607
51
359.9984451
0
ARC
8
DEFAULT_255_2_778
10
18.1113068
20
117.1536363
40
1.5030567
50
286.4857627
51
0.341732
0
ARC
8
DEFAULT_255_2_778
10
18.1633762
20
117.0856161
40
1.4233862
50
269.9009749
51
285.2528622
0
ARC
8
DEFAULT_255_2_778
10
18.1609666
20
117.1579056
40
1.4956736
50
268.2862486
51
269.9980685
0
ARC
8
DEFAULT_255_2_778
10
4.2550558
20
117.1641249
40
1.5012473
50
196.0514523
51
270.3198643
0
ARC
8
DEFAULT_255_2_778
10
4.1924563
20
117.1149518
40
1.427806
50
179.9042028
51
194.8496262
0
ARC
8
DEFAULT_255_2_778
10
4.2639189
20
117.1172984
40
1.4992667
50
178.2684582
51
179.9984449
0
ARC
8
DEFAULT_255_2_778
10
4.2683189
20
123.3699023
40
1.5030086
50
106.4844067
51
180.3393256
0
ARC
8
DEFAULT_255_2_778
10
4.2162966
20
123.4378748
40
1.4233972
50
89.9009463
51
105.2527116
0
ARC
8
DEFAULT_255_2_778
10
4.2187069
20
123.3655964
40
1.4956736
50
88.2862486
51
89.9980685
0
ARC
8
DEFAULT_255_2_778
10
18.0970717
20
123.375583
40
1.6721005
50
359.6271168
51
63.6958684
0
ARC
8
DEFAULT_255_2_778
10
18.1965612
20
123.4884307
40
1.5273529
50
65.1658306
51
85.9592809
0
ARC
8
DEFAULT_255_2_778
10
18.1817526
20
123.3520225
40
1.6644736
50
85.781667
51
90.0164226
0
ARC
8
DEFAULT_255_2_778
10
18.1814046
20
123.2907079
40
1.7257882
50
90.0042886
51
92.0411519
0
ARC
8
DEFAULT_255_2_778
10
4.2538127
20
123.3664327
40
1.6473779
50
89.804396
51
89.9999997
0
ARC
8
DEFAULT_255_2_778
10
4.2458726
20
123.3478694
40
1.6659602
50
89.7269205
51
153.5205957
0
ARC
8
DEFAULT_255_2_778
10
4.1382792
20
123.4416614
40
1.5282579
50
154.8696178
51
175.4977768
0
ARC
8
DEFAULT_255_2_778
10
4.2702099
20
123.4266121
40
1.6609694
50
175.3374909
51
180.0193206
0
ARC
8
DEFAULT_255_2_778
10
4.3337008
20
123.4261732
40
1.7244601
50
180.0040282
51
182.042868
0
ARC
8
DEFAULT_255_2_778
10
18.0972974
20
117.1481625
40
1.6720751
50
296.3067349
51
0.3748226
0
ARC
8
DEFAULT_255_2_778
10
18.1968716
20
117.0352507
40
1.5272318
50
274.0406061
51
294.8351231
0
ARC
8
DEFAULT_255_2_778
10
18.1820526
20
117.1717468
40
1.6644409
50
269.9835697
51
274.218374
0
ARC
8
DEFAULT_255_2_778
10
18.1817045
20
117.2330906
40
1.7257847
50
267.9588476
51
269.9957108
0
LINE
8
DEFAULT_255_2_778
10
4.2597368
20
115.508401
11
4.2594492
21
115.508401
0
ARC
8
DEFAULT_255_2_778
10
4.2499193
20
117.1796492
40
1.6712754
50
206.6031195
51
270.3267101
0
ARC
8
DEFAULT_255_2_778
10
4.1381698
20
117.0814023
40
1.5278289
50
184.5019745
51
205.1852978
0
ARC
8
DEFAULT_255_2_778
10
4.2739197
20
117.0969226
40
1.664385
50
179.9801767
51
184.6677989
0
ARC
8
DEFAULT_255_2_778
10
4.3395454
20
117.0973616
40
1.7300106
50
177.9548349
51
179.9954667
0
LINE
8
DEFAULT_255_2_778
10
19.6143368
20
123.360701
11
19.6143368
21
117.162601
0
LINE
8
DEFAULT_255_2_778
10
18.1162368
20
115.662901
11
4.2634368
21
115.662901
0
LINE
8
DEFAULT_255_2_778
10
2.7653368
20
117.162601
11
2.7653368
21
123.361001
0
LINE
8
DEFAULT_255_2_778
10
4.2634368
20
124.860601
11
18.1162368
21
124.860401
0
LINE
8
DEFAULT_255_2_778
10
4.2594368
20
115.509701
11
18.1199368
21
115.509701
0
LINE
8
DEFAULT_255_2_778
10
18.1199368
20
125.015401
11
4.2594368
21
125.013801
0
LINE
8
DEFAULT_255_2_778
10
19.7680368
20
117.159101
11
19.7680368
21
123.364701
0
LINE
8
DEFAULT_255_2_778
10
2.6122368
20
123.364701
11
2.6122368
21
117.159101
0
ARC
8
DEFAULT_255_2_778
10
83.2245212
20
91.1182881
40
0.200404
50
180.0600346
51
224.9203647
0
ARC
8
DEFAULT_255_2_778
10
83.2240552
20
91.1185077
40
0.2002298
50
225.0590283
51
269.9605435
0
ARC
8
DEFAULT_255_2_778
10
85.3207887
20
91.1192097
40
0.2009321
50
270.1222178
51
314.8582514
0
ARC
8
DEFAULT_255_2_778
10
85.3218738
20
91.1177662
40
0.1991438
50
314.9299005
51
0.0897434
0
ARC
8
DEFAULT_255_2_778
10
74.1355207
20
91.1182878
40
0.2004036
50
180.0599524
51
224.9203936
0
ARC
8
DEFAULT_255_2_778
10
74.1351277
20
91.1186827
40
0.2004048
50
225.0796784
51
269.9398424
0
ARC
8
DEFAULT_255_2_778
10
76.6494719
20
91.0828361
40
0.4173264
50
168.031582
51
178.9370172
0
ARC
8
DEFAULT_255_2_778
10
73.6854679
20
91.6599206
40
0.4913425
50
266.5466355
51
269.9940957
0
ARC
8
DEFAULT_255_2_778
10
73.6859551
20
91.669425
40
0.500859
50
247.5040401
51
266.5564989
0
ARC
8
DEFAULT_255_2_778
10
73.687557
20
91.6700645
40
0.5020643
50
224.9795526
51
247.3630576
0
ARC
8
DEFAULT_255_2_778
10
73.6838803
20
91.6668205
40
0.4971707
50
202.3981851
51
225.014614
0
ARC
8
DEFAULT_255_2_778
10
73.687967
20
91.6691842
40
0.5018499
50
180.0577771
51
202.4699008
0
ARC
8
DEFAULT_255_2_778
10
73.6879652
20
96.3665723
40
0.5018482
50
157.5300457
51
179.9422493
0
ARC
8
DEFAULT_255_2_778
10
73.6906712
20
96.3644058
40
0.5051778
50
135.1669429
51
157.4202828
0
ARC
8
DEFAULT_255_2_778
10
73.686648
20
96.3670482
40
0.5004626
50
112.6006629
51
135.0567361
0
ARC
8
DEFAULT_255_2_778
10
73.6863747
20
96.3644529
40
0.5027551
50
92.8376116
51
112.4582415
0
ARC
8
DEFAULT_255_2_778
10
73.685447
20
96.377332
40
0.489846
50
90.0034806
51
92.8038093
0
ARC
8
DEFAULT_255_2_778
10
85.7704484
20
96.3764621
40
0.4907161
50
86.2558215
51
89.9919546
0
ARC
8
DEFAULT_255_2_778
10
85.7698762
20
96.3663665
40
0.5008276
50
67.5021477
51
86.26592
0
ARC
8
DEFAULT_255_2_778
10
85.7703981
20
96.3688554
40
0.4983287
50
44.8945965
51
67.4480899
0
ARC
8
DEFAULT_255_2_778
10
85.7732804
20
96.3698207
40
0.4956073
50
22.3620093
51
45.0507234
0
ARC
8
DEFAULT_255_2_778
10
85.769749
20
96.3669466
40
0.4999683
50
0.015067
51
22.5126402
0
ARC
8
DEFAULT_255_2_778
10
85.7697473
20
91.6688098
40
0.49997
50
337.4874127
51
359.9849084
0
ARC
8
DEFAULT_255_2_778
10
85.766538
20
91.6704335
40
0.5035564
50
315.1306464
51
337.4565544
0
ARC
8
DEFAULT_255_2_778
10
85.7694961
20
91.6682466
40
0.4999175
50
292.5882304
51
315.0691051
0
ARC
8
DEFAULT_255_2_778
10
85.7701205
20
91.6682663
40
0.4996963
50
271.9771977
51
292.5212586
0
ARC
8
DEFAULT_255_2_778
10
85.7705009
20
91.6601784
40
0.4916003
50
270.0019041
51
271.9654077
0
ARC
8
DEFAULT_255_2_778
10
76.2315448
20
91.11775
40
0.1991719
50
270.0496201
51
292.454134
0
ARC
8
DEFAULT_255_2_778
10
76.2259041
20
91.1218832
40
0.2064029
50
322.1650976
51
337.0129546
0
ARC
8
DEFAULT_255_2_778
10
76.2280106
20
91.1193673
40
0.2035402
50
346.8547432
51
358.9614429
0
LINE
8
DEFAULT_255_2_778
10
86.2703173
20
96.3665781
11
85.5212173
21
96.1165781
0
LINE
8
DEFAULT_255_2_778
10
85.5212173
20
96.1165781
11
85.7710173
21
96.8663781
0
LINE
8
DEFAULT_255_2_778
10
73.6859173
20
96.8663781
11
73.9357173
21
96.1165781
0
LINE
8
DEFAULT_255_2_778
10
73.9357173
20
96.1165781
11
73.1866173
21
96.3665781
0
LINE
8
DEFAULT_255_2_778
10
73.1866173
20
91.6680781
11
73.9357173
21
91.9178781
0
LINE
8
DEFAULT_255_2_778
10
73.9357173
20
91.9178781
11
73.6859173
21
91.1680781
0
LINE
8
DEFAULT_255_2_778
10
83.0244173
20
91.1180781
11
83.0267173
21
91.1153781
0
LINE
8
DEFAULT_255_2_778
10
83.0267173
20
91.1153781
11
83.0339173
21
91.1127781
0
LINE
8
DEFAULT_255_2_778
10
83.0339173
20
91.1127781
11
83.0622173
21
91.1074781
0
LINE
8
DEFAULT_255_2_778
10
83.0622173
20
91.1074781
11
83.1082173
21
91.1026781
0
LINE
8
DEFAULT_255_2_778
10
83.1082173
20
91.1026781
11
83.1701173
21
91.0984781
0
LINE
8
DEFAULT_255_2_778
10
83.1701173
20
91.0984781
11
83.2458173
21
91.0950781
0
LINE
8
DEFAULT_255_2_778
10
83.2458173
20
91.0950781
11
83.3321173
21
91.0923781
0
LINE
8
DEFAULT_255_2_778
10
83.3321173
20
91.0923781
11
83.5236173
21
91.0902781
0
LINE
8
DEFAULT_255_2_778
10
83.5236173
20
91.0902781
11
85.0217173
21
91.0902781
0
LINE
8
DEFAULT_255_2_778
10
85.0217173
20
91.0902781
11
85.2133173
21
91.0923781
0
LINE
8
DEFAULT_255_2_778
10
85.2133173
20
91.0923781
11
85.2995173
21
91.0950781
0
LINE
8
DEFAULT_255_2_778
10
85.2995173
20
91.0950781
11
85.3752173
21
91.0984781
0
LINE
8
DEFAULT_255_2_778
10
85.3752173
20
91.0984781
11
85.4371173
21
91.1026781
0
LINE
8
DEFAULT_255_2_778
10
85.4371173
20
91.1026781
11
85.4831173
21
91.1074781
0
LINE
8
DEFAULT_255_2_778
10
85.4831173
20
91.1074781
11
85.5114173
21
91.1127781
0
LINE
8
DEFAULT_255_2_778
10
85.5114173
20
91.1127781
11
85.5186173
21
91.1153781
0
LINE
8
DEFAULT_255_2_778
10
85.5186173
20
91.1153781
11
85.5210173
21
91.1180781
0
LINE
8
DEFAULT_255_2_778
10
83.0241173
20
91.1680781
11
83.0241173
21
91.1180781
0
LINE
8
DEFAULT_255_2_778
10
83.2239173
20
90.9182781
11
85.3212173
21
90.9182781
0
LINE
8
DEFAULT_255_2_778
10
85.5210173
20
91.1180781
11
85.5210173
21
91.1680781
0
LINE
8
DEFAULT_255_2_778
10
83.5234173
20
90.9179781
11
83.5234173
21
91.1680781
0
LINE
8
DEFAULT_255_2_778
10
85.0214173
20
90.9179781
11
85.0214173
21
91.1680781
0
LINE
8
DEFAULT_255_2_778
10
73.9351173
20
91.1680781
11
73.9351173
21
91.1180781
0
LINE
8
DEFAULT_255_2_778
10
74.1349173
20
90.9182781
11
76.2322173
21
90.9182781
0
LINE
8
DEFAULT_255_2_778
10
74.4344173
20
90.9182781
11
74.4344173
21
91.1682781
0
LINE
8
DEFAULT_255_2_778
10
76.2322173
20
91.0905781
11
76.3084173
21
91.0915781
0
LINE
8
DEFAULT_255_2_778
10
76.3084173
20
91.0915781
11
76.3733173
21
91.0965781
0
LINE
8
DEFAULT_255_2_778
10
76.3733173
20
91.0965781
11
76.4167173
21
91.1050781
0
LINE
8
DEFAULT_255_2_778
10
76.4167173
20
91.1050781
11
76.4280173
21
91.1100781
0
LINE
8
DEFAULT_255_2_778
10
76.4280173
20
91.1100781
11
76.4320173
21
91.1153781
0
LINE
8
DEFAULT_255_2_778
10
76.4320173
20
91.1153781
11
76.4428173
21
91.1685781
0
LINE
8
DEFAULT_255_2_778
10
82.6243173
20
91.1685781
11
82.6243173
21
91.1685781
0
LINE
8
DEFAULT_255_2_778
10
79.7279173
20
91.1685781
11
79.7279173
21
91.1685781
0
LINE
8
DEFAULT_255_2_778
10
85.7705173
20
91.1685781
11
73.6854173
21
91.1685781
0
LINE
8
DEFAULT_255_2_778
10
73.1861173
20
91.6686781
11
73.1861173
21
96.3670781
0
LINE
8
DEFAULT_255_2_778
10
73.6854173
20
96.8671781
11
85.7705173
21
96.8671781
0
LINE
8
DEFAULT_255_2_778
10
86.2697173
20
96.3670781
11
86.2697173
21
91.6686781
0
LINE
8
DEFAULT_255_2_778
10
85.7705173
20
91.1685781
11
85.5204173
21
91.9183781
0
LINE
8
DEFAULT_255_2_778
10
85.5204173
20
91.9183781
11
85.5204173
21
96.1170781
0
LINE
8
DEFAULT_255_2_778
10
85.5204173
20
96.1170781
11
73.9346173
21
96.1170781
0
LINE
8
DEFAULT_255_2_778
10
73.9346173
20
96.1170781
11
73.9346173
21
91.9183781
0
LINE
8
DEFAULT_255_2_778
10
73.9346173
20
91.9183781
11
85.5204173
21
91.9183781
0
LINE
8
DEFAULT_255_2_778
10
85.5204173
20
91.9183781
11
86.2695173
21
91.6683781
0
LINE
8
DEFAULT_255_2_778
10
76.8310173
20
91.1685781
11
76.8310173
21
91.1685781
0
LINE
8
DEFAULT_255_2_778
10
73.9346173
20
91.1185781
11
73.9370173
21
91.1159781
0
LINE
8
DEFAULT_255_2_778
10
73.9370173
20
91.1159781
11
73.9441173
21
91.1132781
0
LINE
8
DEFAULT_255_2_778
10
73.9441173
20
91.1132781
11
73.9724173
21
91.1079781
0
LINE
8
DEFAULT_255_2_778
10
73.9724173
20
91.1079781
11
74.0185173
21
91.1032781
0
LINE
8
DEFAULT_255_2_778
10
74.0185173
20
91.1032781
11
74.0804173
21
91.0989781
0
LINE
8
DEFAULT_255_2_778
10
74.0804173
20
91.0989781
11
74.1561173
21
91.0955781
0
LINE
8
DEFAULT_255_2_778
10
74.1561173
20
91.0955781
11
74.2423173
21
91.0928781
0
LINE
8
DEFAULT_255_2_778
10
74.2423173
20
91.0928781
11
74.4339173
21
91.0907781
0
LINE
8
DEFAULT_255_2_778
10
74.4339173
20
91.0907781
11
76.2317173
21
91.0907781
0
LINE
8
DEFAULT_255_2_778
10
76.2317173
20
91.0907781
11
76.2317173
21
90.9185781
0
LINE
8
DEFAULT_255_2_778
10
76.3076173
20
90.9336781
11
76.3182173
21
90.9383781
0
LINE
8
DEFAULT_255_2_778
10
76.3182173
20
90.9383781
11
76.3275173
21
90.9431781
0
LINE
8
DEFAULT_255_2_778
10
76.3275173
20
90.9431781
11
76.3725173
21
90.9767781
0
LINE
8
DEFAULT_255_2_778
10
76.3725173
20
90.9767781
11
76.3889173
21
90.9952781
0
LINE
8
DEFAULT_255_2_778
10
76.4159173
20
91.0412781
11
76.4262173
21
91.0730781
0
ARC
8
DEFAULT_255_2_778
10
85.7703166
20
47.787913
40
0.5031347
50
70.4178281
51
89.9282771
0
ARC
8
DEFAULT_255_2_778
10
85.7701205
20
47.7911778
40
0.500126
50
0.0079504
51
70.2712945
0
ARC
8
DEFAULT_255_2_778
10
85.7701204
20
43.0928168
40
0.5001261
50
289.7287113
51
359.9920345
0
ARC
8
DEFAULT_255_2_778
10
85.7703173
20
43.0960815
40
0.5031345
50
270.0716505
51
289.5821036
0
ARC
8
DEFAULT_255_2_778
10
73.6859154
20
43.0836633
40
0.4907161
50
266.2558215
51
269.9919546
0
ARC
8
DEFAULT_255_2_778
10
73.6864876
20
43.0937589
40
0.5008276
50
247.5021477
51
266.26592
0
ARC
8
DEFAULT_255_2_778
10
73.6868692
20
43.0926176
40
0.4999199
50
224.9309226
51
247.4116877
0
ARC
8
DEFAULT_255_2_778
10
73.683077
20
43.0903002
40
0.4955997
50
202.3618193
51
225.0508848
0
ARC
8
DEFAULT_255_2_778
10
73.6884962
20
43.0935533
40
0.5018499
50
180.0577771
51
202.4699008
0
ARC
8
DEFAULT_255_2_778
10
73.6884955
20
47.7909412
40
0.5018493
50
157.5300765
51
179.9422306
0
ARC
8
DEFAULT_255_2_778
10
73.6898287
20
47.7896902
40
0.5035598
50
135.1307562
51
157.4565173
0
ARC
8
DEFAULT_255_2_778
10
73.6859651
20
47.7932257
40
0.4983274
50
112.5519014
51
135.1054504
0
ARC
8
DEFAULT_255_2_778
10
73.6869327
20
47.7887681
40
0.5028158
50
93.1843065
51
112.4589229
0
ARC
8
DEFAULT_255_2_778
10
73.6858874
20
47.8025288
40
0.4890184
50
90.0047955
51
93.1515849
0
ARC
8
DEFAULT_255_2_778
10
83.0316846
20
42.5459234
40
0.0078109
50
200.0362958
51
276.8106188
0
ARC
8
DEFAULT_255_2_778
10
83.1014791
20
42.9206808
40
0.3886633
50
259.7937386
51
259.9787527
0
ARC
8
DEFAULT_255_2_778
10
85.4897469
20
42.6606164
40
0.1245736
50
280.0315381
51
280.6091422
0
ARC
8
DEFAULT_255_2_778
10
85.5134507
20
42.5461867
40
0.0080514
50
264.5212057
51
338.5869877
0
ARC
8
DEFAULT_255_2_778
10
83.2242749
20
42.5433847
40
0.2002285
50
180.0393336
51
224.9411168
0
ARC
8
DEFAULT_255_2_778
10
83.2240569
20
42.5438518
40
0.2004048
50
225.0796784
51
269.9398424
0
ARC
8
DEFAULT_255_2_778
10
85.3211935
20
42.5432004
40
0.1997532
50
270.0151872
51
0.0708066
0
ARC
8
DEFAULT_255_2_778
10
73.9424846
20
42.5461234
40
0.0078109
50
200.0362958
51
276.8106188
0
ARC
8
DEFAULT_255_2_778
10
74.0122791
20
42.9208808
40
0.3886633
50
259.7937386
51
259.9787527
0
ARC
8
DEFAULT_255_2_778
10
76.2319258
20
42.5448792
40
0.2014323
50
270.0912176
51
292.3264137
0
ARC
8
DEFAULT_255_2_778
10
76.2307318
20
42.5450333
40
0.2019507
50
298.6137319
51
314.8853607
0
ARC
8
DEFAULT_255_2_778
10
76.2283894
20
42.5460128
40
0.2043805
50
319.3039425
51
337.0889839
0
ARC
8
DEFAULT_255_2_778
10
76.2315676
20
42.5437348
40
0.2006997
50
345.8134173
51
359.1756329
0
ARC
8
DEFAULT_255_2_778
10
74.1357499
20
42.5439569
40
0.2004036
50
180.0599524
51
224.9203936
0
ARC
8
DEFAULT_255_2_778
10
74.1353569
20
42.5443518
40
0.2004048
50
225.0796784
51
269.9398424
0
LINE
8
DEFAULT_255_2_778
10
73.1863465
20
47.7912472
11
73.9353465
21
47.5411472
0
LINE
8
DEFAULT_255_2_778
10
73.9353465
20
47.5411472
11
73.6856465
21
48.2910472
0
LINE
8
DEFAULT_255_2_778
10
73.6856465
20
42.5926472
11
73.9353465
21
43.3425472
0
LINE
8
DEFAULT_255_2_778
10
73.9353465
20
43.3425472
11
73.1863465
21
43.0924472
0
LINE
8
DEFAULT_255_2_778
10
86.2702465
20
47.7912472
11
85.5212465
21
47.5411472
0
LINE
8
DEFAULT_255_2_778
10
85.5212465
20
47.5411472
11
85.7709465
21
48.2910472
0
LINE
8
DEFAULT_255_2_778
10
86.2702465
20
47.7912472
11
86.2702465
21
43.0927472
0
LINE
8
DEFAULT_255_2_778
10
85.7709465
20
42.5929472
11
73.6858465
21
42.5929472
0
LINE
8
DEFAULT_255_2_778
10
73.1866465
20
43.0930472
11
73.1866465
21
47.7914472
0
LINE
8
DEFAULT_255_2_778
10
73.6858465
20
48.2915472
11
85.7709465
21
48.2915472
0
LINE
8
DEFAULT_255_2_778
10
83.0338465
20
42.5379472
11
83.0621465
21
42.5326472
0
LINE
8
DEFAULT_255_2_778
10
83.0621465
20
42.5326472
11
83.1082465
21
42.5278472
0
LINE
8
DEFAULT_255_2_778
10
83.1082465
20
42.5278472
11
83.1701465
21
42.5236472
0
LINE
8
DEFAULT_255_2_778
10
83.1701465
20
42.5236472
11
83.2458465
21
42.5201472
0
LINE
8
DEFAULT_255_2_778
10
83.2458465
20
42.5201472
11
83.3320465
21
42.5175472
0
LINE
8
DEFAULT_255_2_778
10
83.3320465
20
42.5175472
11
83.5236465
21
42.5154472
0
LINE
8
DEFAULT_255_2_778
10
83.5236465
20
42.5154472
11
85.0216465
21
42.5154472
0
LINE
8
DEFAULT_255_2_778
10
85.0216465
20
42.5154472
11
85.2132465
21
42.5175472
0
LINE
8
DEFAULT_255_2_778
10
85.2132465
20
42.5175472
11
85.2994465
21
42.5201472
0
LINE
8
DEFAULT_255_2_778
10
85.2994465
20
42.5201472
11
85.3751465
21
42.5236472
0
LINE
8
DEFAULT_255_2_778
10
85.3751465
20
42.5236472
11
85.4370465
21
42.5278472
0
LINE
8
DEFAULT_255_2_778
10
85.4370465
20
42.5278472
11
85.4831465
21
42.5326472
0
LINE
8
DEFAULT_255_2_778
10
85.4831465
20
42.5326472
11
85.5114465
21
42.5379472
0
LINE
8
DEFAULT_255_2_778
10
83.0240465
20
42.5932472
11
83.0240465
21
42.5432472
0
LINE
8
DEFAULT_255_2_778
10
83.2238465
20
42.3434472
11
85.3212465
21
42.3434472
0
LINE
8
DEFAULT_255_2_778
10
85.5209465
20
42.5434472
11
85.5209465
21
42.5934472
0
LINE
8
DEFAULT_255_2_778
10
83.5233465
20
42.3434472
11
83.5233465
21
42.5934472
0
LINE
8
DEFAULT_255_2_778
10
85.0214465
20
42.3434472
11
85.0214465
21
42.5934472
0
LINE
8
DEFAULT_255_2_778
10
73.9446465
20
42.5381472
11
73.9729465
21
42.5328472
0
LINE
8
DEFAULT_255_2_778
10
73.9729465
20
42.5328472
11
74.0189465
21
42.5281472
0
LINE
8
DEFAULT_255_2_778
10
74.0189465
20
42.5281472
11
74.0809465
21
42.5239472
0
LINE
8
DEFAULT_255_2_778
10
74.0809465
20
42.5239472
11
74.1565465
21
42.5204472
0
LINE
8
DEFAULT_255_2_778
10
74.1565465
20
42.5204472
11
74.2428465
21
42.5178472
0
LINE
8
DEFAULT_255_2_778
10
74.2428465
20
42.5178472
11
74.4343465
21
42.5156472
0
LINE
8
DEFAULT_255_2_778
10
74.4343465
20
42.5156472
11
76.2322465
21
42.5156472
0
LINE
8
DEFAULT_255_2_778
10
76.2322465
20
42.5156472
11
76.2322465
21
42.3434472
0
LINE
8
DEFAULT_255_2_778
10
76.3084465
20
42.3585472
11
76.3171465
21
42.3625472
0
LINE
8
DEFAULT_255_2_778
10
76.3171465
20
42.3625472
11
76.3274465
21
42.3677472
0
LINE
8
DEFAULT_255_2_778
10
76.3732465
20
42.4019472
11
76.3833465
21
42.4127472
0
LINE
8
DEFAULT_255_2_778
10
76.4166465
20
42.4664472
11
76.4261465
21
42.4945472
0
LINE
8
DEFAULT_255_2_778
10
73.9353465
20
42.5937472
11
73.9353465
21
42.5437472
0
LINE
8
DEFAULT_255_2_778
10
74.1351465
20
42.3439472
11
76.2324465
21
42.3439472
0
LINE
8
DEFAULT_255_2_778
10
74.4346465
20
42.5940472
11
74.4346465
21
42.3439472
0
LINE
8
DEFAULT_255_2_778
10
76.2417465
20
42.5948472
11
76.2324465
21
42.5159472
0
LINE
8
DEFAULT_255_2_778
10
76.2324465
20
42.5159472
11
76.3087465
21
42.5170472
0
LINE
8
DEFAULT_255_2_778
10
76.3087465
20
42.5170472
11
76.3735465
21
42.5220472
0
LINE
8
DEFAULT_255_2_778
10
76.3735465
20
42.5220472
11
76.4169465
21
42.5305472
0
LINE
8
DEFAULT_255_2_778
10
76.4169465
20
42.5305472
11
76.4282465
21
42.5355472
0
LINE
8
DEFAULT_255_2_778
10
76.4282465
20
42.5355472
11
76.4322465
21
42.5408472
0
LINE
8
DEFAULT_255_2_778
10
76.4322465
20
42.5408472
11
76.4436465
21
42.5940472
0
LINE
8
DEFAULT_255_2_778
10
86.2702465
20
43.0938472
11
85.5212465
21
43.3438472
0
LINE
8
DEFAULT_255_2_778
10
85.5212465
20
43.3438472
11
85.5212465
21
47.5425472
0
LINE
8
DEFAULT_255_2_778
10
85.5212465
20
47.5425472
11
73.9353465
21
47.5425472
0
LINE
8
DEFAULT_255_2_778
10
73.9353465
20
47.5425472
11
73.9353465
21
43.3425472
0
LINE
8
DEFAULT_255_2_778
10
73.9353465
20
43.3425472
11
85.5212465
21
43.3425472
0
LINE
8
DEFAULT_255_2_778
10
85.5212465
20
43.3425472
11
85.7709465
21
42.5926472
0
ARC
8
DEFAULT_255_2_778
10
78.4537409
20
90.6674312
40
0.2081618
50
179.9996235
51
181.8059838
0
ARC
8
DEFAULT_255_2_778
10
78.4522142
20
90.6675714
40
0.2066351
50
137.5756305
51
180.0385032
0
ARC
8
DEFAULT_255_2_778
10
78.4419045
20
90.6720863
40
0.1960126
50
90.9710712
51
136.516736
0
LINE
8
DEFAULT_255_2_778
10
85.5211825
20
90.6682709
11
85.5187825
21
90.6656709
0
LINE
8
DEFAULT_255_2_778
10
85.5187825
20
90.6656709
11
85.5116825
21
90.6629709
0
LINE
8
DEFAULT_255_2_778
10
85.5116825
20
90.6629709
11
85.4833825
21
90.6577709
0
LINE
8
DEFAULT_255_2_778
10
85.4833825
20
90.6577709
11
85.4373825
21
90.6529709
0
LINE
8
DEFAULT_255_2_778
10
85.4373825
20
90.6529709
11
85.3753825
21
90.6487709
0
LINE
8
DEFAULT_255_2_778
10
85.3753825
20
90.6487709
11
85.2997825
21
90.6452709
0
LINE
8
DEFAULT_255_2_778
10
85.2997825
20
90.6452709
11
85.2134825
21
90.6426709
0
LINE
8
DEFAULT_255_2_778
10
85.2134825
20
90.6426709
11
85.0219825
21
90.6405709
0
LINE
8
DEFAULT_255_2_778
10
85.0219825
20
90.6405709
11
78.7280825
21
90.6405709
0
LINE
8
DEFAULT_255_2_778
10
78.7280825
20
90.6405709
11
78.5676825
21
90.6418709
0
LINE
8
DEFAULT_255_2_778
10
78.5676825
20
90.6418709
11
78.4242825
21
90.6460709
0
LINE
8
DEFAULT_255_2_778
10
78.4242825
20
90.6460709
11
78.3128825
21
90.6526709
0
LINE
8
DEFAULT_255_2_778
10
78.3128825
20
90.6526709
11
78.2456825
21
90.6608709
0
LINE
8
DEFAULT_255_2_778
10
77.3813306
20
90.0377505
11
77.3813306
21
90.6404505
0
LINE
8
DEFAULT_255_2_778
10
77.3813306
20
90.6404505
11
72.9369306
21
90.6404505
0
LINE
8
DEFAULT_255_2_778
10
72.9369306
20
90.6404505
11
72.7453306
21
90.6425505
0
LINE
8
DEFAULT_255_2_778
10
72.7453306
20
90.6425505
11
72.6590306
21
90.6452505
0
LINE
8
DEFAULT_255_2_778
10
72.6590306
20
90.6452505
11
72.5834306
21
90.6486505
0
LINE
8
DEFAULT_255_2_778
10
72.5834306
20
90.6486505
11
72.5215306
21
90.6529505
0
LINE
8
DEFAULT_255_2_778
10
72.5215306
20
90.6529505
11
72.4754306
21
90.6576505
0
LINE
8
DEFAULT_255_2_778
10
72.4754306
20
90.6576505
11
72.4471306
21
90.6629505
0
LINE
8
DEFAULT_255_2_778
10
72.4471306
20
90.6629505
11
72.4400306
21
90.6656505
0
LINE
8
DEFAULT_255_2_778
10
72.4400306
20
90.6656505
11
72.4376306
21
90.6682505
0
LINE
8
DEFAULT_255_2_778
10
72.7244
20
69.7346722
11
72.7244
21
69.6513722
0
LINE
8
DEFAULT_255_2_778
10
72.9366625
20
69.9066921
11
72.7450625
21
69.9087921
0
LINE
8
DEFAULT_255_2_778
10
72.7450625
20
69.9087921
11
72.6587625
21
69.9114921
0
LINE
8
DEFAULT_255_2_778
10
72.6587625
20
69.9114921
11
72.5831625
21
69.9148921
0
LINE
8
DEFAULT_255_2_778
10
72.5831625
20
69.9148921
11
72.5212625
21
69.9191921
0
LINE
8
DEFAULT_255_2_778
10
72.5212625
20
69.9191921
11
72.4751625
21
69.9238921
0
LINE
8
DEFAULT_255_2_778
10
72.4751625
20
69.9238921
11
72.4468625
21
69.9291921
0
LINE
8
DEFAULT_255_2_778
10
72.4468625
20
69.9291921
11
72.4397625
21
69.9318921
0
LINE
8
DEFAULT_255_2_778
10
72.4397625
20
69.9318921
11
72.4373625
21
69.9344921
0
LINE
8
DEFAULT_255_2_778
10
85.5212705
20
69.9344921
11
85.5188705
21
69.9318921
0
LINE
8
DEFAULT_255_2_778
10
85.5188705
20
69.9318921
11
85.5116705
21
69.9291921
0
LINE
8
DEFAULT_255_2_778
10
85.5116705
20
69.9291921
11
85.4833705
21
69.9238921
0
LINE
8
DEFAULT_255_2_778
10
85.4833705
20
69.9238921
11
85.4373705
21
69.9191921
0
LINE
8
DEFAULT_255_2_778
10
85.4373705
20
69.9191921
11
85.3754705
21
69.9148921
0
LINE
8
DEFAULT_255_2_778
10
85.3754705
20
69.9148921
11
85.2997705
21
69.9114921
0
LINE
8
DEFAULT_255_2_778
10
85.2997705
20
69.9114921
11
85.2135705
21
69.9087921
0
LINE
8
DEFAULT_255_2_778
10
85.2135705
20
69.9087921
11
85.0219705
21
69.9066921
0
ARC
8
DEFAULT_255_2_778
10
77.5341135
20
69.8482097
40
0.1135058
50
263.7499207
51
269.9393967
0
ARC
8
DEFAULT_255_2_778
10
77.5363708
20
69.8653651
40
0.1308055
50
246.3954453
51
263.5851183
0
ARC
8
DEFAULT_255_2_778
10
77.5480926
20
69.8831513
40
0.1518403
50
223.358319
51
245.0296854
0
ARC
8
DEFAULT_255_2_778
10
77.6004888
20
69.9254638
40
0.2190483
50
187.7852712
51
221.9957639
0
ARC
8
DEFAULT_255_2_778
10
77.621329
20
69.9317539
40
0.2405725
50
184.7807305
51
188.5972237
0
ARC
8
DEFAULT_255_2_778
10
77.5355238
20
90.7441741
40
0.1241632
50
90.5611068
51
116.9725451
0
ARC
8
DEFAULT_255_2_778
10
77.551374
20
90.7167283
40
0.1558218
50
117.5894309
51
141.4521115
0
ARC
8
DEFAULT_255_2_778
10
77.5871469
20
90.6861182
40
0.202881
50
140.986902
51
163.1191149
0
ARC
8
DEFAULT_255_2_778
10
77.6431606
20
90.6686755
40
0.2615466
50
163.0258695
51
177.6690409
0
ARC
8
DEFAULT_255_2_778
10
77.6950184
20
90.6646983
40
0.3135288
50
177.3282584
51
180.013714
0
ARC
8
DEFAULT_255_2_778
10
77.7108268
20
90.6646543
40
0.3293372
50
180.0053932
51
181.5351227
0
ARC
8
DEFAULT_255_2_778
10
78.4517148
20
69.9354576
40
0.2064169
50
182.2627157
51
224.4884463
0
ARC
8
DEFAULT_255_2_778
10
78.4419918
20
69.9305615
40
0.1960775
50
225.4588414
51
264.7051111
0
ARC
8
DEFAULT_255_2_778
10
78.4384186
20
69.9070607
40
0.1723528
50
265.1669544
51
269.9801382
0
LINE
8
DEFAULT_255_2_778
10
72.9366352
20
69.9067191
11
77.3821352
21
69.9067191
0
LINE
8
DEFAULT_255_2_778
10
77.3821352
20
69.9067191
11
77.3811352
21
69.9273191
0
LINE
8
DEFAULT_255_2_778
10
85.022
20
69.7346966
11
85.022
21
90.8682966
0
LINE
8
DEFAULT_255_2_778
10
78.7278
20
69.7346966
11
78.7278
21
90.8682966
0
LINE
8
DEFAULT_255_2_778
10
72.9366
20
69.7346966
11
72.9366
21
90.8682966
0
ARC
8
DEFAULT_255_2_778
10
72.6379255
20
69.9347457
40
0.2005793
50
180.0806419
51
224.8996607
0
ARC
8
DEFAULT_255_2_778
10
72.6371197
20
69.9348379
40
0.2000745
50
225.081245
51
269.9790124
0
ARC
8
DEFAULT_255_2_778
10
85.3213045
20
69.9352457
40
0.2004824
50
270.0405563
51
314.870576
0
ARC
8
DEFAULT_255_2_778
10
85.3219304
20
69.9342229
40
0.1993163
50
314.9505076
51
0.0691118
0
ARC
8
DEFAULT_255_2_778
10
85.3210172
20
90.6681257
40
0.2002293
50
0.0393907
51
44.9409947
0
ARC
8
DEFAULT_255_2_778
10
85.3213087
20
90.6678334
40
0.2002299
50
45.0591097
51
89.9605726
0
ARC
8
DEFAULT_255_2_778
10
72.6374055
20
90.6675412
40
0.2005224
50
90.1025936
51
134.9064405
0
ARC
8
DEFAULT_255_2_778
10
72.6363175
20
90.6686467
40
0.1989714
50
134.9092806
51
180.1103985
0
LINE
8
DEFAULT_255_2_778
10
72.6370465
20
69.7347634
11
85.3214465
21
69.7347634
0
LINE
8
DEFAULT_255_2_778
10
85.5212465
20
69.9344634
11
85.5212465
21
90.6682634
0
LINE
8
DEFAULT_255_2_778
10
85.3214465
20
90.8680634
11
72.6370465
21
90.8680634
0
LINE
8
DEFAULT_255_2_778
10
72.4373465
20
90.6682634
11
72.4373465
21
69.9344634
0
LINE
8
DEFAULT_255_2_778
10
72.4373465
20
69.9344634
11
72.4373465
21
69.8847634
0
LINE
8
DEFAULT_255_2_778
10
72.4373465
20
69.8847634
11
72.4471465
21
69.8844634
0
LINE
8
DEFAULT_255_2_778
10
77.3813782
20
90.6404914
11
77.3810782
21
90.6610914
0
LINE
8
DEFAULT_255_2_778
10
77.3810782
20
90.6610914
11
78.2456782
21
90.6610914
0
LINE
8
DEFAULT_255_2_778
10
78.2456782
20
90.6610914
11
78.2456782
21
89.1682914
0
LINE
8
DEFAULT_255_2_778
10
78.2456782
20
89.1682914
11
77.4453782
21
90.0289914
0
LINE
8
DEFAULT_255_2_778
10
77.4287
20
69.7468472
11
77.4287
21
70.5649472
0
LINE
8
DEFAULT_255_2_778
10
78.2454752
20
69.9272859
11
78.3126752
21
69.9190859
0
LINE
8
DEFAULT_255_2_778
10
78.3126752
20
69.9190859
11
78.4240752
21
69.9124859
0
LINE
8
DEFAULT_255_2_778
10
78.4240752
20
69.9124859
11
78.5674752
21
69.9082859
0
LINE
8
DEFAULT_255_2_778
10
78.5674752
20
69.9082859
11
78.7277752
21
69.9068859
0
LINE
8
DEFAULT_255_2_778
10
78.7277752
20
69.9068859
11
85.0216752
21
69.9068859
0
LINE
8
DEFAULT_255_2_778
10
77.452002
20
89.987746
11
74.534702
21
89.975846
0
LINE
8
DEFAULT_255_2_778
10
74.534702
20
89.975846
11
74.299502
21
89.984346
0
LINE
8
DEFAULT_255_2_778
10
74.299502
20
89.984346
11
77.399302
21
89.984346
0
LINE
8
DEFAULT_255_2_778
10
77.399302
20
89.984346
11
77.452302
21
89.987746
0
LINE
8
DEFAULT_255_2_778
10
78.321702
20
88.746046
11
77.978002
21
89.148746
0
LINE
8
DEFAULT_255_2_778
10
77.978002
20
89.148746
11
75.708402
21
89.148746
0
LINE
8
DEFAULT_255_2_778
10
75.708402
20
89.148746
11
75.692302
21
89.161146
0
LINE
8
DEFAULT_255_2_778
10
75.692302
20
89.161146
11
75.511802
21
89.188946
0
LINE
8
DEFAULT_255_2_778
10
75.511802
20
89.188946
11
75.272402
21
89.291846
0
LINE
8
DEFAULT_255_2_778
10
75.272402
20
89.291846
11
77.987302
21
89.291846
0
LINE
8
DEFAULT_255_2_778
10
77.987302
20
89.291846
11
77.463402
21
89.975846
0
LINE
8
DEFAULT_255_2_778
10
77.463402
20
89.975846
11
77.452302
21
89.987746
0
LINE
8
DEFAULT_255_2_778
10
77.452302
20
89.987746
11
77.446702
21
89.975546
0
LINE
8
DEFAULT_255_2_778
10
78.321702
20
88.745746
11
78.481502
21
88.866746
0
LINE
8
DEFAULT_255_2_778
10
78.481502
20
88.866746
11
78.477502
21
86.864646
0
LINE
8
DEFAULT_255_2_778
10
78.477502
20
86.864646
11
78.321702
21
86.982646
0
LINE
8
DEFAULT_255_2_778
10
78.321702
20
86.982646
11
78.321702
21
88.745746
0
LINE
8
DEFAULT_255_2_778
10
77.452302
20
89.987446
11
77.399302
21
89.984046
0
LINE
8
DEFAULT_255_2_778
10
77.399302
20
89.984046
11
74.299502
21
89.984046
0
LINE
8
DEFAULT_255_2_778
10
74.299502
20
89.984046
11
74.534702
21
89.975546
0
LINE
8
DEFAULT_255_2_778
10
74.534702
20
89.975546
11
77.452302
21
89.987446
0
LINE
8
DEFAULT_255_2_778
10
78.321702
20
88.745746
11
78.321702
21
86.982646
0
LINE
8
DEFAULT_255_2_778
10
78.321702
20
86.982646
11
78.477502
21
86.864646
0
LINE
8
DEFAULT_255_2_778
10
78.477502
20
86.864646
11
78.481502
21
88.866746
0
LINE
8
DEFAULT_255_2_778
10
78.481502
20
88.866746
11
78.321702
21
88.745746
0
LINE
8
DEFAULT_255_2_778
10
77.987302
20
89.291646
11
78.012102
21
89.188946
0
LINE
8
DEFAULT_255_2_778
10
78.012102
20
89.188946
11
75.511802
21
89.188746
0
LINE
8
DEFAULT_255_2_778
10
78.012102
20
89.188946
11
77.978002
21
89.148446
0
LINE
8
DEFAULT_255_2_778
10
77.453102
20
89.987246
11
78.481202
21
88.866746
0
LINE
8
DEFAULT_255_2_778
10
75.692302
20
86.567246
11
75.708402
21
86.579646
0
LINE
8
DEFAULT_255_2_778
10
75.235602
20
86.283346
11
74.583102
21
85.789046
0
LINE
8
DEFAULT_255_2_778
10
75.692502
20
89.160946
11
75.692502
21
86.567246
0
LINE
8
DEFAULT_255_2_778
10
75.692502
20
86.567246
11
75.512102
21
86.539446
0
LINE
8
DEFAULT_255_2_778
10
75.512102
20
86.539446
11
75.272402
21
86.436746
0
LINE
8
DEFAULT_255_2_778
10
75.512102
20
86.539646
11
78.012402
21
86.539446
0
LINE
8
DEFAULT_255_2_778
10
78.012402
20
86.539446
11
77.978202
21
86.579946
0
LINE
8
DEFAULT_255_2_778
10
77.978202
20
86.579946
11
75.708702
21
86.579946
0
LINE
8
DEFAULT_255_2_778
10
75.708702
20
86.579946
11
75.708702
21
89.148746
0
LINE
8
DEFAULT_255_2_778
10
78.322002
20
86.982846
11
77.978202
21
86.580146
0
LINE
8
DEFAULT_255_2_778
10
75.272602
20
89.291846
11
75.235802
21
89.445046
0
LINE
8
DEFAULT_255_2_778
10
75.235802
20
89.445046
11
74.535202
21
89.975546
0
LINE
8
DEFAULT_255_2_778
10
77.987502
20
86.436746
11
77.437502
21
85.740646
0
LINE
8
DEFAULT_255_2_778
10
77.437502
20
85.740646
11
77.399902
21
85.789346
0
LINE
8
DEFAULT_255_2_778
10
77.399902
20
85.789346
11
74.583402
21
85.789346
0
LINE
8
DEFAULT_255_2_778
10
74.583402
20
85.789346
11
74.300002
21
89.984346
0
LINE
8
DEFAULT_255_2_778
10
78.478102
20
86.865146
11
77.441202
21
85.743546
0
LINE
8
DEFAULT_255_2_778
10
78.012602
20
86.539446
11
77.987802
21
86.436746
0
LINE
8
DEFAULT_255_2_778
10
77.987802
20
86.436746
11
75.272902
21
86.436746
0
LINE
8
DEFAULT_255_2_778
10
75.272902
20
86.436746
11
75.236102
21
86.283546
0
LINE
8
DEFAULT_255_2_778
10
75.236102
20
86.283546
11
75.236102
21
89.445046
0
LINE
8
DEFAULT_255_2_778
10
77.452294
20
84.892646
11
74.534994
21
84.880746
0
LINE
8
DEFAULT_255_2_778
10
74.534994
20
84.880746
11
74.299794
21
84.889246
0
LINE
8
DEFAULT_255_2_778
10
74.299794
20
84.889246
11
77.399594
21
84.889246
0
LINE
8
DEFAULT_255_2_778
10
77.399594
20
84.889246
11
77.452594
21
84.892646
0
LINE
8
DEFAULT_255_2_778
10
78.321994
20
83.650946
11
77.978294
21
84.053646
0
LINE
8
DEFAULT_255_2_778
10
77.978294
20
84.053646
11
75.708694
21
84.053646
0
LINE
8
DEFAULT_255_2_778
10
75.708694
20
84.053646
11
75.692594
21
84.066046
0
LINE
8
DEFAULT_255_2_778
10
75.692594
20
84.066046
11
75.512094
21
84.093846
0
LINE
8
DEFAULT_255_2_778
10
75.512094
20
84.093846
11
75.272694
21
84.196746
0
LINE
8
DEFAULT_255_2_778
10
75.272694
20
84.196746
11
77.987594
21
84.196746
0
LINE
8
DEFAULT_255_2_778
10
77.987594
20
84.196746
11
77.463694
21
84.880746
0
LINE
8
DEFAULT_255_2_778
10
77.463694
20
84.880746
11
77.452594
21
84.892646
0
LINE
8
DEFAULT_255_2_778
10
77.452594
20
84.892646
11
77.446994
21
84.880446
0
LINE
8
DEFAULT_255_2_778
10
78.321994
20
83.650646
11
78.481794
21
83.771646
0
LINE
8
DEFAULT_255_2_778
10
78.481794
20
83.771646
11
78.477794
21
81.769546
0
LINE
8
DEFAULT_255_2_778
10
78.477794
20
81.769546
11
78.321994
21
81.887546
0
LINE
8
DEFAULT_255_2_778
10
78.321994
20
81.887546
11
78.321994
21
83.650646
0
LINE
8
DEFAULT_255_2_778
10
77.452594
20
84.892346
11
77.399594
21
84.888946
0
LINE
8
DEFAULT_255_2_778
10
77.399594
20
84.888946
11
74.299794
21
84.888946
0
LINE
8
DEFAULT_255_2_778
10
74.299794
20
84.888946
11
74.534994
21
84.880446
0
LINE
8
DEFAULT_255_2_778
10
74.534994
20
84.880446
11
77.452594
21
84.892346
0
LINE
8
DEFAULT_255_2_778
10
78.321994
20
83.650646
11
78.321994
21
81.887546
0
LINE
8
DEFAULT_255_2_778
10
78.321994
20
81.887546
11
78.477794
21
81.769546
0
LINE
8
DEFAULT_255_2_778
10
78.477794
20
81.769546
11
78.481794
21
83.771646
0
LINE
8
DEFAULT_255_2_778
10
78.481794
20
83.771646
11
78.321994
21
83.650646
0
LINE
8
DEFAULT_255_2_778
10
77.987594
20
84.196546
11
78.012394
21
84.093846
0
LINE
8
DEFAULT_255_2_778
10
78.012394
20
84.093846
11
75.512094
21
84.093646
0
LINE
8
DEFAULT_255_2_778
10
78.012394
20
84.093846
11
77.978294
21
84.053346
0
LINE
8
DEFAULT_255_2_778
10
77.453394
20
84.892146
11
78.481494
21
83.771646
0
LINE
8
DEFAULT_255_2_778
10
75.692594
20
81.472146
11
75.708694
21
81.484546
0
LINE
8
DEFAULT_255_2_778
10
75.235894
20
81.188246
11
74.583394
21
80.693946
0
LINE
8
DEFAULT_255_2_778
10
75.692794
20
84.065846
11
75.692794
21
81.472146
0
LINE
8
DEFAULT_255_2_778
10
75.692794
20
81.472146
11
75.512394
21
81.444346
0
LINE
8
DEFAULT_255_2_778
10
75.512394
20
81.444346
11
75.272694
21
81.341646
0
LINE
8
DEFAULT_255_2_778
10
75.512394
20
81.444546
11
78.012694
21
81.444346
0
LINE
8
DEFAULT_255_2_778
10
78.012694
20
81.444346
11
77.978594
21
81.484846
0
LINE
8
DEFAULT_255_2_778
10
77.978594
20
81.484846
11
75.708994
21
81.484846
0
LINE
8
DEFAULT_255_2_778
10
75.708994
20
81.484846
11
75.708994
21
84.053646
0
LINE
8
DEFAULT_255_2_778
10
78.322294
20
81.887746
11
77.978594
21
81.485046
0
LINE
8
DEFAULT_255_2_778
10
75.272894
20
84.196746
11
75.236094
21
84.349946
0
LINE
8
DEFAULT_255_2_778
10
75.236094
20
84.349946
11
74.535494
21
84.880446
0
LINE
8
DEFAULT_255_2_778
10
77.987794
20
81.341646
11
77.437794
21
80.645546
0
LINE
8
DEFAULT_255_2_778
10
77.437794
20
80.645546
11
77.400194
21
80.694246
0
LINE
8
DEFAULT_255_2_778
10
77.400194
20
80.694246
11
74.583694
21
80.694246
0
LINE
8
DEFAULT_255_2_778
10
74.583694
20
80.694246
11
74.300294
21
84.889246
0
LINE
8
DEFAULT_255_2_778
10
78.478394
20
81.770046
11
77.441494
21
80.648446
0
LINE
8
DEFAULT_255_2_778
10
78.012994
20
81.444346
11
77.988094
21
81.341646
0
LINE
8
DEFAULT_255_2_778
10
77.988094
20
81.341646
11
75.272094
21
81.341646
0
LINE
8
DEFAULT_255_2_778
10
75.272094
20
81.341646
11
75.235394
21
81.188446
0
LINE
8
DEFAULT_255_2_778
10
75.235394
20
81.188446
11
75.235394
21
84.349946
0
LINE
8
DEFAULT_255_2_778
10
77.452294
20
79.842046
11
74.534994
21
79.830146
0
LINE
8
DEFAULT_255_2_778
10
74.534994
20
79.830146
11
74.299794
21
79.838646
0
LINE
8
DEFAULT_255_2_778
10
74.299794
20
79.838646
11
77.399594
21
79.838646
0
LINE
8
DEFAULT_255_2_778
10
77.399594
20
79.838646
11
77.452594
21
79.842046
0
LINE
8
DEFAULT_255_2_778
10
78.321994
20
78.600346
11
77.978294
21
79.003046
0
LINE
8
DEFAULT_255_2_778
10
77.978294
20
79.003046
11
75.708694
21
79.003046
0
LINE
8
DEFAULT_255_2_778
10
75.708694
20
79.003046
11
75.692594
21
79.015446
0
LINE
8
DEFAULT_255_2_778
10
75.692594
20
79.015446
11
75.512094
21
79.043246
0
LINE
8
DEFAULT_255_2_778
10
75.512094
20
79.043246
11
75.272694
21
79.146246
0
LINE
8
DEFAULT_255_2_778
10
75.272694
20
79.146246
11
77.987594
21
79.146246
0
LINE
8
DEFAULT_255_2_778
10
77.987594
20
79.146246
11
77.463694
21
79.830146
0
LINE
8
DEFAULT_255_2_778
10
77.463694
20
79.830146
11
77.452594
21
79.842046
0
LINE
8
DEFAULT_255_2_778
10
77.452594
20
79.842046
11
77.446994
21
79.829846
0
LINE
8
DEFAULT_255_2_778
10
78.321994
20
78.600046
11
78.481794
21
78.721046
0
LINE
8
DEFAULT_255_2_778
10
78.481794
20
78.721046
11
78.477794
21
76.718946
0
LINE
8
DEFAULT_255_2_778
10
78.477794
20
76.718946
11
78.321994
21
76.836946
0
LINE
8
DEFAULT_255_2_778
10
78.321994
20
76.836946
11
78.321994
21
78.600046
0
LINE
8
DEFAULT_255_2_778
10
77.452594
20
79.841746
11
77.399594
21
79.838346
0
LINE
8
DEFAULT_255_2_778
10
77.399594
20
79.838346
11
74.299794
21
79.838346
0
LINE
8
DEFAULT_255_2_778
10
74.299794
20
79.838346
11
74.534994
21
79.829846
0
LINE
8
DEFAULT_255_2_778
10
74.534994
20
79.829846
11
77.452594
21
79.841746
0
LINE
8
DEFAULT_255_2_778
10
78.321994
20
78.600046
11
78.321994
21
76.836946
0
LINE
8
DEFAULT_255_2_778
10
78.321994
20
76.836946
11
78.477794
21
76.718946
0
LINE
8
DEFAULT_255_2_778
10
78.477794
20
76.718946
11
78.481794
21
78.721046
0
LINE
8
DEFAULT_255_2_778
10
78.481794
20
78.721046
11
78.321994
21
78.600046
0
LINE
8
DEFAULT_255_2_778
10
77.987594
20
79.145946
11
78.012394
21
79.043246
0
LINE
8
DEFAULT_255_2_778
10
78.012394
20
79.043246
11
75.512094
21
79.043046
0
LINE
8
DEFAULT_255_2_778
10
78.012394
20
79.043246
11
77.978294
21
79.002746
0
LINE
8
DEFAULT_255_2_778
10
77.453394
20
79.841546
11
78.481494
21
78.721046
0
LINE
8
DEFAULT_255_2_778
10
75.692594
20
76.421546
11
75.708694
21
76.433946
0
LINE
8
DEFAULT_255_2_778
10
75.235894
20
76.137646
11
74.583394
21
75.643346
0
LINE
8
DEFAULT_255_2_778
10
75.692794
20
79.015246
11
75.692794
21
76.421546
0
LINE
8
DEFAULT_255_2_778
10
75.692794
20
76.421546
11
75.512394
21
76.393746
0
LINE
8
DEFAULT_255_2_778
10
75.512394
20
76.393746
11
75.272694
21
76.291046
0
LINE
8
DEFAULT_255_2_778
10
75.512394
20
76.393946
11
78.012694
21
76.393746
0
LINE
8
DEFAULT_255_2_778
10
78.012694
20
76.393746
11
77.978594
21
76.434246
0
LINE
8
DEFAULT_255_2_778
10
77.978594
20
76.434246
11
75.708994
21
76.434246
0
LINE
8
DEFAULT_255_2_778
10
75.708994
20
76.434246
11
75.708994
21
79.003046
0
LINE
8
DEFAULT_255_2_778
10
78.322294
20
76.837146
11
77.978594
21
76.434446
0
LINE
8
DEFAULT_255_2_778
10
75.272894
20
79.146246
11
75.236094
21
79.299346
0
LINE
8
DEFAULT_255_2_778
10
75.236094
20
79.299346
11
74.535494
21
79.829846
0
LINE
8
DEFAULT_255_2_778
10
77.987794
20
76.291046
11
77.437794
21
75.594946
0
LINE
8
DEFAULT_255_2_778
10
77.437794
20
75.594946
11
77.400194
21
75.643646
0
LINE
8
DEFAULT_255_2_778
10
77.400194
20
75.643646
11
74.583694
21
75.643646
0
LINE
8
DEFAULT_255_2_778
10
74.583694
20
75.643646
11
74.300294
21
79.838646
0
LINE
8
DEFAULT_255_2_778
10
78.478394
20
76.719446
11
77.441494
21
75.597846
0
LINE
8
DEFAULT_255_2_778
10
78.012994
20
76.393746
11
77.988094
21
76.291046
0
LINE
8
DEFAULT_255_2_778
10
77.988094
20
76.291046
11
75.272094
21
76.291046
0
LINE
8
DEFAULT_255_2_778
10
75.272094
20
76.291046
11
75.235394
21
76.137846
0
LINE
8
DEFAULT_255_2_778
10
75.235394
20
76.137846
11
75.235394
21
79.299346
0
LINE
8
DEFAULT_255_2_778
10
77.474494
20
74.756246
11
74.557194
21
74.744346
0
LINE
8
DEFAULT_255_2_778
10
74.557194
20
74.744346
11
74.321994
21
74.752846
0
LINE
8
DEFAULT_255_2_778
10
74.321994
20
74.752846
11
77.421894
21
74.752846
0
LINE
8
DEFAULT_255_2_778
10
77.421894
20
74.752846
11
77.474794
21
74.756246
0
LINE
8
DEFAULT_255_2_778
10
78.344194
20
73.514546
11
78.000494
21
73.917246
0
LINE
8
DEFAULT_255_2_778
10
78.000494
20
73.917246
11
75.730894
21
73.917246
0
LINE
8
DEFAULT_255_2_778
10
75.730894
20
73.917246
11
75.714794
21
73.929646
0
LINE
8
DEFAULT_255_2_778
10
75.714794
20
73.929646
11
75.534294
21
73.957446
0
LINE
8
DEFAULT_255_2_778
10
75.534294
20
73.957446
11
75.294894
21
74.060346
0
LINE
8
DEFAULT_255_2_778
10
75.294894
20
74.060346
11
78.009794
21
74.060346
0
LINE
8
DEFAULT_255_2_778
10
78.009794
20
74.060346
11
77.485894
21
74.744346
0
LINE
8
DEFAULT_255_2_778
10
77.485894
20
74.744346
11
77.474794
21
74.756246
0
LINE
8
DEFAULT_255_2_778
10
77.474794
20
74.756246
11
77.469194
21
74.744046
0
LINE
8
DEFAULT_255_2_778
10
78.344194
20
73.514246
11
78.503994
21
73.635246
0
LINE
8
DEFAULT_255_2_778
10
78.503994
20
73.635246
11
78.499994
21
71.633146
0
LINE
8
DEFAULT_255_2_778
10
78.499994
20
71.633146
11
78.344194
21
71.751146
0
LINE
8
DEFAULT_255_2_778
10
78.344194
20
71.751146
11
78.344194
21
73.514246
0
LINE
8
DEFAULT_255_2_778
10
77.474794
20
74.755946
11
77.421894
21
74.752546
0
LINE
8
DEFAULT_255_2_778
10
77.421894
20
74.752546
11
74.321994
21
74.752546
0
LINE
8
DEFAULT_255_2_778
10
74.321994
20
74.752546
11
74.557194
21
74.744046
0
LINE
8
DEFAULT_255_2_778
10
74.557194
20
74.744046
11
77.474794
21
74.755946
0
LINE
8
DEFAULT_255_2_778
10
78.344194
20
73.514246
11
78.344194
21
71.751146
0
LINE
8
DEFAULT_255_2_778
10
78.344194
20
71.751146
11
78.499994
21
71.633146
0
LINE
8
DEFAULT_255_2_778
10
78.499994
20
71.633146
11
78.503994
21
73.635246
0
LINE
8
DEFAULT_255_2_778
10
78.503994
20
73.635246
11
78.344194
21
73.514246
0
LINE
8
DEFAULT_255_2_778
10
78.009794
20
74.060146
11
78.034594
21
73.957446
0
LINE
8
DEFAULT_255_2_778
10
78.034594
20
73.957446
11
75.534294
21
73.957246
0
LINE
8
DEFAULT_255_2_778
10
78.034594
20
73.957446
11
78.000494
21
73.916946
0
LINE
8
DEFAULT_255_2_778
10
77.475594
20
74.755746
11
78.503694
21
73.635246
0
LINE
8
DEFAULT_255_2_778
10
75.714794
20
71.335946
11
75.730894
21
71.348446
0
LINE
8
DEFAULT_255_2_778
10
75.258094
20
71.052046
11
74.605594
21
70.557846
0
LINE
8
DEFAULT_255_2_778
10
75.714994
20
73.929646
11
75.714994
21
71.335946
0
LINE
8
DEFAULT_255_2_778
10
75.714994
20
71.335946
11
75.534594
21
71.308146
0
LINE
8
DEFAULT_255_2_778
10
75.534594
20
71.308146
11
75.294894
21
71.205246
0
LINE
8
DEFAULT_255_2_778
10
75.534594
20
71.308146
11
78.034894
21
71.307946
0
LINE
8
DEFAULT_255_2_778
10
78.034894
20
71.307946
11
78.000794
21
71.348446
0
LINE
8
DEFAULT_255_2_778
10
78.000794
20
71.348446
11
75.731194
21
71.348446
0
LINE
8
DEFAULT_255_2_778
10
75.731194
20
71.348446
11
75.731194
21
73.917246
0
LINE
8
DEFAULT_255_2_778
10
78.344494
20
71.751346
11
78.000794
21
71.348646
0
LINE
8
DEFAULT_255_2_778
10
75.295094
20
74.060346
11
75.258394
21
74.213546
0
LINE
8
DEFAULT_255_2_778
10
75.258394
20
74.213546
11
74.557694
21
74.744046
0
LINE
8
DEFAULT_255_2_778
10
78.009994
20
71.205246
11
77.459994
21
70.509146
0
LINE
8
DEFAULT_255_2_778
10
77.459994
20
70.509146
11
77.422394
21
70.557846
0
LINE
8
DEFAULT_255_2_778
10
77.422394
20
70.557846
11
74.605894
21
70.557846
0
LINE
8
DEFAULT_255_2_778
10
74.605894
20
70.557846
11
74.322494
21
74.752846
0
LINE
8
DEFAULT_255_2_778
10
78.500594
20
71.633646
11
77.463694
21
70.512046
0
LINE
8
DEFAULT_255_2_778
10
78.035194
20
71.307946
11
78.010294
21
71.205246
0
LINE
8
DEFAULT_255_2_778
10
78.010294
20
71.205246
11
75.295394
21
71.205246
0
LINE
8
DEFAULT_255_2_778
10
75.295394
20
71.205246
11
75.258594
21
71.052046
0
LINE
8
DEFAULT_255_2_778
10
75.258594
20
71.052046
11
75.258594
21
74.213546
0
LINE
8
DEFAULT_255_2_778
10
84.782234
20
76.8252863
11
84.782234
21
77.2700863
0
LINE
8
DEFAULT_255_2_778
10
84.782234
20
77.2700863
11
83.383934
21
77.2700863
0
LINE
8
DEFAULT_255_2_778
10
83.383934
20
77.2700863
11
83.383934
21
76.8252863
0
LINE
8
DEFAULT_255_2_778
10
83.383934
20
76.8252863
11
84.782234
21
76.8252863
0
LINE
8
DEFAULT_255_2_778
10
84.782234
20
72.2408823
11
84.782234
21
71.7960823
0
LINE
8
DEFAULT_255_2_778
10
84.782234
20
71.7960823
11
83.383934
21
71.7960823
0
LINE
8
DEFAULT_255_2_778
10
83.383934
20
71.7960823
11
83.383934
21
72.2408823
0
LINE
8
DEFAULT_255_2_778
10
83.383934
20
72.2408823
11
84.782234
21
72.2408823
0
LINE
8
DEFAULT_255_2_778
10
84.2827713
20
82.2275406
11
84.7820713
21
82.2275406
0
LINE
8
DEFAULT_255_2_778
10
84.7820713
20
82.2275406
11
84.7820713
21
81.7827406
0
LINE
8
DEFAULT_255_2_778
10
84.7820713
20
81.7827406
11
84.2827713
21
81.7827406
0
LINE
8
DEFAULT_255_2_778
10
84.2827713
20
81.7827406
11
84.2827713
21
81.2877406
0
LINE
8
DEFAULT_255_2_778
10
84.2827713
20
81.2877406
11
83.8832713
21
81.2877406
0
LINE
8
DEFAULT_255_2_778
10
83.8832713
20
81.2877406
11
83.8832713
21
81.7827406
0
LINE
8
DEFAULT_255_2_778
10
83.8832713
20
81.7827406
11
83.3839713
21
81.7827406
0
LINE
8
DEFAULT_255_2_778
10
83.3839713
20
81.7827406
11
83.3839713
21
82.2275406
0
LINE
8
DEFAULT_255_2_778
10
83.3839713
20
82.2275406
11
83.8832713
21
82.2275406
0
LINE
8
DEFAULT_255_2_778
10
83.8832713
20
82.2275406
11
83.8832713
21
82.6715406
0
LINE
8
DEFAULT_255_2_778
10
83.8832713
20
82.6736406
11
84.2827713
21
82.6736406
0
LINE
8
DEFAULT_255_2_778
10
84.2827713
20
82.6736406
11
84.2827713
21
82.2339406
0
LINE
8
DEFAULT_255_2_778
10
84.2827713
20
87.3278778
11
84.7820713
21
87.3278778
0
LINE
8
DEFAULT_255_2_778
10
84.7820713
20
87.3278778
11
84.7820713
21
86.8831778
0
LINE
8
DEFAULT_255_2_778
10
84.7820713
20
86.8831778
11
84.2827713
21
86.8831778
0
LINE
8
DEFAULT_255_2_778
10
84.2827713
20
86.8831778
11
84.2827713
21
86.3880778
0
LINE
8
DEFAULT_255_2_778
10
84.2827713
20
86.3880778
11
83.8832713
21
86.3880778
0
LINE
8
DEFAULT_255_2_778
10
83.8832713
20
86.3880778
11
83.8832713
21
86.8831778
0
LINE
8
DEFAULT_255_2_778
10
83.8832713
20
86.8831778
11
83.3839713
21
86.8831778
0
LINE
8
DEFAULT_255_2_778
10
83.3839713
20
86.8831778
11
83.3839713
21
87.3278778
0
LINE
8
DEFAULT_255_2_778
10
83.3839713
20
87.3278778
11
83.8832713
21
87.3278778
0
LINE
8
DEFAULT_255_2_778
10
83.8832713
20
87.3278778
11
83.8832713
21
87.7718778
0
LINE
8
DEFAULT_255_2_778
10
83.8832713
20
87.7742778
11
84.2827713
21
87.7742778
0
LINE
8
DEFAULT_255_2_778
10
84.2827713
20
87.7742778
11
84.2827713
21
87.3345778
0
ARC
8
DEFAULT_255_2_778
10
81.4012079
20
86.232531
40
0.0437888
50
184.9118394
51
242.5831619
0
ARC
8
DEFAULT_255_2_778
10
81.8248669
20
86.3555048
40
0.4841652
50
182.7518956
51
195.1730538
0
ARC
8
DEFAULT_255_2_778
10
82.2517967
20
86.3928771
40
0.9125523
50
179.9508066
51
183.8087605
0
ARC
8
DEFAULT_255_2_778
10
82.061583
20
89.4503488
40
0.7223846
50
169.4893844
51
180.6494624
0
ARC
8
DEFAULT_255_2_778
10
81.4696678
20
89.5681659
40
0.119169
50
143.9641029
51
173.2732983
0
ARC
8
DEFAULT_255_2_778
10
81.3826298
20
89.6293515
40
0.0129067
50
97.0535606
51
136.2786904
0
LINE
8
DEFAULT_255_2_778
10
79.5408449
20
86.2195606
11
81.3619449
21
86.2195606
0
LINE
8
DEFAULT_255_2_778
10
82.9187449
20
86.0671606
11
83.0296449
21
89.7773606
0
LINE
8
DEFAULT_255_2_778
10
81.3395449
20
89.4186606
11
79.5416449
21
89.4186606
0
LINE
8
DEFAULT_255_2_778
10
79.4027449
20
89.7773606
11
79.4117449
21
86.0671606
0
LINE
8
DEFAULT_255_2_778
10
79.4117449
20
86.0671606
11
82.9187449
21
86.0671606
0
LINE
8
DEFAULT_255_2_778
10
82.9187449
20
86.0671606
11
81.3810449
21
86.1936606
0
LINE
8
DEFAULT_255_2_778
10
81.3392449
20
86.3936606
11
81.3392449
21
89.4421606
0
LINE
8
DEFAULT_255_2_778
10
81.3810449
20
89.6421606
11
82.8579449
21
89.7636606
0
LINE
8
DEFAULT_255_2_778
10
82.8579449
20
89.7636606
11
83.0296449
21
89.7776606
0
LINE
8
DEFAULT_255_2_778
10
83.0296449
20
89.7776606
11
79.4030449
21
89.7776606
0
LINE
8
DEFAULT_255_2_778
10
79.4030449
20
89.7776606
11
79.5419449
21
89.6387606
0
LINE
8
DEFAULT_255_2_778
10
79.5419449
20
89.6387606
11
79.5419449
21
86.1973606
0
LINE
8
DEFAULT_255_2_778
10
79.5419449
20
86.1973606
11
79.4122449
21
86.0674606
0
ARC
8
DEFAULT_255_2_778
10
81.40138
20
81.1542081
40
0.0439661
50
184.9788643
51
242.4502192
0
ARC
8
DEFAULT_255_2_778
10
81.8245825
20
81.2770785
40
0.4838811
50
182.7532438
51
195.1776373
0
ARC
8
DEFAULT_255_2_778
10
82.2513978
20
81.3144398
40
0.9121534
50
179.9505328
51
183.8095959
0
ARC
8
DEFAULT_255_2_778
10
82.061583
20
84.3717156
40
0.7223846
50
169.4893844
51
180.6494624
0
ARC
8
DEFAULT_255_2_778
10
81.4696678
20
84.4895326
40
0.119169
50
143.9641029
51
173.2732983
0
ARC
8
DEFAULT_255_2_778
10
81.3826298
20
84.5507183
40
0.0129067
50
97.0535606
51
136.2786904
0
LINE
8
DEFAULT_255_2_778
10
79.5408449
20
81.1411273
11
81.3619449
21
81.1411273
0
LINE
8
DEFAULT_255_2_778
10
82.9187449
20
80.9887273
11
83.0296449
21
84.6990273
0
LINE
8
DEFAULT_255_2_778
10
81.3395449
20
84.3402273
11
79.5416449
21
84.3402273
0
LINE
8
DEFAULT_255_2_778
10
79.4027449
20
84.6990273
11
79.4117449
21
80.9887273
0
LINE
8
DEFAULT_255_2_778
10
79.4117449
20
80.9887273
11
82.9187449
21
80.9887273
0
LINE
8
DEFAULT_255_2_778
10
82.9187449
20
80.9887273
11
81.3810449
21
81.1152273
0
LINE
8
DEFAULT_255_2_778
10
81.3392449
20
81.3152273
11
81.3392449
21
84.3635273
0
LINE
8
DEFAULT_255_2_778
10
81.3810449
20
84.5635273
11
82.8579449
21
84.6850273
0
LINE
8
DEFAULT_255_2_778
10
82.8579449
20
84.6850273
11
83.0296449
21
84.6990273
0
LINE
8
DEFAULT_255_2_778
10
83.0296449
20
84.6990273
11
79.4030449
21
84.6990273
0
LINE
8
DEFAULT_255_2_778
10
79.4030449
20
84.6990273
11
79.5419449
21
84.5601273
0
LINE
8
DEFAULT_255_2_778
10
79.5419449
20
84.5601273
11
79.5419449
21
81.1187273
0
LINE
8
DEFAULT_255_2_778
10
79.5419449
20
81.1187273
11
79.4122449
21
80.9887273
0
ARC
8
DEFAULT_255_2_778
10
81.4012079
20
76.075731
40
0.0437888
50
184.9118394
51
242.5831619
0
ARC
8
DEFAULT_255_2_778
10
81.8248669
20
76.1987048
40
0.4841652
50
182.7518956
51
195.1730538
0
ARC
8
DEFAULT_255_2_778
10
82.2517967
20
76.2360771
40
0.9125523
50
179.9508066
51
183.8087605
0
ARC
8
DEFAULT_255_2_778
10
82.061583
20
79.2935488
40
0.7223846
50
169.4893844
51
180.6494624
0
ARC
8
DEFAULT_255_2_778
10
81.4696678
20
79.4113659
40
0.119169
50
143.9641029
51
173.2732983
0
ARC
8
DEFAULT_255_2_778
10
81.3826298
20
79.4725515
40
0.0129067
50
97.0535606
51
136.2786904
0
LINE
8
DEFAULT_255_2_778
10
79.5408449
20
76.0627606
11
81.3619449
21
76.0627606
0
LINE
8
DEFAULT_255_2_778
10
82.9187449
20
75.9103606
11
83.0296449
21
79.6205606
0
LINE
8
DEFAULT_255_2_778
10
81.3395449
20
79.2618606
11
79.5416449
21
79.2618606
0
LINE
8
DEFAULT_255_2_778
10
79.4027449
20
79.6205606
11
79.4117449
21
75.9103606
0
LINE
8
DEFAULT_255_2_778
10
79.4117449
20
75.9103606
11
82.9187449
21
75.9103606
0
LINE
8
DEFAULT_255_2_778
10
82.9187449
20
75.9103606
11
81.3810449
21
76.0368606
0
LINE
8
DEFAULT_255_2_778
10
81.3392449
20
76.2368606
11
81.3392449
21
79.2853606
0
LINE
8
DEFAULT_255_2_778
10
81.3810449
20
79.4853606
11
82.8579449
21
79.6068606
0
LINE
8
DEFAULT_255_2_778
10
82.8579449
20
79.6068606
11
83.0296449
21
79.6208606
0
LINE
8
DEFAULT_255_2_778
10
83.0296449
20
79.6208606
11
79.4030449
21
79.6208606
0
LINE
8
DEFAULT_255_2_778
10
79.4030449
20
79.6208606
11
79.5419449
21
79.4819606
0
LINE
8
DEFAULT_255_2_778
10
79.5419449
20
79.4819606
11
79.5419449
21
76.0405606
0
LINE
8
DEFAULT_255_2_778
10
79.5419449
20
76.0405606
11
79.4122449
21
75.9106606
0
ARC
8
DEFAULT_255_2_778
10
81.4012079
20
70.997027
40
0.0437888
50
184.9118394
51
242.5831619
0
ARC
8
DEFAULT_255_2_778
10
81.8248669
20
71.1200008
40
0.4841652
50
182.7518956
51
195.1730538
0
ARC
8
DEFAULT_255_2_778
10
82.2517967
20
71.157373
40
0.9125523
50
179.9508066
51
183.8087605
0
ARC
8
DEFAULT_255_2_778
10
82.061583
20
74.2148448
40
0.7223846
50
169.4893844
51
180.6494624
0
ARC
8
DEFAULT_255_2_778
10
81.4696678
20
74.3326618
40
0.119169
50
143.9641029
51
173.2732983
0
ARC
8
DEFAULT_255_2_778
10
81.3826298
20
74.3938475
40
0.0129067
50
97.0535606
51
136.2786904
0
LINE
8
DEFAULT_255_2_778
10
79.5408449
20
70.9840565
11
81.3619449
21
70.9840565
0
LINE
8
DEFAULT_255_2_778
10
82.9187449
20
70.8316565
11
83.0296449
21
74.5418565
0
LINE
8
DEFAULT_255_2_778
10
81.3395449
20
74.1831565
11
79.5416449
21
74.1831565
0
LINE
8
DEFAULT_255_2_778
10
79.4027449
20
74.5418565
11
79.4117449
21
70.8316565
0
LINE
8
DEFAULT_255_2_778
10
79.4117449
20
70.8316565
11
82.9187449
21
70.8316565
0
LINE
8
DEFAULT_255_2_778
10
82.9187449
20
70.8316565
11
81.3810449
21
70.9581565
0
LINE
8
DEFAULT_255_2_778
10
81.3392449
20
71.1581565
11
81.3392449
21
74.2066565
0
LINE
8
DEFAULT_255_2_778
10
81.3810449
20
74.4066565
11
82.8579449
21
74.5281565
0
LINE
8
DEFAULT_255_2_778
10
82.8579449
20
74.5281565
11
83.0296449
21
74.5421565
0
LINE
8
DEFAULT_255_2_778
10
83.0296449
20
74.5421565
11
79.4030449
21
74.5421565
0
LINE
8
DEFAULT_255_2_778
10
79.4030449
20
74.5421565
11
79.5419449
21
74.4032565
0
LINE
8
DEFAULT_255_2_778
10
79.5419449
20
74.4032565
11
79.5419449
21
70.9618565
0
LINE
8
DEFAULT_255_2_778
10
79.5419449
20
70.9618565
11
79.4122449
21
70.8319565
0
LINE
8
DEFAULT_255_2_778
10
77.4819258
20
84.9197126
11
78.2928258
21
84.0474126
0
LINE
8
DEFAULT_255_2_778
10
78.2928258
20
84.0474126
11
78.2928258
21
86.6342126
0
LINE
8
DEFAULT_255_2_778
10
78.2928258
20
86.6342126
11
77.4663258
21
85.7518126
0
LINE
8
DEFAULT_255_2_778
10
77.4287
20
79.8384245
11
77.4287
21
80.7218245
0
LINE
8
DEFAULT_255_2_778
10
77.4287
20
74.7600245
11
77.4287
21
75.6434245
0
LINE
8
DEFAULT_255_2_778
10
77.4287
20
84.917358
11
77.4287
21
85.800258
0
LINE
8
DEFAULT_255_2_778
10
77.4663258
20
75.5947167
11
78.2928258
21
76.4771167
0
LINE
8
DEFAULT_255_2_778
10
78.2928258
20
76.4771167
11
78.2928258
21
73.8903167
0
LINE
8
DEFAULT_255_2_778
10
78.2928258
20
73.8903167
11
77.4925258
21
74.7510167
0
LINE
8
DEFAULT_255_2_778
10
77.4663258
20
80.6734126
11
78.2928258
21
81.5558126
0
LINE
8
DEFAULT_255_2_778
10
78.2928258
20
81.5558126
11
78.2928258
21
78.9690126
0
LINE
8
DEFAULT_255_2_778
10
78.2928258
20
78.9690126
11
77.4925258
21
79.8297126
0
LINE
8
DEFAULT_255_2_778
10
84.782234
20
28.2498823
11
84.782234
21
28.6946823
0
LINE
8
DEFAULT_255_2_778
10
84.782234
20
28.6946823
11
83.383934
21
28.6946823
0
LINE
8
DEFAULT_255_2_778
10
83.383934
20
28.6946823
11
83.383934
21
28.2498823
0
LINE
8
DEFAULT_255_2_778
10
83.383934
20
28.2498823
11
84.782234
21
28.2498823
0
LINE
8
DEFAULT_255_2_778
10
84.782234
20
23.6656823
11
84.782234
21
23.2208823
0
LINE
8
DEFAULT_255_2_778
10
84.782234
20
23.2208823
11
83.383934
21
23.2208823
0
LINE
8
DEFAULT_255_2_778
10
83.383934
20
23.2208823
11
83.383934
21
23.6656823
0
LINE
8
DEFAULT_255_2_778
10
83.383934
20
23.6656823
11
84.782234
21
23.6656823
0
LINE
8
DEFAULT_255_2_778
10
84.2827713
20
33.6523778
11
84.7820713
21
33.6523778
0
LINE
8
DEFAULT_255_2_778
10
84.7820713
20
33.6523778
11
84.7820713
21
33.2076778
0
LINE
8
DEFAULT_255_2_778
10
84.7820713
20
33.2076778
11
84.2827713
21
33.2076778
0
LINE
8
DEFAULT_255_2_778
10
84.2827713
20
33.2076778
11
84.2827713
21
32.7125778
0
LINE
8
DEFAULT_255_2_778
10
84.2827713
20
32.7125778
11
83.8832713
21
32.7125778
0
LINE
8
DEFAULT_255_2_778
10
83.8832713
20
32.7125778
11
83.8832713
21
33.2076778
0
LINE
8
DEFAULT_255_2_778
10
83.8832713
20
33.2076778
11
83.3839713
21
33.2076778
0
LINE
8
DEFAULT_255_2_778
10
83.3839713
20
33.2076778
11
83.3839713
21
33.6523778
0
LINE
8
DEFAULT_255_2_778
10
83.3839713
20
33.6523778
11
83.8832713
21
33.6523778
0
LINE
8
DEFAULT_255_2_778
10
83.8832713
20
33.6523778
11
83.8832713
21
34.0963778
0
LINE
8
DEFAULT_255_2_778
10
83.8832713
20
34.0987778
11
84.2827713
21
34.0987778
0
LINE
8
DEFAULT_255_2_778
10
84.2827713
20
34.0987778
11
84.2827713
21
33.6590778
0
LINE
8
DEFAULT_255_2_778
10
84.2827713
20
38.7527778
11
84.7820713
21
38.7527778
0
LINE
8
DEFAULT_255_2_778
10
84.7820713
20
38.7527778
11
84.7820713
21
38.3080778
0
LINE
8
DEFAULT_255_2_778
10
84.7820713
20
38.3080778
11
84.2827713
21
38.3080778
0
LINE
8
DEFAULT_255_2_778
10
84.2827713
20
38.3080778
11
84.2827713
21
37.8129778
0
LINE
8
DEFAULT_255_2_778
10
84.2827713
20
37.8129778
11
83.8832713
21
37.8129778
0
LINE
8
DEFAULT_255_2_778
10
83.8832713
20
37.8129778
11
83.8832713
21
38.3080778
0
LINE
8
DEFAULT_255_2_778
10
83.8832713
20
38.3080778
11
83.3839713
21
38.3080778
0
LINE
8
DEFAULT_255_2_778
10
83.3839713
20
38.3080778
11
83.3839713
21
38.7527778
0
LINE
8
DEFAULT_255_2_778
10
83.3839713
20
38.7527778
11
83.8832713
21
38.7527778
0
LINE
8
DEFAULT_255_2_778
10
83.8832713
20
38.7527778
11
83.8832713
21
39.1967778
0
LINE
8
DEFAULT_255_2_778
10
83.8832713
20
39.1991778
11
84.2827713
21
39.1991778
0
LINE
8
DEFAULT_255_2_778
10
84.2827713
20
39.1991778
11
84.2827713
21
38.7594778
0
ARC
8
DEFAULT_255_2_778
10
81.4012079
20
37.657227
40
0.0437888
50
184.9118394
51
242.5831619
0
ARC
8
DEFAULT_255_2_778
10
81.8248669
20
37.7802008
40
0.4841652
50
182.7518956
51
195.1730538
0
ARC
8
DEFAULT_255_2_778
10
82.2517967
20
37.817573
40
0.9125523
50
179.9508066
51
183.8087605
0
ARC
8
DEFAULT_255_2_778
10
82.061583
20
40.8750448
40
0.7223846
50
169.4893844
51
180.6494624
0
ARC
8
DEFAULT_255_2_778
10
81.4696678
20
40.9928618
40
0.119169
50
143.9641029
51
173.2732983
0
ARC
8
DEFAULT_255_2_778
10
81.3826298
20
41.0540475
40
0.0129067
50
97.0535606
51
136.2786904
0
LINE
8
DEFAULT_255_2_778
10
79.5408449
20
37.6442565
11
81.3619449
21
37.6442565
0
LINE
8
DEFAULT_255_2_778
10
82.9187449
20
37.4918565
11
83.0296449
21
41.2020565
0
LINE
8
DEFAULT_255_2_778
10
81.3395449
20
40.8433565
11
79.5416449
21
40.8433565
0
LINE
8
DEFAULT_255_2_778
10
79.4027449
20
41.2020565
11
79.4117449
21
37.4918565
0
LINE
8
DEFAULT_255_2_778
10
79.4117449
20
37.4918565
11
82.9187449
21
37.4918565
0
LINE
8
DEFAULT_255_2_778
10
82.9187449
20
37.4918565
11
81.3810449
21
37.6183565
0
LINE
8
DEFAULT_255_2_778
10
81.3392449
20
37.8183565
11
81.3392449
21
40.8668565
0
LINE
8
DEFAULT_255_2_778
10
81.3810449
20
41.0668565
11
82.8579449
21
41.1883565
0
LINE
8
DEFAULT_255_2_778
10
82.8579449
20
41.1883565
11
83.0296449
21
41.2023565
0
LINE
8
DEFAULT_255_2_778
10
83.0296449
20
41.2023565
11
79.4030449
21
41.2023565
0
LINE
8
DEFAULT_255_2_778
10
79.4030449
20
41.2023565
11
79.5419449
21
41.0634565
0
LINE
8
DEFAULT_255_2_778
10
79.5419449
20
41.0634565
11
79.5419449
21
37.6220565
0
LINE
8
DEFAULT_255_2_778
10
79.5419449
20
37.6220565
11
79.4122449
21
37.4921565
0
ARC
8
DEFAULT_255_2_778
10
81.4014193
20
32.5787642
40
0.0440045
50
184.9629598
51
242.418612
0
ARC
8
DEFAULT_255_2_778
10
81.8252899
20
32.7017418
40
0.4845896
50
182.7539483
51
195.1669667
0
ARC
8
DEFAULT_255_2_778
10
82.2518349
20
32.7390777
40
0.9125905
50
179.9508452
51
183.8086841
0
ARC
8
DEFAULT_255_2_778
10
82.061583
20
35.7965488
40
0.7223846
50
169.4893844
51
180.6494624
0
ARC
8
DEFAULT_255_2_778
10
81.4696678
20
35.9143659
40
0.119169
50
143.9641029
51
173.2732983
0
ARC
8
DEFAULT_255_2_778
10
81.3826298
20
35.9755515
40
0.0129067
50
97.0535606
51
136.2786904
0
LINE
8
DEFAULT_255_2_778
10
79.5408449
20
32.5657606
11
81.3619449
21
32.5657606
0
LINE
8
DEFAULT_255_2_778
10
82.9187449
20
32.4133606
11
83.0296449
21
36.1235606
0
LINE
8
DEFAULT_255_2_778
10
81.3395449
20
35.7648606
11
79.5416449
21
35.7648606
0
LINE
8
DEFAULT_255_2_778
10
79.4027449
20
36.1235606
11
79.4117449
21
32.4133606
0
LINE
8
DEFAULT_255_2_778
10
79.4117449
20
32.4133606
11
82.9187449
21
32.4133606
0
LINE
8
DEFAULT_255_2_778
10
82.9187449
20
32.4133606
11
81.3810449
21
32.5397606
0
LINE
8
DEFAULT_255_2_778
10
81.3392449
20
32.7398606
11
81.3392449
21
35.7883606
0
LINE
8
DEFAULT_255_2_778
10
81.3810449
20
35.9883606
11
82.8579449
21
36.1098606
0
LINE
8
DEFAULT_255_2_778
10
82.8579449
20
36.1098606
11
83.0296449
21
36.1238606
0
LINE
8
DEFAULT_255_2_778
10
83.0296449
20
36.1238606
11
79.4030449
21
36.1238606
0
LINE
8
DEFAULT_255_2_778
10
79.4030449
20
36.1238606
11
79.5419449
21
35.9849606
0
LINE
8
DEFAULT_255_2_778
10
79.5419449
20
35.9849606
11
79.5419449
21
32.5435606
0
LINE
8
DEFAULT_255_2_778
10
79.5419449
20
32.5435606
11
79.4122449
21
32.4135606
0
ARC
8
DEFAULT_255_2_778
10
81.4012079
20
27.500327
40
0.0437888
50
184.9118394
51
242.5831619
0
ARC
8
DEFAULT_255_2_778
10
81.8248669
20
27.6233008
40
0.4841652
50
182.7518956
51
195.1730538
0
ARC
8
DEFAULT_255_2_778
10
82.2517967
20
27.660673
40
0.9125523
50
179.9508066
51
183.8087605
0
ARC
8
DEFAULT_255_2_778
10
82.061583
20
30.7181448
40
0.7223846
50
169.4893844
51
180.6494624
0
ARC
8
DEFAULT_255_2_778
10
81.4696678
20
30.8359618
40
0.119169
50
143.9641029
51
173.2732983
0
ARC
8
DEFAULT_255_2_778
10
81.3826298
20
30.8971475
40
0.0129067
50
97.0535606
51
136.2786904
0
LINE
8
DEFAULT_255_2_778
10
79.5408449
20
27.4873565
11
81.3619449
21
27.4873565
0
LINE
8
DEFAULT_255_2_778
10
82.9187449
20
27.3349565
11
83.0296449
21
31.0451565
0
LINE
8
DEFAULT_255_2_778
10
81.3395449
20
30.6864565
11
79.5416449
21
30.6864565
0
LINE
8
DEFAULT_255_2_778
10
79.4027449
20
31.0451565
11
79.4117449
21
27.3349565
0
LINE
8
DEFAULT_255_2_778
10
79.4117449
20
27.3349565
11
82.9187449
21
27.3349565
0
LINE
8
DEFAULT_255_2_778
10
82.9187449
20
27.3349565
11
81.3810449
21
27.4614565
0
LINE
8
DEFAULT_255_2_778
10
81.3392449
20
27.6614565
11
81.3392449
21
30.7099565
0
LINE
8
DEFAULT_255_2_778
10
81.3810449
20
30.9099565
11
82.8579449
21
31.0314565
0
LINE
8
DEFAULT_255_2_778
10
82.8579449
20
31.0314565
11
83.0296449
21
31.0454565
0
LINE
8
DEFAULT_255_2_778
10
83.0296449
20
31.0454565
11
79.4030449
21
31.0454565
0
LINE
8
DEFAULT_255_2_778
10
79.4030449
20
31.0454565
11
79.5419449
21
30.9065565
0
LINE
8
DEFAULT_255_2_778
10
79.5419449
20
30.9065565
11
79.5419449
21
27.4651565
0
LINE
8
DEFAULT_255_2_778
10
79.5419449
20
27.4651565
11
79.4122449
21
27.3352565
0
ARC
8
DEFAULT_255_2_778
10
81.4013829
20
22.4220053
40
0.0439685
50
184.9732688
51
242.4476346
0
ARC
8
DEFAULT_255_2_778
10
81.8248574
20
22.5449124
40
0.4841549
50
182.7500083
51
195.1728528
0
ARC
8
DEFAULT_255_2_778
10
82.2526938
20
22.5823311
40
0.9134495
50
179.9503116
51
183.8069014
0
ARC
8
DEFAULT_255_2_778
10
82.061583
20
25.6395115
40
0.7223846
50
169.4893844
51
180.6494624
0
ARC
8
DEFAULT_255_2_778
10
81.4696678
20
25.7573286
40
0.119169
50
143.9641029
51
173.2732983
0
ARC
8
DEFAULT_255_2_778
10
81.3826298
20
25.8185143
40
0.0129067
50
97.0535606
51
136.2786904
0
LINE
8
DEFAULT_255_2_778
10
79.5408449
20
22.4089233
11
81.3619449
21
22.4089233
0
LINE
8
DEFAULT_255_2_778
10
82.9187449
20
22.2566233
11
83.0296449
21
25.9668233
0
LINE
8
DEFAULT_255_2_778
10
81.3395449
20
25.6080233
11
79.5416449
21
25.6080233
0
LINE
8
DEFAULT_255_2_778
10
79.4027449
20
25.9668233
11
79.4117449
21
22.2566233
0
LINE
8
DEFAULT_255_2_778
10
79.4117449
20
22.2566233
11
82.9187449
21
22.2566233
0
LINE
8
DEFAULT_255_2_778
10
82.9187449
20
22.2566233
11
81.3810449
21
22.3830233
0
LINE
8
DEFAULT_255_2_778
10
81.3392449
20
22.5831233
11
81.3392449
21
25.6313233
0
LINE
8
DEFAULT_255_2_778
10
81.3810449
20
25.8313233
11
82.8579449
21
25.9528233
0
LINE
8
DEFAULT_255_2_778
10
82.8579449
20
25.9528233
11
83.0296449
21
25.9668233
0
LINE
8
DEFAULT_255_2_778
10
83.0296449
20
25.9668233
11
79.4030449
21
25.9668233
0
LINE
8
DEFAULT_255_2_778
10
79.4030449
20
25.9668233
11
79.5419449
21
25.8279233
0
LINE
8
DEFAULT_255_2_778
10
79.5419449
20
25.8279233
11
79.5419449
21
22.3865233
0
LINE
8
DEFAULT_255_2_778
10
79.5419449
20
22.3865233
11
79.4122449
21
22.2566233
0
ARC
8
DEFAULT_255_2_778
10
81.4014193
20
17.3432601
40
0.0440045
50
184.9629598
51
242.418612
0
ARC
8
DEFAULT_255_2_778
10
81.8252899
20
17.4662377
40
0.4845896
50
182.7539483
51
195.1669667
0
ARC
8
DEFAULT_255_2_778
10
82.2518349
20
17.5035736
40
0.9125905
50
179.9508452
51
183.8086841
0
ARC
8
DEFAULT_255_2_778
10
82.061583
20
20.5610448
40
0.7223846
50
169.4893844
51
180.6494624
0
ARC
8
DEFAULT_255_2_778
10
81.4696678
20
20.6788618
40
0.119169
50
143.9641029
51
173.2732983
0
ARC
8
DEFAULT_255_2_778
10
81.3826298
20
20.7400475
40
0.0129067
50
97.0535606
51
136.2786904
0
LINE
8
DEFAULT_255_2_778
10
79.5408449
20
17.3302565
11
81.3619449
21
17.3302565
0
LINE
8
DEFAULT_255_2_778
10
82.9187449
20
17.1778565
11
83.0296449
21
20.8880565
0
LINE
8
DEFAULT_255_2_778
10
81.3395449
20
20.5293565
11
79.5416449
21
20.5293565
0
LINE
8
DEFAULT_255_2_778
10
79.4027449
20
20.8880565
11
79.4117449
21
17.1778565
0
LINE
8
DEFAULT_255_2_778
10
79.4117449
20
17.1778565
11
82.9187449
21
17.1778565
0
LINE
8
DEFAULT_255_2_778
10
82.9187449
20
17.1778565
11
81.3810449
21
17.3042565
0
LINE
8
DEFAULT_255_2_778
10
81.3392449
20
17.5043565
11
81.3392449
21
20.5528565
0
LINE
8
DEFAULT_255_2_778
10
81.3810449
20
20.7528565
11
82.8579449
21
20.8743565
0
LINE
8
DEFAULT_255_2_778
10
82.8579449
20
20.8743565
11
83.0296449
21
20.8883565
0
LINE
8
DEFAULT_255_2_778
10
83.0296449
20
20.8883565
11
79.4030449
21
20.8883565
0
LINE
8
DEFAULT_255_2_778
10
79.4030449
20
20.8883565
11
79.5419449
21
20.7494565
0
LINE
8
DEFAULT_255_2_778
10
79.5419449
20
20.7494565
11
79.5419449
21
17.3080565
0
LINE
8
DEFAULT_255_2_778
10
79.5419449
20
17.3080565
11
79.4122449
21
17.1780565
0
ARC
8
DEFAULT_255_2_778
10
81.4014193
20
12.2648682
40
0.0440045
50
184.9629598
51
242.418612
0
ARC
8
DEFAULT_255_2_778
10
81.8252899
20
12.3878458
40
0.4845896
50
182.7539483
51
195.1669667
0
ARC
8
DEFAULT_255_2_778
10
82.2518349
20
12.4251817
40
0.9125905
50
179.9508452
51
183.8086841
0
ARC
8
DEFAULT_255_2_778
10
82.061583
20
15.4826529
40
0.7223846
50
169.4893844
51
180.6494624
0
ARC
8
DEFAULT_255_2_778
10
81.4696678
20
15.6004699
40
0.119169
50
143.9641029
51
173.2732983
0
ARC
8
DEFAULT_255_2_778
10
81.3826298
20
15.6616556
40
0.0129067
50
97.0535606
51
136.2786904
0
LINE
8
DEFAULT_255_2_778
10
79.5408449
20
12.2518646
11
81.3619449
21
12.2518646
0
LINE
8
DEFAULT_255_2_778
10
82.9187449
20
12.0994646
11
83.0296449
21
15.8096646
0
LINE
8
DEFAULT_255_2_778
10
81.3395449
20
15.4508646
11
79.5416449
21
15.4508646
0
LINE
8
DEFAULT_255_2_778
10
79.4027449
20
15.8096646
11
79.4117449
21
12.0994646
0
LINE
8
DEFAULT_255_2_778
10
79.4117449
20
12.0994646
11
82.9187449
21
12.0994646
0
LINE
8
DEFAULT_255_2_778
10
82.9187449
20
12.0994646
11
81.3810449
21
12.2258646
0
LINE
8
DEFAULT_255_2_778
10
81.3392449
20
12.4259646
11
81.3392449
21
15.4744646
0
LINE
8
DEFAULT_255_2_778
10
81.3810449
20
15.6744646
11
82.8579449
21
15.7959646
0
LINE
8
DEFAULT_255_2_778
10
82.8579449
20
15.7959646
11
83.0296449
21
15.8099646
0
LINE
8
DEFAULT_255_2_778
10
83.0296449
20
15.8099646
11
79.4030449
21
15.8099646
0
LINE
8
DEFAULT_255_2_778
10
79.4030449
20
15.8099646
11
79.5419449
21
15.6710646
0
LINE
8
DEFAULT_255_2_778
10
79.5419449
20
15.6710646
11
79.5419449
21
12.2295646
0
LINE
8
DEFAULT_255_2_778
10
79.5419449
20
12.2295646
11
79.4122449
21
12.0996646
0
ARC
8
DEFAULT_255_2_778
10
85.9678479
20
16.4184558
40
3.2728642
50
135.2516274
51
142.4186376
0
ARC
8
DEFAULT_255_2_778
10
84.5783337
20
17.7883101
40
1.3216647
50
126.2004815
51
135.0204532
0
ARC
8
DEFAULT_255_2_778
10
84.1477864
20
18.3910506
40
0.5810564
50
107.460433
51
127.0439476
0
ARC
8
DEFAULT_255_2_778
10
83.9971543
20
18.3803385
40
0.591293
50
52.4350615
51
72.6845598
0
ARC
8
DEFAULT_255_2_778
10
83.5521804
20
17.7715693
40
1.3452509
50
44.6055755
51
53.2199585
0
ARC
8
DEFAULT_255_2_778
10
82.0888666
20
16.3426223
40
3.3905223
50
37.6747211
51
44.4328398
0
LINE
8
DEFAULT_255_2_778
10
84.3726421
20
17.6226345
11
84.3726421
21
17.8692345
0
LINE
8
DEFAULT_255_2_778
10
84.3726421
20
17.8692345
11
83.7734421
21
17.8692345
0
LINE
8
DEFAULT_255_2_778
10
83.7734421
20
17.8692345
11
83.7734421
21
17.6226345
0
LINE
8
DEFAULT_255_2_778
10
83.7734421
20
17.6226345
11
84.3726421
21
17.6226345
0
LINE
8
DEFAULT_255_2_778
10
84.5224421
20
17.8949345
11
84.5224421
21
18.1415345
0
LINE
8
DEFAULT_255_2_778
10
84.5224421
20
18.1415345
11
83.6236421
21
18.1415345
0
LINE
8
DEFAULT_255_2_778
10
83.6236421
20
18.1415345
11
83.6236421
21
17.8949345
0
LINE
8
DEFAULT_255_2_778
10
83.6236421
20
17.8949345
11
84.5224421
21
17.8949345
0
LINE
8
DEFAULT_255_2_778
10
84.1729421
20
18.4137345
11
84.6224421
21
18.4137345
0
LINE
8
DEFAULT_255_2_778
10
84.6224421
20
18.4137345
11
84.6224421
21
18.1671345
0
LINE
8
DEFAULT_255_2_778
10
84.6224421
20
18.1671345
11
83.5238421
21
18.1671345
0
LINE
8
DEFAULT_255_2_778
10
83.5238421
20
18.1671345
11
83.5238421
21
18.4137345
0
LINE
8
DEFAULT_255_2_778
10
83.5238421
20
18.4137345
11
83.9734421
21
18.4137345
0
LINE
8
DEFAULT_255_2_778
10
83.5289421
20
18.4145345
11
83.3741421
21
18.4145345
0
LINE
8
DEFAULT_255_2_778
10
83.9734421
20
18.9453345
11
83.9734421
21
19.2059345
0
LINE
8
DEFAULT_255_2_778
10
83.9734421
20
19.2059345
11
84.1731421
21
19.2059345
0
LINE
8
DEFAULT_255_2_778
10
84.1731421
20
19.2059345
11
84.1731421
21
18.9448345
0
LINE
8
DEFAULT_255_2_778
10
84.7724421
20
18.4148345
11
84.6290421
21
18.4148345
0
ARC
8
DEFAULT_255_2_778
10
85.8178479
20
11.3913558
40
3.2728642
50
135.2516274
51
142.4186376
0
ARC
8
DEFAULT_255_2_778
10
84.4283337
20
12.7612101
40
1.3216647
50
126.2004815
51
135.0204532
0
ARC
8
DEFAULT_255_2_778
10
83.9977864
20
13.3639506
40
0.5810564
50
107.460433
51
127.0439476
0
ARC
8
DEFAULT_255_2_778
10
83.8471543
20
13.3532385
40
0.591293
50
52.4350615
51
72.6845598
0
ARC
8
DEFAULT_255_2_778
10
83.3961111
20
12.736783
40
1.3550411
50
44.6537846
51
53.2090086
0
ARC
8
DEFAULT_255_2_778
10
81.927005
20
11.3060005
40
3.4057301
50
37.6795471
51
44.4063468
0
LINE
8
DEFAULT_255_2_778
10
84.2226421
20
12.5955345
11
84.2226421
21
12.8421345
0
LINE
8
DEFAULT_255_2_778
10
84.2226421
20
12.8421345
11
83.6234421
21
12.8421345
0
LINE
8
DEFAULT_255_2_778
10
83.6234421
20
12.8421345
11
83.6234421
21
12.5955345
0
LINE
8
DEFAULT_255_2_778
10
83.6234421
20
12.5955345
11
84.2226421
21
12.5955345
0
LINE
8
DEFAULT_255_2_778
10
84.3724421
20
12.8678345
11
84.3724421
21
13.1144345
0
LINE
8
DEFAULT_255_2_778
10
84.3724421
20
13.1144345
11
83.4736421
21
13.1144345
0
LINE
8
DEFAULT_255_2_778
10
83.4736421
20
13.1144345
11
83.4736421
21
12.8678345
0
LINE
8
DEFAULT_255_2_778
10
83.4736421
20
12.8678345
11
84.3724421
21
12.8678345
0
LINE
8
DEFAULT_255_2_778
10
84.0229421
20
13.3866345
11
84.4724421
21
13.3866345
0
LINE
8
DEFAULT_255_2_778
10
84.4724421
20
13.3866345
11
84.4724421
21
13.1400345
0
LINE
8
DEFAULT_255_2_778
10
84.4724421
20
13.1400345
11
83.3738421
21
13.1400345
0
LINE
8
DEFAULT_255_2_778
10
83.3738421
20
13.1400345
11
83.3738421
21
13.3866345
0
LINE
8
DEFAULT_255_2_778
10
83.3738421
20
13.3866345
11
83.8234421
21
13.3866345
0
LINE
8
DEFAULT_255_2_778
10
83.3789421
20
13.3874345
11
83.2241421
21
13.3874345
0
LINE
8
DEFAULT_255_2_778
10
83.8234421
20
13.9182345
11
83.8234421
21
14.1788345
0
LINE
8
DEFAULT_255_2_778
10
83.8234421
20
14.1788345
11
84.0231421
21
14.1788345
0
LINE
8
DEFAULT_255_2_778
10
84.0231421
20
14.1788345
11
84.0231421
21
13.9177345
0
LINE
8
DEFAULT_255_2_778
10
84.6224421
20
13.3877345
11
84.4790421
21
13.3877345
0
LINE
8
DEFAULT_255_2_778
10
77.434302
20
41.465846
11
74.517002
21
41.453946
0
LINE
8
DEFAULT_255_2_778
10
74.517002
20
41.453946
11
74.281802
21
41.462446
0
LINE
8
DEFAULT_255_2_778
10
74.281802
20
41.462446
11
77.381602
21
41.462446
0
LINE
8
DEFAULT_255_2_778
10
77.381602
20
41.462446
11
77.434602
21
41.465846
0
LINE
8
DEFAULT_255_2_778
10
78.304002
20
40.224146
11
77.960302
21
40.626846
0
LINE
8
DEFAULT_255_2_778
10
77.960302
20
40.626846
11
75.690702
21
40.626846
0
LINE
8
DEFAULT_255_2_778
10
75.690702
20
40.626846
11
75.674602
21
40.639246
0
LINE
8
DEFAULT_255_2_778
10
75.674602
20
40.639246
11
75.494102
21
40.667046
0
LINE
8
DEFAULT_255_2_778
10
75.494102
20
40.667046
11
75.254702
21
40.770046
0
LINE
8
DEFAULT_255_2_778
10
75.254702
20
40.770046
11
77.969602
21
40.770046
0
LINE
8
DEFAULT_255_2_778
10
77.969602
20
40.770046
11
77.445702
21
41.453946
0
LINE
8
DEFAULT_255_2_778
10
77.445702
20
41.453946
11
77.434602
21
41.465846
0
LINE
8
DEFAULT_255_2_778
10
77.434602
20
41.465846
11
77.429002
21
41.453946
0
LINE
8
DEFAULT_255_2_778
10
78.304002
20
40.224146
11
78.463802
21
40.345046
0
LINE
8
DEFAULT_255_2_778
10
78.463802
20
40.345046
11
78.459802
21
38.342946
0
LINE
8
DEFAULT_255_2_778
10
78.459802
20
38.342946
11
78.304002
21
38.460946
0
LINE
8
DEFAULT_255_2_778
10
78.304002
20
38.460946
11
78.304002
21
40.224146
0
LINE
8
DEFAULT_255_2_778
10
77.434602
20
41.465846
11
77.381602
21
41.462446
0
LINE
8
DEFAULT_255_2_778
10
77.381602
20
41.462446
11
74.281802
21
41.462446
0
LINE
8
DEFAULT_255_2_778
10
74.281802
20
41.462446
11
74.517002
21
41.453946
0
LINE
8
DEFAULT_255_2_778
10
74.517002
20
41.453946
11
77.434602
21
41.465846
0
LINE
8
DEFAULT_255_2_778
10
78.304002
20
40.224146
11
78.304002
21
38.460946
0
LINE
8
DEFAULT_255_2_778
10
78.304002
20
38.460946
11
78.459802
21
38.342946
0
LINE
8
DEFAULT_255_2_778
10
78.459802
20
38.342946
11
78.463802
21
40.345046
0
LINE
8
DEFAULT_255_2_778
10
78.463802
20
40.345046
11
78.304002
21
40.224146
0
LINE
8
DEFAULT_255_2_778
10
77.969602
20
40.770046
11
77.994402
21
40.667346
0
LINE
8
DEFAULT_255_2_778
10
77.994402
20
40.667346
11
75.494102
21
40.667046
0
LINE
8
DEFAULT_255_2_778
10
77.994402
20
40.667346
11
77.960302
21
40.626846
0
LINE
8
DEFAULT_255_2_778
10
77.435402
20
41.465546
11
78.463502
21
40.345046
0
LINE
8
DEFAULT_255_2_778
10
75.674602
20
38.045846
11
75.690702
21
38.058246
0
LINE
8
DEFAULT_255_2_778
10
75.217902
20
37.761946
11
74.565402
21
37.267746
0
LINE
8
DEFAULT_255_2_778
10
75.674802
20
40.639546
11
75.674802
21
38.045846
0
LINE
8
DEFAULT_255_2_778
10
75.674802
20
38.045846
11
75.494402
21
38.018046
0
LINE
8
DEFAULT_255_2_778
10
75.494402
20
38.018046
11
75.254902
21
37.915146
0
LINE
8
DEFAULT_255_2_778
10
75.494402
20
38.018046
11
77.994702
21
38.017846
0
LINE
8
DEFAULT_255_2_778
10
77.994702
20
38.017846
11
77.960602
21
38.058246
0
LINE
8
DEFAULT_255_2_778
10
77.960602
20
38.058246
11
75.691002
21
38.058246
0
LINE
8
DEFAULT_255_2_778
10
75.691002
20
38.058246
11
75.691002
21
40.626846
0
LINE
8
DEFAULT_255_2_778
10
78.304302
20
38.460946
11
77.960602
21
38.058246
0
LINE
8
DEFAULT_255_2_778
10
75.254902
20
40.770046
11
75.218102
21
40.923146
0
LINE
8
DEFAULT_255_2_778
10
75.218102
20
40.923146
11
74.517502
21
41.453646
0
LINE
8
DEFAULT_255_2_778
10
77.969802
20
37.914846
11
77.419802
21
37.218746
0
LINE
8
DEFAULT_255_2_778
10
77.419802
20
37.218746
11
77.382202
21
37.267446
0
LINE
8
DEFAULT_255_2_778
10
77.382202
20
37.267446
11
74.565702
21
37.267446
0
LINE
8
DEFAULT_255_2_778
10
74.565702
20
37.267446
11
74.282302
21
41.462446
0
LINE
8
DEFAULT_255_2_778
10
78.460402
20
38.343246
11
77.423502
21
37.221646
0
LINE
8
DEFAULT_255_2_778
10
77.994902
20
38.017546
11
77.970102
21
37.914846
0
LINE
8
DEFAULT_255_2_778
10
77.970102
20
37.914846
11
75.255202
21
37.914846
0
LINE
8
DEFAULT_255_2_778
10
75.255202
20
37.914846
11
75.218402
21
37.761646
0
LINE
8
DEFAULT_255_2_778
10
75.218402
20
37.761646
11
75.218402
21
40.923146
0
LINE
8
DEFAULT_255_2_778
10
77.434302
20
36.370746
11
74.517002
21
36.358846
0
LINE
8
DEFAULT_255_2_778
10
74.517002
20
36.358846
11
74.281802
21
36.367346
0
LINE
8
DEFAULT_255_2_778
10
74.281802
20
36.367346
11
77.381702
21
36.367346
0
LINE
8
DEFAULT_255_2_778
10
77.381702
20
36.367346
11
77.434602
21
36.370746
0
LINE
8
DEFAULT_255_2_778
10
78.304002
20
35.129046
11
77.960302
21
35.531746
0
LINE
8
DEFAULT_255_2_778
10
77.960302
20
35.531746
11
75.690702
21
35.531746
0
LINE
8
DEFAULT_255_2_778
10
75.690702
20
35.531746
11
75.674602
21
35.544146
0
LINE
8
DEFAULT_255_2_778
10
75.674602
20
35.544146
11
75.494102
21
35.571946
0
LINE
8
DEFAULT_255_2_778
10
75.494102
20
35.571946
11
75.254702
21
35.674846
0
LINE
8
DEFAULT_255_2_778
10
75.254702
20
35.674846
11
77.969602
21
35.674846
0
LINE
8
DEFAULT_255_2_778
10
77.969602
20
35.674846
11
77.445702
21
36.358846
0
LINE
8
DEFAULT_255_2_778
10
77.445702
20
36.358846
11
77.434602
21
36.370746
0
LINE
8
DEFAULT_255_2_778
10
77.434602
20
36.370746
11
77.429002
21
36.358546
0
LINE
8
DEFAULT_255_2_778
10
78.304002
20
35.128846
11
78.463802
21
35.249746
0
LINE
8
DEFAULT_255_2_778
10
78.463802
20
35.249746
11
78.459802
21
33.247646
0
LINE
8
DEFAULT_255_2_778
10
78.459802
20
33.247646
11
78.304002
21
33.365646
0
LINE
8
DEFAULT_255_2_778
10
78.304002
20
33.365646
11
78.304002
21
35.128846
0
LINE
8
DEFAULT_255_2_778
10
77.434602
20
36.370446
11
77.381702
21
36.367046
0
LINE
8
DEFAULT_255_2_778
10
77.381702
20
36.367046
11
74.281802
21
36.367046
0
LINE
8
DEFAULT_255_2_778
10
74.281802
20
36.367046
11
74.517002
21
36.358546
0
LINE
8
DEFAULT_255_2_778
10
74.517002
20
36.358546
11
77.434602
21
36.370446
0
LINE
8
DEFAULT_255_2_778
10
78.304002
20
35.128846
11
78.304002
21
33.365646
0
LINE
8
DEFAULT_255_2_778
10
78.304002
20
33.365646
11
78.459802
21
33.247646
0
LINE
8
DEFAULT_255_2_778
10
78.459802
20
33.247646
11
78.463802
21
35.249746
0
LINE
8
DEFAULT_255_2_778
10
78.463802
20
35.249746
11
78.304002
21
35.128846
0
LINE
8
DEFAULT_255_2_778
10
77.969602
20
35.674646
11
77.994402
21
35.571946
0
LINE
8
DEFAULT_255_2_778
10
77.994402
20
35.571946
11
75.494102
21
35.571746
0
LINE
8
DEFAULT_255_2_778
10
77.994402
20
35.571946
11
77.960302
21
35.531446
0
LINE
8
DEFAULT_255_2_778
10
77.435402
20
36.370246
11
78.463502
21
35.249746
0
LINE
8
DEFAULT_255_2_778
10
75.674602
20
32.950446
11
75.690702
21
32.962946
0
LINE
8
DEFAULT_255_2_778
10
75.217902
20
32.666546
11
74.565402
21
32.172346
0
LINE
8
DEFAULT_255_2_778
10
75.674802
20
35.544146
11
75.674802
21
32.950446
0
LINE
8
DEFAULT_255_2_778
10
75.674802
20
32.950446
11
75.494402
21
32.922746
0
LINE
8
DEFAULT_255_2_778
10
75.494402
20
32.922746
11
75.254702
21
32.819746
0
LINE
8
DEFAULT_255_2_778
10
75.494402
20
32.922746
11
77.994702
21
32.922446
0
LINE
8
DEFAULT_255_2_778
10
77.994702
20
32.922446
11
77.960602
21
32.962946
0
LINE
8
DEFAULT_255_2_778
10
77.960602
20
32.962946
11
75.691002
21
32.962946
0
LINE
8
DEFAULT_255_2_778
10
75.691002
20
32.962946
11
75.691002
21
35.531746
0
LINE
8
DEFAULT_255_2_778
10
78.304302
20
33.365846
11
77.960602
21
32.963146
0
LINE
8
DEFAULT_255_2_778
10
75.254902
20
35.674846
11
75.218202
21
35.828046
0
LINE
8
DEFAULT_255_2_778
10
75.218202
20
35.828046
11
74.517502
21
36.358546
0
LINE
8
DEFAULT_255_2_778
10
77.969802
20
32.819746
11
77.419802
21
32.123646
0
LINE
8
DEFAULT_255_2_778
10
77.419802
20
32.123646
11
77.382202
21
32.172346
0
LINE
8
DEFAULT_255_2_778
10
77.382202
20
32.172346
11
74.565702
21
32.172346
0
LINE
8
DEFAULT_255_2_778
10
74.565702
20
32.172346
11
74.282302
21
36.367346
0
LINE
8
DEFAULT_255_2_778
10
78.460402
20
33.248146
11
77.423502
21
32.126546
0
LINE
8
DEFAULT_255_2_778
10
77.995002
20
32.922446
11
77.970102
21
32.819746
0
LINE
8
DEFAULT_255_2_778
10
77.970102
20
32.819746
11
75.255202
21
32.819746
0
LINE
8
DEFAULT_255_2_778
10
75.255202
20
32.819746
11
75.218402
21
32.666546
0
LINE
8
DEFAULT_255_2_778
10
75.218402
20
32.666546
11
75.218402
21
35.828046
0
LINE
8
DEFAULT_255_2_778
10
77.434302
20
31.320146
11
74.517002
21
31.308246
0
LINE
8
DEFAULT_255_2_778
10
74.517002
20
31.308246
11
74.281802
21
31.316746
0
LINE
8
DEFAULT_255_2_778
10
74.281802
20
31.316746
11
77.381602
21
31.316746
0
LINE
8
DEFAULT_255_2_778
10
77.381602
20
31.316746
11
77.434602
21
31.320146
0
LINE
8
DEFAULT_255_2_778
10
78.304002
20
30.078446
11
77.960302
21
30.481146
0
LINE
8
DEFAULT_255_2_778
10
77.960302
20
30.481146
11
75.690702
21
30.481146
0
LINE
8
DEFAULT_255_2_778
10
75.690702
20
30.481146
11
75.674602
21
30.493546
0
LINE
8
DEFAULT_255_2_778
10
75.674602
20
30.493546
11
75.494102
21
30.521346
0
LINE
8
DEFAULT_255_2_778
10
75.494102
20
30.521346
11
75.254702
21
30.624246
0
LINE
8
DEFAULT_255_2_778
10
75.254702
20
30.624246
11
77.969602
21
30.624246
0
LINE
8
DEFAULT_255_2_778
10
77.969602
20
30.624246
11
77.445702
21
31.308246
0
LINE
8
DEFAULT_255_2_778
10
77.445702
20
31.308246
11
77.434602
21
31.320146
0
LINE
8
DEFAULT_255_2_778
10
77.434602
20
31.320146
11
77.429002
21
31.307946
0
LINE
8
DEFAULT_255_2_778
10
78.304002
20
30.078146
11
78.463802
21
30.199146
0
LINE
8
DEFAULT_255_2_778
10
78.463802
20
30.199146
11
78.459802
21
28.197046
0
LINE
8
DEFAULT_255_2_778
10
78.459802
20
28.197046
11
78.304002
21
28.315046
0
LINE
8
DEFAULT_255_2_778
10
78.304002
20
28.315046
11
78.304002
21
30.078146
0
LINE
8
DEFAULT_255_2_778
10
77.434602
20
31.319846
11
77.381602
21
31.316446
0
LINE
8
DEFAULT_255_2_778
10
77.381602
20
31.316446
11
74.281802
21
31.316446
0
LINE
8
DEFAULT_255_2_778
10
74.281802
20
31.316446
11
74.517002
21
31.307946
0
LINE
8
DEFAULT_255_2_778
10
74.517002
20
31.307946
11
77.434602
21
31.319846
0
LINE
8
DEFAULT_255_2_778
10
78.304002
20
30.078146
11
78.304002
21
28.315046
0
LINE
8
DEFAULT_255_2_778
10
78.304002
20
28.315046
11
78.459802
21
28.197046
0
LINE
8
DEFAULT_255_2_778
10
78.459802
20
28.197046
11
78.463802
21
30.199146
0
LINE
8
DEFAULT_255_2_778
10
78.463802
20
30.199146
11
78.304002
21
30.078146
0
LINE
8
DEFAULT_255_2_778
10
77.969602
20
30.624046
11
77.994402
21
30.521346
0
LINE
8
DEFAULT_255_2_778
10
77.994402
20
30.521346
11
75.494102
21
30.521146
0
LINE
8
DEFAULT_255_2_778
10
77.994402
20
30.521346
11
77.960302
21
30.480846
0
LINE
8
DEFAULT_255_2_778
10
77.435402
20
31.319646
11
78.463502
21
30.199146
0
LINE
8
DEFAULT_255_2_778
10
75.674602
20
27.899846
11
75.690702
21
27.912346
0
LINE
8
DEFAULT_255_2_778
10
75.217902
20
27.615946
11
74.565402
21
27.121746
0
LINE
8
DEFAULT_255_2_778
10
75.674802
20
30.493546
11
75.674802
21
27.899846
0
LINE
8
DEFAULT_255_2_778
10
75.674802
20
27.899846
11
75.494402
21
27.872046
0
LINE
8
DEFAULT_255_2_778
10
75.494402
20
27.872046
11
75.254702
21
27.769146
0
LINE
8
DEFAULT_255_2_778
10
75.494402
20
27.872046
11
77.994702
21
27.871846
0
LINE
8
DEFAULT_255_2_778
10
77.994702
20
27.871846
11
77.960602
21
27.912346
0
LINE
8
DEFAULT_255_2_778
10
77.960602
20
27.912346
11
75.691002
21
27.912346
0
LINE
8
DEFAULT_255_2_778
10
75.691002
20
27.912346
11
75.691002
21
30.481146
0
LINE
8
DEFAULT_255_2_778
10
78.304302
20
28.315246
11
77.960602
21
27.912546
0
LINE
8
DEFAULT_255_2_778
10
75.254902
20
30.624246
11
75.218102
21
30.777446
0
LINE
8
DEFAULT_255_2_778
10
75.218102
20
30.777446
11
74.517502
21
31.307946
0
LINE
8
DEFAULT_255_2_778
10
77.969802
20
27.769146
11
77.419802
21
27.073046
0
LINE
8
DEFAULT_255_2_778
10
77.419802
20
27.073046
11
77.382202
21
27.121746
0
LINE
8
DEFAULT_255_2_778
10
77.382202
20
27.121746
11
74.565702
21
27.121746
0
LINE
8
DEFAULT_255_2_778
10
74.565702
20
27.121746
11
74.282302
21
31.316746
0
LINE
8
DEFAULT_255_2_778
10
78.460402
20
28.197546
11
77.423502
21
27.075946
0
LINE
8
DEFAULT_255_2_778
10
77.994902
20
27.871846
11
77.970102
21
27.769146
0
LINE
8
DEFAULT_255_2_778
10
77.970102
20
27.769146
11
75.255202
21
27.769146
0
LINE
8
DEFAULT_255_2_778
10
75.255202
20
27.769146
11
75.218402
21
27.615946
0
LINE
8
DEFAULT_255_2_778
10
75.218402
20
27.615946
11
75.218402
21
30.777446
0
LINE
8
DEFAULT_255_2_778
10
77.4565648
20
26.2343501
11
74.5392648
21
26.2224501
0
LINE
8
DEFAULT_255_2_778
10
74.5392648
20
26.2224501
11
74.3040648
21
26.2309501
0
LINE
8
DEFAULT_255_2_778
10
74.3040648
20
26.2309501
11
77.4038648
21
26.2309501
0
LINE
8
DEFAULT_255_2_778
10
77.4038648
20
26.2309501
11
77.4567648
21
26.2343501
0
LINE
8
DEFAULT_255_2_778
10
78.3262648
20
24.9926501
11
77.9824648
21
25.3953501
0
LINE
8
DEFAULT_255_2_778
10
77.9824648
20
25.3953501
11
75.7129648
21
25.3953501
0
LINE
8
DEFAULT_255_2_778
10
75.7129648
20
25.3953501
11
75.6967648
21
25.4077501
0
LINE
8
DEFAULT_255_2_778
10
75.6967648
20
25.4077501
11
75.5163648
21
25.4355501
0
LINE
8
DEFAULT_255_2_778
10
75.5163648
20
25.4355501
11
75.2768648
21
25.5384501
0
LINE
8
DEFAULT_255_2_778
10
75.2768648
20
25.5384501
11
77.9917648
21
25.5384501
0
LINE
8
DEFAULT_255_2_778
10
77.9917648
20
25.5384501
11
77.4678648
21
26.2224501
0
LINE
8
DEFAULT_255_2_778
10
77.4678648
20
26.2224501
11
77.4567648
21
26.2343501
0
LINE
8
DEFAULT_255_2_778
10
77.4567648
20
26.2343501
11
77.4512648
21
26.2221501
0
LINE
8
DEFAULT_255_2_778
10
78.3262648
20
24.9923501
11
78.4860648
21
25.1133501
0
LINE
8
DEFAULT_255_2_778
10
78.4860648
20
25.1133501
11
78.4820648
21
23.1112501
0
LINE
8
DEFAULT_255_2_778
10
78.4820648
20
23.1112501
11
78.3262648
21
23.2292501
0
LINE
8
DEFAULT_255_2_778
10
78.3262648
20
23.2292501
11
78.3262648
21
24.9923501
0
LINE
8
DEFAULT_255_2_778
10
77.4567648
20
26.2340501
11
77.4038648
21
26.2306501
0
LINE
8
DEFAULT_255_2_778
10
77.4038648
20
26.2306501
11
74.3037648
21
26.2306501
0
LINE
8
DEFAULT_255_2_778
10
74.3037648
20
26.2306501
11
74.5389648
21
26.2221501
0
LINE
8
DEFAULT_255_2_778
10
74.5389648
20
26.2221501
11
77.4567648
21
26.2340501
0
LINE
8
DEFAULT_255_2_778
10
78.3262648
20
24.9923501
11
78.3262648
21
23.2292501
0
LINE
8
DEFAULT_255_2_778
10
78.3262648
20
23.2292501
11
78.4820648
21
23.1112501
0
LINE
8
DEFAULT_255_2_778
10
78.4820648
20
23.1112501
11
78.4860648
21
25.1133501
0
LINE
8
DEFAULT_255_2_778
10
78.4860648
20
25.1133501
11
78.3262648
21
24.9923501
0
LINE
8
DEFAULT_255_2_778
10
77.9917648
20
25.5382501
11
78.0166648
21
25.4355501
0
LINE
8
DEFAULT_255_2_778
10
78.0166648
20
25.4355501
11
75.5163648
21
25.4353501
0
LINE
8
DEFAULT_255_2_778
10
78.0166648
20
25.4355501
11
77.9824648
21
25.3950501
0
LINE
8
DEFAULT_255_2_778
10
77.4575648
20
26.2338501
11
78.4857648
21
25.1133501
0
LINE
8
DEFAULT_255_2_778
10
75.6967648
20
22.8140501
11
75.7129648
21
22.8265501
0
LINE
8
DEFAULT_255_2_778
10
75.2400648
20
22.5301501
11
74.5876648
21
22.0359501
0
LINE
8
DEFAULT_255_2_778
10
75.6970648
20
25.4077501
11
75.6970648
21
22.8140501
0
LINE
8
DEFAULT_255_2_778
10
75.6970648
20
22.8140501
11
75.5165648
21
22.7862501
0
LINE
8
DEFAULT_255_2_778
10
75.5165648
20
22.7862501
11
75.2768648
21
22.6833501
0
LINE
8
DEFAULT_255_2_778
10
75.5165648
20
22.7862501
11
78.0168648
21
22.7860501
0
LINE
8
DEFAULT_255_2_778
10
78.0168648
20
22.7860501
11
77.9827648
21
22.8265501
0
LINE
8
DEFAULT_255_2_778
10
77.9827648
20
22.8265501
11
75.7131648
21
22.8265501
0
LINE
8
DEFAULT_255_2_778
10
75.7131648
20
22.8265501
11
75.7131648
21
25.3953501
0
LINE
8
DEFAULT_255_2_778
10
78.3264648
20
23.2294501
11
77.9827648
21
22.8267501
0
LINE
8
DEFAULT_255_2_778
10
75.2771648
20
25.5384501
11
75.2403648
21
25.6916501
0
LINE
8
DEFAULT_255_2_778
10
75.2403648
20
25.6916501
11
74.5397648
21
26.2221501
0
LINE
8
DEFAULT_255_2_778
10
77.9920648
20
22.6833501
11
77.4419648
21
21.9872501
0
LINE
8
DEFAULT_255_2_778
10
77.4419648
20
21.9872501
11
77.4044648
21
22.0359501
0
LINE
8
DEFAULT_255_2_778
10
77.4044648
20
22.0359501
11
74.5879648
21
22.0359501
0
LINE
8
DEFAULT_255_2_778
10
74.5879648
20
22.0359501
11
74.3045648
21
26.2309501
0
LINE
8
DEFAULT_255_2_778
10
78.4825648
20
23.1117501
11
77.4456648
21
21.9901501
0
LINE
8
DEFAULT_255_2_778
10
78.0171648
20
22.7860501
11
77.9923648
21
22.6833501
0
LINE
8
DEFAULT_255_2_778
10
77.9923648
20
22.6833501
11
75.2773648
21
22.6833501
0
LINE
8
DEFAULT_255_2_778
10
75.2773648
20
22.6833501
11
75.2406648
21
22.5301501
0
LINE
8
DEFAULT_255_2_778
10
75.2406648
20
22.5301501
11
75.2406648
21
25.6916501
0
LINE
8
DEFAULT_255_2_778
10
77.415702
20
21.168846
11
74.498402
21
21.156946
0
LINE
8
DEFAULT_255_2_778
10
74.498402
20
21.156946
11
74.263202
21
21.165446
0
LINE
8
DEFAULT_255_2_778
10
74.263202
20
21.165446
11
77.363102
21
21.165446
0
LINE
8
DEFAULT_255_2_778
10
77.363102
20
21.165446
11
77.416002
21
21.168846
0
LINE
8
DEFAULT_255_2_778
10
78.285402
20
19.927146
11
77.941702
21
20.329846
0
LINE
8
DEFAULT_255_2_778
10
77.941702
20
20.329846
11
75.672102
21
20.329846
0
LINE
8
DEFAULT_255_2_778
10
75.672102
20
20.329846
11
75.656002
21
20.342246
0
LINE
8
DEFAULT_255_2_778
10
75.656002
20
20.342246
11
75.475502
21
20.370046
0
LINE
8
DEFAULT_255_2_778
10
75.475502
20
20.370046
11
75.236102
21
20.472946
0
LINE
8
DEFAULT_255_2_778
10
75.236102
20
20.472946
11
77.951002
21
20.472946
0
LINE
8
DEFAULT_255_2_778
10
77.951002
20
20.472946
11
77.427102
21
21.156946
0
LINE
8
DEFAULT_255_2_778
10
77.427102
20
21.156946
11
77.416002
21
21.168846
0
LINE
8
DEFAULT_255_2_778
10
77.416002
20
21.168846
11
77.410402
21
21.156646
0
LINE
8
DEFAULT_255_2_778
10
78.285402
20
19.926846
11
78.445202
21
20.047846
0
LINE
8
DEFAULT_255_2_778
10
78.445202
20
20.047846
11
78.441202
21
18.045746
0
LINE
8
DEFAULT_255_2_778
10
78.441202
20
18.045746
11
78.285402
21
18.163746
0
LINE
8
DEFAULT_255_2_778
10
78.285402
20
18.163746
11
78.285402
21
19.926846
0
LINE
8
DEFAULT_255_2_778
10
77.416002
20
21.168546
11
77.363102
21
21.165146
0
LINE
8
DEFAULT_255_2_778
10
77.363102
20
21.165146
11
74.263202
21
21.165146
0
LINE
8
DEFAULT_255_2_778
10
74.263202
20
21.165146
11
74.498402
21
21.156646
0
LINE
8
DEFAULT_255_2_778
10
74.498402
20
21.156646
11
77.416002
21
21.168546
0
LINE
8
DEFAULT_255_2_778
10
78.285402
20
19.926846
11
78.285402
21
18.163746
0
LINE
8
DEFAULT_255_2_778
10
78.285402
20
18.163746
11
78.441202
21
18.045746
0
LINE
8
DEFAULT_255_2_778
10
78.441202
20
18.045746
11
78.445202
21
20.047846
0
LINE
8
DEFAULT_255_2_778
10
78.445202
20
20.047846
11
78.285402
21
19.926846
0
LINE
8
DEFAULT_255_2_778
10
77.951002
20
20.472746
11
77.975802
21
20.370046
0
LINE
8
DEFAULT_255_2_778
10
77.975802
20
20.370046
11
75.475502
21
20.369846
0
LINE
8
DEFAULT_255_2_778
10
77.975802
20
20.370046
11
77.941702
21
20.329546
0
LINE
8
DEFAULT_255_2_778
10
77.416802
20
21.168346
11
78.444902
21
20.047846
0
LINE
8
DEFAULT_255_2_778
10
75.656002
20
17.748546
11
75.672102
21
17.761046
0
LINE
8
DEFAULT_255_2_778
10
75.199302
20
17.464646
11
74.546802
21
16.970446
0
LINE
8
DEFAULT_255_2_778
10
75.656202
20
20.342246
11
75.656202
21
17.748546
0
LINE
8
DEFAULT_255_2_778
10
75.656202
20
17.748546
11
75.475802
21
17.720746
0
LINE
8
DEFAULT_255_2_778
10
75.475802
20
17.720746
11
75.236102
21
17.617846
0
LINE
8
DEFAULT_255_2_778
10
75.475802
20
17.720746
11
77.976102
21
17.720546
0
LINE
8
DEFAULT_255_2_778
10
77.976102
20
17.720546
11
77.942002
21
17.761046
0
LINE
8
DEFAULT_255_2_778
10
77.942002
20
17.761046
11
75.672402
21
17.761046
0
LINE
8
DEFAULT_255_2_778
10
75.672402
20
17.761046
11
75.672402
21
20.329846
0
LINE
8
DEFAULT_255_2_778
10
78.285702
20
18.163946
11
77.942002
21
17.761246
0
LINE
8
DEFAULT_255_2_778
10
75.236302
20
20.472946
11
75.199602
21
20.626146
0
LINE
8
DEFAULT_255_2_778
10
75.199602
20
20.626146
11
74.498902
21
21.156646
0
LINE
8
DEFAULT_255_2_778
10
77.951202
20
17.617846
11
77.401202
21
16.921746
0
LINE
8
DEFAULT_255_2_778
10
77.401202
20
16.921746
11
77.363602
21
16.970446
0
LINE
8
DEFAULT_255_2_778
10
77.363602
20
16.970446
11
74.547102
21
16.970446
0
LINE
8
DEFAULT_255_2_778
10
74.547102
20
16.970446
11
74.263702
21
21.165446
0
LINE
8
DEFAULT_255_2_778
10
78.441802
20
18.046246
11
77.404902
21
16.924646
0
LINE
8
DEFAULT_255_2_778
10
77.976402
20
17.720546
11
77.951502
21
17.617846
0
LINE
8
DEFAULT_255_2_778
10
77.951502
20
17.617846
11
75.236602
21
17.617846
0
LINE
8
DEFAULT_255_2_778
10
75.236602
20
17.617846
11
75.199802
21
17.464646
0
LINE
8
DEFAULT_255_2_778
10
75.199802
20
17.464646
11
75.199802
21
20.626146
0
LINE
8
DEFAULT_255_2_778
10
77.465794
20
16.068246
11
74.548494
21
16.056346
0
LINE
8
DEFAULT_255_2_778
10
74.548494
20
16.056346
11
74.313294
21
16.064846
0
LINE
8
DEFAULT_255_2_778
10
74.313294
20
16.064846
11
77.413194
21
16.064846
0
LINE
8
DEFAULT_255_2_778
10
77.413194
20
16.064846
11
77.466094
21
16.068246
0
LINE
8
DEFAULT_255_2_778
10
78.335494
20
14.826546
11
77.991794
21
15.229246
0
LINE
8
DEFAULT_255_2_778
10
77.991794
20
15.229246
11
75.722194
21
15.229246
0
LINE
8
DEFAULT_255_2_778
10
75.722194
20
15.229246
11
75.706094
21
15.241646
0
LINE
8
DEFAULT_255_2_778
10
75.706094
20
15.241646
11
75.525594
21
15.269446
0
LINE
8
DEFAULT_255_2_778
10
75.525594
20
15.269446
11
75.286194
21
15.372346
0
LINE
8
DEFAULT_255_2_778
10
75.286194
20
15.372346
11
78.001094
21
15.372346
0
LINE
8
DEFAULT_255_2_778
10
78.001094
20
15.372346
11
77.477194
21
16.056346
0
LINE
8
DEFAULT_255_2_778
10
77.477194
20
16.056346
11
77.466094
21
16.068246
0
LINE
8
DEFAULT_255_2_778
10
77.466094
20
16.068246
11
77.460494
21
16.056046
0
LINE
8
DEFAULT_255_2_778
10
78.335494
20
14.826346
11
78.495294
21
14.947246
0
LINE
8
DEFAULT_255_2_778
10
78.495294
20
14.947246
11
78.491294
21
12.945146
0
LINE
8
DEFAULT_255_2_778
10
78.491294
20
12.945146
11
78.335494
21
13.063146
0
LINE
8
DEFAULT_255_2_778
10
78.335494
20
13.063146
11
78.335494
21
14.826346
0
LINE
8
DEFAULT_255_2_778
10
77.466094
20
16.067946
11
77.413194
21
16.064546
0
LINE
8
DEFAULT_255_2_778
10
77.413194
20
16.064546
11
74.313294
21
16.064546
0
LINE
8
DEFAULT_255_2_778
10
74.313294
20
16.064546
11
74.548494
21
16.056046
0
LINE
8
DEFAULT_255_2_778
10
74.548494
20
16.056046
11
77.466094
21
16.067946
0
LINE
8
DEFAULT_255_2_778
10
78.335494
20
14.826346
11
78.335494
21
13.063146
0
LINE
8
DEFAULT_255_2_778
10
78.335494
20
13.063146
11
78.491294
21
12.945146
0
LINE
8
DEFAULT_255_2_778
10
78.491294
20
12.945146
11
78.495294
21
14.947246
0
LINE
8
DEFAULT_255_2_778
10
78.495294
20
14.947246
11
78.335494
21
14.826346
0
LINE
8
DEFAULT_255_2_778
10
78.001094
20
15.372146
11
78.025894
21
15.269446
0
LINE
8
DEFAULT_255_2_778
10
78.025894
20
15.269446
11
75.525594
21
15.269246
0
LINE
8
DEFAULT_255_2_778
10
78.025894
20
15.269446
11
77.991794
21
15.228946
0
LINE
8
DEFAULT_255_2_778
10
77.466894
20
16.067746
11
78.494994
21
14.947246
0
LINE
8
DEFAULT_255_2_778
10
75.706094
20
12.647946
11
75.722194
21
12.660446
0
LINE
8
DEFAULT_255_2_778
10
75.249394
20
12.364046
11
74.596894
21
11.869846
0
LINE
8
DEFAULT_255_2_778
10
75.706294
20
15.241646
11
75.706294
21
12.647946
0
LINE
8
DEFAULT_255_2_778
10
75.706294
20
12.647946
11
75.525894
21
12.620246
0
LINE
8
DEFAULT_255_2_778
10
75.525894
20
12.620246
11
75.286194
21
12.517246
0
LINE
8
DEFAULT_255_2_778
10
75.525894
20
12.620246
11
78.026194
21
12.619946
0
LINE
8
DEFAULT_255_2_778
10
78.026194
20
12.619946
11
77.992094
21
12.660446
0
LINE
8
DEFAULT_255_2_778
10
77.992094
20
12.660446
11
75.722494
21
12.660446
0
LINE
8
DEFAULT_255_2_778
10
75.722494
20
12.660446
11
75.722494
21
15.229246
0
LINE
8
DEFAULT_255_2_778
10
78.335794
20
13.063346
11
77.992094
21
12.660646
0
LINE
8
DEFAULT_255_2_778
10
75.286394
20
15.372346
11
75.249694
21
15.525546
0
LINE
8
DEFAULT_255_2_778
10
75.249694
20
15.525546
11
74.548994
21
16.056046
0
LINE
8
DEFAULT_255_2_778
10
78.001294
20
12.517246
11
77.451294
21
11.821146
0
LINE
8
DEFAULT_255_2_778
10
77.451294
20
11.821146
11
77.413694
21
11.869846
0
LINE
8
DEFAULT_255_2_778
10
77.413694
20
11.869846
11
74.597194
21
11.869846
0
LINE
8
DEFAULT_255_2_778
10
74.597194
20
11.869846
11
74.313794
21
16.064846
0
LINE
8
DEFAULT_255_2_778
10
78.491894
20
12.945646
11
77.454994
21
11.824046
0
LINE
8
DEFAULT_255_2_778
10
78.026494
20
12.619946
11
78.001594
21
12.517246
0
LINE
8
DEFAULT_255_2_778
10
78.001594
20
12.517246
11
75.286694
21
12.517246
0
LINE
8
DEFAULT_255_2_778
10
75.286694
20
12.517246
11
75.249894
21
12.364046
0
LINE
8
DEFAULT_255_2_778
10
75.249894
20
12.364046
11
75.249894
21
15.525546
0
LINE
8
DEFAULT_255_2_778
10
77.4345177
20
36.3869126
11
78.2455177
21
35.5146126
0
LINE
8
DEFAULT_255_2_778
10
78.2455177
20
35.5146126
11
78.2455177
21
38.1014126
0
LINE
8
DEFAULT_255_2_778
10
78.2455177
20
38.1014126
11
77.4189177
21
37.2190126
0
LINE
8
DEFAULT_255_2_778
10
77.3814
20
21.1485204
11
77.3814
21
22.0319204
0
LINE
8
DEFAULT_255_2_778
10
77.3814
20
16.0701204
11
77.3814
21
16.9535204
0
LINE
8
DEFAULT_255_2_778
10
77.3814
20
31.3056245
11
77.3814
21
32.1890245
0
LINE
8
DEFAULT_255_2_778
10
77.3814
20
26.2272245
11
77.3814
21
27.1106245
0
LINE
8
DEFAULT_255_2_778
10
77.3814
20
36.384558
11
77.3814
21
37.267458
0
LINE
8
DEFAULT_255_2_778
10
77.4189258
20
16.9051126
11
78.2454258
21
17.7875126
0
LINE
8
DEFAULT_255_2_778
10
78.2454258
20
17.7875126
11
78.2454258
21
15.2007126
0
LINE
8
DEFAULT_255_2_778
10
78.2454258
20
15.2007126
11
77.4451258
21
16.0614126
0
LINE
8
DEFAULT_255_2_778
10
77.4189258
20
21.9835126
11
78.2454258
21
22.8659126
0
LINE
8
DEFAULT_255_2_778
10
78.2454258
20
22.8659126
11
78.2454258
21
20.2791126
0
LINE
8
DEFAULT_255_2_778
10
78.2454258
20
20.2791126
11
77.4451258
21
21.1397126
0
LINE
8
DEFAULT_255_2_778
10
77.4189258
20
27.0619126
11
78.2454258
21
27.9443126
0
LINE
8
DEFAULT_255_2_778
10
78.2454258
20
27.9443126
11
78.2454258
21
25.3575126
0
LINE
8
DEFAULT_255_2_778
10
78.2454258
20
25.3575126
11
77.4451258
21
26.2182126
0
LINE
8
DEFAULT_255_2_778
10
77.4189258
20
32.1403167
11
78.2454258
21
33.0227167
0
LINE
8
DEFAULT_255_2_778
10
78.2454258
20
33.0227167
11
78.2454258
21
30.4359167
0
LINE
8
DEFAULT_255_2_778
10
78.2454258
20
30.4359167
11
77.4451258
21
31.2966167
0
ARC
8
DEFAULT_255_2_778
10
77.5348548
20
42.1691056
40
0.123739
50
90.2370968
51
116.3965208
0
ARC
8
DEFAULT_255_2_778
10
77.5483769
20
42.1445044
40
0.1517916
50
116.8400631
51
141.0419614
0
ARC
8
DEFAULT_255_2_778
10
77.6162163
20
42.0956762
40
0.2352914
50
142.1828619
51
179.9602352
0
ARC
8
DEFAULT_255_2_778
10
77.6152302
20
42.0958438
40
0.2343053
50
180.0010523
51
182.4706262
0
ARC
8
DEFAULT_255_2_778
10
77.5343336
20
11.1035306
40
0.101087
50
268.7884375
51
270.0051943
0
ARC
8
DEFAULT_255_2_778
10
77.5410046
20
11.1430642
40
0.1408737
50
223.8089478
51
266.4151359
0
ARC
8
DEFAULT_255_2_778
10
77.591212
20
11.1889699
40
0.2088909
50
186.9904906
51
223.3622859
0
ARC
8
DEFAULT_255_2_778
10
77.6502202
20
11.2032823
40
0.2692941
50
186.083408
51
188.485188
0
ARC
8
DEFAULT_255_2_778
10
72.4702954
20
11.3280088
40
0.1327991
50
259.4177221
51
259.959544
0
ARC
8
DEFAULT_255_2_778
10
72.4451364
20
11.2055397
40
0.0081081
50
202.4490502
51
275.4548369
0
ARC
8
DEFAULT_255_2_778
10
72.6378147
20
11.2026574
40
0.200172
50
180.0612034
51
224.9477628
0
ARC
8
DEFAULT_255_2_778
10
72.6375801
20
11.2029726
40
0.200229
50
225.0590229
51
269.9607037
0
ARC
8
DEFAULT_255_2_778
10
85.3217685
20
11.2025179
40
0.1997744
50
269.9926183
51
0.0647061
0
ARC
8
DEFAULT_255_2_778
10
85.5142046
20
11.2054197
40
0.0078109
50
263.1893812
51
339.9637042
0
ARC
8
DEFAULT_255_2_778
10
85.4444101
20
11.5801771
40
0.3886633
50
280.0212473
51
280.2062614
0
ARC
8
DEFAULT_255_2_778
10
78.4520313
20
11.203378
40
0.2061452
50
182.2336532
51
224.5176728
0
ARC
8
DEFAULT_255_2_778
10
78.4425757
20
11.1985971
40
0.1960775
50
225.4588414
51
264.7051111
0
ARC
8
DEFAULT_255_2_778
10
78.4390025
20
11.1750963
40
0.1723528
50
265.1669544
51
269.9801382
0
ARC
8
DEFAULT_255_2_778
10
72.4643376
20
42.1813701
40
0.0952828
50
259.0928592
51
259.9699651
0
ARC
8
DEFAULT_255_2_778
10
72.4456663
20
42.0959061
40
0.008123
50
202.1493577
51
274.5337844
0
ARC
8
DEFAULT_255_2_778
10
85.5147046
20
42.0955197
40
0.0078109
50
263.1893812
51
339.9637042
0
ARC
8
DEFAULT_255_2_778
10
85.4449101
20
42.4702771
40
0.3886633
50
280.0212473
51
280.2062614
0
ARC
8
DEFAULT_255_2_778
10
78.4546012
20
42.0920038
40
0.2081618
50
179.9996235
51
181.8059838
0
ARC
8
DEFAULT_255_2_778
10
78.4530744
20
42.092144
40
0.2066351
50
137.5756305
51
180.0385032
0
ARC
8
DEFAULT_255_2_778
10
78.4427645
20
42.0966595
40
0.1960121
50
90.9710348
51
136.5168394
0
ARC
8
DEFAULT_255_2_778
10
85.3224619
20
42.0929628
40
0.1998809
50
359.9658241
51
89.9481534
0
ARC
8
DEFAULT_255_2_778
10
72.6383852
20
42.0923598
40
0.2004838
50
90.0407201
51
134.8704167
0
ARC
8
DEFAULT_255_2_778
10
72.6375862
20
42.0934555
40
0.1991438
50
134.9299005
51
180.0897434
0
LINE
8
DEFAULT_255_2_778
10
77.3811427
20
42.0857435
11
78.2457427
21
42.0857435
0
LINE
8
DEFAULT_255_2_778
10
78.2457427
20
42.0857435
11
78.2457427
21
40.5929435
0
LINE
8
DEFAULT_255_2_778
10
78.2457427
20
40.5929435
11
77.4454427
21
41.4536435
0
LINE
8
DEFAULT_255_2_778
10
77.3811427
20
42.0854435
11
77.3813427
21
42.0648435
0
LINE
8
DEFAULT_255_2_778
10
72.9369427
20
11.0019435
11
72.9369427
21
42.2928435
0
LINE
8
DEFAULT_255_2_778
10
78.7281427
20
11.0022435
11
78.7281427
21
42.2928435
0
LINE
8
DEFAULT_255_2_778
10
77.3813427
20
11.8750435
11
77.3813427
21
11.1951435
0
LINE
8
DEFAULT_255_2_778
10
77.3813427
20
11.1951435
11
78.2455427
21
11.1951435
0
LINE
8
DEFAULT_255_2_778
10
78.2455427
20
11.1951435
11
78.2455427
21
12.7090435
0
LINE
8
DEFAULT_255_2_778
10
78.2455427
20
12.7090435
11
77.4189427
21
11.8266435
0
LINE
8
DEFAULT_255_2_778
10
77.3824427
20
11.1747435
11
72.9369427
21
11.1747435
0
LINE
8
DEFAULT_255_2_778
10
72.9369427
20
11.1747435
11
72.7453427
21
11.1768435
0
LINE
8
DEFAULT_255_2_778
10
72.7453427
20
11.1768435
11
72.6590427
21
11.1794435
0
LINE
8
DEFAULT_255_2_778
10
72.6590427
20
11.1794435
11
72.5834427
21
11.1829435
0
LINE
8
DEFAULT_255_2_778
10
72.5834427
20
11.1829435
11
72.5215427
21
11.1871435
0
LINE
8
DEFAULT_255_2_778
10
72.5215427
20
11.1871435
11
72.4754427
21
11.1919435
0
LINE
8
DEFAULT_255_2_778
10
72.4754427
20
11.1919435
11
72.4471427
21
11.1972435
0
LINE
8
DEFAULT_255_2_778
10
72.6374427
20
11.0027435
11
85.3217427
21
11.0027435
0
LINE
8
DEFAULT_255_2_778
10
85.5120427
20
11.1974435
11
85.4837427
21
11.1921435
0
LINE
8
DEFAULT_255_2_778
10
85.4837427
20
11.1921435
11
85.4376427
21
11.1874435
0
LINE
8
DEFAULT_255_2_778
10
85.4376427
20
11.1874435
11
85.3757427
21
11.1831435
0
LINE
8
DEFAULT_255_2_778
10
85.3757427
20
11.1831435
11
85.3001427
21
11.1797435
0
LINE
8
DEFAULT_255_2_778
10
85.3001427
20
11.1797435
11
85.2138427
21
11.1771435
0
LINE
8
DEFAULT_255_2_778
10
85.2138427
20
11.1771435
11
85.0222427
21
11.1749435
0
LINE
8
DEFAULT_255_2_778
10
85.0222427
20
11.1749435
11
78.7283427
21
11.1749435
0
LINE
8
DEFAULT_255_2_778
10
78.7283427
20
11.1749435
11
78.4246427
21
11.1805435
0
LINE
8
DEFAULT_255_2_778
10
78.4246427
20
11.1805435
11
78.3132427
21
11.1871435
0
LINE
8
DEFAULT_255_2_778
10
78.3132427
20
11.1871435
11
78.2460427
21
11.1953435
0
LINE
8
DEFAULT_255_2_778
10
77.3829427
20
11.1749435
11
77.3819427
21
11.1956435
0
LINE
8
DEFAULT_255_2_778
10
77.3819427
20
11.1956435
11
77.3829427
21
11.1749435
0
LINE
8
DEFAULT_255_2_778
10
85.4482427
20
42.2450435
11
85.4482427
21
42.3918435
0
LINE
8
DEFAULT_255_2_778
10
85.0225427
20
11.0027435
11
85.0225427
21
42.2928435
0
LINE
8
DEFAULT_255_2_778
10
77.3819427
20
41.4623435
11
77.3819427
21
42.0650435
0
LINE
8
DEFAULT_255_2_778
10
77.3819427
20
42.0650435
11
72.9374427
21
42.0650435
0
LINE
8
DEFAULT_255_2_778
10
72.9374427
20
42.0650435
11
72.7458427
21
42.0672435
0
LINE
8
DEFAULT_255_2_778
10
72.7458427
20
42.0672435
11
72.6596427
21
42.0698435
0
LINE
8
DEFAULT_255_2_778
10
72.6596427
20
42.0698435
11
72.5839427
21
42.0732435
0
LINE
8
DEFAULT_255_2_778
10
72.5839427
20
42.0732435
11
72.5220427
21
42.0775435
0
LINE
8
DEFAULT_255_2_778
10
72.5220427
20
42.0775435
11
72.4760427
21
42.0822435
0
LINE
8
DEFAULT_255_2_778
10
72.4760427
20
42.0822435
11
72.4477427
21
42.0875435
0
LINE
8
DEFAULT_255_2_778
10
85.5125427
20
42.0875435
11
85.4842427
21
42.0822435
0
LINE
8
DEFAULT_255_2_778
10
85.4842427
20
42.0822435
11
85.4382427
21
42.0775435
0
LINE
8
DEFAULT_255_2_778
10
85.4382427
20
42.0775435
11
85.3763427
21
42.0732435
0
LINE
8
DEFAULT_255_2_778
10
85.3763427
20
42.0732435
11
85.3006427
21
42.0698435
0
LINE
8
DEFAULT_255_2_778
10
85.3006427
20
42.0698435
11
85.2143427
21
42.0672435
0
LINE
8
DEFAULT_255_2_778
10
85.2143427
20
42.0672435
11
85.0228427
21
42.0650435
0
LINE
8
DEFAULT_255_2_778
10
85.0228427
20
42.0650435
11
78.7289427
21
42.0650435
0
LINE
8
DEFAULT_255_2_778
10
78.7289427
20
42.0650435
11
78.4251427
21
42.0706435
0
LINE
8
DEFAULT_255_2_778
10
78.4251427
20
42.0706435
11
78.3137427
21
42.0772435
0
LINE
8
DEFAULT_255_2_778
10
78.3137427
20
42.0772435
11
78.2465427
21
42.0854435
0
LINE
8
DEFAULT_255_2_778
10
85.4765427
20
11.0797435
11
85.5223427
21
11.0805435
0
LINE
8
DEFAULT_255_2_778
10
85.5223427
20
11.0805435
11
85.5223427
21
42.0928435
0
LINE
8
DEFAULT_255_2_778
10
85.3226427
20
42.2928435
11
72.6382427
21
42.2928435
0
LINE
8
DEFAULT_255_2_778
10
72.4384427
20
42.0931435
11
72.4384427
21
11.1525435
0
LINE
8
DEFAULT_255_2_778
10
72.4384427
20
11.1525435
11
72.4482427
21
11.1522435
0
ARC
8
DEFAULT_255_2_778
10
69.6877025
20
69.3554292
40
0.2991091
50
89.9248697
51
180.1706799
0
ARC
8
DEFAULT_255_2_778
10
69.688487
20
69.3554293
40
0.2991092
50
359.8293039
51
90.075137
0
ARC
8
DEFAULT_255_2_778
10
69.6884655
20
69.3535688
40
0.2991308
50
269.9289755
51
0.1856733
0
ARC
8
DEFAULT_255_2_778
10
69.687724
20
69.3535687
40
0.2991307
50
179.8142914
51
270.0709986
0
LINE
8
DEFAULT_255_2_778
10
69.3885947
20
69.3545382
11
69.3885947
21
69.3545382
0
ARC
8
DEFAULT_255_2_778
10
69.6877025
20
71.3549292
40
0.2991091
50
89.9248697
51
180.1706799
0
ARC
8
DEFAULT_255_2_778
10
69.688487
20
71.3549293
40
0.2991092
50
359.8293039
51
90.075137
0
ARC
8
DEFAULT_255_2_778
10
69.6884655
20
71.3530688
40
0.2991308
50
269.9289755
51
0.1856733
0
ARC
8
DEFAULT_255_2_778
10
69.687724
20
71.3530687
40
0.2991307
50
179.8142914
51
270.0709986
0
LINE
8
DEFAULT_255_2_778
10
69.3885947
20
71.3540382
11
69.3885947
21
71.3540382
0
ARC
8
DEFAULT_255_2_778
10
69.6877025
20
73.3541292
40
0.2991091
50
89.9248697
51
180.1706799
0
ARC
8
DEFAULT_255_2_778
10
69.688487
20
73.3541293
40
0.2991092
50
359.8293039
51
90.075137
0
ARC
8
DEFAULT_255_2_778
10
69.6884655
20
73.3522688
40
0.2991308
50
269.9289755
51
0.1856733
0
ARC
8
DEFAULT_255_2_778
10
69.687724
20
73.3522687
40
0.2991307
50
179.8142914
51
270.0709986
0
LINE
8
DEFAULT_255_2_778
10
69.3885947
20
73.3532382
11
69.3885947
21
73.3532382
0
ARC
8
DEFAULT_255_2_778
10
81.809464
20
10.4210694
40
0.4884224
50
90.0309281
51
93.5463152
0
ARC
8
DEFAULT_255_2_778
10
81.8092275
20
10.4531944
40
0.4562973
50
88.7968436
51
90.0034056
0
ARC
8
DEFAULT_255_2_778
10
81.8129773
20
10.5271681
40
0.3822674
50
75.9233129
51
89.1259389
0
ARC
8
DEFAULT_255_2_778
10
81.851071
20
10.661738
40
0.2425102
50
54.2514622
51
76.9203217
0
ARC
8
DEFAULT_255_2_778
10
81.9059696
20
10.7378956
40
0.1486281
50
27.1234553
51
54.2752045
0
ARC
8
DEFAULT_255_2_778
10
81.9319597
20
10.7545583
40
0.1179372
50
359.9660684
51
25.6750603
0
ARC
8
DEFAULT_255_2_778
10
81.9305631
20
10.7544901
40
0.1193338
50
356.3323916
51
359.9991885
0
ARC
8
DEFAULT_255_2_778
10
84.8062721
20
3.7350826
40
0.249916
50
359.9616725
51
88.9498415
0
ARC
8
DEFAULT_255_2_778
10
84.8009396
20
3.7349075
40
0.2552484
50
359.0457457
51
0.0017752
0
ARC
8
DEFAULT_255_2_778
10
83.7858403
20
3.0585653
40
1.0002652
50
1.0019579
51
69.7253687
0
ARC
8
DEFAULT_255_2_778
10
72.345199
20
3.0468893
40
1.0113699
50
90.1329351
51
106.6892802
0
ARC
8
DEFAULT_255_2_778
10
72.3443066
20
3.0583833
40
1.0001068
50
106.8294093
51
178.9989112
0
ARC
8
DEFAULT_255_2_778
10
72.6209814
20
5.3458235
40
1.1454302
50
179.9133089
51
217.0676176
0
ARC
8
DEFAULT_255_2_778
10
72.6234218
20
5.3446813
40
1.1466915
50
216.9485823
51
265.1916461
0
ARC
8
DEFAULT_255_2_778
10
72.6242174
20
5.3614135
40
1.1634317
50
265.2216753
51
269.0068838
0
ARC
8
DEFAULT_255_2_778
10
79.346245
20
3.3652627
40
0.7048939
50
90.0075192
51
91.9746935
0
ARC
8
DEFAULT_255_2_778
10
79.3728297
20
3.0799834
40
0.9910611
50
92.9424467
51
109.245932
0
ARC
8
DEFAULT_255_2_778
10
79.396481
20
2.9289554
40
1.1417747
50
107.8681756
51
123.3641533
0
ARC
8
DEFAULT_255_2_778
10
79.3198977
20
3.0751267
40
0.9777139
50
124.3268157
51
141.971071
0
ARC
8
DEFAULT_255_2_778
10
79.335935
20
3.0584307
40
1.0006378
50
141.7837477
51
178.9907054
0
ARC
8
DEFAULT_255_2_778
10
76.7939891
20
3.059099
40
1.0000072
50
0.971633
51
38.1813862
0
ARC
8
DEFAULT_255_2_778
10
76.7952923
20
3.0604514
40
0.9981469
50
38.1666114
51
73.1721761
0
ARC
8
DEFAULT_255_2_778
10
76.7947545
20
3.0534847
40
1.0049719
50
73.2578084
51
89.9545037
0
ARC
8
DEFAULT_255_2_778
10
1.307763
20
10.9656892
40
0.9964327
50
227.9764804
51
269.9878984
0
ARC
8
DEFAULT_255_2_778
10
1.3066871
20
10.96824
40
0.9976106
50
181.5981396
51
228.1204543
0
ARC
8
DEFAULT_255_2_778
10
1.328071
20
10.9694038
40
1.0190187
50
180.0307723
51
181.6300207
0
ARC
8
DEFAULT_255_2_778
10
1.0328574
20
10.9759888
40
0.72384
50
180.5645676
51
183.1007598
0
ARC
8
DEFAULT_255_2_778
10
1.0909619
20
10.9817344
40
0.7821747
50
183.2907851
51
203.6267747
0
ARC
8
DEFAULT_255_2_778
10
1.1478575
20
11.0095146
40
0.845439
50
203.8063089
51
225.6111522
0
ARC
8
DEFAULT_255_2_778
10
1.3018717
20
11.1846753
40
1.078419
50
226.2736495
51
261.7455801
0
ARC
8
DEFAULT_255_2_778
10
1.3062241
20
11.1795066
40
1.0739405
50
261.4761874
51
262.5810186
0
ARC
8
DEFAULT_255_2_778
10
2.0682977
20
10.5266296
40
0.9902554
50
204.5903764
51
206.1726127
0
ARC
8
DEFAULT_255_2_778
10
1.3940918
20
10.176091
40
0.231204
50
201.9010528
51
237.9357323
0
ARC
8
DEFAULT_255_2_778
10
71.2995671
20
14.368239
40
0.7277281
50
356.6880121
51
359.3793816
0
ARC
8
DEFAULT_255_2_778
10
71.2439166
20
14.3737812
40
0.7836092
50
336.3754675
51
356.5185395
0
ARC
8
DEFAULT_255_2_778
10
71.1876506
20
14.4010426
40
0.8460879
50
314.4213472
51
336.2110058
0
ARC
8
DEFAULT_255_2_778
10
71.0342063
20
14.5765568
40
1.0789239
50
278.1538185
51
313.7173876
0
ARC
8
DEFAULT_255_2_778
10
71.0303349
20
14.5687683
40
1.0717746
50
277.414974
51
278.4177403
0
ARC
8
DEFAULT_255_2_778
10
1.4096246
20
43.3207277
40
0.9965289
50
90.0098934
51
131.6772197
0
ARC
8
DEFAULT_255_2_778
10
1.4085246
20
43.3182554
40
0.997647
50
131.5356249
51
178.2399499
0
ARC
8
DEFAULT_255_2_778
10
1.4291086
20
43.317127
40
1.0182561
50
178.2120597
51
179.970202
0
ARC
8
DEFAULT_255_2_778
10
36.0668109
20
8.8708532
40
0.497297
50
180.713965
51
270.0094633
0
LINE
8
DEFAULT_255_2_778
10
36.066893
20
8.3735562
11
36.0674525
21
8.3735565
0
ARC
8
DEFAULT_255_2_778
10
36.0686773
20
8.8727453
40
0.4991902
50
180.9284457
51
269.8594147
0
ARC
8
DEFAULT_255_2_778
10
35.3554969
20
9.6731707
40
0.199786
50
0.999746
51
90.0127411
0
ARC
8
DEFAULT_255_2_778
10
84.9156114
20
10.2055932
40
0.9999951
50
0.0019825
51
56.643702
0
ARC
8
DEFAULT_255_2_778
10
84.9119494
20
10.2056264
40
1.003657
50
358.9969354
51
0.000076
0
ARC
8
DEFAULT_255_2_778
10
84.7970338
20
4.0406042
40
1.0100069
50
359.2427912
51
0.0006187
0
ARC
8
DEFAULT_255_2_778
10
84.8013688
20
4.041346
40
1.0056721
50
359.9583601
51
43.9455369
0
ARC
8
DEFAULT_255_2_778
10
84.8070862
20
4.0465878
40
0.997918
50
43.9566531
51
89.008598
0
ARC
8
DEFAULT_255_2_778
10
72.6249339
20
5.6569789
40
0.3994816
50
179.9995012
51
269.0129829
0
ARC
8
DEFAULT_255_2_778
10
72.4003698
20
5.6570759
40
0.1749175
50
179.9080801
51
180.0306378
0
ARC
8
DEFAULT_255_2_778
10
98.0246689
20
33.3985751
40
0.1687836
50
0.0276368
51
5.4479472
0
ARC
8
DEFAULT_255_2_778
10
97.998713
20
33.3944249
40
0.1950233
50
5.9377522
51
44.1050395
0
ARC
8
DEFAULT_255_2_778
10
97.9936203
20
33.3831594
40
0.2065708
50
45.3657592
51
87.0496819
0
ARC
8
DEFAULT_255_2_778
10
72.7250854
20
98.477548
40
0.499933
50
90.5653593
51
179.9875592
0
ARC
8
DEFAULT_255_2_778
10
72.7214725
20
97.9916588
40
0.7857989
50
90.0962492
51
105.0634416
0
ARC
8
DEFAULT_255_2_778
10
72.6594268
20
98.204976
40
0.5637043
50
104.6085797
51
122.4513369
0
ARC
8
DEFAULT_255_2_778
10
72.5244985
20
98.409295
40
0.3189181
50
121.6923094
51
146.5992971
0
ARC
8
DEFAULT_255_2_778
10
72.4314928
20
98.4726552
40
0.2064009
50
147.0703608
51
178.6115166
0
ARC
8
DEFAULT_255_2_778
10
1.4081392
20
14.5705402
40
1.0743726
50
261.5828657
51
262.5832087
0
ARC
8
DEFAULT_255_2_778
10
1.4045542
20
14.5779194
40
1.0811574
50
226.3476975
51
261.8280502
0
ARC
8
DEFAULT_255_2_778
10
1.2514298
20
14.4006173
40
0.8472525
50
203.8041337
51
225.5634737
0
ARC
8
DEFAULT_255_2_778
10
1.1906241
20
14.3716886
40
0.779946
50
182.1714313
51
203.6626568
0
ARC
8
DEFAULT_255_2_778
10
1.1370124
20
14.3670396
40
0.7262015
50
180.614081
51
181.9651684
0
ARC
8
DEFAULT_255_2_778
10
0.9746319
20
45.1245092
40
0.7476414
50
186.6710498
51
195.5202176
0
ARC
8
DEFAULT_255_2_778
10
0.9806622
20
45.1259962
40
0.7538497
50
195.5064731
51
206.5572172
0
ARC
8
DEFAULT_255_2_778
10
0.9760941
20
45.123983
40
0.7488264
50
207.9890613
51
269.9968164
0
ARC
8
DEFAULT_255_2_778
10
63.297094
20
97.9008267
40
0.4305932
50
59.3739092
51
87.9958658
0
ARC
8
DEFAULT_255_2_778
10
63.223295
20
97.7890507
40
0.5644114
50
34.5517138
51
58.7077245
0
ARC
8
DEFAULT_255_2_778
10
63.0276653
20
97.6497749
40
0.804534
50
15.7868958
51
34.8193618
0
ARC
8
DEFAULT_255_2_778
10
62.8440317
20
97.592822
40
0.9967474
50
0.001042
51
16.0654161
0
ARC
8
DEFAULT_255_2_778
10
62.8508997
20
97.5928133
40
0.9898795
50
359.5799618
51
0.0015492
0
ARC
8
DEFAULT_255_2_778
10
64.5691686
20
91.4829889
40
1.4160307
50
180.2602695
51
184.3013369
0
ARC
8
DEFAULT_255_2_778
10
64.5162807
20
91.4731434
40
1.3625658
50
184.0552996
51
208.448657
0
ARC
8
DEFAULT_255_2_778
10
64.5488104
20
91.5252673
40
1.4163225
50
209.675855
51
237.1699437
0
ARC
8
DEFAULT_255_2_778
10
64.8448709
20
91.9916711
40
1.9687465
50
237.2888595
51
257.0553467
0
ARC
8
DEFAULT_255_2_778
10
65.0470502
20
92.7786
40
2.7810447
50
256.6276063
51
267.7840519
0
ARC
8
DEFAULT_255_2_778
10
65.075731
20
93.2208524
40
3.224096
50
267.5786309
51
270.0110443
0
ARC
8
DEFAULT_255_2_778
10
67.2562348
20
45.1385825
40
0.6894585
50
271.12343
51
282.6866168
0
ARC
8
DEFAULT_255_2_778
10
67.2551856
20
45.1410444
40
0.6920908
50
282.7265925
51
300.846922
0
ARC
8
DEFAULT_255_2_778
10
67.2371711
20
45.1662278
40
0.7229532
50
301.049292
51
319.3590736
0
ARC
8
DEFAULT_255_2_778
10
67.2015761
20
45.1891232
40
0.7653302
50
325.6652649
51
345.5971525
0
ARC
8
DEFAULT_255_2_778
10
-28.1635278
20
71.0090986
40
99.56095
50
344.9413834
51
347.0424613
0
ARC
8
DEFAULT_255_2_778
10
0.7091788
20
-79.9960922
40
145.6144791
50
62.0930019
51
63.7493698
0
ARC
8
DEFAULT_255_2_778
10
63.2974421
20
44.8043719
40
0.4283579
50
271.9278471
51
300.702378
0
ARC
8
DEFAULT_255_2_778
10
63.2254697
20
44.9157428
40
0.560888
50
301.2152492
51
325.5253132
0
ARC
8
DEFAULT_255_2_778
10
63.0294086
20
45.0569936
40
0.8024887
50
325.135123
51
344.2196455
0
ARC
8
DEFAULT_255_2_778
10
62.8410215
20
45.1149634
40
0.999551
50
343.9586538
51
0.0317373
0
ARC
8
DEFAULT_255_2_778
10
62.8151788
20
45.1154843
40
1.0253935
50
0.0018312
51
0.3560625
0
ARC
8
DEFAULT_255_2_778
10
64.5777014
20
51.2236684
40
1.4248665
50
175.7312049
51
179.7149736
0
ARC
8
DEFAULT_255_2_778
10
64.5110765
20
51.2352895
40
1.3575777
50
151.5054307
51
176.0110062
0
ARC
8
DEFAULT_255_2_778
10
64.5552781
20
51.1759026
40
1.4250965
50
122.9359037
51
150.2547427
0
ARC
8
DEFAULT_255_2_778
10
64.8432148
20
50.7198164
40
1.9644416
50
102.9419096
51
122.7517194
0
ARC
8
DEFAULT_255_2_778
10
65.0453822
20
49.9397916
40
2.77002
50
91.8557881
51
103.4038991
0
ARC
8
DEFAULT_255_2_778
10
65.0755914
20
49.4382547
40
3.2723019
50
89.9901756
51
92.100072
0
ARC
8
DEFAULT_255_2_778
10
71.028567
20
43.3209882
40
0.9964684
50
47.980255
51
89.9893314
0
ARC
8
DEFAULT_255_2_778
10
71.029663
20
43.3185306
40
0.9975635
50
1.6445524
51
48.1215106
0
ARC
8
DEFAULT_255_2_778
10
71.0083287
20
43.3173229
40
1.0189238
50
0.0300088
51
1.6780056
0
ARC
8
DEFAULT_255_2_778
10
71.1304881
20
43.4185301
40
0.9964648
50
359.949773
51
41.9599591
0
ARC
8
DEFAULT_255_2_778
10
71.1279819
20
43.4196486
40
0.9975838
50
41.815943
51
88.3393755
0
ARC
8
DEFAULT_255_2_778
10
71.1268059
20
43.3985173
40
1.0187406
50
88.3077069
51
89.907393
0
ARC
8
DEFAULT_255_2_778
10
71.3474754
20
45.1716376
40
0.686885
50
290.8320774
51
313.0824753
0
ARC
8
DEFAULT_255_2_778
10
71.5755536
20
44.9433962
40
0.3645516
50
311.403462
51
355.8566438
0
ARC
8
DEFAULT_255_2_778
10
71.9529165
20
51.6065383
40
0.2330182
50
84.2731823
51
89.9911362
0
ARC
8
DEFAULT_255_2_778
10
71.9578121
20
51.6280703
40
0.2111226
50
49.5616274
51
85.0120986
0
ARC
8
DEFAULT_255_2_778
10
71.9828106
20
51.6582645
40
0.1719277
50
2.6643451
51
49.3755436
0
ARC
8
DEFAULT_255_2_778
10
72.7252041
20
46.1842941
40
0.5000516
50
91.5758501
51
179.9928442
0
ARC
8
DEFAULT_255_2_778
10
58.69598
20
50.9388446
40
10.4132417
50
347.5042266
51
351.1359121
0
ARC
8
DEFAULT_255_2_778
10
69.0439205
20
49.8871417
40
0.1103601
50
267.8875211
51
270.0003326
0
ARC
8
DEFAULT_255_2_778
10
69.0439083
20
49.8887033
40
0.1119216
50
270.0065942
51
275.4686263
0
ARC
8
DEFAULT_255_2_778
10
69.0455704
20
49.8802582
40
0.1033601
50
274.9976074
51
303.7889292
0
ARC
8
DEFAULT_255_2_778
10
69.0543646
20
49.864811
40
0.0856408
50
304.6466017
51
345.9751172
0
ARC
8
DEFAULT_255_2_778
10
85.7557487
20
63.1560409
40
0.1832943
50
3.2262631
51
52.2943242
0
ARC
8
DEFAULT_255_2_778
10
85.7028347
20
63.0926325
40
0.2658411
50
51.629914
51
85.663906
0
ARC
8
DEFAULT_255_2_778
10
85.6901466
20
63.0201719
40
0.3391293
50
84.4518848
51
89.0697313
0
ARC
8
DEFAULT_255_2_778
10
85.6888962
20
63.5640264
40
0.2499215
50
28.7292712
51
88.4508972
0
ARC
8
DEFAULT_255_2_778
10
21.7710647
20
10.4232163
40
0.5052496
50
204.2928136
51
212.1630504
0
ARC
8
DEFAULT_255_2_778
10
21.6624065
20
10.3568242
40
0.3779274
50
212.4115003
51
213.2220059
0
ARC
8
DEFAULT_255_2_778
10
21.4823591
20
10.2194004
40
0.152889
50
207.0953708
51
257.9926441
0
ARC
8
DEFAULT_255_2_778
10
22.5901435
20
98.3838121
40
0.500091
50
135.0280727
51
180.0063607
0
ARC
8
DEFAULT_255_2_778
10
22.5895089
20
98.3841613
40
0.4993953
50
89.995002
51
135.0049653
0
ARC
8
DEFAULT_255_2_778
10
25.7271973
20
98.3728123
40
0.5105661
50
1.1945846
51
88.7480646
0
ARC
8
DEFAULT_255_2_778
10
22.6076446
20
98.3658115
40
0.5000921
50
135.0281178
51
180.0063017
0
ARC
8
DEFAULT_255_2_778
10
22.6068648
20
98.3665093
40
0.4990474
50
89.9784493
51
135.0215181
0
ARC
8
DEFAULT_255_2_778
10
25.7209964
20
98.3661622
40
0.4993944
50
44.9949952
51
90.0050406
0
ARC
8
DEFAULT_255_2_778
10
25.7203615
20
98.3658121
40
0.5000911
50
359.9936393
51
44.9719273
0
ARC
8
DEFAULT_255_2_778
10
96.5478176
20
65.6553501
40
0.9083415
50
259.6261595
51
269.9381856
0
ARC
8
DEFAULT_255_2_778
10
96.5468563
20
65.6198181
40
0.872809
50
269.9987768
51
270.5971356
0
ARC
8
DEFAULT_255_2_778
10
85.6880065
20
69.0615822
40
0.24986
50
29.5098384
51
88.4987641
0
ARC
8
DEFAULT_255_2_778
10
96.1954503
20
64.365568
40
0.1998979
50
179.9459498
51
266.932262
0
ARC
8
DEFAULT_255_2_778
10
97.9929318
20
63.8710182
40
0.199721
50
359.9249455
51
86.9516907
0
ARC
8
DEFAULT_255_2_778
10
97.9929318
20
34.8093948
40
0.1997209
50
273.0483108
51
0.0750832
0
ARC
8
DEFAULT_255_2_778
10
96.1954503
20
34.3148451
40
0.1998979
50
93.067738
51
180.0540502
0
ARC
8
DEFAULT_255_2_778
10
1.4072757
20
99.9989783
40
0.9964236
50
179.9495022
51
221.9617279
0
ARC
8
DEFAULT_255_2_778
10
1.4098852
20
99.9979856
40
0.9977034
50
221.8191361
51
268.2921137
0
ARC
8
DEFAULT_255_2_778
10
1.4110948
20
100.0189344
40
1.0186792
50
268.2592291
51
269.9076283
0
ARC
8
DEFAULT_255_2_778
10
50.8991001
20
10.278717
40
0.233928
50
302.286222
51
338.0691296
0
ARC
8
DEFAULT_255_2_778
10
50.1713616
20
10.6567397
40
1.0531476
50
333.7744673
51
335.2216848
0
ARC
8
DEFAULT_255_2_778
10
3.763006
20
214.1493791
40
137.6764768
50
296.4455607
51
298.3027188
0
ARC
8
DEFAULT_255_2_778
10
70.8610569
20
4.0766891
40
1.0880188
50
269.9969369
51
270.7212406
0
ARC
8
DEFAULT_255_2_778
10
70.8612677
20
4.1386327
40
1.1499625
50
267.7914365
51
269.986596
0
ARC
8
DEFAULT_255_2_778
10
70.8655274
20
4.2350089
40
1.2464312
50
261.6607534
51
267.7665016
0
ARC
8
DEFAULT_255_2_778
10
70.7698861
20
3.662969
40
0.6666706
50
248.2505702
51
262.6633176
0
ARC
8
DEFAULT_255_2_778
10
70.7436729
20
3.5832748
40
0.5829593
50
245.6780443
51
247.7411166
0
ARC
8
DEFAULT_255_2_778
10
70.5656846
20
3.2458203
40
0.2034762
50
202.5054114
51
252.2266947
0
ARC
8
DEFAULT_255_2_778
10
70.4661943
20
3.1880762
40
0.090753
50
180.8962907
51
192.8223001
0
ARC
8
DEFAULT_255_2_778
10
86.8028819
20
95.6946552
40
0.2811896
50
81.1595625
51
82.5271215
0
ARC
8
DEFAULT_255_2_778
10
86.8058647
20
95.7046077
40
0.2709007
50
56.7108311
51
81.459437
0
ARC
8
DEFAULT_255_2_778
10
97.6934528
20
97.6266716
40
0.4999997
50
271.0542659
51
359.9868159
0
ARC
8
DEFAULT_255_2_778
10
97.706708
20
96.9126334
40
0.2135656
50
89.9999888
51
91.141742
0
ARC
8
DEFAULT_255_2_778
10
97.7067306
20
96.9125676
40
0.2136313
50
89.4979421
51
90.0060446
0
ARC
8
DEFAULT_255_2_778
10
97.6937179
20
96.8292782
40
0.2972853
50
46.8188056
51
87.1300978
0
ARC
8
DEFAULT_255_2_778
10
97.5584794
20
96.7001702
40
0.4840835
50
6.9070999
51
45.6037132
0
ARC
8
DEFAULT_255_2_778
10
97.3221454
20
96.6435649
40
0.7260411
50
3.4737447
51
9.099347
0
ARC
8
DEFAULT_255_2_778
10
97.3367511
20
96.6389315
40
0.9944749
50
168.4965542
51
178.9211116
0
ARC
8
DEFAULT_255_2_778
10
96.9266589
20
96.7371357
40
0.5732179
50
154.7163993
51
169.9408638
0
ARC
8
DEFAULT_255_2_778
10
96.8260517
20
96.780177
40
0.4638832
50
152.8613193
51
154.2160306
0
ARC
8
DEFAULT_255_2_778
10
96.5793436
20
96.9332572
40
0.1761105
50
101.4602559
51
160.5926979
0
ARC
8
DEFAULT_255_2_778
10
97.8648716
20
101.3792634
40
1.2856215
50
277.6741581
51
277.9972666
0
ARC
8
DEFAULT_255_2_778
10
97.9647073
20
100.7302294
40
0.6290682
50
277.2169221
51
286.6881904
0
ARC
8
DEFAULT_255_2_778
10
98.1652801
20
100.1595759
40
0.0212033
50
296.2331795
51
344.9117229
0
ARC
8
DEFAULT_255_2_778
10
97.6857915
20
100.1552945
40
0.4999625
50
270.5685426
51
359.8581322
0
ARC
8
DEFAULT_255_2_778
10
97.2130738
20
99.5039042
40
0.0274007
50
267.8834532
51
312.975403
0
ARC
8
DEFAULT_255_2_778
10
97.0981586
20
100.2104606
40
0.7427244
50
272.9457043
51
278.8216171
0
ARC
8
DEFAULT_255_2_778
10
96.9627306
20
102.3487733
40
2.8852828
50
270.3876672
51
273.4493491
0
ARC
8
DEFAULT_255_2_778
10
72.2338844
20
97.0003661
40
0.0087974
50
196.5745603
51
268.9095559
0
ARC
8
DEFAULT_255_2_778
10
72.2504756
20
97.0550094
40
0.0656153
50
255.2022688
51
256.3154077
0
ARC
8
DEFAULT_255_2_778
10
90.4097356
20
97.048808
40
0.0527612
50
269.9895092
51
271.1043443
0
ARC
8
DEFAULT_255_2_778
10
90.4165143
20
97.0953385
40
0.0995235
50
239.5335523
51
266.0889269
0
ARC
8
DEFAULT_255_2_778
10
91.4683195
20
98.8128993
40
2.1166354
50
231.0304655
51
236.5643263
0
ARC
8
DEFAULT_255_2_778
10
22.6496357
20
98.3644112
40
0.4850488
50
89.7853867
51
90.0061106
0
ARC
8
DEFAULT_255_2_778
10
22.6496421
20
98.3543276
40
0.4951325
50
90.0067283
51
135.2095199
0
ARC
8
DEFAULT_255_2_778
10
22.6497327
20
98.3502458
40
0.4980806
50
134.8836403
51
180.0677879
0
ARC
8
DEFAULT_255_2_778
10
72.7259522
20
96.0682716
40
0.4999997
50
180.0131841
51
268.9457341
0
ARC
8
DEFAULT_255_2_778
10
2.1631889
20
95.7265599
40
2.1979467
50
122.4530469
51
131.7068287
0
ARC
8
DEFAULT_255_2_778
10
69.8666412
20
9.4723913
40
0.3995652
50
0.9414738
51
89.9983801
0
ARC
8
DEFAULT_255_2_778
10
71.5078434
20
89.8407441
40
0.7303667
50
128.7235699
51
163.7226517
0
ARC
8
DEFAULT_255_2_778
10
71.3647088
20
90.01442
40
0.5053387
50
113.3829648
51
128.3806585
0
ARC
8
DEFAULT_255_2_778
10
71.5089977
20
53.4785946
40
0.7324169
50
196.420094
51
208.1231473
0
ARC
8
DEFAULT_255_2_778
10
71.4410108
20
53.4224151
40
0.6462126
50
206.5713474
51
244.6024522
0
ARC
8
DEFAULT_255_2_778
10
97.9204881
20
132.5629921
40
0.2496644
50
359.9688826
51
90.0081761
0
ARC
8
DEFAULT_255_2_778
10
97.9203182
20
109.7751909
40
0.2501346
50
270.0765855
51
359.9234145
0
ARC
8
DEFAULT_255_2_778
10
97.9660423
20
109.7510688
40
0.2272128
50
359.9898498
51
0.2742952
0
ARC
8
DEFAULT_255_2_778
10
97.9443739
20
109.7509491
40
0.2488812
50
315.0302834
51
0.0182889
0
ARC
8
DEFAULT_255_2_778
10
97.9445465
20
109.7504855
40
0.2484316
50
270.0068675
51
315.077798
0
ARC
8
DEFAULT_255_2_778
10
97.9445363
20
109.7276423
40
0.2255883
50
269.7247393
51
270.0101534
0
ARC
8
DEFAULT_255_2_778
10
76.4327749
20
10.7822048
40
0.2992776
50
359.971615
51
44.5497621
0
ARC
8
DEFAULT_255_2_778
10
76.4327749
20
69.5144048
40
0.2992776
50
359.971615
51
44.5497621
0
ARC
8
DEFAULT_255_2_778
10
72.2289627
20
2.629705
40
0.8041768
50
88.9889556
51
90.0024333
0
ARC
8
DEFAULT_255_2_778
10
72.2291177
20
2.5839314
40
0.8499503
50
90.0127545
51
92.0406433
0
ARC
8
DEFAULT_255_2_778
10
72.2340141
20
2.4792538
40
0.9547366
50
92.1106111
51
98.599683
0
ARC
8
DEFAULT_255_2_778
10
72.1589998
20
2.9050223
40
0.5226437
50
97.4478835
51
112.1610853
0
ARC
8
DEFAULT_255_2_778
10
72.1354952
20
2.9732234
40
0.4506318
50
112.6643327
51
114.7379737
0
ARC
8
DEFAULT_255_2_778
10
71.9879104
20
3.2407637
40
0.1475459
50
106.1299502
51
167.5166758
0
ARC
8
DEFAULT_255_2_778
10
79.3353246
20
3.2639029
40
0.5001543
50
90.0884443
51
178.9627902
0
ARC
8
DEFAULT_255_2_778
10
81.6944005
20
66.3450328
40
0.1375048
50
319.6237229
51
347.7070325
0
ARC
8
DEFAULT_255_2_778
10
81.5791763
20
66.4321607
40
0.2818465
50
303.1386597
51
321.304759
0
ARC
8
DEFAULT_255_2_778
10
81.5132282
20
66.5292573
40
0.3992077
50
275.2231063
51
303.4461153
0
ARC
8
DEFAULT_255_2_778
10
81.5119553
20
66.5299142
40
0.3999796
50
273.1956558
51
275.3961151
0
ARC
8
DEFAULT_255_2_778
10
89.7330333
20
10.6373637
40
0.6994192
50
271.0256136
51
0.0239878
0
ARC
8
DEFAULT_255_2_778
10
85.0781601
20
5.3688694
40
1.6391646
50
269.2202314
51
270.0021635
0
ARC
8
DEFAULT_255_2_778
10
85.0778037
20
5.4570835
40
1.7273788
50
270.0138749
51
272.2754603
0
ARC
8
DEFAULT_255_2_778
10
85.0712813
20
5.6002074
40
1.870649
50
272.3010237
51
278.3009714
0
ARC
8
DEFAULT_255_2_778
10
85.1471898
20
5.0952275
40
1.3600022
50
278.2079617
51
281.7437796
0
ARC
8
DEFAULT_255_2_778
10
85.2378456
20
4.6641564
40
0.9195033
50
281.6802246
51
292.0910862
0
ARC
8
DEFAULT_255_2_778
10
85.2633673
20
4.6006033
40
0.8510176
50
292.1081221
51
294.2465137
0
ARC
8
DEFAULT_255_2_778
10
85.4908145
20
4.1589273
40
0.3558502
50
290.0559727
51
327.2473701
0
ARC
8
DEFAULT_255_2_778
10
85.6654345
20
4.0288927
40
0.1394391
50
333.3770441
51
358.9989176
0
ARC
8
DEFAULT_255_2_778
10
71.0311924
20
131.6390896
40
0.9963606
50
359.9463462
51
41.6189009
0
ARC
8
DEFAULT_255_2_778
10
71.0285363
20
131.6399556
40
0.9977739
50
41.4804198
51
88.1815658
0
ARC
8
DEFAULT_255_2_778
10
71.0273189
20
131.6194018
40
1.018356
50
88.1498054
51
89.9080902
0
ARC
8
DEFAULT_255_2_778
10
1.4095999
20
131.6411917
40
0.9965649
50
90.0084735
51
131.6734698
0
ARC
8
DEFAULT_255_2_778
10
1.4084766
20
131.6388134
40
0.9975975
50
131.5344628
51
178.2428832
0
ARC
8
DEFAULT_255_2_778
10
1.42947
20
131.6376269
40
1.0186176
50
178.2123822
51
179.9702083
0
ARC
8
DEFAULT_255_2_778
10
96.9940221
20
99.4397208
40
0.2501303
50
290.3858107
51
0.008188
0
ARC
8
DEFAULT_255_2_778
10
96.1955945
20
69.8648983
40
0.2000419
50
121.7760088
51
180.0119612
0
ARC
8
DEFAULT_255_2_778
10
96.1954503
20
69.8650451
40
0.1998979
50
93.067738
51
180.0540502
0
ARC
8
DEFAULT_255_2_778
10
97.9929318
20
70.3595948
40
0.1997209
50
273.0483108
51
0.0750832
0
ARC
8
DEFAULT_255_2_778
10
85.9208808
20
52.0942415
40
0.0177102
50
272.3729247
51
342.2984468
0
ARC
8
DEFAULT_255_2_778
10
85.8772031
20
52.2302486
40
0.1599896
50
285.2007106
51
286.1162424
0
ARC
8
DEFAULT_255_2_778
10
85.6871413
20
53.5256374
40
0.3507974
50
84.298353
51
88.7894443
0
ARC
8
DEFAULT_255_2_778
10
85.7014956
20
53.6083545
40
0.2671325
50
51.7563592
51
85.5994141
0
ARC
8
DEFAULT_255_2_778
10
85.7534321
20
53.6724479
40
0.1846489
50
3.4179691
51
52.1026183
0
LINE
8
DEFAULT_255_2_778
10
0.2127525
20
10.8720565
11
0.2127524
21
10.8716793
0
ARC
8
DEFAULT_255_2_778
10
1.21269
20
10.8718442
40
0.9999376
50
180.0094522
51
224.9777239
0
ARC
8
DEFAULT_255_2_778
10
1.2115437
20
10.8699312
40
0.9977746
50
224.9465422
51
270.0005073
0
ARC
8
DEFAULT_255_2_778
10
1.2084472
20
10.8765738
40
1.004422
50
270.0000002
51
270.1771347
0
ARC
8
DEFAULT_255_2_778
10
1.2084883
20
10.8629589
40
0.9908072
50
226.657344
51
269.997628
0
ARC
8
DEFAULT_255_2_778
10
1.2309184
20
10.8902893
40
1.0260816
50
224.9986914
51
226.7939222
0
ARC
8
DEFAULT_255_2_778
10
1.2090647
20
10.8703222
40
0.9965108
50
185.3339936
51
225.0753551
0
ARC
8
DEFAULT_255_2_778
10
1.2166042
20
10.8717642
40
1.0041518
50
180.570789
51
185.3759215
0
ARC
8
DEFAULT_255_2_778
10
1.2116887
20
10.8717368
40
0.9992362
50
179.998869
51
180.5720292
0
LINE
8
DEFAULT_255_2_778
10
72.2243525
20
12.2512565
11
72.2243524
21
12.2509834
0
ARC
8
DEFAULT_255_2_778
10
72.6238885
20
12.2509279
40
0.3995361
50
179.9920381
51
241.6966365
0
ARC
8
DEFAULT_255_2_778
10
81.5462433
20
7.8039138
40
0.8064898
50
285.8160947
51
292.6916191
0
ARC
8
DEFAULT_255_2_778
10
81.5900411
20
7.7011115
40
0.6947492
50
292.6298096
51
292.7618595
0
ARC
8
DEFAULT_255_2_778
10
81.6596212
20
7.5855718
40
0.5616242
50
290.776319
51
318.7520174
0
ARC
8
DEFAULT_255_2_778
10
81.9353663
20
7.3374944
40
0.1907978
50
320.168413
51
358.2876211
0
ARC
8
DEFAULT_255_2_778
10
81.9668417
20
7.3316865
40
0.1592373
50
0.0383062
51
10.8117081
0
ARC
8
DEFAULT_255_2_778
10
81.9850738
20
7.4973977
40
0.1059348
50
15.303092
51
34.9981157
0
ARC
8
DEFAULT_255_2_778
10
81.9021941
20
7.425046
40
0.2156441
50
38.1170072
51
70.9168522
0
ARC
8
DEFAULT_255_2_778
10
81.746701
20
7.0820898
40
0.5916158
50
67.5425305
51
69.1207721
0
ARC
8
DEFAULT_255_2_778
10
85.4375677
20
11.3806229
40
0.5001848
50
0.0267603
51
80.0315656
0
ARC
8
DEFAULT_255_2_778
10
96.1953593
20
33.8950817
40
0.1998069
50
179.9498527
51
266.9570007
0
ARC
8
DEFAULT_255_2_778
10
-28.1050101
20
71.0658618
40
99.5473827
50
344.894895
51
346.9983953
0
ARC
8
DEFAULT_255_2_778
10
67.2769088
20
45.1816392
40
0.7160246
50
336.083262
51
345.3177272
0
ARC
8
DEFAULT_255_2_778
10
67.2418176
20
45.1967099
40
0.7542128
50
310.2718975
51
336.1174163
0
ARC
8
DEFAULT_255_2_778
10
67.2775814
20
45.2466422
40
0.7717246
50
307.5444529
51
325.457107
0
ARC
8
DEFAULT_255_2_778
10
67.2907279
20
45.2350583
40
0.7543304
50
325.6156503
51
344.8531632
0
ARC
8
DEFAULT_255_2_778
10
-30.1674545
20
71.3534034
40
101.5605719
50
349.8163824
51
354.9024363
0
ARC
8
DEFAULT_255_2_778
10
-30.1708321
20
71.3536662
40
101.5639596
50
354.902458
51
359.9982339
0
LINE
8
DEFAULT_255_2_778
10
71.3931275
20
71.3505356
11
71.3931275
21
71.353694
0
ARC
8
DEFAULT_255_2_778
10
-30.1688256
20
71.3537793
40
101.5619531
50
359.9999519
51
7.3147846
0
ARC
8
DEFAULT_255_2_778
10
-30.1663699
20
71.3539816
40
101.5594917
50
7.3148478
51
10.1836859
0
ARC
8
DEFAULT_255_2_778
10
67.2907284
20
97.4725549
40
0.75433
50
15.1468335
51
34.3843595
0
ARC
8
DEFAULT_255_2_778
10
67.2778991
20
97.4623235
40
0.7706966
50
34.4734568
51
52.4265868
0
ARC
8
DEFAULT_255_2_778
10
46.5186441
20
88.6739598
40
23.0031837
50
10.4956922
51
12.5426005
0
ARC
8
DEFAULT_255_2_778
10
-27.9535547
20
71.6801689
40
99.3908072
50
12.999539
51
15.1064093
0
ARC
8
DEFAULT_255_2_778
10
67.2492285
20
97.5158715
40
0.745122
50
14.8832704
51
49.7718761
0
ARC
8
DEFAULT_255_2_778
10
-27.745015
20
71.8018269
40
99.129682
50
12.9529662
51
15.063186
0
ARC
8
DEFAULT_255_2_778
10
67.2028324
20
97.5179863
40
0.763965
50
14.3829574
51
35.8261793
0
ARC
8
DEFAULT_255_2_778
10
67.2323577
20
97.5378092
40
0.7284241
50
35.9213283
51
46.1431896
0
ARC
8
DEFAULT_255_2_778
10
67.2532029
20
97.5603846
40
0.6976425
50
47.8189756
51
60.5458513
0
ARC
8
DEFAULT_255_2_778
10
67.2545693
20
97.5655038
40
0.6925144
50
60.4360282
51
77.6359281
0
ARC
8
DEFAULT_255_2_778
10
67.2568786
20
97.5724324
40
0.6852525
50
77.70049
51
88.0606146
0
ARC
8
DEFAULT_255_2_778
10
67.2577724
20
97.5881949
40
0.6694687
50
88.0914084
51
88.9746399
0
ARC
8
DEFAULT_255_2_778
10
67.2565268
20
45.1936853
40
0.7452454
50
269.6175667
51
269.9976325
0
ARC
8
DEFAULT_255_2_778
10
67.2565709
20
45.1823819
40
0.7339419
50
269.9941475
51
307.5576788
0
ARC
8
DEFAULT_255_2_778
10
76.8492797
20
69.5140158
40
0.1172272
50
175.5675695
51
179.9800728
0
ARC
8
DEFAULT_255_2_778
10
76.8637011
20
69.5122699
40
0.1317419
50
153.4495951
51
175.2952538
0
ARC
8
DEFAULT_255_2_778
10
76.8999381
20
69.4927037
40
0.1729081
50
129.5870307
51
153.0170174
0
ARC
8
DEFAULT_255_2_778
10
76.9646388
20
69.4131169
40
0.275474
50
108.8242727
51
129.4092972
0
ARC
8
DEFAULT_255_2_778
10
77.0124374
20
69.2779531
40
0.4188344
50
90.0095249
51
109.0471418
0
ARC
8
DEFAULT_255_2_778
10
77.0123758
20
69.2795107
40
0.4172768
50
88.0942534
51
90.0010953
0
ARC
8
DEFAULT_255_2_778
10
72.7249722
20
64.6521854
40
0.5001197
50
180.014758
51
268.4165534
0
ARC
8
DEFAULT_255_2_778
10
72.7238413
20
64.330979
40
0.6334495
50
263.1959428
51
268.8522181
0
ARC
8
DEFAULT_255_2_778
10
72.7081165
20
64.2631521
40
0.5642882
50
232.7367641
51
263.9654422
0
ARC
8
DEFAULT_255_2_778
10
72.6045887
20
64.121017
40
0.3885017
50
208.0283926
51
232.1961227
0
ARC
8
DEFAULT_255_2_778
10
72.5459682
20
64.0880934
40
0.321289
50
183.2461534
51
207.7580685
0
ARC
8
DEFAULT_255_2_778
10
72.5073373
20
64.0838004
40
0.2824848
50
180.0088914
51
182.8204896
0
ARC
8
DEFAULT_255_2_778
10
82.0764462
20
66.5699953
40
0.3131528
50
246.4352915
51
266.8026362
0
ARC
8
DEFAULT_255_2_778
10
82.0775374
20
66.5765194
40
0.3197283
50
266.6726051
51
269.9963511
0
ARC
8
DEFAULT_255_2_778
10
82.0775246
20
66.5727229
40
0.3159318
50
269.9986209
51
271.8552039
0
ARC
8
DEFAULT_255_2_778
10
81.9473312
20
66.2070514
40
0.1490257
50
19.5649877
51
63.4456925
0
LINE
8
DEFAULT_255_2_778
10
0.9757525
20
98.3326565
11
0.975527
21
98.3326566
0
ARC
8
DEFAULT_255_2_778
10
0.9755692
20
97.5838909
40
0.7487657
50
90.0032266
51
164.2960821
0
ARC
8
DEFAULT_255_2_778
10
0.9920045
20
97.5797983
40
0.7656955
50
164.3341447
51
175.3286603
0
ARC
8
DEFAULT_255_2_778
10
25.8254472
20
98.3858721
40
0.9117085
50
359.8481971
51
359.9999989
0
ARC
8
DEFAULT_255_2_778
10
25.7474933
20
98.384718
40
0.989663
50
0.0668155
51
6.6227025
0
ARC
8
DEFAULT_255_2_778
10
27.2349081
20
104.0736307
40
5.5975425
50
264.2661484
51
264.8304654
0
ARC
8
DEFAULT_255_2_778
10
26.7765796
20
99.7405602
40
1.2405766
50
254.6294887
51
265.3343943
0
ARC
8
DEFAULT_255_2_778
10
26.6079536
20
99.0997217
40
0.5780094
50
241.5001275
51
253.9092197
0
ARC
8
DEFAULT_255_2_778
10
26.6974713
20
99.2286326
40
0.7342131
50
230.5907767
51
240.1609671
0
ARC
8
DEFAULT_255_2_778
10
25.6461682
20
98.1080838
40
0.7973892
50
52.7202593
51
62.6059934
0
ARC
8
DEFAULT_255_2_778
10
25.7358721
20
98.2808452
40
0.6027272
50
62.6208298
51
89.5835933
0
ARC
8
DEFAULT_255_2_778
10
26.4864998
20
79.4307115
40
19.4683691
50
89.7876762
51
91.8109859
0
ARC
8
DEFAULT_255_2_778
10
26.6233869
20
-7.5542246
40
106.4531912
50
89.997677
51
90.034846
0
ARC
8
DEFAULT_255_2_778
10
26.6177039
20
-268.3994015
40
367.2983682
50
89.9904182
51
89.9984402
0
ARC
8
DEFAULT_255_2_778
10
26.7405524
20
466.1890923
40
367.2901359
50
269.9904181
51
269.9984401
0
ARC
8
DEFAULT_255_2_778
10
1.2106853
20
131.8408672
40
0.9945903
50
89.92124
51
132.0214925
0
ARC
8
DEFAULT_255_2_778
10
1.2107242
20
131.8370635
40
0.9974453
50
131.8768922
51
178.2862002
0
ARC
8
DEFAULT_255_2_778
10
1.2321159
20
131.8358715
40
1.0188633
50
178.2551732
51
180.0008392
0
ARC
8
DEFAULT_255_2_778
10
112.7428424
20
92.7368019
40
40.6025906
50
179.9891983
51
181.5313289
0
ARC
8
DEFAULT_255_2_778
10
69.3973304
20
89.7307728
40
3.5049145
50
89.3424636
51
90.0005543
0
ARC
8
DEFAULT_255_2_778
10
69.3980492
20
89.6667523
40
3.5689351
50
90.0120848
51
94.8218451
0
ARC
8
DEFAULT_255_2_778
10
70.9646632
20
98.6974847
40
1.8693853
50
9.5663309
51
17.2924129
0
ARC
8
DEFAULT_255_2_778
10
73.2268714
20
98.6770857
40
1.6645266
50
11.0653786
51
20.9026163
0
ARC
8
DEFAULT_255_2_778
10
67.2558372
20
97.5236546
40
0.7352186
50
52.4761664
51
89.9734238
0
ARC
8
DEFAULT_255_2_778
10
67.2562089
20
97.5189535
40
0.7399196
50
90.0023761
51
90.3837994
0
ARC
8
DEFAULT_255_2_778
10
71.8268238
20
99.2016887
40
0.2009326
50
270.1222545
51
314.8581671
0
ARC
8
DEFAULT_255_2_778
10
71.8274853
20
99.2002789
40
0.1994674
50
315.0091196
51
0.0797629
0
ARC
8
DEFAULT_255_2_778
10
72.4975662
20
109.7755617
40
0.0507141
50
180.2317893
51
224.5937263
0
ARC
8
DEFAULT_255_2_778
10
72.4962345
20
109.7740818
40
0.048727
50
224.4539462
51
270.4915141
0
ARC
8
DEFAULT_255_2_778
10
85.4373412
20
90.021011
40
0.5001114
50
279.9730004
51
359.9823037
0
ARC
8
DEFAULT_255_2_778
10
85.4373414
20
82.7004023
40
0.5001112
50
0.0176664
51
80.027017
0
ARC
8
DEFAULT_255_2_778
10
97.8487007
20
110.0997184
40
1.2331708
50
277.6964332
51
277.8966554
0
ARC
8
DEFAULT_255_2_778
10
97.9363202
20
109.5278115
40
0.6547008
50
277.1775981
51
286.5262148
0
ARC
8
DEFAULT_255_2_778
10
98.1427297
20
108.9320531
40
0.0210271
50
296.0154918
51
345.1288698
0
ARC
8
DEFAULT_255_2_778
10
97.662869
20
108.9262737
40
0.5001837
50
0.0438604
51
89.8987922
0
ARC
8
DEFAULT_255_2_778
10
95.6956889
20
99.6767852
40
0.4984452
50
270.4671133
51
333.5226649
0
ARC
8
DEFAULT_255_2_778
10
96.9998866
20
109.4151026
40
0.2433705
50
6.7852893
51
21.2872033
0
ARC
8
DEFAULT_255_2_778
10
97.9195866
20
109.7755484
40
0.0498919
50
270.0757118
51
314.9789581
0
ARC
8
DEFAULT_255_2_778
10
97.9193646
20
109.7754623
40
0.0499883
50
315.2286929
51
0.2226902
0
ARC
8
DEFAULT_255_2_778
10
72.4973737
20
132.563413
40
0.0495436
50
89.9088381
51
135.1452515
0
ARC
8
DEFAULT_255_2_778
10
72.4977208
20
132.5630174
40
0.0500685
50
135.104501
51
180.1841147
0
ARC
8
DEFAULT_255_2_778
10
71.0338809
20
98.71643
40
1.2985081
50
11.4930494
51
18.4908733
0
ARC
8
DEFAULT_255_2_778
10
71.5890906
20
83.2778606
40
1.129797
50
304.391628
51
315.1849566
0
ARC
8
DEFAULT_255_2_778
10
73.2890368
20
98.6954869
40
1.1005755
50
15.7191081
51
27.5458119
0
ARC
8
DEFAULT_255_2_778
10
81.7082124
20
7.6065257
40
0.1224708
50
321.7211945
51
352.932238
0
ARC
8
DEFAULT_255_2_778
10
81.5913873
20
7.6870903
40
0.2642455
50
304.0525901
51
323.7008347
0
ARC
8
DEFAULT_255_2_778
10
81.5118465
20
7.8017447
40
0.4037822
50
275.8674687
51
304.2938621
0
ARC
8
DEFAULT_255_2_778
10
81.5106964
20
7.8007327
40
0.4028951
50
273.4230532
51
276.0448678
0
ARC
8
DEFAULT_255_2_778
10
76.8319907
20
7.6023666
40
0.1001436
50
183.6699544
51
218.6238593
0
ARC
8
DEFAULT_255_2_778
10
76.9381947
20
7.6763486
40
0.2294538
50
216.5024085
51
238.1910807
0
ARC
8
DEFAULT_255_2_778
10
77.0181666
20
7.7869428
40
0.3657177
50
236.6762438
51
253.2965243
0
ARC
8
DEFAULT_255_2_778
10
77.0334002
20
7.8427989
40
0.4235979
50
253.4944408
51
269.0737388
0
ARC
8
DEFAULT_255_2_778
10
77.0262922
20
7.9326996
40
0.919046
50
255.8198753
51
269.8541365
0
ARC
8
DEFAULT_255_2_778
10
82.1097502
20
7.6925989
40
0.3311513
50
269.9950779
51
272.4753542
0
ARC
8
DEFAULT_255_2_778
10
82.1097748
20
7.6998567
40
0.3384092
50
265.1658052
51
269.9910127
0
ARC
8
DEFAULT_255_2_778
10
82.1047627
20
7.6752993
40
0.3135305
50
236.2012065
51
265.7002957
0
ARC
8
DEFAULT_255_2_778
10
82.0660328
20
7.6153171
40
0.2421439
50
213.6455026
51
235.9214247
0
ARC
8
DEFAULT_255_2_778
10
82.0473197
20
7.6021375
40
0.2192642
50
189.9485513
51
213.4877449
0
ARC
8
DEFAULT_255_2_778
10
82.0685105
20
7.8153355
40
0.2883769
50
228.0811842
51
250.5851895
0
ARC
8
DEFAULT_255_2_778
10
82.0764496
20
7.8406786
40
0.3149194
50
250.7555706
51
266.2944794
0
ARC
8
DEFAULT_255_2_778
10
82.0777905
20
7.8471535
40
0.3214688
50
266.1305672
51
269.9862031
0
ARC
8
DEFAULT_255_2_778
10
82.0777484
20
7.83477
40
0.3090853
50
269.993447
51
271.9104377
0
ARC
8
DEFAULT_255_2_778
10
2.1924339
20
47.0183485
40
2.2462042
50
228.3840505
51
237.4365633
0
ARC
8
DEFAULT_255_2_778
10
6.8869361
20
90.7749744
40
9.0099394
50
131.3561121
51
133.2397544
0
ARC
8
DEFAULT_255_2_778
10
81.1827659
20
7.3535098
40
120.7192933
50
131.6599057
51
131.6637085
0
ARC
8
DEFAULT_255_2_778
10
-31.2739631
20
133.7567383
40
48.4678579
50
311.6547238
51
311.7109657
0
ARC
8
DEFAULT_255_2_778
10
58.7520177
20
91.7835369
40
10.3551292
50
8.8360121
51
12.4907029
0
ARC
8
DEFAULT_255_2_778
10
63.1446761
20
92.4256431
40
5.9161077
50
4.9124204
51
9.2258936
0
ARC
8
DEFAULT_255_2_778
10
69.0431751
20
92.8204814
40
0.1118511
50
89.9968068
51
92.1123016
0
ARC
8
DEFAULT_255_2_778
10
69.0431736
20
92.8192093
40
0.1131233
50
84.6228759
51
89.9960683
0
ARC
8
DEFAULT_255_2_778
10
69.04506
20
92.8292544
40
0.1029499
50
56.2523243
51
85.1442311
0
ARC
8
DEFAULT_255_2_778
10
69.0540019
20
92.8447458
40
0.0851096
50
13.8064527
51
55.4640782
0
ARC
8
DEFAULT_255_2_778
10
97.231871
20
99.4372751
40
0.0123469
50
13.9737102
51
76.0260824
0
ARC
8
DEFAULT_255_2_778
10
90.2532633
20
10.6603541
40
0.18082
50
293.7311224
51
353.0443243
0
ARC
8
DEFAULT_255_2_778
10
90.0281365
20
10.9987305
40
0.5853759
50
293.7730399
51
300.5904979
0
ARC
8
DEFAULT_255_2_778
10
89.9233436
20
11.2282761
40
0.8376946
50
291.9043537
51
294.0033931
0
ARC
8
DEFAULT_255_2_778
10
89.8944561
20
11.2980617
40
0.9132192
50
281.9387044
51
291.9525374
0
ARC
8
DEFAULT_255_2_778
10
89.8016184
20
11.7278409
40
1.3529082
50
278.9911113
51
282.0201557
0
ARC
8
DEFAULT_255_2_778
10
89.7270914
20
12.1873039
40
1.8183735
50
273.050495
51
279.0480091
0
ARC
8
DEFAULT_255_2_778
10
89.7296391
20
12.1278814
40
1.7588997
50
270.5281557
51
273.0706316
0
ARC
8
DEFAULT_255_2_778
10
97.1443557
20
96.2034314
40
1.0488969
50
359.9795214
51
2.9926748
0
ARC
8
DEFAULT_255_2_778
10
97.2203406
20
96.2075756
40
0.9727992
50
2.9825763
51
7.8806754
0
ARC
8
DEFAULT_255_2_778
10
97.26799
20
96.2140156
40
0.9247168
50
7.8902215
51
8.7170603
0
ARC
8
DEFAULT_255_2_778
10
97.471313
20
96.260748
40
0.716825
50
7.4878098
51
36.5919949
0
ARC
8
DEFAULT_255_2_778
10
72.258577
20
96.5102092
40
0.0352485
50
196.9098579
51
267.6357795
0
ARC
8
DEFAULT_255_2_778
10
72.3849691
20
96.9091431
40
0.4525849
50
253.5917301
51
254.2938335
0
ARC
8
DEFAULT_255_2_778
10
87.1277737
20
94.9718806
40
1.0421271
50
106.0956571
51
124.4969263
0
ARC
8
DEFAULT_255_2_778
10
87.7594503
20
103.5145306
40
7.5973563
50
258.6921158
51
263.0401698
0
ARC
8
DEFAULT_255_2_778
10
96.1681754
20
64.8031001
40
0.1728229
50
175.4251878
51
179.98128
0
ARC
8
DEFAULT_255_2_778
10
96.1894298
20
64.800041
40
0.1942585
50
135.8471559
51
175.025812
0
ARC
8
DEFAULT_255_2_778
10
96.1959414
20
64.7878532
40
0.2074628
50
97.9307022
51
134.6847391
0
ARC
8
DEFAULT_255_2_778
10
96.1939438
20
64.8036849
40
0.1915071
50
92.8408076
51
97.9922874
0
ARC
8
DEFAULT_255_2_778
10
85.3603303
20
118.2082109
40
22.8352969
50
302.7148323
51
302.7420248
0
ARC
8
DEFAULT_255_2_778
10
49.7896301
20
173.5217476
40
88.5989803
50
302.7435052
51
302.7547482
0
ARC
8
DEFAULT_255_2_778
10
99.8905094
20
95.7109744
40
3.9463751
50
120.0632108
51
123.269915
0
ARC
8
DEFAULT_255_2_778
10
98.1098117
20
98.9763594
40
0.2226133
50
93.0537485
51
115.9919756
0
ARC
8
DEFAULT_255_2_778
10
86.9271013
20
95.775939
40
0.1568976
50
80.2200915
51
90.0654443
0
ARC
8
DEFAULT_255_2_778
10
86.9622341
20
95.5982479
40
0.3364468
50
96.0246295
51
132.0813721
0
ARC
8
DEFAULT_255_2_778
10
87.7096792
20
94.6115204
40
1.573328
50
128.1984941
51
136.2086243
0
ARC
8
DEFAULT_255_2_778
10
93.5716565
20
88.753288
40
9.8604828
50
135.2082199
51
135.2709132
0
ARC
8
DEFAULT_255_2_778
10
83.617092
20
14.8627075
40
5.6361561
50
301.1177864
51
306.2997704
0
ARC
8
DEFAULT_255_2_778
10
85.4891828
20
11.7687166
40
2.0198784
50
294.5854347
51
301.0117624
0
ARC
8
DEFAULT_255_2_778
10
86.065244
20
10.4749308
40
0.6038874
50
278.159419
51
295.9558449
0
ARC
8
DEFAULT_255_2_778
10
85.9070478
20
12.2323931
40
0.031299
50
15.8786753
51
84.0522124
0
ARC
8
DEFAULT_255_2_778
10
85.7549083
20
11.8232116
40
0.4669244
50
70.5624537
51
71.0222731
0
ARC
8
DEFAULT_255_2_778
10
83.7803916
20
2.3552372
40
1.6778292
50
77.9434178
51
89.8032732
0
ARC
8
DEFAULT_255_2_778
10
72.0171651
20
5.6785679
40
0.2078882
50
296.8962304
51
353.8389272
0
ARC
8
DEFAULT_255_2_778
10
71.7670373
20
6.0246925
40
0.6332239
50
294.8042704
51
302.9237455
0
ARC
8
DEFAULT_255_2_778
10
71.6584641
20
6.2486511
40
0.8820822
50
293.0939827
51
295.1031844
0
ARC
8
DEFAULT_255_2_778
10
71.6173515
20
6.3636594
40
1.0040266
50
278.2632941
51
292.6777966
0
ARC
8
DEFAULT_255_2_778
10
71.4676296
20
7.1761662
40
1.8298856
50
272.9468889
51
279.2462679
0
ARC
8
DEFAULT_255_2_778
10
71.47436
20
7.0475043
40
1.701048
50
270.0233263
51
272.9432883
0
ARC
8
DEFAULT_255_2_778
10
90.9060539
20
12.4932805
40
5.3333469
50
190.5316728
51
193.8447216
0
ARC
8
DEFAULT_255_2_778
10
95.307192
20
13.5804115
40
9.8667636
50
193.858617
51
195.0182531
0
ARC
8
DEFAULT_255_2_778
10
248.0939116
20
54.0445768
40
167.9209161
50
194.8445503
51
194.8484385
0
ARC
8
DEFAULT_255_2_778
10
79.2540721
20
9.227565
40
6.7660201
50
12.5724941
51
15.2975305
0
ARC
8
DEFAULT_255_2_778
10
83.4974701
20
10.1771211
40
2.4176808
50
2.1378611
51
12.4988714
0
ARC
8
DEFAULT_255_2_778
10
84.1092196
20
10.2160013
40
1.8049779
50
0.0076311
51
1.6289348
0
ARC
8
DEFAULT_255_2_778
10
84.1830631
20
10.2161804
40
1.7311343
50
359.0360345
51
0.0020295
0
ARC
8
DEFAULT_255_2_778
10
84.9071493
20
10.2022345
40
1.0069176
50
359.1363072
51
359.999569
0
ARC
8
DEFAULT_255_2_778
10
84.9110301
20
10.2021806
40
1.0030368
50
0.0026476
51
58.0812038
0
ARC
8
DEFAULT_255_2_778
10
97.6970942
20
108.9628108
40
0.4911635
50
44.7597531
51
71.5602895
0
ARC
8
DEFAULT_255_2_778
10
97.6943719
20
108.9557458
40
0.498081
50
359.9322215
51
45.1163322
0
ARC
8
DEFAULT_255_2_778
10
21.9740058
20
85.6674493
40
13.2301345
50
87.3332874
51
90.1162936
0
ARC
8
DEFAULT_255_2_778
10
22.5862628
20
98.3728317
40
0.5104354
50
89.6307328
51
90.0034731
0
ARC
8
DEFAULT_255_2_778
10
22.5863094
20
98.3529242
40
0.5303429
50
90.0083784
51
92.9238647
0
ARC
8
DEFAULT_255_2_778
10
22.5957111
20
98.2689771
40
0.6146814
50
93.3999449
51
117.0626931
0
ARC
8
DEFAULT_255_2_778
10
22.6788159
20
98.1125271
40
0.7918164
50
117.2671997
51
127.2210631
0
ARC
8
DEFAULT_255_2_778
10
21.6158407
20
99.2508088
40
0.7609887
50
300.0276012
51
309.2918428
0
ARC
8
DEFAULT_255_2_778
10
21.7243388
20
99.0935656
40
0.5707595
50
285.9051019
51
298.4966662
0
ARC
8
DEFAULT_255_2_778
10
21.6073129
20
99.5148575
40
1.0079976
50
277.8710677
51
285.7398578
0
ARC
8
DEFAULT_255_2_778
10
22.5802117
20
98.385018
40
0.989663
50
173.3772975
51
179.9331845
0
ARC
8
DEFAULT_255_2_778
10
22.5022578
20
98.3861721
40
0.9117085
50
180.0000011
51
180.1518029
0
ARC
8
DEFAULT_255_2_778
10
71.0412435
20
10.1772179
40
0.2342039
50
302.3467836
51
338.0697062
0
ARC
8
DEFAULT_255_2_778
10
70.312752
20
10.5556134
40
1.0542628
50
333.7756264
51
335.2213044
0
ARC
8
DEFAULT_255_2_778
10
71.1310822
20
11.1806007
40
1.0758445
50
277.4164473
51
278.4677695
0
ARC
8
DEFAULT_255_2_778
10
71.1355529
20
11.1845369
40
1.0790911
50
278.2022038
51
313.7128271
0
ARC
8
DEFAULT_255_2_778
10
71.2890506
20
11.0088426
40
0.8460879
50
314.4213472
51
336.2110058
0
ARC
8
DEFAULT_255_2_778
10
71.3507972
20
10.9800297
40
0.7779666
50
336.3184014
51
357.0756573
0
ARC
8
DEFAULT_255_2_778
10
71.4030051
20
10.9751809
40
0.7255825
50
357.2477185
51
359.4374136
0
ARC
8
DEFAULT_255_2_778
10
71.1320881
20
10.967183
40
0.9964648
50
318.0400409
51
0.050227
0
ARC
8
DEFAULT_255_2_778
10
71.1295819
20
10.9660644
40
0.9975838
50
271.6606245
51
318.184057
0
ARC
8
DEFAULT_255_2_778
10
71.1284059
20
10.9871958
40
1.0187406
50
270.092607
51
271.6922931
0
ARC
8
DEFAULT_255_2_778
10
71.9826299
20
91.6595367
40
0.1721124
50
310.6510271
51
357.3091526
0
ARC
8
DEFAULT_255_2_778
10
71.9578121
20
91.6896428
40
0.2111225
50
274.9879014
51
310.4383726
0
ARC
8
DEFAULT_255_2_778
10
71.9529165
20
91.7111748
40
0.2330181
50
270.0088638
51
275.7268177
0
ARC
8
DEFAULT_255_2_778
10
71.9284504
20
99.0982586
40
0.1999021
50
270.0292559
51
0.028077
0
ARC
8
DEFAULT_255_2_778
10
72.0129194
20
52.6573688
40
0.1719188
50
2.6630487
51
49.3768126
0
ARC
8
DEFAULT_255_2_778
10
71.9878398
20
52.6270885
40
0.2112317
50
49.561084
51
85.3839211
0
ARC
8
DEFAULT_255_2_778
10
71.9830224
20
52.6051432
40
0.2335133
50
84.6390705
51
89.9926185
0
ARC
8
DEFAULT_255_2_778
10
71.9830224
20
90.7120699
40
0.2335134
50
270.0073815
51
275.3609295
0
ARC
8
DEFAULT_255_2_778
10
71.9878398
20
90.6901246
40
0.2112318
50
274.6160789
51
310.438916
0
ARC
8
DEFAULT_255_2_778
10
72.0131
20
90.6597561
40
0.1717343
50
310.596588
51
357.3635233
0
ARC
8
DEFAULT_255_2_778
10
81.8089568
20
69.1535024
40
0.4881894
50
90.0315845
51
93.5471616
0
ARC
8
DEFAULT_255_2_778
10
81.8087258
20
69.1871244
40
0.4545673
50
88.8372471
51
90.0048054
0
ARC
8
DEFAULT_255_2_778
10
81.8123324
20
69.2583103
40
0.3833289
50
75.9407668
51
89.1602941
0
ARC
8
DEFAULT_255_2_778
10
81.8502417
20
69.3932122
40
0.2432918
50
54.2883753
51
76.8834522
0
ARC
8
DEFAULT_255_2_778
10
81.9054714
20
69.4700971
40
0.1486259
50
27.1232526
51
54.2754112
0
ARC
8
DEFAULT_255_2_778
10
81.929948
20
69.4864241
40
0.119445
50
0.0700076
51
25.5053499
0
ARC
8
DEFAULT_255_2_778
10
81.9318127
20
69.4865715
40
0.11758
50
356.33555
51
359.999301
0
ARC
8
DEFAULT_255_2_778
10
82.3328298
20
69.4679555
40
0.2844053
50
110.3229806
51
144.5133665
0
ARC
8
DEFAULT_255_2_778
10
82.3488531
20
69.4566274
40
0.3040284
50
144.5280153
51
176.3170882
0
ARC
8
DEFAULT_255_2_778
10
77.026807
20
66.6691699
40
0.9239196
50
255.8313283
51
269.7857718
0
ARC
8
DEFAULT_255_2_778
10
76.8314907
20
66.3345667
40
0.1001436
50
183.6700115
51
218.623904
0
ARC
8
DEFAULT_255_2_778
10
76.9358722
20
66.406571
40
0.2268129
50
216.3747218
51
238.3190268
0
ARC
8
DEFAULT_255_2_778
10
77.0289798
20
66.546327
40
0.3946854
50
237.4719472
51
264.671856
0
ARC
8
DEFAULT_255_2_778
10
77.0316793
20
66.5535734
40
0.4021562
50
264.3847798
51
269.1983155
0
ARC
8
DEFAULT_255_2_778
10
82.1091031
20
66.4255774
40
0.3318313
50
269.9960613
51
272.4784223
0
ARC
8
DEFAULT_255_2_778
10
82.1091241
20
66.4318726
40
0.3381266
50
265.2407745
51
269.9925684
0
ARC
8
DEFAULT_255_2_778
10
82.1044244
20
66.4084767
40
0.3144332
50
236.275799
51
265.7405008
0
ARC
8
DEFAULT_255_2_778
10
82.064533
20
66.3465247
40
0.2407619
50
213.5807367
51
235.9861742
0
ARC
8
DEFAULT_255_2_778
10
82.0454666
20
66.3339343
40
0.2179137
50
189.9833084
51
213.5956472
0
ARC
8
DEFAULT_255_2_778
10
81.5467433
20
66.5366138
40
0.8064898
50
285.8160947
51
292.6916191
0
ARC
8
DEFAULT_255_2_778
10
81.5905411
20
66.4338115
40
0.6947492
50
292.6298096
51
292.7618595
0
ARC
8
DEFAULT_255_2_778
10
81.6601212
20
66.3182718
40
0.5616242
50
290.776319
51
318.7520174
0
ARC
8
DEFAULT_255_2_778
10
81.9358663
20
66.0701944
40
0.1907978
50
320.168413
51
358.2876211
0
ARC
8
DEFAULT_255_2_778
10
81.9673417
20
66.0643865
40
0.1592373
50
0.0383062
51
10.8117081
0
ARC
8
DEFAULT_255_2_778
10
72.4732663
20
109.7292351
40
0.2265812
50
269.9898676
51
270.2746737
0
ARC
8
DEFAULT_255_2_778
10
72.4731879
20
109.7511566
40
0.2485026
50
224.9616261
51
270.008837
0
ARC
8
DEFAULT_255_2_778
10
72.473198
20
109.751214
40
0.2485501
50
180.012901
51
224.9693497
0
ARC
8
DEFAULT_255_2_778
10
72.479917
20
109.7511237
40
0.255269
50
179.6559515
51
179.9923035
0
ARC
8
DEFAULT_255_2_778
10
72.4791301
20
132.5874871
40
0.2544822
50
180.007708
51
180.3445994
0
ARC
8
DEFAULT_255_2_778
10
72.4733718
20
132.5873273
40
0.2487239
50
135.0472461
51
179.9710711
0
ARC
8
DEFAULT_255_2_778
10
72.4733632
20
132.5870344
40
0.2489248
50
90.030569
51
134.998139
0
ARC
8
DEFAULT_255_2_778
10
72.4732703
20
132.6110234
40
0.2249357
50
89.7243475
51
90.0101684
0
ARC
8
DEFAULT_255_2_778
10
72.497487
20
132.5628221
40
0.2501347
50
90.0766153
51
179.9233847
0
ARC
8
DEFAULT_255_2_778
10
72.4971662
20
109.7751703
40
0.2498137
50
180.0031442
51
269.9968673
0
ARC
8
DEFAULT_255_2_778
10
71.2291965
20
10.8713032
40
0.9964561
50
316.5425772
51
0.0260658
0
ARC
8
DEFAULT_255_2_778
10
71.2030897
20
10.8931161
40
1.0304122
50
315.043379
51
316.6606256
0
ARC
8
DEFAULT_255_2_778
10
71.226563
20
10.8660063
40
0.9946498
50
269.9922503
51
315.1930573
0
LINE
8
DEFAULT_255_2_778
10
71.2264285
20
9.8713565
11
71.2260525
21
9.8713565
0
ARC
8
DEFAULT_255_2_778
10
71.2227042
20
9.8557615
40
0.0159504
50
77.8823234
51
83.1101872
0
ARC
8
DEFAULT_255_2_778
10
71.3416058
20
10.3142864
40
0.4578994
50
255.1939893
51
256.93703
0
ARC
8
DEFAULT_255_2_778
10
70.8474028
20
8.2797053
40
1.635874
50
76.1428786
51
76.1820707
0
ARC
8
DEFAULT_255_2_778
10
71.0892287
20
9.2599463
40
0.6262443
50
75.837603
51
76.1445782
0
ARC
8
DEFAULT_255_2_778
10
71.1835333
20
9.5407781
40
0.3222358
50
38.5186179
51
56.9115528
0
ARC
8
DEFAULT_255_2_778
10
71.300708
20
9.630031
40
0.1750019
50
2.4318658
51
39.5469626
0
ARC
8
DEFAULT_255_2_778
10
71.4697409
20
11.4600711
40
1.8226238
50
270.1826945
51
279.2321134
0
ARC
8
DEFAULT_255_2_778
10
71.5481247
20
11.0027755
40
1.3586824
50
279.063325
51
282.7308419
0
ARC
8
DEFAULT_255_2_778
10
71.6467843
20
10.5702001
40
0.915
50
282.6740536
51
293.0509778
0
ARC
8
DEFAULT_255_2_778
10
71.666015
20
10.526171
40
0.8669567
50
293.0208627
51
295.0789071
0
ARC
8
DEFAULT_255_2_778
10
71.9054529
20
10.0767851
40
0.3594168
50
290.8689264
51
328.0175294
0
ARC
8
DEFAULT_255_2_778
10
72.0838022
20
9.9476483
40
0.1405508
50
334.1729742
51
359.8403134
0
ARC
8
DEFAULT_255_2_778
10
6.3268686
20
98.8705741
40
0.0568724
50
358.8486822
51
29.9375127
0
ARC
8
DEFAULT_255_2_778
10
5.1139715
20
98.7246464
40
1.2779858
50
2.5188216
51
6.5050915
0
ARC
8
DEFAULT_255_2_778
10
1.7226328
20
98.5507456
40
4.6737556
50
0.8195369
51
2.8215196
0
ARC
8
DEFAULT_255_2_778
10
-0.8718543
20
98.5005432
40
7.268707
50
359.9890693
51
0.9227029
0
ARC
8
DEFAULT_255_2_778
10
97.7054102
20
100.0452542
40
0.5071495
50
0.0000698
51
0.3053057
0
ARC
8
DEFAULT_255_2_778
10
97.7120056
20
100.0427829
40
0.5005601
50
278.6805151
51
0.2829393
0
LINE
8
DEFAULT_255_2_778
10
71.1022525
20
132.7121565
11
71.1026284
21
132.7121566
0
ARC
8
DEFAULT_255_2_778
10
71.1026189
20
131.7171603
40
0.9949964
50
44.8152483
51
89.9994539
0
ARC
8
DEFAULT_255_2_778
10
71.1042064
20
131.71182
40
0.9976462
50
5.7002116
51
45.0970749
0
ARC
8
DEFAULT_255_2_778
10
71.10288
20
131.7117544
40
0.9989724
50
0.2194018
51
5.6964009
0
ARC
8
DEFAULT_255_2_778
10
71.0867977
20
131.7117565
40
1.0150547
50
4e-7
51
0.2158029
0
LINE
8
DEFAULT_255_2_778
10
1.2662525
20
98.8563565
11
1.2655022
21
98.8563563
0
ARC
8
DEFAULT_255_2_778
10
1.2656795
20
99.850854
40
0.9944978
50
224.8114012
51
269.9897841
0
ARC
8
DEFAULT_255_2_778
10
1.2639801
20
99.8565576
40
0.9973256
50
185.8605459
51
225.1126689
0
ARC
8
DEFAULT_255_2_778
10
1.2656607
20
99.8566641
40
0.9990082
50
180.2197003
51
185.8567766
0
ARC
8
DEFAULT_255_2_778
10
1.2817074
20
99.8566566
40
1.0150547
50
180.0000004
51
180.2158029
0
ARC
8
DEFAULT_255_2_778
10
1.2627475
20
43.4612493
40
0.9960951
50
136.7116333
51
180.0283417
0
ARC
8
DEFAULT_255_2_778
10
1.2887733
20
43.4395567
40
1.0299157
50
135.0283624
51
136.8259506
0
ARC
8
DEFAULT_255_2_778
10
1.2694513
20
43.460737
40
1.0012778
50
111.3727018
51
135.1043661
0
ARC
8
DEFAULT_255_2_778
10
72.4137816
20
99.4725534
40
0.3100416
50
180.6151114
51
187.8595745
0
ARC
8
DEFAULT_255_2_778
10
75.6953822
20
99.6070251
40
3.5942668
50
181.16606
51
182.197195
0
ARC
8
DEFAULT_255_2_778
10
84.1856469
20
99.7850694
40
12.0863977
50
180.5162796
51
181.1908481
0
ARC
8
DEFAULT_255_2_778
10
97.4303031
20
99.9182167
40
25.3317197
50
180.1338098
51
180.5474902
0
ARC
8
DEFAULT_255_2_778
10
99.4737275
20
108.9299001
40
27.3972753
50
179.6042712
51
180.008038
0
ARC
8
DEFAULT_255_2_778
10
90.1793151
20
108.995194
40
18.1026337
50
179.2199128
51
179.6077479
0
ARC
8
DEFAULT_255_2_778
10
79.6143133
20
109.1477505
40
7.536539
50
178.3740011
51
179.2860794
0
ARC
8
DEFAULT_255_2_778
10
73.1054405
20
109.3402084
40
1.0248548
50
175.6312967
51
178.8039029
0
ARC
8
DEFAULT_255_2_778
10
72.1059282
20
109.418095
40
0.0223655
50
159.6942536
51
179.5360981
0
ARC
8
DEFAULT_255_2_778
10
23.0105559
20
97.9966818
40
0.3989747
50
90.0004889
51
121.9118173
0
ARC
8
DEFAULT_255_2_778
10
70.7949046
20
83.6813243
40
1.5419509
50
354.4597469
51
359.8860097
0
ARC
8
DEFAULT_255_2_778
10
70.9753385
20
83.6563207
40
1.3599665
50
337.0602683
51
354.7743256
0
ARC
8
DEFAULT_255_2_778
10
97.9932153
20
28.3044197
40
0.2061064
50
45.3144408
51
87.069474
0
ARC
8
DEFAULT_255_2_778
10
98.0003679
20
28.3161309
40
0.1927759
50
4.8344364
51
44.3781118
0
ARC
8
DEFAULT_255_2_778
10
98.0227633
20
28.3194118
40
0.1701892
50
0.0150499
51
4.369227
0
ARC
8
DEFAULT_255_2_778
10
22.6336949
20
98.3596202
40
0.5171478
50
180.0049416
51
180.2618719
0
ARC
8
DEFAULT_255_2_778
10
22.6118343
20
98.3593007
40
0.4952873
50
134.7976267
51
179.9682068
0
ARC
8
DEFAULT_255_2_778
10
22.61582
20
98.360156
40
0.4975005
50
90.0077722
51
135.1927536
0
ARC
8
DEFAULT_255_2_778
10
97.993458
20
68.9315416
40
0.2064869
50
45.3964235
51
87.058951
0
ARC
8
DEFAULT_255_2_778
10
98.0004624
20
68.9436473
40
0.1929813
50
4.6490059
51
44.353201
0
ARC
8
DEFAULT_255_2_778
10
98.023254
20
68.9470157
40
0.1699985
50
0.0137809
51
4.1400778
0
ARC
8
DEFAULT_255_2_778
10
35.3554969
20
9.6723707
40
0.199786
50
0.999746
51
90.0127411
0
ARC
8
DEFAULT_255_2_778
10
35.3550287
20
9.6710764
40
0.2010806
50
1.3621906
51
89.8792416
0
ARC
8
DEFAULT_255_2_778
10
69.8641927
20
9.4727437
40
0.3994129
50
0.9343152
51
89.9932933
0
LINE
8
DEFAULT_255_2_778
10
69.8642394
20
9.8721566
11
69.8640525
21
9.8721565
0
ARC
8
DEFAULT_255_2_778
10
70.7438067
20
8.2581193
40
1.3794248
50
89.3542781
51
90.0021565
0
ARC
8
DEFAULT_255_2_778
10
70.7439849
20
8.1954021
40
1.4421421
50
90.0091398
51
91.9421331
0
ARC
8
DEFAULT_255_2_778
10
70.7435244
20
8.1817698
40
1.4557513
50
91.9058349
51
97.7405637
0
ARC
8
DEFAULT_255_2_778
10
70.6863115
20
8.5849423
40
1.0485494
50
97.6100153
51
99.9609661
0
ARC
8
DEFAULT_255_2_778
10
70.6198446
20
8.9540029
40
0.6735568
50
99.8226588
51
110.1197279
0
ARC
8
DEFAULT_255_2_778
10
70.6097728
20
8.9817255
40
0.6440615
50
110.1267465
51
111.8060118
0
ARC
8
DEFAULT_255_2_778
10
70.4083049
20
9.4290453
40
0.1553215
50
104.0771382
51
154.5860489
0
ARC
8
DEFAULT_255_2_778
10
70.330251
20
9.480337
40
0.0641059
50
166.1320039
51
180.0811972
0
ARC
8
DEFAULT_255_2_778
10
70.3343253
20
9.4802474
40
0.0681801
50
180.0010387
51
180.8327005
0
ARC
8
DEFAULT_255_2_778
10
56.9592082
20
9.6723704
40
0.1997862
50
89.9872937
51
179.0001696
0
ARC
8
DEFAULT_255_2_778
10
56.9590438
20
9.6728445
40
0.199614
50
90.2558389
51
179.1354226
0
ARC
8
DEFAULT_255_2_778
10
56.9581082
20
9.6726705
40
0.1997861
50
89.9872834
51
179.0001946
0
ARC
8
DEFAULT_255_2_778
10
56.2441664
20
8.8731245
40
0.5000683
50
270.0786074
51
358.9609716
0
LINE
8
DEFAULT_255_2_778
10
56.2448525
20
8.3730565
11
56.2454138
21
8.3730562
0
ARC
8
DEFAULT_255_2_778
10
56.2454594
20
8.8731317
40
0.5000755
50
269.9947763
51
358.9601611
0
ARC
8
DEFAULT_255_2_778
10
69.4077364
20
51.9163311
40
0.08482
50
304.8890095
51
347.2118755
0
ARC
8
DEFAULT_255_2_778
10
69.3983797
20
51.9294605
40
0.1009416
50
275.2014154
51
304.9827516
0
ARC
8
DEFAULT_255_2_778
10
69.3965185
20
51.9387857
40
0.1104017
50
270.006999
51
275.7246338
0
ARC
8
DEFAULT_255_2_778
10
69.3965313
20
51.9374477
40
0.1090637
50
267.9093033
51
270.0003329
0
ARC
8
DEFAULT_255_2_778
10
-30.1743198
20
71.3539103
40
101.4377258
50
349.4099715
51
354.0489903
0
ARC
8
DEFAULT_255_2_778
10
-30.1797725
20
71.3544036
40
101.4432002
50
354.0490325
51
0.0000299
0
ARC
8
DEFAULT_255_2_778
10
-30.1788011
20
71.354547
40
101.4422286
50
359.9999489
51
7.2750563
0
ARC
8
DEFAULT_255_2_778
10
-30.1746635
20
71.3549494
40
101.4380735
50
7.2751268
51
10.5900224
0
ARC
8
DEFAULT_255_2_778
10
69.396584
20
90.7685531
40
0.111976
50
90.0005335
51
92.0632927
0
ARC
8
DEFAULT_255_2_778
10
69.3965805
20
90.7681399
40
0.1123892
50
85.9910707
51
89.9987527
0
ARC
8
DEFAULT_255_2_778
10
69.3986672
20
90.7805092
40
0.0999117
50
54.8049522
51
86.6888615
0
ARC
8
DEFAULT_255_2_778
10
69.4072199
20
90.7922342
40
0.085401
50
12.9389357
51
54.9601793
0
ARC
8
DEFAULT_255_2_778
10
64.3620944
20
51.3465844
40
0.5417333
50
180.0079174
51
192.573167
0
ARC
8
DEFAULT_255_2_778
10
64.3582647
20
51.3465095
40
0.5379037
50
179.7790372
51
179.9999996
0
ARC
8
DEFAULT_255_2_778
10
64.3589063
20
51.346542
40
0.5385451
50
170.4321452
51
179.7827496
0
ARC
8
DEFAULT_255_2_778
10
64.2465313
20
51.3576866
40
0.4259504
50
141.032757
51
169.3978409
0
ARC
8
DEFAULT_255_2_778
10
64.311411
20
51.2906115
40
0.5187008
50
116.6624671
51
139.7789384
0
ARC
8
DEFAULT_255_2_778
10
64.4715309
20
50.9831035
40
0.8653763
50
103.3611569
51
117.0004293
0
ARC
8
DEFAULT_255_2_778
10
64.6285819
20
50.286661
40
1.5792817
50
89.9963426
51
103.0658506
0
ARC
8
DEFAULT_255_2_778
10
64.6286881
20
50.2857511
40
1.5801916
50
88.7104737
51
90.0001952
0
ARC
8
DEFAULT_255_2_778
10
64.6287494
20
50.2880109
40
1.577931
50
88.3111964
51
88.7108529
0
ARC
8
DEFAULT_255_2_778
10
64.6184795
20
49.0322123
40
2.8336131
50
80.6846257
51
88.8519699
0
ARC
8
DEFAULT_255_2_778
10
-30.171936
20
71.3543992
40
101.5355595
50
349.4095071
51
354.0479423
0
ARC
8
DEFAULT_255_2_778
10
-30.1741671
20
71.3545539
40
101.5377947
50
354.047986
51
359.998375
0
LINE
8
DEFAULT_255_2_778
10
71.3636275
20
71.3516741
11
71.3636275
21
71.354594
0
ARC
8
DEFAULT_255_2_778
10
-30.1726933
20
71.3546767
40
101.5363208
50
359.9999534
51
7.2754713
0
ARC
8
DEFAULT_255_2_778
10
-30.1708484
20
71.3547912
40
101.5344763
50
7.275539
51
10.5905628
0
ARC
8
DEFAULT_255_2_778
10
64.6211378
20
93.6479683
40
2.8045339
50
271.105616
51
279.3577903
0
ARC
8
DEFAULT_255_2_778
10
64.6396927
20
93.1262117
40
2.2825322
50
270.0060269
51
270.8926536
0
ARC
8
DEFAULT_255_2_778
10
64.6398514
20
92.9858399
40
2.1421604
50
269.4441662
51
270.0021763
0
ARC
8
DEFAULT_255_2_778
10
64.6166708
20
92.3388576
40
1.4950792
50
256.653697
51
270.0919578
0
ARC
8
DEFAULT_255_2_778
10
64.4681371
20
91.7168763
40
0.8556095
50
242.9213551
51
256.7170731
0
ARC
8
DEFAULT_255_2_778
10
64.311411
20
91.4186016
40
0.5187008
50
220.2210616
51
243.3375329
0
ARC
8
DEFAULT_255_2_778
10
64.2471036
20
91.3518323
40
0.4265877
50
190.641598
51
218.9508414
0
ARC
8
DEFAULT_255_2_778
10
64.3616489
20
91.3628004
40
0.5412879
50
180.8008842
51
189.5435341
0
ARC
8
DEFAULT_255_2_778
10
64.3592792
20
91.3627925
40
0.5389182
50
179.9985209
51
180.8035641
0
ARC
8
DEFAULT_255_2_778
10
64.3625324
20
91.3627804
40
0.5421714
50
167.4319273
51
179.9972501
0
ARC
8
DEFAULT_255_2_778
10
96.1946944
20
29.2499652
40
0.1963283
50
92.8149902
51
96.210722
0
ARC
8
DEFAULT_255_2_778
10
96.1953589
20
29.2412284
40
0.2050859
50
96.1312257
51
134.877179
0
ARC
8
DEFAULT_255_2_778
10
96.1884772
20
29.2518075
40
0.192751
50
135.6464785
51
175.8807916
0
ARC
8
DEFAULT_255_2_778
10
96.1716723
20
29.2542281
40
0.1758199
50
176.2742173
51
179.9907345
0
ARC
8
DEFAULT_255_2_778
10
96.5481453
20
30.1139332
40
0.9161107
50
259.6751996
51
269.9779529
0
ARC
8
DEFAULT_255_2_778
10
96.5477689
20
30.106465
40
0.9086425
50
270.0015004
51
270.4971154
0
ARC
8
DEFAULT_255_2_778
10
96.5478176
20
35.1843501
40
0.9083415
50
259.6261595
51
269.9381856
0
ARC
8
DEFAULT_255_2_778
10
96.5468563
20
35.1488181
40
0.872809
50
269.9987768
51
270.5971356
0
ARC
8
DEFAULT_255_2_778
10
96.1960897
20
28.8112934
40
0.2061064
50
225.3144408
51
267.069474
0
ARC
8
DEFAULT_255_2_778
10
96.1886195
20
28.7994174
40
0.1924337
50
184.3133708
51
224.4091969
0
ARC
8
DEFAULT_255_2_778
10
96.1666647
20
28.796291
40
0.1703123
50
180.0115914
51
183.8200703
0
ARC
8
DEFAULT_255_2_778
10
96.5489668
20
70.7414737
40
0.9163512
50
259.6765707
51
269.9820502
0
ARC
8
DEFAULT_255_2_778
10
96.5486556
20
70.7368237
40
0.9117013
50
270.0015121
51
270.4962836
0
ARC
8
DEFAULT_255_2_778
10
96.1651394
20
69.4238528
40
0.1684869
50
180.0327225
51
185.7550348
0
ARC
8
DEFAULT_255_2_778
10
96.1915784
20
69.4282049
40
0.1952363
50
186.2477849
51
224.1330714
0
ARC
8
DEFAULT_255_2_778
10
96.1964471
20
69.4392712
40
0.2064866
50
225.3963629
51
267.0589376
0
ARC
8
DEFAULT_255_2_778
10
72.2591699
20
47.4639758
40
0.0350586
50
92.6661494
51
162.9476652
0
ARC
8
DEFAULT_255_2_778
10
72.4108598
20
46.9920176
40
0.5296553
50
106.2718942
51
106.8263849
0
ARC
8
DEFAULT_255_2_778
10
72.5070405
20
54.4036846
40
0.281388
50
180.0057096
51
182.4317501
0
ARC
8
DEFAULT_255_2_778
10
72.5459617
20
54.407847
40
0.3204607
50
182.8800328
51
207.7862408
0
ARC
8
DEFAULT_255_2_778
10
72.6072273
20
54.4425657
40
0.3908527
50
208.1021372
51
232.1223255
0
ARC
8
DEFAULT_255_2_778
10
72.7092374
20
54.5836145
40
0.5648504
50
232.7392515
51
264.3770759
0
ARC
8
DEFAULT_255_2_778
10
72.7246022
20
54.6521593
40
0.6346289
50
263.6029016
51
268.8578778
0
ARC
8
DEFAULT_255_2_778
10
72.3844582
20
51.7258346
40
0.4433402
50
105.9737267
51
106.6353317
0
ARC
8
DEFAULT_255_2_778
10
72.2591343
20
52.1156539
40
0.0350019
50
92.6122337
51
163.0528453
0
ARC
8
DEFAULT_255_2_778
10
77.1519724
20
3.2410521
40
0.1473103
50
12.3887547
51
74.0085875
0
ARC
8
DEFAULT_255_2_778
10
77.0108381
20
2.9849302
40
0.4372778
50
65.4450978
51
67.5460272
0
ARC
8
DEFAULT_255_2_778
10
76.9811491
20
2.9068991
40
0.520738
50
67.8062566
51
82.5628714
0
ARC
8
DEFAULT_255_2_778
10
76.9045751
20
2.4673663
40
0.9666725
50
81.4344226
51
87.1780575
0
ARC
8
DEFAULT_255_2_778
10
76.9104263
20
2.5751921
40
0.8586897
50
87.2137956
51
89.9747196
0
ARC
8
DEFAULT_255_2_778
10
76.910765
20
2.6384532
40
0.7954285
50
89.9971069
51
91.0165943
0
ARC
8
DEFAULT_255_2_778
10
77.455795
20
3.2144456
40
0.1605543
50
190.1482664
51
250.3580349
0
ARC
8
DEFAULT_255_2_778
10
77.6229773
20
3.4880528
40
0.4789356
50
242.4995327
51
245.6387772
0
ARC
8
DEFAULT_255_2_778
10
77.6629418
20
3.5757217
40
0.5752837
50
245.6144853
51
247.754414
0
ARC
8
DEFAULT_255_2_778
10
77.6921868
20
3.6624721
40
0.6666738
50
248.2506101
51
262.6632882
0
ARC
8
DEFAULT_255_2_778
10
77.7882671
20
4.2394891
40
1.2514226
50
261.6739035
51
267.7922867
0
ARC
8
DEFAULT_255_2_778
10
77.7835554
20
4.1351516
40
1.1469814
50
267.8266996
51
269.9873214
0
ARC
8
DEFAULT_255_2_778
10
77.7833584
20
4.0759425
40
1.0877722
50
269.9970092
51
270.7213248
0
ARC
8
DEFAULT_255_2_778
10
84.1434626
20
3.2405881
40
0.147572
50
12.4713806
51
73.8600172
0
ARC
8
DEFAULT_255_2_778
10
84.0035909
20
2.9879697
40
0.4338819
50
65.3596551
51
67.5111239
0
ARC
8
DEFAULT_255_2_778
10
83.9716857
20
2.9005753
40
0.526849
50
67.9406693
51
82.5329882
0
ARC
8
DEFAULT_255_2_778
10
83.8954558
20
2.4625694
40
0.9712263
50
81.4319773
51
87.1648456
0
ARC
8
DEFAULT_255_2_778
10
83.9006691
20
2.5601756
40
0.8734818
50
87.1897107
51
89.9738185
0
ARC
8
DEFAULT_255_2_778
10
83.90104
20
2.624117
40
0.8095404
50
89.9979982
51
90.9050802
0
ARC
8
DEFAULT_255_2_778
10
84.4472419
20
3.2141253
40
0.1604001
50
190.1507685
51
250.3964328
0
ARC
8
DEFAULT_255_2_778
10
84.6151132
20
3.489272
40
0.4804518
50
242.5216037
51
245.6504881
0
ARC
8
DEFAULT_255_2_778
10
84.6554903
20
3.5778833
40
0.5778285
50
245.6256172
51
247.7560217
0
ARC
8
DEFAULT_255_2_778
10
84.6842077
20
3.6623199
40
0.6668742
50
248.2185462
51
262.6290457
0
ARC
8
DEFAULT_255_2_778
10
84.7798671
20
4.2391891
40
1.2514226
50
261.6739035
51
267.7922867
0
ARC
8
DEFAULT_255_2_778
10
84.7751554
20
4.1348516
40
1.1469814
50
267.8266996
51
269.9873214
0
ARC
8
DEFAULT_255_2_778
10
84.7749584
20
4.0756425
40
1.0877722
50
269.9970092
51
270.7213248
0
ARC
8
DEFAULT_255_2_778
10
78.3509101
20
4.317945
40
1.2435635
50
269.37073
51
269.9991146
0
ARC
8
DEFAULT_255_2_778
10
78.3512934
20
4.2967044
40
1.2223229
50
269.9811326
51
278.2909637
0
ARC
8
DEFAULT_255_2_778
10
78.395903
20
3.9943748
40
0.9167205
50
278.2567493
51
281.8207547
0
ARC
8
DEFAULT_255_2_778
10
78.4599731
20
3.6917641
40
0.6074028
50
281.7527089
51
292.1671918
0
ARC
8
DEFAULT_255_2_778
10
78.4724506
20
3.6613185
40
0.5744994
50
292.1604242
51
294.2149859
0
ARC
8
DEFAULT_255_2_778
10
78.6460967
20
3.3317077
40
0.2039877
50
287.691888
51
337.5293047
0
ARC
8
DEFAULT_255_2_778
10
78.7455938
20
3.2739896
40
0.0912771
50
347.1832556
51
358.8492653
0
ARC
8
DEFAULT_255_2_778
10
78.9808867
20
3.240323
40
0.1475101
50
106.031452
51
167.5371874
0
ARC
8
DEFAULT_255_2_778
10
79.1317646
20
2.9659416
40
0.4581498
50
112.7148123
51
114.7233078
0
ARC
8
DEFAULT_255_2_778
10
79.1515865
20
2.9045715
40
0.5224421
50
97.405062
51
112.1211454
0
ARC
8
DEFAULT_255_2_778
10
79.2288779
20
2.463251
40
0.9702451
50
92.7822832
51
98.5724946
0
ARC
8
DEFAULT_255_2_778
10
79.2236147
20
2.5622611
40
0.8710964
50
90.0247287
51
92.7526246
0
ARC
8
DEFAULT_255_2_778
10
79.223266
20
2.6239323
40
0.8094251
50
89.0948635
51
90.0019321
0
ARC
8
DEFAULT_255_2_778
10
78.3496458
20
4.0755114
40
1.0876411
50
269.2786318
51
270.0029586
0
ARC
8
DEFAULT_255_2_778
10
78.3494555
20
4.1334164
40
1.1455461
50
270.0123282
51
272.151602
0
ARC
8
DEFAULT_255_2_778
10
78.3445242
20
4.241602
40
1.2538409
50
272.1911792
51
278.3197904
0
ARC
8
DEFAULT_255_2_778
10
78.4403977
20
3.662318
40
0.6668723
50
277.3709454
51
291.7814868
0
ARC
8
DEFAULT_255_2_778
10
78.4693518
20
3.5787877
40
0.5785762
50
292.1883474
51
294.2660662
0
ARC
8
DEFAULT_255_2_778
10
78.6454019
20
3.2446794
40
0.202964
50
287.7065807
51
337.5910963
0
ARC
8
DEFAULT_255_2_778
10
78.7444966
20
3.1872777
40
0.0907671
50
347.2895272
51
359.1028771
0
ARC
8
DEFAULT_255_2_778
10
79.3126698
20
3.4318854
40
0.0768355
50
174.4455199
51
178.7537704
0
ARC
8
DEFAULT_255_2_778
10
79.3280363
20
3.4290615
40
0.0924125
50
132.6270077
51
173.6250244
0
ARC
8
DEFAULT_255_2_778
10
79.336401
20
3.4148436
40
0.108594
50
98.8676205
51
130.7936571
0
ARC
8
DEFAULT_255_2_778
10
79.3358105
20
3.4238081
40
0.0996487
50
90.1483515
51
99.3267517
0
ARC
8
DEFAULT_255_2_778
10
84.7733949
20
4.317945
40
1.2435635
50
270.0008854
51
270.62927
0
ARC
8
DEFAULT_255_2_778
10
84.7730116
20
4.2967044
40
1.2223229
50
261.7090363
51
270.0188674
0
ARC
8
DEFAULT_255_2_778
10
84.7303774
20
4.0047876
40
0.9273092
50
258.3261508
51
261.7148541
0
ARC
8
DEFAULT_255_2_778
10
84.6655422
20
3.695839
40
0.6116331
50
247.8718365
51
258.4180779
0
ARC
8
DEFAULT_255_2_778
10
84.6523223
20
3.6617485
40
0.5750743
50
245.7170047
51
247.8125555
0
ARC
8
DEFAULT_255_2_778
10
84.4778491
20
3.3312839
40
0.2034161
50
202.3964019
51
252.2476019
0
ARC
8
DEFAULT_255_2_778
10
84.3785727
20
3.2738491
40
0.0910358
50
181.0652977
51
192.735697
0
ARC
8
DEFAULT_255_2_778
10
83.8116851
20
3.4319078
40
0.0762852
50
1.2384159
51
4.5689636
0
ARC
8
DEFAULT_255_2_778
10
83.7954522
20
3.4289379
40
0.0927179
50
5.5994149
51
47.2808529
0
ARC
8
DEFAULT_255_2_778
10
83.7884452
20
3.4172243
40
0.1061142
50
48.7921074
51
81.4922818
0
ARC
8
DEFAULT_255_2_778
10
83.7880195
20
3.4217309
40
0.101726
50
80.8796159
51
89.8687637
0
ARC
8
DEFAULT_255_2_778
10
76.8208851
20
3.4319078
40
0.0762852
50
1.2384159
51
4.5689636
0
ARC
8
DEFAULT_255_2_778
10
76.8046522
20
3.4289379
40
0.0927179
50
5.5994149
51
47.2808529
0
ARC
8
DEFAULT_255_2_778
10
76.7976508
20
3.4171792
40
0.1061444
50
48.8103878
51
81.0697083
0
ARC
8
DEFAULT_255_2_778
10
76.797184
20
3.421668
40
0.101789
50
80.4179247
51
89.848876
0
ARC
8
DEFAULT_255_2_778
10
72.3218698
20
3.4318854
40
0.0768355
50
174.4455199
51
178.7537704
0
ARC
8
DEFAULT_255_2_778
10
72.3372363
20
3.4290615
40
0.0924125
50
132.6270077
51
173.6250244
0
ARC
8
DEFAULT_255_2_778
10
72.345601
20
3.4148436
40
0.108594
50
98.8676205
51
130.7936571
0
ARC
8
DEFAULT_255_2_778
10
72.3450105
20
3.4238081
40
0.0996487
50
90.1483515
51
99.3267517
0
ARC
8
DEFAULT_255_2_778
10
71.6862303
20
3.2138311
40
0.1604158
50
289.6140078
51
349.8844107
0
ARC
8
DEFAULT_255_2_778
10
71.5185838
20
3.4885471
40
0.4799855
50
294.3495403
51
297.481508
0
ARC
8
DEFAULT_255_2_778
10
71.4780144
20
3.5775841
40
0.5778294
50
292.2439789
51
294.3743835
0
ARC
8
DEFAULT_255_2_778
10
71.4492973
20
3.6620199
40
0.6668742
50
277.3709543
51
291.7814538
0
ARC
8
DEFAULT_255_2_778
10
71.3550659
20
4.2313665
40
1.2437726
50
272.1554698
51
278.3111891
0
ARC
8
DEFAULT_255_2_778
10
71.35861
20
4.1488167
40
1.161148
50
270.0113222
51
272.1339142
0
ARC
8
DEFAULT_255_2_778
10
71.3587982
20
4.0977626
40
1.1100938
50
269.2801976
51
270.0021321
0
ARC
8
DEFAULT_255_2_778
10
77.7812006
20
4.2857698
40
1.2116093
50
270.0000205
51
270.7212677
0
ARC
8
DEFAULT_255_2_778
10
77.7808753
20
4.2720834
40
1.1979228
50
261.6180522
51
270.0155788
0
ARC
8
DEFAULT_255_2_778
10
77.7347053
20
3.9828428
40
0.9050483
50
258.2773496
51
261.8405049
0
ARC
8
DEFAULT_255_2_778
10
77.6735865
20
3.6918067
40
0.6076651
50
247.8576976
51
258.3445686
0
ARC
8
DEFAULT_255_2_778
10
77.6652468
20
3.6681988
40
0.5826561
50
245.6731465
51
247.7423123
0
ARC
8
DEFAULT_255_2_778
10
77.4873501
20
3.3311298
40
0.2035641
50
202.4229325
51
252.2310908
0
ARC
8
DEFAULT_255_2_778
10
77.3879356
20
3.2735472
40
0.0909987
50
181.0645425
51
192.7382688
0
ARC
8
DEFAULT_255_2_778
10
76.7967521
20
3.2626762
40
0.499981
50
1.0291698
51
89.9197389
0
ARC
8
DEFAULT_255_2_778
10
72.3438387
20
3.2625886
40
0.5000684
50
90.078623
51
178.9609737
0
ARC
8
DEFAULT_255_2_778
10
71.6856883
20
3.3
40
0.1606837
50
289.4852675
51
349.840267
0
ARC
8
DEFAULT_255_2_778
10
71.5179042
20
3.5759657
40
0.4813739
50
294.2454132
51
297.3804732
0
ARC
8
DEFAULT_255_2_778
10
71.4778671
20
3.6642324
40
0.578296
50
292.1873209
51
294.2711046
0
ARC
8
DEFAULT_255_2_778
10
71.4670351
20
3.6916115
40
0.6077387
50
281.6817813
51
292.1581452
0
ARC
8
DEFAULT_255_2_778
10
71.4019777
20
3.9998064
40
0.9227234
50
278.2607144
51
281.7629922
0
ARC
8
DEFAULT_255_2_778
10
71.3589325
20
4.28556
40
1.2116979
50
270.0202169
51
278.3336391
0
ARC
8
DEFAULT_255_2_778
10
71.3593782
20
4.2722798
40
1.1984175
50
269.2816093
51
269.9991305
0
ARC
8
DEFAULT_255_2_778
10
98.0298722
20
35.7095695
40
0.1633388
50
305.5987208
51
3.2243056
0
ARC
8
DEFAULT_255_2_778
10
98.0477834
20
35.6958429
40
0.1419036
50
269.3400282
51
302.9436056
0
ARC
8
DEFAULT_255_2_778
10
98.0468579
20
35.7332235
40
0.1792761
50
256.0215211
51
269.7734064
0
ARC
8
DEFAULT_255_2_778
10
96.546858
20
32.9786429
40
0.9555497
50
89.5026493
51
89.9999264
0
ARC
8
DEFAULT_255_2_778
10
96.5449831
20
33.0475284
40
0.8866661
50
89.8787649
51
100.4966222
0
ARC
8
DEFAULT_255_2_778
10
98.0295142
20
30.6309039
40
0.1634004
50
305.6082402
51
3.246151
0
ARC
8
DEFAULT_255_2_778
10
98.0473465
20
30.6177478
40
0.1424859
50
269.3639811
51
302.8575498
0
ARC
8
DEFAULT_255_2_778
10
98.0464731
20
30.6545672
40
0.1792978
50
256.0512132
51
269.773675
0
ARC
8
DEFAULT_255_2_778
10
98.0203816
20
29.7315976
40
0.1720709
50
355.9110177
51
359.9863276
0
ARC
8
DEFAULT_255_2_778
10
97.9980088
20
29.7348217
40
0.1946235
50
315.8490525
51
355.4339274
0
ARC
8
DEFAULT_255_2_778
10
97.992089
20
29.7463456
40
0.2069395
50
277.8599209
51
314.7013217
0
ARC
8
DEFAULT_255_2_778
10
97.9942065
20
29.7299531
40
0.1904115
50
272.7230055
51
277.9032718
0
ARC
8
DEFAULT_255_2_778
10
96.546658
20
27.9002416
40
0.955551
50
89.5026495
51
89.9999265
0
ARC
8
DEFAULT_255_2_778
10
96.5448498
20
27.967305
40
0.8884893
50
89.8833111
51
100.4857665
0
ARC
8
DEFAULT_255_2_778
10
98.0507968
20
27.3888339
40
0.1944021
50
90.2753937
51
104.2474357
0
ARC
8
DEFAULT_255_2_778
10
98.0528272
20
27.4421922
40
0.1410728
50
50.1876649
51
91.2042189
0
ARC
8
DEFAULT_255_2_778
10
98.0427807
20
27.4393815
40
0.1497811
50
357.8094976
51
47.9234369
0
ARC
8
DEFAULT_255_2_778
10
96.1932473
20
27.3713507
40
0.198498
50
179.9810458
51
267.4027783
0
ARC
8
DEFAULT_255_2_778
10
96.1979588
20
27.3714161
40
0.2032095
50
179.6784431
51
179.9999317
0
ARC
8
DEFAULT_255_2_778
10
96.202888
20
30.6716309
40
0.2082882
50
95.2159639
51
182.1941157
0
ARC
8
DEFAULT_255_2_778
10
98.0503952
20
32.4701175
40
0.1933991
50
90.2639922
51
104.2612595
0
ARC
8
DEFAULT_255_2_778
10
98.052427
20
32.5218515
40
0.1416931
50
50.2913639
51
91.1820216
0
ARC
8
DEFAULT_255_2_778
10
98.0424986
20
32.5197696
40
0.1497708
50
357.7373207
51
47.8775138
0
ARC
8
DEFAULT_255_2_778
10
96.1929587
20
32.4514627
40
0.1984106
50
180.0100788
51
267.3983588
0
ARC
8
DEFAULT_255_2_778
10
96.1953146
20
32.4514576
40
0.2007665
50
179.6292869
51
180.008507
0
ARC
8
DEFAULT_255_2_778
10
96.2026818
20
35.7503362
40
0.2082822
50
95.2144074
51
182.1956256
0
ARC
8
DEFAULT_255_2_778
10
98.0500878
20
62.9400337
40
0.1947388
50
90.2663328
51
104.1588458
0
ARC
8
DEFAULT_255_2_778
10
98.052182
20
62.9931193
40
0.1416827
50
50.3167829
51
91.2130627
0
ARC
8
DEFAULT_255_2_778
10
98.0420513
20
62.9910077
40
0.1499155
50
357.763182
51
47.8516378
0
ARC
8
DEFAULT_255_2_778
10
96.1926778
20
62.9227854
40
0.1984296
50
180.0161821
51
267.421992
0
ARC
8
DEFAULT_255_2_778
10
96.1945377
20
62.9227591
40
0.2002896
50
179.6288404
51
180.0085174
0
ARC
8
DEFAULT_255_2_778
10
96.2023125
20
66.2210972
40
0.2082153
50
95.1969369
51
182.2131296
0
ARC
8
DEFAULT_255_2_778
10
98.0285724
20
71.2605695
40
0.1633387
50
305.5986768
51
3.2243102
0
ARC
8
DEFAULT_255_2_778
10
98.0464749
20
71.2468704
40
0.1419313
50
269.3315121
51
302.940466
0
ARC
8
DEFAULT_255_2_778
10
98.0455423
20
71.2849099
40
0.1799625
50
256.0482386
51
269.7697063
0
ARC
8
DEFAULT_255_2_778
10
96.5442761
20
68.5644175
40
0.9207889
50
89.4041
51
90.0011008
0
ARC
8
DEFAULT_255_2_778
10
96.5431128
20
68.6054956
40
0.8797116
50
89.9253873
51
100.5427658
0
ARC
8
DEFAULT_255_2_778
10
98.0280911
20
66.1819628
40
0.1635201
50
305.6313144
51
3.2231045
0
ARC
8
DEFAULT_255_2_778
10
98.0460034
20
66.1688941
40
0.1426321
50
269.3640901
51
302.8402081
0
ARC
8
DEFAULT_255_2_778
10
98.045103
20
66.2049988
40
0.1787293
50
256.0290969
51
269.7811836
0
ARC
8
DEFAULT_255_2_778
10
98.0181924
20
65.2825949
40
0.1728601
50
355.9306298
51
359.9873036
0
ARC
8
DEFAULT_255_2_778
10
97.9967937
20
65.285625
40
0.1944257
50
315.8732129
51
355.4874126
0
ARC
8
DEFAULT_255_2_778
10
97.990789
20
65.2973456
40
0.2069395
50
277.8599209
51
314.7013217
0
ARC
8
DEFAULT_255_2_778
10
97.9929065
20
65.2809531
40
0.1904115
50
272.7230055
51
277.9032718
0
ARC
8
DEFAULT_255_2_778
10
96.5439917
20
63.488712
40
0.9177943
50
89.4031311
51
90.0011534
0
ARC
8
DEFAULT_255_2_778
10
96.5428817
20
63.5260438
40
0.8804633
50
89.9289681
51
100.5382214
0
ARC
8
DEFAULT_255_2_778
10
98.0492952
20
68.0190175
40
0.1933991
50
90.2639922
51
104.2612595
0
ARC
8
DEFAULT_255_2_778
10
98.051327
20
68.0707515
40
0.1416931
50
50.2913639
51
91.1820216
0
ARC
8
DEFAULT_255_2_778
10
98.0413983
20
68.0686695
40
0.1497711
50
357.7373925
51
47.877489
0
ARC
8
DEFAULT_255_2_778
10
96.1918778
20
68.0003854
40
0.1984296
50
180.0161821
51
267.421992
0
ARC
8
DEFAULT_255_2_778
10
96.1937377
20
68.0003591
40
0.2002896
50
179.6288404
51
180.0085174
0
ARC
8
DEFAULT_255_2_778
10
96.2014167
20
71.2992851
40
0.2081191
50
95.1728603
51
182.2108218
0
ARC
8
DEFAULT_255_2_778
10
25.712185
20
98.3601559
40
0.4975006
50
44.8072487
51
89.9922213
0
ARC
8
DEFAULT_255_2_778
10
25.7136728
20
98.357846
40
0.4980802
50
359.9321962
51
45.1163893
0
ARC
8
DEFAULT_255_2_778
10
0.7961983
20
72.2782206
40
1.1732802
50
264.0505093
51
269.6998755
0
ARC
8
DEFAULT_255_2_778
10
0.7365506
20
71.6502365
40
0.5425265
50
257.2647402
51
263.4416394
0
ARC
8
DEFAULT_255_2_778
10
0.6685439
20
71.3968544
40
0.2805818
50
226.8783912
51
259.4045745
0
ARC
8
DEFAULT_255_2_778
10
0.6517938
20
71.3482592
40
0.2346033
50
178.6817289
51
221.7449642
0
ARC
8
DEFAULT_255_2_778
10
0.6917664
20
71.3536565
40
0.2745139
50
179.8043681
51
179.9999997
0
ARC
8
DEFAULT_255_2_778
10
0.6526783
20
71.3590494
40
0.2354663
50
138.3430534
51
181.0842187
0
ARC
8
DEFAULT_255_2_778
10
0.6679681
20
71.3115087
40
0.2796407
50
100.511485
51
133.1405433
0
ARC
8
DEFAULT_255_2_778
10
0.74652
20
71.0087898
40
0.5920191
50
94.1669171
51
102.6419052
0
ARC
8
DEFAULT_255_2_778
10
0.7990033
20
70.2763276
40
1.326359
50
90.3866574
51
94.1289962
0
ARC
8
DEFAULT_255_2_778
10
45.0082715
20
71.4542622
40
0.1493943
50
44.9222531
51
90.0072899
0
ARC
8
DEFAULT_255_2_778
10
45.0083878
20
71.4537636
40
0.1496647
50
359.9590114
51
45.0888658
0
ARC
8
DEFAULT_255_2_778
10
45.0073413
20
71.2539835
40
0.1507116
50
315.0764217
51
359.8757173
0
ARC
8
DEFAULT_255_2_778
10
45.0086174
20
71.2522176
40
0.1485615
50
269.8592705
51
315.21108
0
ARC
8
DEFAULT_255_2_778
10
85.5830051
20
3.3124198
40
0.2107186
50
295.4513693
51
352.5661057
0
ARC
8
DEFAULT_255_2_778
10
85.3429429
20
3.6591031
40
0.6305751
50
293.979105
51
301.6218668
0
ARC
8
DEFAULT_255_2_778
10
85.2485451
20
3.8620174
40
0.8543486
50
292.1565236
51
294.2329781
0
ARC
8
DEFAULT_255_2_778
10
85.2249346
20
3.9221206
40
0.9189183
50
281.7860466
51
292.1066311
0
ARC
8
DEFAULT_255_2_778
10
85.14974
20
4.2791805
40
1.2838097
50
277.9973278
51
281.8162629
0
ARC
8
DEFAULT_255_2_778
10
85.0593804
20
4.8426923
40
1.8544455
50
271.9266854
51
278.3396997
0
ARC
8
DEFAULT_255_2_778
10
85.0661909
20
4.6820155
40
1.6936312
50
270.010222
51
271.8791686
0
ARC
8
DEFAULT_255_2_778
10
85.0664082
20
4.5995732
40
1.6111888
50
269.1623
51
270.0030149
0
LINE
8
DEFAULT_255_2_778
10
70.9249525
20
-0.2446435
11
71.2930525
21
-0.2446435
0
LINE
8
DEFAULT_255_2_778
10
77.8465525
20
-0.2446435
11
78.2843525
21
-0.2446435
0
LINE
8
DEFAULT_255_2_778
10
84.8378525
20
-0.2446435
11
84.9952525
21
-0.2446435
0
LINE
8
DEFAULT_255_2_778
10
81.7787525
20
11.0022565
11
81.7792525
21
10.9080565
0
LINE
8
DEFAULT_255_2_778
10
81.7792525
20
10.9080565
11
81.5347525
21
7.3985565
0
LINE
8
DEFAULT_255_2_778
10
81.5347525
20
7.3985565
11
81.0267525
21
7.3956565
0
LINE
8
DEFAULT_255_2_778
10
81.0267525
20
7.3956565
11
77.0265525
21
7.4189565
0
LINE
8
DEFAULT_255_2_778
10
77.0265525
20
7.4189565
11
77.0265525
21
10.9651565
0
LINE
8
DEFAULT_255_2_778
10
77.0265525
20
10.9651565
11
81.0267525
21
10.8953565
0
LINE
8
DEFAULT_255_2_778
10
81.0267525
20
10.8953565
11
81.7792525
21
10.9085565
0
LINE
8
DEFAULT_255_2_778
10
82.0496525
20
10.7468565
11
81.8297525
21
7.5906565
0
LINE
8
DEFAULT_255_2_778
10
84.8240525
20
5.0440565
11
84.8246525
21
5.0382565
0
LINE
8
DEFAULT_255_2_778
10
84.8246525
20
5.0382565
11
84.8251525
21
5.0207565
0
LINE
8
DEFAULT_255_2_778
10
84.8251525
20
5.0207565
11
84.8254525
21
4.9921565
0
LINE
8
DEFAULT_255_2_778
10
84.8254525
20
4.9921565
11
84.8254525
21
4.9525565
0
LINE
8
DEFAULT_255_2_778
10
84.8254525
20
4.9525565
11
84.8251525
21
4.9027565
0
LINE
8
DEFAULT_255_2_778
10
84.8251525
20
4.9027565
11
84.8246525
21
4.8434565
0
LINE
8
DEFAULT_255_2_778
10
84.8246525
20
4.8434565
11
84.8230525
21
4.7003565
0
LINE
8
DEFAULT_255_2_778
10
84.8230525
20
4.7003565
11
84.8206525
21
4.5323565
0
LINE
8
DEFAULT_255_2_778
10
84.8206525
20
4.5323565
11
84.8177525
21
4.3495565
0
LINE
8
DEFAULT_255_2_778
10
84.8177525
20
4.3495565
11
84.8108525
21
3.9849565
0
LINE
8
DEFAULT_255_2_778
10
85.0561525
20
3.7306565
11
85.0431525
21
2.9895565
0
LINE
8
DEFAULT_255_2_778
10
85.0431525
20
2.9895565
11
84.7875525
21
2.9895565
0
LINE
8
DEFAULT_255_2_778
10
84.7875525
20
2.9895565
11
84.7859525
21
3.0760565
0
LINE
8
DEFAULT_255_2_778
10
84.1324525
20
3.9968565
11
84.8105525
21
3.9849565
0
LINE
8
DEFAULT_255_2_778
10
72.5529525
20
5.2644565
11
72.5931525
21
5.2644565
0
LINE
8
DEFAULT_255_2_778
10
85.5210525
20
4.7276565
11
85.5210525
21
7.5226565
0
LINE
8
DEFAULT_255_2_778
10
85.5210525
20
7.5226565
11
85.3212525
21
7.7261565
0
LINE
8
DEFAULT_255_2_778
10
85.3212525
20
7.7261565
11
81.8408525
21
7.7565565
0
LINE
8
DEFAULT_255_2_778
10
85.8273525
20
5.2469565
11
85.5207525
21
5.2525565
0
LINE
8
DEFAULT_255_2_778
10
71.3443525
20
3.0758565
11
71.3427525
21
2.9892565
0
LINE
8
DEFAULT_255_2_778
10
71.3427525
20
2.9892565
11
70.8741525
21
2.9892565
0
LINE
8
DEFAULT_255_2_778
10
70.8741525
20
2.9892565
11
70.7588525
21
9.6380565
0
LINE
8
DEFAULT_255_2_778
10
70.7588525
20
9.6380565
11
71.4755525
21
9.6380565
0
LINE
8
DEFAULT_255_2_778
10
71.4755525
20
9.6380565
11
71.4755525
21
5.3475565
0
LINE
8
DEFAULT_255_2_778
10
72.6040525
20
4.1981565
11
79.3461525
21
4.0701565
0
LINE
8
DEFAULT_255_2_778
10
78.3354525
20
3.0760565
11
78.3338525
21
2.9895565
0
LINE
8
DEFAULT_255_2_778
10
78.3338525
20
2.9895565
11
77.7954525
21
2.9895565
0
LINE
8
DEFAULT_255_2_778
10
77.7954525
20
2.9895565
11
77.7938525
21
3.0760565
0
LINE
8
DEFAULT_255_2_778
10
76.7955525
20
4.0584565
11
76.7955525
21
3.5250565
0
LINE
8
DEFAULT_255_2_778
10
76.7955525
20
3.5250565
11
72.3428525
21
3.5250565
0
LINE
8
DEFAULT_255_2_778
10
72.3428525
20
3.5250565
11
72.3428525
21
4.0584565
0
LINE
8
DEFAULT_255_2_778
10
72.3428525
20
4.0584565
11
76.7958525
21
4.0584565
0
LINE
8
DEFAULT_255_2_778
10
1.1675525
20
10.1145565
11
1.2691525
21
13.5059565
0
LINE
8
DEFAULT_255_2_778
10
1.2691525
20
13.5059565
11
21.3103525
21
10.2161565
0
LINE
8
DEFAULT_255_2_778
10
21.3103525
20
10.2161565
11
1.1678525
21
10.1145565
0
LINE
8
DEFAULT_255_2_778
10
1.2713525
20
9.9801565
11
1.3078525
21
9.9692565
0
LINE
8
DEFAULT_255_2_778
10
1.3078525
20
9.9692565
11
1.2117525
21
9.8732565
0
LINE
8
DEFAULT_255_2_778
10
1.2117525
20
9.8732565
11
71.2263525
21
9.8732565
0
LINE
8
DEFAULT_255_2_778
10
71.2263525
20
9.8732565
11
71.1303525
21
9.9692565
0
LINE
8
DEFAULT_255_2_778
10
71.1303525
20
9.9692565
11
50.9878525
21
10.0708565
0
LINE
8
DEFAULT_255_2_778
10
50.9878525
20
10.0708565
11
21.4505525
21
10.0708565
0
LINE
8
DEFAULT_255_2_778
10
21.4505525
20
10.0708565
11
1.3075525
21
9.9692565
0
LINE
8
DEFAULT_255_2_778
10
71.1686525
20
13.5059565
11
71.2702525
21
10.1145565
0
LINE
8
DEFAULT_255_2_778
10
71.2702525
20
10.1145565
11
51.1278525
21
10.2161565
0
LINE
8
DEFAULT_255_2_778
10
51.1278525
20
10.2161565
11
71.1689525
21
13.5059565
0
LINE
8
DEFAULT_255_2_778
10
71.1689525
20
13.5059565
11
71.0289525
21
14.3600565
0
LINE
8
DEFAULT_255_2_778
10
71.0289525
20
14.3600565
11
71.0289525
21
44.3172565
0
LINE
8
DEFAULT_255_2_778
10
71.0289525
20
44.3172565
11
1.4094525
21
44.3172565
0
LINE
8
DEFAULT_255_2_778
10
0.4108525
20
43.3176565
11
72.0275525
21
43.3176565
0
LINE
8
DEFAULT_255_2_778
10
72.0275525
20
43.3176565
11
72.0272525
21
14.3603565
0
LINE
8
DEFAULT_255_2_778
10
89.7299525
20
9.9364565
11
90.4324525
21
9.9518565
0
LINE
8
DEFAULT_255_2_778
10
90.4324525
20
9.9518565
11
90.4324525
21
9.8732565
0
LINE
8
DEFAULT_255_2_778
10
36.9019525
20
9.7221565
11
36.9019525
21
9.6766565
0
LINE
8
DEFAULT_255_2_778
10
36.9019525
20
9.6766565
11
36.0547525
21
9.6766565
0
LINE
8
DEFAULT_255_2_778
10
36.0547525
20
9.6766565
11
36.0690525
21
8.8646565
0
LINE
8
DEFAULT_255_2_778
10
36.0690525
20
8.8646565
11
56.2445525
21
8.8646565
0
LINE
8
DEFAULT_255_2_778
10
56.2445525
20
8.8646565
11
56.2445525
21
8.3735565
0
LINE
8
DEFAULT_255_2_778
10
56.2445525
20
8.3735565
11
36.0690525
21
8.3735565
0
LINE
8
DEFAULT_255_2_778
10
36.0690525
20
8.3735565
11
36.0690525
21
8.8646565
0
LINE
8
DEFAULT_255_2_778
10
36.0690525
20
8.8646565
11
35.8780525
21
8.8619565
0
LINE
8
DEFAULT_255_2_778
10
35.8780525
20
8.8619565
11
35.7917525
21
8.8611565
0
LINE
8
DEFAULT_255_2_778
10
35.7917525
20
8.8611565
11
35.7160525
21
8.8609565
0
LINE
8
DEFAULT_255_2_778
10
35.7160525
20
8.8609565
11
35.6539525
21
8.8611565
0
LINE
8
DEFAULT_255_2_778
10
35.6539525
20
8.8611565
11
35.6076525
21
8.8619565
0
LINE
8
DEFAULT_255_2_778
10
35.6076525
20
8.8619565
11
35.5792525
21
8.8630565
0
LINE
8
DEFAULT_255_2_778
10
35.5792525
20
8.8630565
11
35.5695525
21
8.8646565
0
LINE
8
DEFAULT_255_2_778
10
35.5695525
20
8.8646565
11
35.5552525
21
9.6766565
0
LINE
8
DEFAULT_255_2_778
10
55.4111525
20
9.7218565
11
36.9022525
21
9.7218565
0
LINE
8
DEFAULT_255_2_778
10
36.9022525
20
9.7218565
11
36.9040525
21
9.8729565
0
LINE
8
DEFAULT_255_2_778
10
72.2251525
20
9.8515565
11
72.6177525
21
9.8515565
0
LINE
8
DEFAULT_255_2_778
10
72.6177525
20
9.8515565
11
76.7323525
21
9.6356565
0
LINE
8
DEFAULT_255_2_778
10
86.4380525
20
9.8729565
11
96.3427525
21
9.8729565
0
LINE
8
DEFAULT_255_2_778
10
96.3427525
20
9.8729565
11
96.3427525
21
27.1679565
0
LINE
8
DEFAULT_255_2_778
10
72.2592525
20
12.1200565
11
72.4376525
21
12.1200565
0
LINE
8
DEFAULT_255_2_778
10
85.8755525
20
11.6192565
11
85.6458525
21
11.6231565
0
LINE
8
DEFAULT_255_2_778
10
85.6458525
20
11.6231565
11
85.6493525
21
11.8234565
0
LINE
8
DEFAULT_255_2_778
10
85.8967525
20
9.1887565
11
84.9156525
21
9.2062565
0
LINE
8
DEFAULT_255_2_778
10
84.9156525
20
9.2062565
11
81.9536525
21
9.3615565
0
LINE
8
DEFAULT_255_2_778
10
85.9154525
20
10.1880565
11
85.9146525
21
10.1880565
0
LINE
8
DEFAULT_255_2_778
10
85.9146525
20
10.1880565
11
85.8069525
21
4.0272565
0
LINE
8
DEFAULT_255_2_778
10
84.8243525
20
5.0443565
11
72.6180525
21
5.2575565
0
LINE
8
DEFAULT_255_2_778
10
72.2254525
20
5.6573565
11
72.2254525
21
10.8722565
0
LINE
8
DEFAULT_255_2_778
10
98.0042525
20
33.5894565
11
98.0042525
21
32.6580565
0
LINE
8
DEFAULT_255_2_778
10
98.0042525
20
32.6580565
11
96.3427525
21
32.2466565
0
LINE
8
DEFAULT_255_2_778
10
96.3427525
20
32.2466565
11
96.1855525
21
32.2540565
0
LINE
8
DEFAULT_255_2_778
10
96.1855525
20
32.2540565
11
96.1855525
21
33.6846565
0
LINE
8
DEFAULT_255_2_778
10
96.1855525
20
33.6846565
11
98.0042525
21
33.5891565
0
LINE
8
DEFAULT_255_2_778
10
98.0042525
20
33.5891565
11
98.0042525
21
33.6002565
0
LINE
8
DEFAULT_255_2_778
10
0.2677525
20
44.8826565
11
0.2677525
21
43.4610565
0
LINE
8
DEFAULT_255_2_778
10
0.2677525
20
43.4610565
11
0.4108525
21
43.3178565
0
LINE
8
DEFAULT_255_2_778
10
0.4108525
20
43.3178565
11
0.4108525
21
14.3594565
0
LINE
8
DEFAULT_255_2_778
10
0.4108525
20
14.3594565
11
1.4094525
21
14.3594565
0
LINE
8
DEFAULT_255_2_778
10
1.4094525
20
14.3594565
11
21.4505525
21
11.0696565
0
LINE
8
DEFAULT_255_2_778
10
21.4505525
20
11.0696565
11
50.9878525
21
11.0696565
0
LINE
8
DEFAULT_255_2_778
10
50.9878525
20
11.0696565
11
71.0289525
21
14.3594565
0
LINE
8
DEFAULT_255_2_778
10
71.0289525
20
14.3594565
11
72.0275525
21
14.3594565
0
LINE
8
DEFAULT_255_2_778
10
72.0275525
20
14.3594565
11
72.1291525
21
10.9680565
0
LINE
8
DEFAULT_255_2_778
10
72.1291525
20
10.9680565
11
72.2251525
21
10.8720565
0
LINE
8
DEFAULT_255_2_778
10
72.2251525
20
10.8720565
11
72.2251525
21
98.4776565
0
LINE
8
DEFAULT_255_2_778
10
72.7201525
20
98.9774565
11
72.7201525
21
98.7774565
0
LINE
8
DEFAULT_255_2_778
10
1.3514525
20
44.3751565
11
1.4094525
21
44.3172565
0
LINE
8
DEFAULT_255_2_778
10
1.4094525
20
44.3172565
11
1.4094525
21
14.3592565
0
LINE
8
DEFAULT_255_2_778
10
1.4094525
20
14.3592565
11
1.2694525
21
13.5051565
0
LINE
8
DEFAULT_255_2_778
10
0.4108525
20
14.3592565
11
0.3092525
21
10.9680565
0
LINE
8
DEFAULT_255_2_778
10
0.3092525
20
10.9680565
11
0.2132525
21
10.8720565
0
LINE
8
DEFAULT_255_2_778
10
0.2132525
20
10.8720565
11
0.2132525
21
45.1289565
0
LINE
8
DEFAULT_255_2_778
10
72.2248525
20
37.1956565
11
72.4370525
21
37.1956565
0
LINE
8
DEFAULT_255_2_778
10
72.4370525
20
30.9964565
11
72.2248525
21
30.9964565
0
LINE
8
DEFAULT_255_2_778
10
72.4370525
20
30.4967565
11
72.2248525
21
30.4967565
0
LINE
8
DEFAULT_255_2_778
10
72.4370525
20
30.4281565
11
72.2248525
21
30.4281565
0
LINE
8
DEFAULT_255_2_778
10
72.4370525
20
30.1781565
11
72.2248525
21
30.1781565
0
LINE
8
DEFAULT_255_2_778
10
98.1929525
20
27.4156565
11
98.1929525
21
9.8676565
0
LINE
8
DEFAULT_255_2_778
10
98.1929525
20
9.8676565
11
96.3334525
21
9.8676565
0
LINE
8
DEFAULT_255_2_778
10
0.2267525
20
45.8830565
11
0.2135525
21
45.8832565
0
LINE
8
DEFAULT_255_2_778
10
0.2135525
20
45.8832565
11
0.2270525
21
45.1117565
0
LINE
8
DEFAULT_255_2_778
10
0.2270525
20
45.1117565
11
0.2272525
21
45.0987565
0
LINE
8
DEFAULT_255_2_778
10
0.2272525
20
45.0987565
11
0.2320525
21
45.0376565
0
LINE
8
DEFAULT_255_2_778
10
0.3063525
20
44.7889565
11
0.3148525
21
44.7725565
0
LINE
8
DEFAULT_255_2_778
10
0.2677525
20
97.8135565
11
0.2677525
21
99.8566565
0
LINE
8
DEFAULT_255_2_778
10
0.2677525
20
99.8566565
11
0.4108525
21
99.9998565
0
LINE
8
DEFAULT_255_2_778
10
0.4108525
20
99.9998565
11
0.4108525
21
131.6381565
0
LINE
8
DEFAULT_255_2_778
10
0.4108525
20
131.6381565
11
0.2135525
21
131.8358565
0
LINE
8
DEFAULT_255_2_778
10
0.2135525
20
131.8358565
11
0.2135525
21
97.5786565
0
LINE
8
DEFAULT_255_2_778
10
63.1171525
20
98.3324565
11
63.1171525
21
97.5826565
0
LINE
8
DEFAULT_255_2_778
10
63.1171525
20
97.5826565
11
0.9755525
21
97.5826565
0
LINE
8
DEFAULT_255_2_778
10
0.9755525
20
97.5826565
11
0.9755525
21
71.6036565
0
LINE
8
DEFAULT_255_2_778
10
0.9755525
20
71.6036565
11
45.0082525
21
71.6036565
0
LINE
8
DEFAULT_255_2_778
10
45.0082525
20
71.6036565
11
45.0082525
21
71.1038565
0
LINE
8
DEFAULT_255_2_778
10
45.0082525
20
71.1038565
11
0.9755525
21
71.1038565
0
LINE
8
DEFAULT_255_2_778
10
0.9755525
20
71.1038565
11
0.9755525
21
45.1249565
0
LINE
8
DEFAULT_255_2_778
10
0.9755525
20
45.1249565
11
63.1168525
21
45.1249565
0
LINE
8
DEFAULT_255_2_778
10
63.1168525
20
45.1249565
11
63.1168525
21
44.3751565
0
LINE
8
DEFAULT_255_2_778
10
0.9757525
20
97.5828565
11
0.9757525
21
98.3326565
0
LINE
8
DEFAULT_255_2_778
10
0.9757525
20
98.3326565
11
63.1645525
21
98.3326565
0
LINE
8
DEFAULT_255_2_778
10
63.1645525
20
98.3326565
11
63.2623525
21
98.3319565
0
LINE
8
DEFAULT_255_2_778
10
63.2623525
20
98.3319565
11
63.3121525
21
98.3311565
0
LINE
8
DEFAULT_255_2_778
10
63.8407525
20
97.5855565
11
63.1166525
21
97.5828565
0
LINE
8
DEFAULT_255_2_778
10
63.1166525
20
97.5828565
11
63.1531525
21
91.4765565
0
LINE
8
DEFAULT_255_2_778
10
2.2108525
20
98.9555565
11
1.9155525
21
98.8570565
0
LINE
8
DEFAULT_255_2_778
10
1.9155525
20
98.8570565
11
1.9155525
21
98.3324565
0
LINE
8
DEFAULT_255_2_778
10
2.1110525
20
98.9221565
11
2.1110525
21
98.3324565
0
LINE
8
DEFAULT_255_2_778
10
63.3116525
20
44.3764565
11
67.2697525
21
44.4492565
0
LINE
8
DEFAULT_255_2_778
10
67.7857525
20
44.6953565
11
67.8335525
21
44.7574565
0
LINE
8
DEFAULT_255_2_778
10
67.9428525
20
44.9987565
11
67.9785525
21
45.1424565
0
LINE
8
DEFAULT_255_2_778
10
65.1142525
20
50.6008565
11
63.8328525
21
51.2276565
0
LINE
8
DEFAULT_255_2_778
10
63.8328525
20
51.2276565
11
63.8407525
21
45.1220565
0
LINE
8
DEFAULT_255_2_778
10
63.8407525
20
45.1220565
11
67.9783525
21
45.1427565
0
LINE
8
DEFAULT_255_2_778
10
67.9783525
20
45.1427565
11
68.0026525
21
45.1247565
0
LINE
8
DEFAULT_255_2_778
10
0.9755525
20
45.1247565
11
0.9755525
21
44.3748565
0
LINE
8
DEFAULT_255_2_778
10
0.9755525
20
44.3748565
11
63.1599525
21
44.3748565
0
LINE
8
DEFAULT_255_2_778
10
63.1599525
20
44.3748565
11
63.2584525
21
44.3754565
0
LINE
8
DEFAULT_255_2_778
10
63.2584525
20
44.3754565
11
63.3118525
21
44.3762565
0
LINE
8
DEFAULT_255_2_778
10
63.8405525
20
45.1218565
11
63.1163525
21
45.1244565
0
LINE
8
DEFAULT_255_2_778
10
63.1163525
20
45.1244565
11
63.1528525
21
51.2307565
0
LINE
8
DEFAULT_255_2_778
10
2.2153525
20
44.3606565
11
2.3756525
21
44.3606565
0
LINE
8
DEFAULT_255_2_778
10
4.0436525
20
44.3606565
11
6.2060525
21
44.3621565
0
LINE
8
DEFAULT_255_2_778
10
65.5041525
20
44.4172565
11
71.1284525
21
44.4172565
0
LINE
8
DEFAULT_255_2_778
10
71.1284525
20
44.4172565
11
71.0287525
21
44.3174565
0
LINE
8
DEFAULT_255_2_778
10
72.0272525
20
43.3178565
11
72.1269525
21
43.4176565
0
LINE
8
DEFAULT_255_2_778
10
71.1284525
20
44.4172565
11
71.1591525
21
44.4225565
0
LINE
8
DEFAULT_255_2_778
10
71.1591525
20
44.4225565
11
71.2144525
21
44.4317565
0
LINE
8
DEFAULT_255_2_778
10
71.2144525
20
44.4317565
11
71.3393525
21
44.4553565
0
LINE
8
DEFAULT_255_2_778
10
71.3393525
20
44.4553565
11
71.4668525
21
44.4868565
0
LINE
8
DEFAULT_255_2_778
10
71.4668525
20
44.4868565
11
71.5917525
21
44.5296565
0
LINE
8
DEFAULT_255_2_778
10
71.9391525
20
44.9170565
11
71.9391525
21
50.1076565
0
LINE
8
DEFAULT_255_2_778
10
71.9391525
20
50.1076565
11
71.9468525
21
51.5215565
0
LINE
8
DEFAULT_255_2_778
10
71.9468525
20
51.5215565
11
71.9529525
21
51.8395565
0
LINE
8
DEFAULT_255_2_778
10
72.1545525
20
51.6662565
11
72.1846525
21
52.6661565
0
LINE
8
DEFAULT_255_2_778
10
72.1846525
20
52.6661565
11
72.1907525
21
53.2723565
0
LINE
8
DEFAULT_255_2_778
10
4.1034525
20
98.9571565
11
4.1034525
21
98.3326565
0
LINE
8
DEFAULT_255_2_778
10
73.1863525
20
46.6966565
11
72.7114525
21
46.6841565
0
LINE
8
DEFAULT_255_2_778
10
73.1924525
20
47.5570565
11
72.7114525
21
47.5443565
0
LINE
8
DEFAULT_255_2_778
10
72.7114525
20
47.5443565
11
72.7114525
21
52.1959565
0
LINE
8
DEFAULT_255_2_778
10
72.7114525
20
52.1959565
11
85.6950525
21
52.0544565
0
LINE
8
DEFAULT_255_2_778
10
85.6950525
20
52.0544565
11
85.6950525
21
48.2912565
0
LINE
8
DEFAULT_255_2_778
10
67.9685525
20
44.9170565
11
72.1391525
21
44.9170565
0
LINE
8
DEFAULT_255_2_778
10
72.1391525
20
44.9170565
11
72.1391525
21
50.1076565
0
LINE
8
DEFAULT_255_2_778
10
72.1391525
20
50.1076565
11
69.4375525
21
50.0824565
0
LINE
8
DEFAULT_255_2_778
10
69.4375525
20
50.0824565
11
69.4269525
21
51.1331565
0
LINE
8
DEFAULT_255_2_778
10
69.5399525
20
51.8152565
11
71.9534525
21
51.8395565
0
LINE
8
DEFAULT_255_2_778
10
71.9534525
20
51.8395565
11
71.9835525
21
52.8394565
0
LINE
8
DEFAULT_255_2_778
10
71.9835525
20
52.8394565
11
71.1641525
21
52.8394565
0
LINE
8
DEFAULT_255_2_778
10
71.1641525
20
52.8394565
11
69.5523525
21
51.8919565
0
LINE
8
DEFAULT_255_2_778
10
68.8903525
20
48.6706565
11
68.8625525
21
48.6857565
0
LINE
8
DEFAULT_255_2_778
10
68.9848525
20
49.3342565
11
69.0395525
21
49.7766565
0
LINE
8
DEFAULT_255_2_778
10
69.0395525
20
49.7766565
11
69.1602525
21
50.4494565
0
LINE
8
DEFAULT_255_2_778
10
69.1602525
20
50.4494565
11
69.3927525
21
51.8287565
0
LINE
8
DEFAULT_255_2_778
10
69.3927525
20
51.8287565
11
65.0774525
21
51.8287565
0
LINE
8
DEFAULT_255_2_778
10
65.0774525
20
51.8287565
11
69.0398525
21
49.7768565
0
LINE
8
DEFAULT_255_2_778
10
85.6956525
20
63.3592565
11
85.6956525
21
53.8774565
0
LINE
8
DEFAULT_255_2_778
10
85.6956525
20
53.8774565
11
72.7119525
21
54.0189565
0
LINE
8
DEFAULT_255_2_778
10
72.7119525
20
54.0189565
11
72.7119525
21
63.6995565
0
LINE
8
DEFAULT_255_2_778
10
72.7119525
20
63.6995565
11
85.6956525
21
63.3592565
0
LINE
8
DEFAULT_255_2_778
10
85.6956525
20
63.3592565
11
85.6956525
21
63.8138565
0
LINE
8
DEFAULT_255_2_778
10
21.4505525
20
10.0698565
11
21.4505525
21
11.0694565
0
LINE
8
DEFAULT_255_2_778
10
21.4505525
20
11.0694565
11
21.3105525
21
10.2153565
0
LINE
8
DEFAULT_255_2_778
10
21.5907525
20
98.3326565
11
21.5907525
21
98.3837565
0
LINE
8
DEFAULT_255_2_778
10
21.5907525
20
98.3837565
11
22.0900525
21
98.3837565
0
LINE
8
DEFAULT_255_2_778
10
22.5895525
20
98.8835565
11
22.6157525
21
98.8570565
0
LINE
8
DEFAULT_255_2_778
10
22.6157525
20
98.8570565
11
25.7122525
21
98.8570565
0
LINE
8
DEFAULT_255_2_778
10
25.7122525
20
98.8570565
11
25.7383525
21
98.8832565
0
LINE
8
DEFAULT_255_2_778
10
6.3965525
20
98.3324565
11
6.3965525
21
98.4988565
0
LINE
8
DEFAULT_255_2_778
10
6.3965525
20
98.4988565
11
21.5974525
21
98.4988565
0
LINE
8
DEFAULT_255_2_778
10
21.5974525
20
98.4988565
11
21.5974525
21
98.8986565
0
LINE
8
DEFAULT_255_2_778
10
21.5974525
20
98.8986565
11
6.3759525
21
98.8986565
0
LINE
8
DEFAULT_255_2_778
10
6.3759525
20
98.8986565
11
6.2015525
21
98.9568565
0
LINE
8
DEFAULT_255_2_778
10
6.2015525
20
98.9568565
11
4.0449525
21
98.9552565
0
LINE
8
DEFAULT_255_2_778
10
4.0449525
20
98.9552565
11
4.0449525
21
98.3321565
0
LINE
8
DEFAULT_255_2_778
10
22.1075525
20
98.3321565
11
22.1075525
21
98.3657565
0
LINE
8
DEFAULT_255_2_778
10
22.6070525
20
98.8655565
11
25.7209525
21
98.8655565
0
LINE
8
DEFAULT_255_2_778
10
81.8337525
20
66.3794565
11
81.8528525
21
66.3723565
0
LINE
8
DEFAULT_255_2_778
10
81.8528525
20
66.3723565
11
81.8345525
21
66.3898565
0
LINE
8
DEFAULT_255_2_778
10
96.0077525
20
64.8308565
11
96.3842525
21
64.7618565
0
LINE
8
DEFAULT_255_2_778
10
96.5559525
20
64.7470565
11
98.1058525
21
64.7631565
0
LINE
8
DEFAULT_255_2_778
10
98.1058525
20
64.7631565
11
98.1048525
21
64.8766565
0
LINE
8
DEFAULT_255_2_778
10
85.6958525
20
69.3110565
11
85.6958525
21
68.8112565
0
LINE
8
DEFAULT_255_2_778
10
85.6958525
20
68.8112565
11
85.6958525
21
63.8125565
0
LINE
8
DEFAULT_255_2_778
10
85.6958525
20
63.8125565
11
72.7122525
21
64.1527565
0
LINE
8
DEFAULT_255_2_778
10
72.7122525
20
64.1527565
11
72.7122525
21
69.1515565
0
LINE
8
DEFAULT_255_2_778
10
72.7122525
20
69.1515565
11
72.7082525
21
69.3428565
0
LINE
8
DEFAULT_255_2_778
10
72.7082525
20
69.3428565
11
72.7072525
21
69.4290565
0
LINE
8
DEFAULT_255_2_778
10
72.7072525
20
69.4290565
11
72.7069525
21
69.5047565
0
LINE
8
DEFAULT_255_2_778
10
72.7069525
20
69.5047565
11
72.7072525
21
69.5669565
0
LINE
8
DEFAULT_255_2_778
10
72.7072525
20
69.5669565
11
72.7082525
21
69.6132565
0
LINE
8
DEFAULT_255_2_778
10
72.7082525
20
69.6132565
11
72.7101525
21
69.6415565
0
LINE
8
DEFAULT_255_2_778
10
72.7101525
20
69.6415565
11
72.7125525
21
69.6510565
0
LINE
8
DEFAULT_255_2_778
10
26.2114525
20
98.3572565
11
26.2201525
21
98.3660565
0
LINE
8
DEFAULT_255_2_778
10
26.2201525
20
98.3660565
11
26.2201525
21
98.3324565
0
LINE
8
DEFAULT_255_2_778
10
85.9382525
20
68.8115565
11
85.6950525
21
68.8115565
0
LINE
8
DEFAULT_255_2_778
10
85.6950525
20
68.8115565
11
82.0097525
21
68.9081565
0
LINE
8
DEFAULT_255_2_778
10
72.2248525
20
69.1517565
11
72.7111525
21
69.1517565
0
LINE
8
DEFAULT_255_2_778
10
72.7111525
20
69.1517565
11
76.7318525
21
69.0464565
0
LINE
8
DEFAULT_255_2_778
10
85.5210525
20
63.8175565
11
85.5210525
21
66.2543565
0
LINE
8
DEFAULT_255_2_778
10
85.5210525
20
66.2543565
11
85.3212525
21
66.4578565
0
LINE
8
DEFAULT_255_2_778
10
85.3212525
20
66.4578565
11
81.8408525
21
66.4882565
0
LINE
8
DEFAULT_255_2_778
10
85.6945525
20
69.3113565
11
82.0472525
21
69.4068565
0
LINE
8
DEFAULT_255_2_778
10
96.1847525
20
64.1659565
11
98.0035525
21
64.0704565
0
LINE
8
DEFAULT_255_2_778
10
98.1926525
20
63.8707565
11
98.1926525
21
34.8096565
0
LINE
8
DEFAULT_255_2_778
10
98.0035525
20
34.6099565
11
96.1847525
21
34.5144565
0
LINE
8
DEFAULT_255_2_778
10
72.2619525
20
132.7113565
11
71.1022525
21
132.7113565
0
LINE
8
DEFAULT_255_2_778
10
71.1022525
20
132.7113565
11
71.0287525
21
132.6377565
0
LINE
8
DEFAULT_255_2_778
10
71.0287525
20
132.6377565
11
71.0287525
21
99.9998565
0
LINE
8
DEFAULT_255_2_778
10
71.0287525
20
99.9998565
11
0.4108525
21
99.9998565
0
LINE
8
DEFAULT_255_2_778
10
1.4094525
20
99.0002565
11
71.8277525
21
99.0002565
0
LINE
8
DEFAULT_255_2_778
10
71.8277525
20
99.0002565
11
71.9290525
21
98.8989565
0
LINE
8
DEFAULT_255_2_778
10
71.9290525
20
98.8989565
11
26.7303525
21
98.8989565
0
LINE
8
DEFAULT_255_2_778
10
26.7303525
20
98.8989565
11
26.7303525
21
98.4991565
0
LINE
8
DEFAULT_255_2_778
10
26.7303525
20
98.4991565
11
72.1391525
21
98.4991565
0
LINE
8
DEFAULT_255_2_778
10
72.1391525
20
98.4991565
11
72.1391525
21
93.2103565
0
LINE
8
DEFAULT_255_2_778
10
72.1391525
20
93.2103565
11
69.4375525
21
93.2354565
0
LINE
8
DEFAULT_255_2_778
10
69.4375525
20
93.2354565
11
69.4210525
21
91.6112565
0
LINE
8
DEFAULT_255_2_778
10
50.9875525
20
10.0700565
11
51.0240525
21
10.0809565
0
LINE
8
DEFAULT_255_2_778
10
51.1275525
20
10.2153565
11
50.9875525
21
11.0694565
0
LINE
8
DEFAULT_255_2_778
10
50.9875525
20
11.0694565
11
50.9875525
21
10.0700565
0
LINE
8
DEFAULT_255_2_778
10
72.4370525
20
83.6782565
11
72.3368525
21
83.6782565
0
LINE
8
DEFAULT_255_2_778
10
72.3368525
20
83.6782565
11
72.3368525
21
95.7747565
0
LINE
8
DEFAULT_255_2_778
10
85.5210525
20
88.4597565
11
85.9379525
21
88.4597565
0
LINE
8
DEFAULT_255_2_778
10
85.5210525
20
84.4608565
11
85.9379525
21
84.4608565
0
LINE
8
DEFAULT_255_2_778
10
69.5584525
20
90.7793565
11
70.8064525
21
90.0456565
0
LINE
8
DEFAULT_255_2_778
10
70.8064525
20
90.0456565
11
72.1910525
21
90.0456565
0
LINE
8
DEFAULT_255_2_778
10
72.1910525
20
90.0456565
11
72.1910525
21
53.2717565
0
LINE
8
DEFAULT_255_2_778
10
72.1910525
20
53.2717565
11
70.8064525
21
53.2717565
0
LINE
8
DEFAULT_255_2_778
10
70.8064525
20
53.2717565
11
70.8064525
21
60.5621565
0
LINE
8
DEFAULT_255_2_778
10
69.4396525
20
91.5035565
11
71.9534525
21
91.4781565
0
LINE
8
DEFAULT_255_2_778
10
71.9534525
20
91.4781565
11
71.9835525
21
90.4782565
0
LINE
8
DEFAULT_255_2_778
10
71.9835525
20
90.4782565
11
71.1641525
21
90.4782565
0
LINE
8
DEFAULT_255_2_778
10
71.1641525
20
90.4782565
11
69.4420525
21
91.4908565
0
LINE
8
DEFAULT_255_2_778
10
69.0395525
20
92.9314565
11
69.1639525
21
92.2364565
0
LINE
8
DEFAULT_255_2_778
10
69.1639525
20
92.2364565
11
69.3925525
21
90.8796565
0
LINE
8
DEFAULT_255_2_778
10
69.3925525
20
90.8796565
11
65.0768525
21
90.8796565
0
LINE
8
DEFAULT_255_2_778
10
70.4259525
20
0.2463565
11
70.4714525
21
0.0463565
0
LINE
8
DEFAULT_255_2_778
10
70.4714525
20
0.0463565
11
70.5934525
21
-0.1184435
0
LINE
8
DEFAULT_255_2_778
10
70.5934525
20
-0.1184435
11
70.7715525
21
-0.2203435
0
LINE
8
DEFAULT_255_2_778
10
70.7715525
20
-0.2203435
11
70.9252525
21
-0.2446435
0
LINE
8
DEFAULT_255_2_778
10
70.9252525
20
-0.2446435
11
70.8747525
21
2.9887565
0
LINE
8
DEFAULT_255_2_778
10
56.7443525
20
8.8638565
11
56.7345525
21
8.8622565
0
LINE
8
DEFAULT_255_2_778
10
56.7345525
20
8.8622565
11
56.7062525
21
8.8611565
0
LINE
8
DEFAULT_255_2_778
10
56.7062525
20
8.8611565
11
56.6599525
21
8.8603565
0
LINE
8
DEFAULT_255_2_778
10
56.6599525
20
8.8603565
11
56.5977525
21
8.8603565
0
LINE
8
DEFAULT_255_2_778
10
56.5977525
20
8.8603565
11
56.5221525
21
8.8603565
0
LINE
8
DEFAULT_255_2_778
10
56.5221525
20
8.8603565
11
56.4358525
21
8.8611565
0
LINE
8
DEFAULT_255_2_778
10
56.4358525
20
8.8611565
11
56.2448525
21
8.8638565
0
LINE
8
DEFAULT_255_2_778
10
56.2448525
20
8.8638565
11
56.2591525
21
9.6758565
0
LINE
8
DEFAULT_255_2_778
10
56.2591525
20
9.6758565
11
56.7583525
21
9.6758565
0
LINE
8
DEFAULT_255_2_778
10
96.3424525
20
71.5150565
11
96.3424525
21
96.6726565
0
LINE
8
DEFAULT_255_2_778
10
96.3424525
20
96.6726565
11
90.4327525
21
96.5695565
0
LINE
8
DEFAULT_255_2_778
10
86.9545525
20
95.9310565
11
86.9545525
21
10.3206565
0
LINE
8
DEFAULT_255_2_778
10
86.9545525
20
10.3206565
11
89.7458525
21
10.3693565
0
LINE
8
DEFAULT_255_2_778
10
89.7458525
20
10.3693565
11
89.7458525
21
97.4876565
0
LINE
8
DEFAULT_255_2_778
10
89.7458525
20
97.4876565
11
97.7026525
21
97.6265565
0
LINE
8
DEFAULT_255_2_778
10
97.7026525
20
97.6265565
11
98.1934525
21
97.6265565
0
LINE
8
DEFAULT_255_2_778
10
97.7026525
20
97.1267565
11
90.4070525
21
96.9991565
0
LINE
8
DEFAULT_255_2_778
10
73.1951525
20
96.4221565
11
72.7199525
21
96.4303565
0
LINE
8
DEFAULT_255_2_778
10
72.7199525
20
96.4303565
11
72.7199525
21
98.7769565
0
LINE
8
DEFAULT_255_2_778
10
72.7199525
20
98.7769565
11
97.7024525
21
98.9952565
0
LINE
8
DEFAULT_255_2_778
10
97.7024525
20
98.9952565
11
97.7024525
21
97.6262565
0
LINE
8
DEFAULT_255_2_778
10
97.7024525
20
97.6262565
11
97.7050525
21
97.4349565
0
LINE
8
DEFAULT_255_2_778
10
97.7050525
20
97.4349565
11
97.7058525
21
97.3484565
0
LINE
8
DEFAULT_255_2_778
10
97.7058525
20
97.3484565
11
97.7061525
21
97.2727565
0
LINE
8
DEFAULT_255_2_778
10
97.7061525
20
97.2727565
11
97.7058525
21
97.2105565
0
LINE
8
DEFAULT_255_2_778
10
97.7058525
20
97.2105565
11
97.7050525
21
97.1642565
0
LINE
8
DEFAULT_255_2_778
10
97.7050525
20
97.1642565
11
97.7039525
21
97.1359565
0
LINE
8
DEFAULT_255_2_778
10
97.7039525
20
97.1359565
11
97.7024525
21
97.1261565
0
LINE
8
DEFAULT_255_2_778
10
98.0468525
20
96.6875565
11
96.3424525
21
96.6576565
0
LINE
8
DEFAULT_255_2_778
10
72.2209525
20
98.9721565
11
98.1934525
21
99.1989565
0
LINE
8
DEFAULT_255_2_778
10
98.1934525
20
99.4823565
11
97.2446525
21
99.4741565
0
LINE
8
DEFAULT_255_2_778
10
72.2254525
20
98.4983565
11
72.2254525
21
98.9547565
0
LINE
8
DEFAULT_255_2_778
10
72.2254525
20
98.9547565
11
72.1764525
21
99.1507565
0
LINE
8
DEFAULT_255_2_778
10
72.1764525
20
99.1507565
11
72.1066525
21
99.4293565
0
LINE
8
DEFAULT_255_2_778
10
72.1066525
20
99.4293565
11
97.6907525
21
99.6556565
0
LINE
8
DEFAULT_255_2_778
10
97.6907525
20
99.6556565
11
97.6865525
21
100.0844565
0
LINE
8
DEFAULT_255_2_778
10
97.6865525
20
100.0844565
11
72.0986525
21
99.8582565
0
LINE
8
DEFAULT_255_2_778
10
72.0986525
20
99.8582565
11
72.0767525
21
108.8557565
0
LINE
8
DEFAULT_255_2_778
10
72.0767525
20
108.8557565
11
97.6651525
21
108.8557565
0
LINE
8
DEFAULT_255_2_778
10
97.6651525
20
108.8557565
11
97.6865525
21
100.0844565
0
LINE
8
DEFAULT_255_2_778
10
97.6865525
20
100.0844565
11
97.8757525
21
100.0900565
0
LINE
8
DEFAULT_255_2_778
10
97.8757525
20
100.0900565
11
98.0365525
21
100.1051565
0
LINE
8
DEFAULT_255_2_778
10
98.1453525
20
100.1276565
11
98.1746525
21
100.1405565
0
LINE
8
DEFAULT_255_2_778
10
97.6907525
20
99.6553565
11
97.7193525
21
99.5413565
0
LINE
8
DEFAULT_255_2_778
10
97.7193525
20
99.5413565
11
97.2174525
21
99.5368565
0
LINE
8
DEFAULT_255_2_778
10
97.2174525
20
99.5368565
11
97.2317525
21
99.4838565
0
LINE
8
DEFAULT_255_2_778
10
96.9822525
20
99.4635565
11
96.9822525
21
99.4635565
0
LINE
8
DEFAULT_255_2_778
10
96.9822525
20
99.4635565
11
72.2000525
21
99.2444565
0
LINE
8
DEFAULT_255_2_778
10
72.2000525
20
99.2444565
11
72.1764525
21
99.1502565
0
LINE
8
DEFAULT_255_2_778
10
72.2349525
20
96.9912565
11
72.2629525
21
96.9846565
0
LINE
8
DEFAULT_255_2_778
10
72.2629525
20
96.9846565
11
72.3084525
21
96.9785565
0
LINE
8
DEFAULT_255_2_778
10
72.3084525
20
96.9785565
11
72.3698525
21
96.9732565
0
LINE
8
DEFAULT_255_2_778
10
72.3698525
20
96.9732565
11
72.5304525
21
96.9655565
0
LINE
8
DEFAULT_255_2_778
10
72.5304525
20
96.9655565
11
72.7204525
21
96.9629565
0
LINE
8
DEFAULT_255_2_778
10
72.7204525
20
96.9629565
11
85.9385525
21
96.9550565
0
LINE
8
DEFAULT_255_2_778
10
85.9385525
20
96.9550565
11
89.7461525
21
96.9597565
0
LINE
8
DEFAULT_255_2_778
10
89.7461525
20
96.9597565
11
90.1665525
21
96.9700565
0
LINE
8
DEFAULT_255_2_778
10
90.1665525
20
96.9700565
11
90.3192525
21
96.9817565
0
LINE
8
DEFAULT_255_2_778
10
90.3192525
20
96.9817565
11
90.4107525
21
96.9960565
0
LINE
8
DEFAULT_255_2_778
10
90.3660525
20
97.0095565
11
90.3020525
21
97.0465565
0
LINE
8
DEFAULT_255_2_778
10
90.1371525
20
97.1672565
11
89.9469525
21
97.3206565
0
LINE
8
DEFAULT_255_2_778
10
89.9469525
20
97.3206565
11
89.7466525
21
97.4862565
0
LINE
8
DEFAULT_255_2_778
10
24.3419525
20
98.8494565
11
22.6514525
21
98.8494565
0
LINE
8
DEFAULT_255_2_778
10
72.7167525
20
95.5683565
11
73.1874525
21
95.5601565
0
LINE
8
DEFAULT_255_2_778
10
0.2267525
20
97.5958565
11
0.9837525
21
97.5812565
0
LINE
8
DEFAULT_255_2_778
10
0.7008525
20
97.3674565
11
0.5794525
21
97.2492565
0
LINE
8
DEFAULT_255_2_778
10
0.5794525
20
97.2492565
11
0.4696525
21
97.1317565
0
LINE
8
DEFAULT_255_2_778
10
0.4696525
20
97.1317565
11
0.3730525
21
97.0195565
0
LINE
8
DEFAULT_255_2_778
10
0.3730525
20
97.0195565
11
0.3301525
21
96.9685565
0
LINE
8
DEFAULT_255_2_778
10
0.3301525
20
96.9685565
11
0.2920525
21
96.9224565
0
LINE
8
DEFAULT_255_2_778
10
0.2920525
20
96.9224565
11
0.2598525
21
96.8825565
0
LINE
8
DEFAULT_255_2_778
10
0.2598525
20
96.8825565
11
0.2349525
21
96.8510565
0
LINE
8
DEFAULT_255_2_778
10
0.2349525
20
96.8510565
11
0.2190525
21
96.8306565
0
LINE
8
DEFAULT_255_2_778
10
0.2190525
20
96.8306565
11
0.2135525
21
96.8240565
0
LINE
8
DEFAULT_255_2_778
10
70.3955525
20
1.9579565
11
70.4259525
21
0.2474565
0
LINE
8
DEFAULT_255_2_778
10
70.4259525
20
0.2474565
11
70.3754525
21
3.1861565
0
LINE
8
DEFAULT_255_2_778
10
70.3754525
20
3.1861565
11
70.2661525
21
9.4789565
0
LINE
8
DEFAULT_255_2_778
10
70.8067525
20
82.0923565
11
70.8067525
21
90.0454565
0
LINE
8
DEFAULT_255_2_778
10
71.1641525
20
90.4782565
11
71.1684525
21
90.0454565
0
LINE
8
DEFAULT_255_2_778
10
71.1684525
20
90.0454565
11
71.1684525
21
77.7970565
0
LINE
8
DEFAULT_255_2_778
10
69.6639525
20
52.5999565
11
70.8064525
21
53.2715565
0
LINE
8
DEFAULT_255_2_778
10
71.1638525
20
52.8386565
11
71.1681525
21
53.2715565
0
LINE
8
DEFAULT_255_2_778
10
71.1681525
20
53.2715565
11
71.1681525
21
64.8880565
0
LINE
8
DEFAULT_255_2_778
10
72.2177525
20
99.2452565
11
72.2177525
21
98.9833565
0
LINE
8
DEFAULT_255_2_778
10
98.1701525
20
132.5623565
11
97.9704525
21
132.5623565
0
LINE
8
DEFAULT_255_2_778
10
97.9704525
20
132.5623565
11
97.9704525
21
109.7746565
0
LINE
8
DEFAULT_255_2_778
10
97.9704525
20
109.7746565
11
98.1701525
21
109.7746565
0
LINE
8
DEFAULT_255_2_778
10
98.1701525
20
109.7746565
11
98.1701525
21
132.5628565
0
LINE
8
DEFAULT_255_2_778
10
97.9204525
20
132.8126565
11
97.9204525
21
132.6129565
0
LINE
8
DEFAULT_255_2_778
10
97.9204525
20
132.6129565
11
72.4971525
21
132.6129565
0
LINE
8
DEFAULT_255_2_778
10
72.4971525
20
132.6129565
11
72.4971525
21
132.8129565
0
LINE
8
DEFAULT_255_2_778
10
72.4971525
20
132.8129565
11
97.9204525
21
132.8129565
0
LINE
8
DEFAULT_255_2_778
10
97.9204525
20
132.8129565
11
1.2120525
21
132.8354565
0
LINE
8
DEFAULT_255_2_778
10
1.2120525
20
132.8354565
11
1.4094525
21
132.6377565
0
LINE
8
DEFAULT_255_2_778
10
1.4094525
20
132.6377565
11
1.4094525
21
99.0002565
0
LINE
8
DEFAULT_255_2_778
10
1.4094525
20
99.0002565
11
1.2662525
21
98.8570565
0
LINE
8
DEFAULT_255_2_778
10
1.2662525
20
98.8570565
11
1.9155525
21
98.8570565
0
LINE
8
DEFAULT_255_2_778
10
72.8363525
20
95.5675565
11
72.8363525
21
90.8680565
0
LINE
8
DEFAULT_255_2_778
10
96.1956525
20
109.5023565
11
97.9434525
21
109.5023565
0
LINE
8
DEFAULT_255_2_778
10
97.9434525
20
109.5023565
11
97.9206525
21
109.5250565
0
LINE
8
DEFAULT_255_2_778
10
98.1704525
20
109.7748565
11
98.1932525
21
109.7521565
0
LINE
8
DEFAULT_255_2_778
10
98.1932525
20
109.3922565
11
97.9148525
21
109.3970565
0
LINE
8
DEFAULT_255_2_778
10
98.1646525
20
109.6425565
11
98.1932525
21
109.6420565
0
LINE
8
DEFAULT_255_2_778
10
68.2154525
20
96.9298565
11
68.2116525
21
96.9436565
0
LINE
8
DEFAULT_255_2_778
10
81.8525525
20
7.6396565
11
81.8342525
21
7.6573565
0
LINE
8
DEFAULT_255_2_778
10
76.7320525
20
7.7250565
11
76.5323525
21
7.5216565
0
LINE
8
DEFAULT_255_2_778
10
76.5323525
20
7.5216565
11
76.5323525
21
5.1879565
0
LINE
8
DEFAULT_255_2_778
10
76.5323525
20
64.0527565
11
76.5323525
21
66.2540565
0
LINE
8
DEFAULT_255_2_778
10
76.5323525
20
66.2540565
11
76.7320525
21
66.4575565
0
LINE
8
DEFAULT_255_2_778
10
76.7320525
20
5.1845565
11
76.7320525
21
10.7820565
0
LINE
8
DEFAULT_255_2_778
10
76.7320525
20
64.0474565
11
76.7320525
21
69.5142565
0
LINE
8
DEFAULT_255_2_778
10
76.7344525
20
99.2849565
11
76.7344525
21
99.1727565
0
LINE
8
DEFAULT_255_2_778
10
77.2337525
20
99.0161565
11
77.2337525
21
99.2894565
0
LINE
8
DEFAULT_255_2_778
10
78.8066525
20
99.3034565
11
78.8066525
21
99.0301565
0
LINE
8
DEFAULT_255_2_778
10
79.2310525
20
99.3074565
11
79.2310525
21
99.0338565
0
LINE
8
DEFAULT_255_2_778
10
71.8438525
20
3.2726565
11
71.7991525
21
0.6808565
0
LINE
8
DEFAULT_255_2_778
10
71.7991525
20
0.6808565
11
71.7965525
21
0.5217565
0
LINE
8
DEFAULT_255_2_778
10
71.7965525
20
0.5217565
11
71.7994525
21
0.6810565
0
LINE
8
DEFAULT_255_2_778
10
81.8295525
20
66.3236565
11
81.8311525
21
66.2953565
0
LINE
8
DEFAULT_255_2_778
10
81.8311525
20
66.2953565
11
81.8311525
21
66.2956565
0
LINE
8
DEFAULT_255_2_778
10
81.8311525
20
66.2956565
11
81.8282525
21
66.3218565
0
LINE
8
DEFAULT_255_2_778
10
81.8282525
20
66.3218565
11
82.0491525
21
69.4774565
0
LINE
8
DEFAULT_255_2_778
10
85.3212525
20
4.8927565
11
85.3212525
21
7.7245565
0
LINE
8
DEFAULT_255_2_778
10
85.3212525
20
63.8217565
11
85.3212525
21
66.4567565
0
LINE
8
DEFAULT_255_2_778
10
85.9379525
20
48.2584565
11
85.9379525
21
91.1992565
0
LINE
8
DEFAULT_255_2_778
10
86.2075525
20
99.0952565
11
86.2075525
21
99.3693565
0
LINE
8
DEFAULT_255_2_778
10
86.6002525
20
99.0983565
11
86.6002525
21
99.3727565
0
LINE
8
DEFAULT_255_2_778
10
78.8352525
20
3.2729565
11
78.7905525
21
0.6810565
0
LINE
8
DEFAULT_255_2_778
10
78.7905525
20
0.6810565
11
78.7878525
21
0.5220565
0
LINE
8
DEFAULT_255_2_778
10
78.7878525
20
0.5220565
11
78.7907525
21
0.6813565
0
LINE
8
DEFAULT_255_2_778
10
84.9680525
20
11.0204565
11
84.9614525
21
10.7124565
0
LINE
8
DEFAULT_255_2_778
10
84.9614525
20
10.7124565
11
84.9148525
21
9.2054565
0
LINE
8
DEFAULT_255_2_778
10
84.9148525
20
9.2054565
11
84.8891525
21
7.7287565
0
LINE
8
DEFAULT_255_2_778
10
82.0493525
20
69.4785565
11
82.0451525
21
69.4528565
0
LINE
8
DEFAULT_255_2_778
10
82.0451525
20
69.4528565
11
81.8284525
21
66.3419565
0
LINE
8
DEFAULT_255_2_778
10
81.8284525
20
66.3419565
11
81.8297525
21
66.3236565
0
LINE
8
DEFAULT_255_2_778
10
81.8297525
20
66.3236565
11
81.8287525
21
66.3157565
0
LINE
8
DEFAULT_255_2_778
10
81.5342525
20
66.1305565
11
81.7787525
21
69.6399565
0
LINE
8
DEFAULT_255_2_778
10
81.7787525
20
69.6399565
11
81.0262525
21
69.6267565
0
LINE
8
DEFAULT_255_2_778
10
81.0262525
20
69.6267565
11
77.0260525
21
69.6965565
0
LINE
8
DEFAULT_255_2_778
10
77.0260525
20
69.6965565
11
77.0260525
21
66.1503565
0
LINE
8
DEFAULT_255_2_778
10
77.0260525
20
66.1503565
11
81.0262525
21
66.1270565
0
LINE
8
DEFAULT_255_2_778
10
81.0262525
20
66.1270565
11
81.5342525
21
66.1299565
0
LINE
8
DEFAULT_255_2_778
10
81.5342525
20
66.1299565
11
81.5369525
21
65.7288565
0
LINE
8
DEFAULT_255_2_778
10
81.5369525
20
65.7288565
11
81.0265525
21
65.7265565
0
LINE
8
DEFAULT_255_2_778
10
81.0265525
20
65.7265565
11
81.0265525
21
63.9344565
0
LINE
8
DEFAULT_255_2_778
10
85.9379525
20
42.6230565
11
85.9379525
21
9.8801565
0
LINE
8
DEFAULT_255_2_778
10
85.9379525
20
9.8801565
11
86.1877525
21
9.8758565
0
LINE
8
DEFAULT_255_2_778
10
86.1877525
20
9.8758565
11
89.7455525
21
9.9380565
0
LINE
8
DEFAULT_255_2_778
10
90.4324525
20
10.6376565
11
90.4324525
21
96.9997565
0
LINE
8
DEFAULT_255_2_778
10
85.8048525
20
4.0264565
11
85.7919525
21
3.2853565
0
LINE
8
DEFAULT_255_2_778
10
85.7919525
20
3.2853565
11
85.7622525
21
1.5745565
0
LINE
8
DEFAULT_255_2_778
10
85.7622525
20
1.5745565
11
85.7437525
21
0.4919565
0
LINE
8
DEFAULT_255_2_778
10
85.7437525
20
0.4919565
11
85.7599525
21
1.3920565
0
LINE
8
DEFAULT_255_2_778
10
85.7599525
20
1.3920565
11
85.7726525
21
2.1182565
0
LINE
8
DEFAULT_255_2_778
10
85.8062525
20
4.0264565
11
85.8276525
21
5.2461565
0
LINE
8
DEFAULT_255_2_778
10
96.1432525
20
99.4571565
11
96.1302525
21
99.4312565
0
LINE
8
DEFAULT_255_2_778
10
96.1302525
20
99.4312565
11
96.1024525
21
99.3875565
0
LINE
8
DEFAULT_255_2_778
10
96.1024525
20
99.3875565
11
96.0712525
21
99.3481565
0
LINE
8
DEFAULT_255_2_778
10
96.0712525
20
99.3481565
11
96.0368525
21
99.3127565
0
LINE
8
DEFAULT_255_2_778
10
96.0368525
20
99.3127565
11
95.9601525
21
99.2539565
0
LINE
8
DEFAULT_255_2_778
10
95.9601525
20
99.2539565
11
95.8767525
21
99.2124565
0
LINE
8
DEFAULT_255_2_778
10
95.8767525
20
99.2124565
11
95.7934525
21
99.1883565
0
LINE
8
DEFAULT_255_2_778
10
95.7934525
20
99.1883565
11
95.7079525
21
99.1796565
0
LINE
8
DEFAULT_255_2_778
10
71.0289525
20
132.6377565
11
1.4094525
21
132.6377565
0
LINE
8
DEFAULT_255_2_778
10
0.4108525
20
131.6381565
11
72.0275525
21
131.6381565
0
LINE
8
DEFAULT_255_2_778
10
98.1934525
20
107.6587565
11
98.1932525
21
107.9370565
0
LINE
8
DEFAULT_255_2_778
10
98.1932525
20
107.9370565
11
98.1932525
21
108.9554565
0
LINE
8
DEFAULT_255_2_778
10
98.1932525
20
108.9554565
11
98.1638525
21
108.9260565
0
LINE
8
DEFAULT_255_2_778
10
98.1638525
20
108.9260565
11
98.1852525
21
100.1548565
0
LINE
8
DEFAULT_255_2_778
10
98.1852525
20
100.1548565
11
98.2119525
21
100.0474565
0
LINE
8
DEFAULT_255_2_778
10
98.2119525
20
100.0474565
11
98.1934525
21
107.6587565
0
LINE
8
DEFAULT_255_2_778
10
95.9011525
20
99.2246565
11
95.9011525
21
99.4550565
0
LINE
8
DEFAULT_255_2_778
10
96.3421525
20
30.8869565
11
96.3421525
21
32.2458565
0
LINE
8
DEFAULT_255_2_778
10
96.3421525
20
35.9656565
11
96.3421525
21
62.7168565
0
LINE
8
DEFAULT_255_2_778
10
96.3421525
20
66.4366565
11
96.3421525
21
67.7955565
0
LINE
8
DEFAULT_255_2_778
10
97.2441525
20
99.4397565
11
97.2441525
21
99.5386565
0
LINE
8
DEFAULT_255_2_778
10
96.1847525
20
70.0646565
11
98.0035525
21
70.1601565
0
LINE
8
DEFAULT_255_2_778
10
98.1926525
20
70.3598565
11
98.1926525
21
99.9498565
0
LINE
8
DEFAULT_255_2_778
10
85.9191525
20
52.0758565
11
85.8668525
21
52.0647565
0
LINE
8
DEFAULT_255_2_778
10
85.8668525
20
52.0647565
11
85.7879525
21
52.0570565
0
LINE
8
DEFAULT_255_2_778
10
85.7879525
20
52.0570565
11
85.6945525
21
52.0541565
0
LINE
8
DEFAULT_255_2_778
10
85.6945525
20
52.0541565
11
85.6945525
21
53.8763565
0
LINE
8
DEFAULT_255_2_778
10
0.2124525
20
10.8717565
11
0.2127525
21
10.8720565
0
LINE
8
DEFAULT_255_2_778
10
81.0259525
20
5.1099565
11
81.0259525
21
6.9950565
0
LINE
8
DEFAULT_255_2_778
10
81.0259525
20
6.9950565
11
81.5363525
21
6.9974565
0
LINE
8
DEFAULT_255_2_778
10
81.5363525
20
6.9974565
11
81.6533525
21
7.0054565
0
LINE
8
DEFAULT_255_2_778
10
81.6533525
20
7.0054565
11
81.7660525
21
7.0279565
0
LINE
8
DEFAULT_255_2_778
10
82.1232525
20
7.3615565
11
82.0872525
21
7.5253565
0
LINE
8
DEFAULT_255_2_778
10
81.9575525
20
7.6348565
11
81.8591525
21
7.6631565
0
LINE
8
DEFAULT_255_2_778
10
81.8591525
20
7.6631565
11
81.8501525
21
7.6650565
0
LINE
8
DEFAULT_255_2_778
10
69.6338525
20
52.6925565
11
69.4904525
21
51.8969565
0
LINE
8
DEFAULT_255_2_778
10
69.4904525
20
51.8969565
11
69.2575525
21
50.5163565
0
LINE
8
DEFAULT_255_2_778
10
69.2575525
20
50.5163565
11
69.2390525
21
50.4105565
0
LINE
8
DEFAULT_255_2_778
10
69.2390525
20
50.4105565
11
69.1369525
21
49.8430565
0
LINE
8
DEFAULT_255_2_778
10
69.1369525
20
49.8430565
11
69.0972525
21
49.6345565
0
LINE
8
DEFAULT_255_2_778
10
69.0972525
20
49.6345565
11
68.8903525
21
48.6698565
0
LINE
8
DEFAULT_255_2_778
10
68.0029525
20
45.1247565
11
67.9695525
21
45.0001565
0
LINE
8
DEFAULT_255_2_778
10
67.7293525
20
44.6212565
11
67.7042525
21
44.6011565
0
LINE
8
DEFAULT_255_2_778
10
67.7042525
20
44.6011565
11
67.7478525
21
44.6347565
0
LINE
8
DEFAULT_255_2_778
10
68.0188525
20
45.0379565
11
68.2156525
21
45.7774565
0
LINE
8
DEFAULT_255_2_778
10
68.2119525
20
45.7636565
11
68.2156525
21
45.7774565
0
LINE
8
DEFAULT_255_2_778
10
68.2156525
20
45.7774565
11
68.9202525
21
48.6632565
0
LINE
8
DEFAULT_255_2_778
10
68.9202525
20
48.6632565
11
69.1805525
21
49.8332565
0
LINE
8
DEFAULT_255_2_778
10
69.1805525
20
49.8332565
11
69.3012525
21
50.3991565
0
LINE
8
DEFAULT_255_2_778
10
69.3012525
20
50.3991565
11
69.5393525
21
51.8036565
0
LINE
8
DEFAULT_255_2_778
10
69.5393525
20
51.8036565
11
69.5528525
21
51.8866565
0
LINE
8
DEFAULT_255_2_778
10
69.5528525
20
51.8866565
11
69.7327525
21
53.0431565
0
LINE
8
DEFAULT_255_2_778
10
69.7327525
20
53.0431565
11
69.7931525
21
53.3971565
0
LINE
8
DEFAULT_255_2_778
10
69.7931525
20
89.3101565
11
69.7327525
21
89.6641565
0
LINE
8
DEFAULT_255_2_778
10
69.7327525
20
89.6641565
11
69.5528525
21
90.8206565
0
LINE
8
DEFAULT_255_2_778
10
69.5528525
20
90.8206565
11
69.5393525
21
90.9037565
0
LINE
8
DEFAULT_255_2_778
10
69.5393525
20
90.9037565
11
69.3012525
21
92.3081565
0
LINE
8
DEFAULT_255_2_778
10
69.3012525
20
92.3081565
11
69.1805525
21
92.8743565
0
LINE
8
DEFAULT_255_2_778
10
69.1805525
20
92.8743565
11
68.9202525
21
94.0443565
0
LINE
8
DEFAULT_255_2_778
10
68.9202525
20
94.0443565
11
68.2156525
21
96.9301565
0
LINE
8
DEFAULT_255_2_778
10
68.2156525
20
96.9301565
11
68.0188525
21
97.6696565
0
LINE
8
DEFAULT_255_2_778
10
69.6338525
20
90.0149565
11
69.4904525
21
90.8105565
0
LINE
8
DEFAULT_255_2_778
10
69.4904525
20
90.8105565
11
69.2615525
21
92.1686565
0
LINE
8
DEFAULT_255_2_778
10
69.2615525
20
92.1686565
11
69.2390525
21
92.2967565
0
LINE
8
DEFAULT_255_2_778
10
69.2390525
20
92.2967565
11
69.1369525
21
92.8642565
0
LINE
8
DEFAULT_255_2_778
10
68.9728525
20
93.6694565
11
68.8900525
21
94.0374565
0
LINE
8
DEFAULT_255_2_778
10
68.0026525
20
97.5826565
11
67.9693525
21
97.7072565
0
LINE
8
DEFAULT_255_2_778
10
67.7304525
20
98.0847565
11
67.7039525
21
98.1059565
0
LINE
8
DEFAULT_255_2_778
10
67.7039525
20
98.1059565
11
67.7476525
21
98.0723565
0
LINE
8
DEFAULT_255_2_778
10
67.7476525
20
98.0723565
11
67.7306525
21
98.0850565
0
LINE
8
DEFAULT_255_2_778
10
68.0029525
20
97.5820565
11
67.9785525
21
97.5640565
0
LINE
8
DEFAULT_255_2_778
10
67.9785525
20
97.5640565
11
63.8410525
21
97.5847565
0
LINE
8
DEFAULT_255_2_778
10
63.8410525
20
97.5847565
11
63.8330525
21
91.4791565
0
LINE
8
DEFAULT_255_2_778
10
63.8330525
20
91.4791565
11
67.6303525
21
93.3767565
0
LINE
8
DEFAULT_255_2_778
10
67.6303525
20
93.3767565
11
68.8622525
21
94.0218565
0
LINE
8
DEFAULT_255_2_778
10
67.9785525
20
97.5640565
11
67.9428525
21
97.7077565
0
LINE
8
DEFAULT_255_2_778
10
67.7370525
20
98.0630565
11
67.7216525
21
98.0773565
0
LINE
8
DEFAULT_255_2_778
10
67.2697525
20
98.2575565
11
63.3116525
21
98.3303565
0
LINE
8
DEFAULT_255_2_778
10
69.2324525
20
50.0848565
11
69.4375525
21
50.0814565
0
LINE
8
DEFAULT_255_2_778
10
77.0262525
20
69.6965565
11
77.0265525
21
69.7341565
0
LINE
8
DEFAULT_255_2_778
10
72.7111525
20
64.1522565
11
72.7111525
21
63.6976565
0
LINE
8
DEFAULT_255_2_778
10
81.8313525
20
66.3839565
11
81.8454525
21
66.3641565
0
LINE
8
DEFAULT_255_2_778
10
81.8454525
20
66.3641565
11
81.8552525
21
66.3522565
0
LINE
8
DEFAULT_255_2_778
10
81.8552525
20
66.3522565
11
81.8692525
21
66.3376565
0
LINE
8
DEFAULT_255_2_778
10
81.8692525
20
66.3376565
11
81.9112525
21
66.3043565
0
LINE
8
DEFAULT_255_2_778
10
81.9112525
20
66.3043565
11
81.9512525
21
66.2829565
0
LINE
8
DEFAULT_255_2_778
10
82.0139525
20
66.3403565
11
81.9454525
21
66.3710565
0
LINE
8
DEFAULT_255_2_778
10
81.9454525
20
66.3710565
11
81.8596525
21
66.3945565
0
LINE
8
DEFAULT_255_2_778
10
81.8596525
20
66.3945565
11
81.8509525
21
66.3964565
0
LINE
8
DEFAULT_255_2_778
10
81.8509525
20
66.3964565
11
81.8353525
21
66.3996565
0
LINE
8
DEFAULT_255_2_778
10
72.6066525
20
11.0008565
11
72.6172525
21
9.8716565
0
LINE
8
DEFAULT_255_2_778
10
72.6172525
20
9.8716565
11
72.6175525
21
9.8502565
0
LINE
8
DEFAULT_255_2_778
10
72.6175525
20
9.8502565
11
72.6175525
21
5.2631565
0
LINE
8
DEFAULT_255_2_778
10
72.6175525
20
5.2631565
11
76.5323525
21
5.2631565
0
LINE
8
DEFAULT_255_2_778
10
0.2288525
20
97.6421565
11
0.2272525
21
97.6143565
0
LINE
8
DEFAULT_255_2_778
10
0.2272525
20
97.6143565
11
0.2272525
21
97.6087565
0
LINE
8
DEFAULT_255_2_778
10
0.2272525
20
97.6087565
11
0.2270525
21
97.5958565
0
LINE
8
DEFAULT_255_2_778
10
0.2270525
20
97.5958565
11
0.2135525
21
96.8243565
0
LINE
8
DEFAULT_255_2_778
10
0.2135525
20
96.8243565
11
0.2267525
21
96.8245565
0
LINE
8
DEFAULT_255_2_778
10
26.2313525
20
98.6613565
11
26.1291525
21
98.7425565
0
LINE
8
DEFAULT_255_2_778
10
25.7402525
20
98.8835565
11
25.8712525
21
98.8893565
0
LINE
8
DEFAULT_255_2_778
10
72.1910525
20
90.0459565
11
72.1881525
21
90.4930565
0
LINE
8
DEFAULT_255_2_778
10
72.1881525
20
90.4930565
11
72.1849525
21
90.6518565
0
LINE
8
DEFAULT_255_2_778
10
72.1849525
20
90.6518565
11
72.1547525
21
91.6517565
0
LINE
8
DEFAULT_255_2_778
10
72.1402525
20
92.7444565
11
72.1391525
21
93.2103565
0
LINE
8
DEFAULT_255_2_778
10
72.8117525
20
98.9854565
11
72.8080525
21
99.0081565
0
LINE
8
DEFAULT_255_2_778
10
71.0284525
20
100.0003565
11
71.8272525
21
99.0007565
0
LINE
8
DEFAULT_255_2_778
10
72.0269525
20
99.2005565
11
71.0284525
21
100.0003565
0
LINE
8
DEFAULT_255_2_778
10
96.0953525
20
109.5018565
11
96.0974525
21
109.4401565
0
LINE
8
DEFAULT_255_2_778
10
96.0974525
20
109.4401565
11
72.0976525
21
109.4401565
0
LINE
8
DEFAULT_255_2_778
10
72.0976525
20
109.4401565
11
72.0838525
21
109.4264565
0
LINE
8
DEFAULT_255_2_778
10
72.0838525
20
109.4264565
11
97.6637525
21
109.4264565
0
LINE
8
DEFAULT_255_2_778
10
97.6637525
20
109.4264565
11
97.6637525
21
108.8570565
0
LINE
8
DEFAULT_255_2_778
10
97.6637525
20
108.8570565
11
97.8529525
21
108.8625565
0
LINE
8
DEFAULT_255_2_778
10
97.8529525
20
108.8625565
11
98.0138525
21
108.8776565
0
LINE
8
DEFAULT_255_2_778
10
98.1225525
20
108.9001565
11
98.1519525
21
108.9131565
0
LINE
8
DEFAULT_255_2_778
10
72.2481525
20
99.1767565
11
72.2653525
21
99.1282565
0
LINE
8
DEFAULT_255_2_778
10
72.4402525
20
82.5344565
11
72.3905525
21
82.4815565
0
LINE
8
DEFAULT_255_2_778
10
74.2283525
20
99.2685565
11
74.2648525
21
99.2044565
0
LINE
8
DEFAULT_255_2_778
10
81.5347525
20
7.3985565
11
81.5374525
21
6.9974565
0
LINE
8
DEFAULT_255_2_778
10
77.0265525
20
7.4192565
11
77.0239525
21
7.0136565
0
LINE
8
DEFAULT_255_2_778
10
77.0239525
20
7.0136565
11
81.0267525
21
6.9956565
0
LINE
8
DEFAULT_255_2_778
10
81.0267525
20
6.9956565
11
81.0267525
21
11.0027565
0
LINE
8
DEFAULT_255_2_778
10
76.7320525
20
7.0625565
11
76.8011525
21
7.0416565
0
LINE
8
DEFAULT_255_2_778
10
81.8313525
20
7.5642565
11
81.8297525
21
7.5922565
0
LINE
8
DEFAULT_255_2_778
10
81.8297525
20
7.6557565
11
81.8758525
21
7.6007565
0
LINE
8
DEFAULT_255_2_778
10
0.2132525
20
45.8824565
11
0.2187525
21
45.8758565
0
LINE
8
DEFAULT_255_2_778
10
0.2187525
20
45.8758565
11
0.2346525
21
45.8554565
0
LINE
8
DEFAULT_255_2_778
10
0.2346525
20
45.8554565
11
0.2595525
21
45.8240565
0
LINE
8
DEFAULT_255_2_778
10
0.2595525
20
45.8240565
11
0.2918525
21
45.7840565
0
LINE
8
DEFAULT_255_2_778
10
0.2918525
20
45.7840565
11
0.3299525
21
45.7380565
0
LINE
8
DEFAULT_255_2_778
10
0.3299525
20
45.7380565
11
0.3727525
21
45.6869565
0
LINE
8
DEFAULT_255_2_778
10
0.3727525
20
45.6869565
11
0.4693525
21
45.5747565
0
LINE
8
DEFAULT_255_2_778
10
0.4693525
20
45.5747565
11
0.5791525
21
45.4573565
0
LINE
8
DEFAULT_255_2_778
10
0.5791525
20
45.4573565
11
0.7006525
21
45.3390565
0
LINE
8
DEFAULT_255_2_778
10
0.9834525
20
45.1252565
11
0.2264525
21
45.1106565
0
LINE
8
DEFAULT_255_2_778
10
0.9752525
20
45.1331565
11
0.7146525
21
45.3694565
0
LINE
8
DEFAULT_255_2_778
10
0.7146525
20
45.3694565
11
0.5945525
21
45.4871565
0
LINE
8
DEFAULT_255_2_778
10
0.5945525
20
45.4871565
11
0.4833525
21
45.6004565
0
LINE
8
DEFAULT_255_2_778
10
0.4833525
20
45.6004565
11
0.3844525
21
45.7044565
0
LINE
8
DEFAULT_255_2_778
10
0.3844525
20
45.7044565
11
0.3410525
21
45.7512565
0
LINE
8
DEFAULT_255_2_778
10
0.3410525
20
45.7512565
11
0.3029525
21
45.7933565
0
LINE
8
DEFAULT_255_2_778
10
0.3029525
20
45.7933565
11
0.2711525
21
45.8293565
0
LINE
8
DEFAULT_255_2_778
10
0.2711525
20
45.8293565
11
0.2471525
21
45.8573565
0
LINE
8
DEFAULT_255_2_778
10
0.2471525
20
45.8573565
11
0.2317525
21
45.8761565
0
LINE
8
DEFAULT_255_2_778
10
0.2317525
20
45.8761565
11
0.2264525
21
45.8832565
0
LINE
8
DEFAULT_255_2_778
10
0.2264525
20
45.8832565
11
0.2264525
21
96.8264565
0
LINE
8
DEFAULT_255_2_778
10
0.2264525
20
96.8264565
11
0.2317525
21
96.8319565
0
LINE
8
DEFAULT_255_2_778
10
0.2317525
20
96.8319565
11
0.2471525
21
96.8507565
0
LINE
8
DEFAULT_255_2_778
10
0.2471525
20
96.8507565
11
0.2711525
21
96.8788565
0
LINE
8
DEFAULT_255_2_778
10
0.2711525
20
96.8788565
11
0.3029525
21
96.9147565
0
LINE
8
DEFAULT_255_2_778
10
0.3029525
20
96.9147565
11
0.3410525
21
96.9568565
0
LINE
8
DEFAULT_255_2_778
10
0.3410525
20
96.9568565
11
0.3844525
21
97.0036565
0
LINE
8
DEFAULT_255_2_778
10
0.3844525
20
97.0036565
11
0.4833525
21
97.1076565
0
LINE
8
DEFAULT_255_2_778
10
0.4833525
20
97.1076565
11
0.5945525
21
97.2209565
0
LINE
8
DEFAULT_255_2_778
10
0.5945525
20
97.2209565
11
0.7146525
21
97.3386565
0
LINE
8
DEFAULT_255_2_778
10
68.8898525
20
94.0382565
11
68.8620525
21
94.0231565
0
LINE
8
DEFAULT_255_2_778
10
67.9426525
20
97.7090565
11
67.9690525
21
97.7080565
0
LINE
8
DEFAULT_255_2_778
10
67.9690525
20
97.7080565
11
68.0180525
21
97.6701565
0
LINE
8
DEFAULT_255_2_778
10
68.0180525
20
45.0387565
11
67.9690525
21
45.0009565
0
LINE
8
DEFAULT_255_2_778
10
67.9690525
20
45.0009565
11
67.9426525
21
44.9998565
0
LINE
8
DEFAULT_255_2_778
10
97.1118525
20
99.4696565
11
97.2084525
21
99.4574565
0
LINE
8
DEFAULT_255_2_778
10
97.2084525
20
99.4574565
11
97.2348525
21
99.4492565
0
LINE
8
DEFAULT_255_2_778
10
89.7458525
20
10.3690565
11
89.7458525
21
9.9385565
0
LINE
8
DEFAULT_255_2_778
10
72.2624525
20
96.4734565
11
72.3693525
21
96.4509565
0
LINE
8
DEFAULT_255_2_778
10
72.3693525
20
96.4509565
11
72.5302525
21
96.4358565
0
LINE
8
DEFAULT_255_2_778
10
72.5302525
20
96.4358565
11
72.7196525
21
96.4303565
0
LINE
8
DEFAULT_255_2_778
10
72.7196525
20
96.4303565
11
72.7154525
21
95.5693565
0
LINE
8
DEFAULT_255_2_778
10
86.2697525
20
95.6609565
11
86.5375525
21
95.8307565
0
LINE
8
DEFAULT_255_2_778
10
96.1844525
20
64.9949565
11
96.1844525
21
64.9854565
0
LINE
8
DEFAULT_255_2_778
10
97.9135525
20
99.1264565
11
98.0122525
21
99.1764565
0
LINE
8
DEFAULT_255_2_778
10
85.9350525
20
99.0923565
11
85.9385525
21
98.8922565
0
LINE
8
DEFAULT_255_2_778
10
96.4403525
20
99.4672565
11
96.4419525
21
99.3619565
0
LINE
8
DEFAULT_255_2_778
10
96.4419525
20
99.3619565
11
96.4419525
21
99.2693565
0
LINE
8
DEFAULT_255_2_778
10
96.4419525
20
99.2693565
11
96.4414525
21
99.2333565
0
LINE
8
DEFAULT_255_2_778
10
96.4414525
20
99.2333565
11
96.4406525
21
99.2063565
0
LINE
8
DEFAULT_255_2_778
10
96.4406525
20
99.2063565
11
96.4395525
21
99.1896565
0
LINE
8
DEFAULT_255_2_778
10
96.4395525
20
99.1896565
11
96.4382525
21
99.1841565
0
LINE
8
DEFAULT_255_2_778
10
96.9983525
20
99.4722565
11
96.9962525
21
99.1888565
0
LINE
8
DEFAULT_255_2_778
10
86.5663525
20
95.6926565
11
86.2695525
21
95.3878565
0
LINE
8
DEFAULT_255_2_778
10
85.9067525
20
12.2647565
11
85.8197525
21
12.2856565
0
LINE
8
DEFAULT_255_2_778
10
85.8197525
20
12.2856565
11
85.6863525
21
12.3013565
0
LINE
8
DEFAULT_255_2_778
10
85.6863525
20
12.3013565
11
85.5223525
21
12.3095565
0
LINE
8
DEFAULT_255_2_778
10
83.7861525
20
4.0330565
11
80.6145525
21
4.0574565
0
LINE
8
DEFAULT_255_2_778
10
80.6145525
20
4.0574565
11
79.9740525
21
4.0616565
0
LINE
8
DEFAULT_255_2_778
10
79.9740525
20
4.0616565
11
79.3337525
21
4.0735565
0
LINE
8
DEFAULT_255_2_778
10
72.6167525
20
5.2562565
11
72.6172525
21
5.2504565
0
LINE
8
DEFAULT_255_2_778
10
72.6172525
20
5.2504565
11
72.6177525
21
5.2329565
0
LINE
8
DEFAULT_255_2_778
10
72.6177525
20
5.2329565
11
72.6180525
21
5.2043565
0
LINE
8
DEFAULT_255_2_778
10
72.6180525
20
5.2043565
11
72.6180525
21
5.1647565
0
LINE
8
DEFAULT_255_2_778
10
72.6180525
20
5.1647565
11
72.6177525
21
5.1149565
0
LINE
8
DEFAULT_255_2_778
10
72.6177525
20
5.1149565
11
72.6172525
21
5.0556565
0
LINE
8
DEFAULT_255_2_778
10
72.6172525
20
5.0556565
11
72.6156525
21
4.9125565
0
LINE
8
DEFAULT_255_2_778
10
72.6156525
20
4.9125565
11
72.6132525
21
4.7445565
0
LINE
8
DEFAULT_255_2_778
10
72.6132525
20
4.7445565
11
72.6103525
21
4.5617565
0
LINE
8
DEFAULT_255_2_778
10
72.6103525
20
4.5617565
11
72.6035525
21
4.1971565
0
LINE
8
DEFAULT_255_2_778
10
85.5236525
20
11.6792565
11
85.6445525
21
11.6223565
0
LINE
8
DEFAULT_255_2_778
10
85.6445525
20
11.6223565
11
85.6625525
21
11.5184565
0
LINE
8
DEFAULT_255_2_778
10
97.6841525
20
109.4420565
11
97.8524525
21
109.4287565
0
LINE
8
DEFAULT_255_2_778
10
72.1275525
20
99.0981565
11
72.1296525
21
99.0849565
0
LINE
8
DEFAULT_255_2_778
10
72.1296525
20
99.0849565
11
72.1314525
21
99.0497565
0
LINE
8
DEFAULT_255_2_778
10
72.1314525
20
99.0497565
11
72.1333525
21
98.9936565
0
LINE
8
DEFAULT_255_2_778
10
72.1333525
20
98.9936565
11
72.1349525
21
98.9190565
0
LINE
8
DEFAULT_255_2_778
10
72.1349525
20
98.9190565
11
72.1362525
21
98.8285565
0
LINE
8
DEFAULT_255_2_778
10
72.1362525
20
98.8285565
11
72.1373525
21
98.7255565
0
LINE
8
DEFAULT_255_2_778
10
72.1373525
20
98.7255565
11
72.1380525
21
98.4985565
0
LINE
8
DEFAULT_255_2_778
10
72.1380525
20
44.9162565
11
72.1383525
21
44.4603565
0
LINE
8
DEFAULT_255_2_778
10
72.1383525
20
44.4603565
11
72.1378525
21
44.2338565
0
LINE
8
DEFAULT_255_2_778
10
72.1378525
20
44.2338565
11
72.1367525
21
44.0132565
0
LINE
8
DEFAULT_255_2_778
10
72.1367525
20
44.0132565
11
72.1351525
21
43.8041565
0
LINE
8
DEFAULT_255_2_778
10
72.1351525
20
43.8041565
11
72.1341525
21
43.7065565
0
LINE
8
DEFAULT_255_2_778
10
72.1341525
20
43.7065565
11
72.1328525
21
43.6163565
0
LINE
8
DEFAULT_255_2_778
10
72.1328525
20
43.6163565
11
72.1314525
21
43.5372565
0
LINE
8
DEFAULT_255_2_778
10
72.1314525
20
43.5372565
11
72.1298525
21
43.4739565
0
LINE
8
DEFAULT_255_2_778
10
72.1298525
20
43.4739565
11
72.1280525
21
43.4324565
0
LINE
8
DEFAULT_255_2_778
10
72.1280525
20
43.4324565
11
72.1261525
21
43.4168565
0
LINE
8
DEFAULT_255_2_778
10
21.5976525
20
98.8989565
11
21.9471525
21
98.8975565
0
LINE
8
DEFAULT_255_2_778
10
22.1998525
20
98.7430565
11
22.0977525
21
98.6618565
0
LINE
8
DEFAULT_255_2_778
10
21.7453525
20
98.5163565
11
21.5971525
21
98.4991565
0
LINE
8
DEFAULT_255_2_778
10
71.1300525
20
9.9684565
11
71.1665525
21
9.9793565
0
LINE
8
DEFAULT_255_2_778
10
71.1300525
20
9.9684565
11
71.1300525
21
9.9684565
0
LINE
8
DEFAULT_255_2_778
10
71.9529525
20
91.4781565
11
71.9394525
21
92.6920565
0
LINE
8
DEFAULT_255_2_778
10
71.9394525
20
92.6920565
11
71.9388525
21
93.2098565
0
LINE
8
DEFAULT_255_2_778
10
71.9388525
20
93.2098565
11
71.9388525
21
98.4985565
0
LINE
8
DEFAULT_255_2_778
10
71.9388525
20
98.4985565
11
71.9380525
21
98.6499565
0
LINE
8
DEFAULT_255_2_778
10
71.9380525
20
98.6499565
11
71.9359525
21
98.7787565
0
LINE
8
DEFAULT_255_2_778
10
71.9359525
20
98.7787565
11
71.9343525
21
98.8285565
0
LINE
8
DEFAULT_255_2_778
10
71.9343525
20
98.8285565
11
71.9325525
21
98.8658565
0
LINE
8
DEFAULT_255_2_778
10
71.9325525
20
98.8658565
11
71.9306525
21
98.8893565
0
LINE
8
DEFAULT_255_2_778
10
71.9306525
20
98.8893565
11
71.9285525
21
98.8983565
0
LINE
8
DEFAULT_255_2_778
10
72.1283525
20
99.0983565
11
72.0269525
21
99.1997565
0
LINE
8
DEFAULT_255_2_778
10
72.0269525
20
99.1997565
11
72.0269525
21
131.6376565
0
LINE
8
DEFAULT_255_2_778
10
72.0269525
20
131.6376565
11
72.1005525
21
131.7112565
0
LINE
8
DEFAULT_255_2_778
10
72.1005525
20
131.7112565
11
72.1005525
21
109.5893565
0
LINE
8
DEFAULT_255_2_778
10
72.1005525
20
109.5893565
11
72.2878525
21
109.5893565
0
LINE
8
DEFAULT_255_2_778
10
71.9830525
20
52.8386565
11
71.9872525
21
53.2715565
0
LINE
8
DEFAULT_255_2_778
10
71.9872525
20
53.2715565
11
71.9872525
21
90.0456565
0
LINE
8
DEFAULT_255_2_778
10
71.9872525
20
90.0456565
11
71.9830525
21
90.4785565
0
LINE
8
DEFAULT_255_2_778
10
2.3926525
20
98.3326565
11
2.3926525
21
98.9743565
0
LINE
8
DEFAULT_255_2_778
10
72.1547525
20
51.6662565
11
72.1481525
21
51.3800565
0
LINE
8
DEFAULT_255_2_778
10
72.1481525
20
51.3800565
11
72.1389525
21
50.1076565
0
LINE
8
DEFAULT_255_2_778
10
81.7782525
20
69.7349565
11
81.7787525
21
69.6407565
0
LINE
8
DEFAULT_255_2_778
10
82.0491525
20
69.4790565
11
82.0769525
21
69.5851565
0
LINE
8
DEFAULT_255_2_778
10
82.0769525
20
69.5851565
11
82.1422525
21
69.6756565
0
LINE
8
DEFAULT_255_2_778
10
82.1422525
20
69.6756565
11
82.2340525
21
69.7346565
0
LINE
8
DEFAULT_255_2_778
10
76.7315525
20
65.7942565
11
76.8006525
21
65.7733565
0
LINE
8
DEFAULT_255_2_778
10
77.0233525
20
65.7452565
11
81.0262525
21
65.7272565
0
LINE
8
DEFAULT_255_2_778
10
81.0262525
20
65.7272565
11
81.0262525
21
69.7344565
0
LINE
8
DEFAULT_255_2_778
10
77.0260525
20
66.1514565
11
77.0233525
21
65.7458565
0
LINE
8
DEFAULT_255_2_778
10
82.0874525
20
66.2577565
11
82.1234525
21
66.0940565
0
LINE
8
DEFAULT_255_2_778
10
81.5369525
20
65.7302565
11
81.6538525
21
65.7381565
0
LINE
8
DEFAULT_255_2_778
10
81.6538525
20
65.7381565
11
81.7665525
21
65.7606565
0
LINE
8
DEFAULT_255_2_778
10
72.4743525
20
132.8359565
11
72.4971525
21
132.8129565
0
LINE
8
DEFAULT_255_2_778
10
72.2473525
20
132.5631565
11
72.2246525
21
132.5859565
0
LINE
8
DEFAULT_255_2_778
10
72.2246525
20
132.5859565
11
72.2246525
21
109.7526565
0
LINE
8
DEFAULT_255_2_778
10
72.2246525
20
109.7526565
11
72.2473525
21
109.7753565
0
LINE
8
DEFAULT_255_2_778
10
72.2473525
20
109.7753565
11
72.2473525
21
132.5628565
0
LINE
8
DEFAULT_255_2_778
10
72.2473525
20
132.5628565
11
72.4471525
21
132.5628565
0
LINE
8
DEFAULT_255_2_778
10
72.4471525
20
132.5628565
11
72.4471525
21
109.7751565
0
LINE
8
DEFAULT_255_2_778
10
72.4471525
20
109.7751565
11
72.2473525
21
109.7751565
0
LINE
8
DEFAULT_255_2_778
10
72.4971525
20
109.5253565
11
97.9204525
21
109.5253565
0
LINE
8
DEFAULT_255_2_778
10
97.9204525
20
109.5253565
11
97.9204525
21
109.7253565
0
LINE
8
DEFAULT_255_2_778
10
97.9204525
20
109.7253565
11
72.4971525
21
109.7253565
0
LINE
8
DEFAULT_255_2_778
10
72.4971525
20
109.7253565
11
72.4971525
21
109.5253565
0
LINE
8
DEFAULT_255_2_778
10
72.4971525
20
109.5253565
11
72.4743525
21
109.5026565
0
LINE
8
DEFAULT_255_2_778
10
72.4743525
20
109.5026565
11
96.1953525
21
109.5036565
0
LINE
8
DEFAULT_255_2_778
10
96.1953525
20
109.5036565
11
96.1953525
21
109.4425565
0
LINE
8
DEFAULT_255_2_778
10
24.3900525
20
98.8528565
11
24.3408525
21
98.8502565
0
LINE
8
DEFAULT_255_2_778
10
71.2424525
20
9.8671565
11
71.2774525
21
9.8541565
0
LINE
8
DEFAULT_255_2_778
10
71.2774525
20
9.8541565
11
71.3178525
21
9.8353565
0
LINE
8
DEFAULT_255_2_778
10
71.3178525
20
9.8353565
11
71.3594525
21
9.8107565
0
LINE
8
DEFAULT_255_2_778
10
72.2243525
20
9.9472565
11
72.2243525
21
10.0309565
0
LINE
8
DEFAULT_255_2_778
10
97.7875525
20
99.5479565
11
97.7193525
21
99.5423565
0
LINE
8
DEFAULT_255_2_778
10
3.9819525
20
44.3412565
11
3.2096525
21
44.3349565
0
LINE
8
DEFAULT_255_2_778
10
3.2096525
20
44.3349565
11
2.4373525
21
44.3412565
0
LINE
8
DEFAULT_255_2_778
10
2.4375525
20
98.9761565
11
3.2099525
21
98.9825565
0
LINE
8
DEFAULT_255_2_778
10
3.2099525
20
98.9825565
11
3.9822525
21
98.9761565
0
LINE
8
DEFAULT_255_2_778
10
72.0764525
20
108.8564565
11
72.0764525
21
108.9260565
0
LINE
8
DEFAULT_255_2_778
10
72.0960525
20
109.5893565
11
72.0986525
21
109.7394565
0
LINE
8
DEFAULT_255_2_778
10
72.0986525
20
109.7394565
11
72.1013525
21
109.5893565
0
LINE
8
DEFAULT_255_2_778
10
72.1013525
20
109.5893565
11
72.0986525
21
109.4393565
0
LINE
8
DEFAULT_255_2_778
10
25.5574525
20
98.3956565
11
25.5574525
21
98.3324565
0
LINE
8
DEFAULT_255_2_778
10
23.0105525
20
98.3956565
11
25.7071525
21
98.3956565
0
LINE
8
DEFAULT_255_2_778
10
72.2248525
20
83.6782565
11
72.3368525
21
83.6782565
0
LINE
8
DEFAULT_255_2_778
10
77.2236525
20
99.1738565
11
75.6255525
21
99.1738565
0
LINE
8
DEFAULT_255_2_778
10
75.6255525
20
99.1738565
11
75.6255525
21
99.0031565
0
LINE
8
DEFAULT_255_2_778
10
25.7069525
20
98.3517565
11
25.7069525
21
98.8573565
0
LINE
8
DEFAULT_255_2_778
10
25.7069525
20
98.3326565
11
25.7069525
21
98.8573565
0
LINE
8
DEFAULT_255_2_778
10
96.0191525
20
34.4061565
11
98.2030525
21
34.4061565
0
LINE
8
DEFAULT_255_2_778
10
98.2030525
20
34.4061565
11
98.2030525
21
34.8459565
0
LINE
8
DEFAULT_255_2_778
10
96.0185525
20
33.8063565
11
98.2030525
21
33.8063565
0
LINE
8
DEFAULT_255_2_778
10
98.2030525
20
33.8063565
11
98.2030525
21
32.5141565
0
LINE
8
DEFAULT_255_2_778
10
96.0191525
20
29.3277565
11
98.2030525
21
29.3277565
0
LINE
8
DEFAULT_255_2_778
10
98.2030525
20
29.3277565
11
98.2030525
21
30.6422565
0
LINE
8
DEFAULT_255_2_778
10
96.0185525
20
28.7279565
11
98.2030525
21
28.7279565
0
LINE
8
DEFAULT_255_2_778
10
98.2030525
20
28.7279565
11
98.2030525
21
27.4357565
0
LINE
8
DEFAULT_255_2_778
10
98.0037525
20
28.5215565
11
98.0037525
21
27.5791565
0
LINE
8
DEFAULT_255_2_778
10
98.0037525
20
27.5791565
11
96.3421525
21
27.1677565
0
LINE
8
DEFAULT_255_2_778
10
96.3421525
20
27.1677565
11
96.1850525
21
27.1751565
0
LINE
8
DEFAULT_255_2_778
10
96.1850525
20
27.1751565
11
96.1850525
21
28.6057565
0
LINE
8
DEFAULT_255_2_778
10
96.1850525
20
28.6057565
11
98.0037525
21
28.5102565
0
LINE
8
DEFAULT_255_2_778
10
2.3754525
20
98.3326565
11
2.3754525
21
98.9584565
0
LINE
8
DEFAULT_255_2_778
10
2.3108525
20
98.3326565
11
2.3108525
21
98.9584565
0
LINE
8
DEFAULT_255_2_778
10
3.9811525
20
44.3754565
11
3.9811525
21
44.3415565
0
LINE
8
DEFAULT_255_2_778
10
3.9811525
20
44.3415565
11
4.0266525
21
44.3436565
0
LINE
8
DEFAULT_255_2_778
10
4.0266525
20
44.3436565
11
4.0266525
21
44.3754565
0
LINE
8
DEFAULT_255_2_778
10
2.3928525
20
44.3754565
11
2.3928525
21
44.3436565
0
LINE
8
DEFAULT_255_2_778
10
2.3928525
20
44.3436565
11
2.4381525
21
44.3415565
0
LINE
8
DEFAULT_255_2_778
10
2.4381525
20
44.3415565
11
2.4381525
21
44.3754565
0
LINE
8
DEFAULT_255_2_778
10
4.0266525
20
98.3326565
11
4.0266525
21
98.9743565
0
LINE
8
DEFAULT_255_2_778
10
4.0266525
20
98.9743565
11
3.9814525
21
98.9764565
0
LINE
8
DEFAULT_255_2_778
10
3.9814525
20
98.9764565
11
3.9811525
21
98.3326565
0
LINE
8
DEFAULT_255_2_778
10
2.4381525
20
98.3326565
11
2.4381525
21
98.9764565
0
LINE
8
DEFAULT_255_2_778
10
2.4381525
20
98.9764565
11
2.3939525
21
98.9753565
0
LINE
8
DEFAULT_255_2_778
10
26.2379525
20
98.3326565
11
26.2379525
21
98.3837565
0
LINE
8
DEFAULT_255_2_778
10
26.2379525
20
98.3837565
11
26.7371525
21
98.3837565
0
LINE
8
DEFAULT_255_2_778
10
26.7371525
20
98.3837565
11
26.7371525
21
98.3326565
0
LINE
8
DEFAULT_255_2_778
10
22.0903525
20
98.3326565
11
22.0903525
21
98.3837565
0
LINE
8
DEFAULT_255_2_778
10
22.0903525
20
98.3837565
11
22.1165525
21
98.3572565
0
LINE
8
DEFAULT_255_2_778
10
96.0193525
20
69.9553565
11
98.2032525
21
69.9553565
0
LINE
8
DEFAULT_255_2_778
10
98.2032525
20
69.9553565
11
98.2032525
21
71.2697565
0
LINE
8
DEFAULT_255_2_778
10
96.0188525
20
69.3555565
11
98.2032525
21
69.3555565
0
LINE
8
DEFAULT_255_2_778
10
98.2032525
20
69.3555565
11
98.2032525
21
68.0633565
0
LINE
8
DEFAULT_255_2_778
10
98.0040525
20
69.1491565
11
98.0040525
21
68.2067565
0
LINE
8
DEFAULT_255_2_778
10
98.0040525
20
68.2067565
11
96.3424525
21
67.7952565
0
LINE
8
DEFAULT_255_2_778
10
96.3424525
20
67.7952565
11
96.1852525
21
67.8026565
0
LINE
8
DEFAULT_255_2_778
10
96.1852525
20
67.8026565
11
96.1852525
21
69.2332565
0
LINE
8
DEFAULT_255_2_778
10
96.1852525
20
69.2332565
11
98.0040525
21
69.1377565
0
LINE
8
DEFAULT_255_2_778
10
96.0193525
20
64.8766565
11
98.2032525
21
64.8766565
0
LINE
8
DEFAULT_255_2_778
10
98.2032525
20
64.8766565
11
98.2032525
21
66.1911565
0
LINE
8
DEFAULT_255_2_778
10
96.0188525
20
64.2768565
11
98.2032525
21
64.2768565
0
LINE
8
DEFAULT_255_2_778
10
98.2032525
20
64.2768565
11
98.2032525
21
62.9846565
0
LINE
8
DEFAULT_255_2_778
10
98.0040525
20
64.0704565
11
98.0040525
21
63.1280565
0
LINE
8
DEFAULT_255_2_778
10
98.0040525
20
63.1280565
11
96.3424525
21
62.7166565
0
LINE
8
DEFAULT_255_2_778
10
96.3424525
20
62.7166565
11
96.1852525
21
62.7240565
0
LINE
8
DEFAULT_255_2_778
10
96.1852525
20
62.7240565
11
96.1852525
21
64.1546565
0
LINE
8
DEFAULT_255_2_778
10
96.1852525
20
64.1546565
11
98.0040525
21
64.0590565
0
LINE
8
DEFAULT_255_2_778
10
85.9382525
20
72.4342565
11
85.5212525
21
72.4342565
0
LINE
8
DEFAULT_255_2_778
10
85.9382525
20
70.8916565
11
85.5212525
21
70.8776565
0
LINE
8
DEFAULT_255_2_778
10
85.9382525
20
70.3916565
11
85.5212525
21
70.3776565
0
LINE
8
DEFAULT_255_2_778
10
85.5212525
20
63.9955565
11
85.9382525
21
63.9955565
0
LINE
8
DEFAULT_255_2_778
10
72.4373525
20
82.1782565
11
72.2251525
21
82.1782565
0
LINE
8
DEFAULT_255_2_778
10
72.4373525
20
81.5464565
11
72.2251525
21
81.5464565
0
LINE
8
DEFAULT_255_2_778
10
72.2251525
20
114.0407565
11
98.1932525
21
114.0407565
0
LINE
8
DEFAULT_255_2_778
10
85.9382525
20
98.8925565
11
85.9382525
21
96.8348565
0
LINE
8
DEFAULT_255_2_778
10
85.9382525
20
99.3669565
11
85.9382525
21
99.0928565
0
LINE
8
DEFAULT_255_2_778
10
72.2251525
20
128.3367565
11
98.1932525
21
128.3367565
0
LINE
8
DEFAULT_255_2_778
10
96.9991525
20
109.5023565
11
96.9991525
21
109.4422565
0
LINE
8
DEFAULT_255_2_778
10
96.4411525
20
109.4422565
11
96.4411525
21
109.5023565
0
LINE
8
DEFAULT_255_2_778
10
35.5560525
20
9.6758565
11
36.0552525
21
9.6758565
0
LINE
8
DEFAULT_255_2_778
10
36.0552525
20
9.6758565
11
36.0552525
21
9.8721565
0
LINE
8
DEFAULT_255_2_778
10
70.7593525
20
9.8721565
11
70.7593525
21
9.6374565
0
LINE
8
DEFAULT_255_2_778
10
56.7583525
20
9.6761565
11
56.7441525
21
8.8640565
0
LINE
8
DEFAULT_255_2_778
10
56.2588525
20
9.8724565
11
56.2588525
21
9.6761565
0
LINE
8
DEFAULT_255_2_778
10
56.2588525
20
9.6761565
11
55.4116525
21
9.6761565
0
LINE
8
DEFAULT_255_2_778
10
55.4116525
20
9.6761565
11
55.4116525
21
9.7216565
0
LINE
8
DEFAULT_255_2_778
10
55.4116525
20
9.7216565
11
55.4100525
21
9.8726565
0
LINE
8
DEFAULT_255_2_778
10
69.3925525
20
51.8284565
11
69.5356525
21
52.7116565
0
LINE
8
DEFAULT_255_2_778
10
69.5356525
20
89.9972565
11
69.3925525
21
90.8804565
0
LINE
8
DEFAULT_255_2_778
10
63.1533525
20
51.2318565
11
63.8333525
21
51.2286565
0
LINE
8
DEFAULT_255_2_778
10
65.0771525
20
51.8284565
11
65.0771525
21
52.7116565
0
LINE
8
DEFAULT_255_2_778
10
65.0771525
20
52.7116565
11
69.5359525
21
52.7116565
0
LINE
8
DEFAULT_255_2_778
10
69.5359525
20
52.7116565
11
69.6340525
21
52.6933565
0
LINE
8
DEFAULT_255_2_778
10
69.6340525
20
90.0157565
11
69.5359525
21
89.9975565
0
LINE
8
DEFAULT_255_2_778
10
69.5359525
20
89.9975565
11
65.0771525
21
89.9975565
0
LINE
8
DEFAULT_255_2_778
10
65.0771525
20
89.9975565
11
65.0771525
21
90.8807565
0
LINE
8
DEFAULT_255_2_778
10
63.8333525
20
91.4807565
11
63.1533525
21
91.4776565
0
LINE
8
DEFAULT_255_2_778
10
0.2132525
20
96.8417565
11
0.2132525
21
45.8660565
0
LINE
8
DEFAULT_255_2_778
10
96.1850525
20
29.4365565
11
96.1850525
21
29.4460565
0
LINE
8
DEFAULT_255_2_778
10
96.0040525
20
29.2825565
11
96.3839525
21
29.2126565
0
LINE
8
DEFAULT_255_2_778
10
96.5556525
20
29.1978565
11
98.1056525
21
29.2140565
0
LINE
8
DEFAULT_255_2_778
10
98.1056525
20
29.2140565
11
98.1045525
21
29.3275565
0
LINE
8
DEFAULT_255_2_778
10
96.0043525
20
34.3606565
11
96.3842525
21
34.2908565
0
LINE
8
DEFAULT_255_2_778
10
96.5559525
20
34.2760565
11
98.1058525
21
34.2921565
0
LINE
8
DEFAULT_255_2_778
10
98.1058525
20
34.2921565
11
98.1048525
21
34.4056565
0
LINE
8
DEFAULT_255_2_778
10
96.1855525
20
28.6165565
11
96.1855525
21
28.6054565
0
LINE
8
DEFAULT_255_2_778
10
97.9778525
20
28.5337565
11
98.0677525
21
28.7277565
0
LINE
8
DEFAULT_255_2_778
10
97.9786525
20
29.5198565
11
98.0677525
21
29.3275565
0
LINE
8
DEFAULT_255_2_778
10
97.9778525
20
33.6121565
11
98.0677525
21
33.8061565
0
LINE
8
DEFAULT_255_2_778
10
97.9786525
20
34.5982565
11
98.0677525
21
34.4059565
0
LINE
8
DEFAULT_255_2_778
10
96.0048525
20
69.9098565
11
96.3847525
21
69.8399565
0
LINE
8
DEFAULT_255_2_778
10
96.5565525
20
69.8251565
11
98.1064525
21
69.8413565
0
LINE
8
DEFAULT_255_2_778
10
98.1064525
20
69.8413565
11
98.1053525
21
69.9548565
0
LINE
8
DEFAULT_255_2_778
10
98.0680525
20
64.8763565
11
97.9788525
21
65.0687565
0
LINE
8
DEFAULT_255_2_778
10
96.1858525
20
69.2330565
11
96.1858525
21
69.2441565
0
LINE
8
DEFAULT_255_2_778
10
72.2624525
20
47.5004565
11
72.3672525
21
47.5229565
0
LINE
8
DEFAULT_255_2_778
10
72.3672525
20
47.5229565
11
72.5251525
21
47.5379565
0
LINE
8
DEFAULT_255_2_778
10
72.5251525
20
47.5379565
11
72.7119525
21
47.5438565
0
LINE
8
DEFAULT_255_2_778
10
72.7119525
20
47.5438565
11
72.7088525
21
47.2056565
0
LINE
8
DEFAULT_255_2_778
10
72.7088525
20
47.2056565
11
72.7080525
21
47.0569565
0
LINE
8
DEFAULT_255_2_778
10
72.7080525
20
47.0569565
11
72.7077525
21
46.9283565
0
LINE
8
DEFAULT_255_2_778
10
72.7077525
20
46.9283565
11
72.7080525
21
46.8238565
0
LINE
8
DEFAULT_255_2_778
10
72.7080525
20
46.8238565
11
72.7088525
21
46.7468565
0
LINE
8
DEFAULT_255_2_778
10
72.7088525
20
46.7468565
11
72.7093525
21
46.7193565
0
LINE
8
DEFAULT_255_2_778
10
72.7093525
20
46.7193565
11
72.7101525
21
46.6995565
0
LINE
8
DEFAULT_255_2_778
10
72.7101525
20
46.6995565
11
72.7109525
21
46.6876565
0
LINE
8
DEFAULT_255_2_778
10
72.7109525
20
46.6876565
11
72.7119525
21
46.6836565
0
LINE
8
DEFAULT_255_2_778
10
72.7119525
20
54.0176565
11
72.7119525
21
52.1954565
0
LINE
8
DEFAULT_255_2_778
10
72.7119525
20
52.1954565
11
72.5251525
21
52.1896565
0
LINE
8
DEFAULT_255_2_778
10
72.5251525
20
52.1896565
11
72.3672525
21
52.1745565
0
LINE
8
DEFAULT_255_2_778
10
72.3672525
20
52.1745565
11
72.2624525
21
52.1520565
0
LINE
8
DEFAULT_255_2_778
10
77.7970525
20
2.9882565
11
77.8475525
21
-0.2452435
0
LINE
8
DEFAULT_255_2_778
10
77.8475525
20
-0.2452435
11
77.7070525
21
-0.2251435
0
LINE
8
DEFAULT_255_2_778
10
77.7070525
20
-0.2251435
11
77.5229525
21
-0.1251435
0
LINE
8
DEFAULT_255_2_778
10
77.5229525
20
-0.1251435
11
77.3959525
21
0.0415565
0
LINE
8
DEFAULT_255_2_778
10
77.3959525
20
0.0415565
11
77.3482525
21
0.2458565
0
LINE
8
DEFAULT_255_2_778
10
84.7886525
20
2.9879565
11
84.8391525
21
-0.2455435
0
LINE
8
DEFAULT_255_2_778
10
84.8391525
20
-0.2455435
11
84.6986525
21
-0.2253435
0
LINE
8
DEFAULT_255_2_778
10
84.6986525
20
-0.2253435
11
84.5145525
21
-0.1253435
0
LINE
8
DEFAULT_255_2_778
10
84.5145525
20
-0.1253435
11
84.3875525
21
0.0413565
0
LINE
8
DEFAULT_255_2_778
10
84.3875525
20
0.0413565
11
84.3399525
21
0.2455565
0
LINE
8
DEFAULT_255_2_778
10
78.8479525
20
0.7117565
11
78.9254525
21
0.7511565
0
LINE
8
DEFAULT_255_2_778
10
78.9254525
20
0.7511565
11
79.1249525
21
0.8038565
0
LINE
8
DEFAULT_255_2_778
10
79.1249525
20
0.8038565
11
79.2937525
21
0.8168565
0
LINE
8
DEFAULT_255_2_778
10
78.7847525
20
0.2455565
11
78.7370525
21
0.0413565
0
LINE
8
DEFAULT_255_2_778
10
78.7370525
20
0.0413565
11
78.6100525
21
-0.1253435
0
LINE
8
DEFAULT_255_2_778
10
78.6100525
20
-0.1253435
11
78.4259525
21
-0.2253435
0
LINE
8
DEFAULT_255_2_778
10
78.4259525
20
-0.2253435
11
78.2854525
21
-0.2455435
0
LINE
8
DEFAULT_255_2_778
10
78.2854525
20
-0.2455435
11
78.3359525
21
2.9879565
0
LINE
8
DEFAULT_255_2_778
10
78.8352525
20
3.1858565
11
78.7918525
21
0.6805565
0
LINE
8
DEFAULT_255_2_778
10
78.7918525
20
0.6805565
11
78.7844525
21
0.2455565
0
LINE
8
DEFAULT_255_2_778
10
78.7844525
20
0.2455565
11
78.7894525
21
0.5228565
0
LINE
8
DEFAULT_255_2_778
10
78.7894525
20
0.5228565
11
78.8278525
21
0.6863565
0
LINE
8
DEFAULT_255_2_778
10
78.8278525
20
0.6863565
11
78.9312525
21
0.8202565
0
LINE
8
DEFAULT_255_2_778
10
78.9312525
20
0.8202565
11
79.0807525
21
0.8993565
0
LINE
8
DEFAULT_255_2_778
10
79.0807525
20
0.8993565
11
79.1884525
21
0.9141565
0
LINE
8
DEFAULT_255_2_778
10
79.1884525
20
0.9141565
11
79.2358525
21
3.4335565
0
LINE
8
DEFAULT_255_2_778
10
83.8305525
20
0.9141565
11
83.8305525
21
0.8170565
0
LINE
8
DEFAULT_255_2_778
10
84.2875525
20
3.2721565
11
84.2890525
21
3.1856565
0
LINE
8
DEFAULT_255_2_778
10
84.2890525
20
3.1856565
11
84.3266525
21
1.0110565
0
LINE
8
DEFAULT_255_2_778
10
84.3266525
20
1.0110565
11
84.3348525
21
0.5254565
0
LINE
8
DEFAULT_255_2_778
10
84.3348525
20
0.5254565
11
84.3393525
21
0.2455565
0
LINE
8
DEFAULT_255_2_778
10
84.3393525
20
0.2455565
11
84.3343525
21
0.5223565
0
LINE
8
DEFAULT_255_2_778
10
84.3343525
20
0.5223565
11
84.2959525
21
0.6861565
0
LINE
8
DEFAULT_255_2_778
10
84.2959525
20
0.6861565
11
84.1925525
21
0.8202565
0
LINE
8
DEFAULT_255_2_778
10
84.1925525
20
0.8202565
11
84.0430525
21
0.8993565
0
LINE
8
DEFAULT_255_2_778
10
84.0430525
20
0.8993565
11
83.9353525
21
0.9141565
0
LINE
8
DEFAULT_255_2_778
10
83.9353525
20
0.9141565
11
83.8879525
21
3.4335565
0
LINE
8
DEFAULT_255_2_778
10
79.3355525
20
3.7634565
11
83.7884525
21
3.7634565
0
LINE
8
DEFAULT_255_2_778
10
79.1887525
20
0.9141565
11
83.9353525
21
0.9141565
0
LINE
8
DEFAULT_255_2_778
10
84.2761525
20
0.7120565
11
84.2245525
21
0.7408565
0
LINE
8
DEFAULT_255_2_778
10
84.2245525
20
0.7408565
11
84.0308525
21
0.7985565
0
LINE
8
DEFAULT_255_2_778
10
84.0308525
20
0.7985565
11
83.8305525
21
0.8168565
0
LINE
8
DEFAULT_255_2_778
10
83.8305525
20
0.8168565
11
79.2935525
21
0.8168565
0
LINE
8
DEFAULT_255_2_778
10
79.2935525
20
0.8168565
11
79.2935525
21
0.9139565
0
LINE
8
DEFAULT_255_2_778
10
83.7884525
20
4.0320565
11
83.7884525
21
3.5232565
0
LINE
8
DEFAULT_255_2_778
10
83.7884525
20
3.5232565
11
79.3358525
21
3.5232565
0
LINE
8
DEFAULT_255_2_778
10
79.3358525
20
3.5232565
11
79.3358525
21
4.0666565
0
LINE
8
DEFAULT_255_2_778
10
77.3437525
20
0.5212565
11
77.3051525
21
0.6861565
0
LINE
8
DEFAULT_255_2_778
10
77.3051525
20
0.6861565
11
77.2017525
21
0.8202565
0
LINE
8
DEFAULT_255_2_778
10
77.2017525
20
0.8202565
11
77.0522525
21
0.8993565
0
LINE
8
DEFAULT_255_2_778
10
77.0522525
20
0.8993565
11
76.9445525
21
0.9141565
0
LINE
8
DEFAULT_255_2_778
10
76.9445525
20
0.9141565
11
76.8971525
21
3.4335565
0
LINE
8
DEFAULT_255_2_778
10
71.8568525
20
0.7120565
11
71.9343525
21
0.7514565
0
LINE
8
DEFAULT_255_2_778
10
71.9343525
20
0.7514565
11
72.1338525
21
0.8041565
0
LINE
8
DEFAULT_255_2_778
10
72.1338525
20
0.8041565
11
72.3026525
21
0.8170565
0
LINE
8
DEFAULT_255_2_778
10
71.7983525
20
0.5215565
11
71.8370525
21
0.6863565
0
LINE
8
DEFAULT_255_2_778
10
71.8370525
20
0.6863565
11
71.9404525
21
0.8202565
0
LINE
8
DEFAULT_255_2_778
10
71.9404525
20
0.8202565
11
72.0899525
21
0.8993565
0
LINE
8
DEFAULT_255_2_778
10
72.0899525
20
0.8993565
11
72.1976525
21
0.9141565
0
LINE
8
DEFAULT_255_2_778
10
72.1976525
20
0.9141565
11
72.2450525
21
3.4335565
0
LINE
8
DEFAULT_255_2_778
10
71.7983525
20
0.5225565
11
71.7933525
21
0.2453565
0
LINE
8
DEFAULT_255_2_778
10
71.7933525
20
0.2453565
11
71.8007525
21
0.6802565
0
LINE
8
DEFAULT_255_2_778
10
71.8007525
20
0.6802565
11
71.8441525
21
3.1856565
0
LINE
8
DEFAULT_255_2_778
10
71.3448525
20
2.9877565
11
71.2943525
21
-0.2457435
0
LINE
8
DEFAULT_255_2_778
10
71.2943525
20
-0.2457435
11
71.4348525
21
-0.2256435
0
LINE
8
DEFAULT_255_2_778
10
71.4348525
20
-0.2256435
11
71.6189525
21
-0.1256435
0
LINE
8
DEFAULT_255_2_778
10
71.6189525
20
-0.1256435
11
71.7460525
21
0.0410565
0
LINE
8
DEFAULT_255_2_778
10
71.7460525
20
0.0410565
11
71.7936525
21
0.2453565
0
LINE
8
DEFAULT_255_2_778
10
76.8400525
20
0.9139565
11
76.8400525
21
0.8168565
0
LINE
8
DEFAULT_255_2_778
10
77.2969525
20
3.2718565
11
77.2985525
21
3.1853565
0
LINE
8
DEFAULT_255_2_778
10
77.2985525
20
3.1853565
11
77.3360525
21
1.0107565
0
LINE
8
DEFAULT_255_2_778
10
77.3360525
20
1.0107565
11
77.3443525
21
0.5252565
0
LINE
8
DEFAULT_255_2_778
10
77.3443525
20
0.5252565
11
77.3488525
21
0.2453565
0
LINE
8
DEFAULT_255_2_778
10
77.3488525
20
0.2453565
11
77.3437525
21
0.5220565
0
LINE
8
DEFAULT_255_2_778
10
77.3411525
20
0.6805565
11
77.3440525
21
0.5207565
0
LINE
8
DEFAULT_255_2_778
10
77.3440525
20
0.5207565
11
77.3413525
21
0.6802565
0
LINE
8
DEFAULT_255_2_778
10
77.3413525
20
0.6802565
11
77.2966525
21
3.2716565
0
LINE
8
DEFAULT_255_2_778
10
76.7974525
20
3.7626565
11
72.3431525
21
3.7626565
0
LINE
8
DEFAULT_255_2_778
10
72.1960525
20
0.9136565
11
76.9426525
21
0.9136565
0
LINE
8
DEFAULT_255_2_778
10
77.2834525
20
0.7114565
11
77.2318525
21
0.7403565
0
LINE
8
DEFAULT_255_2_778
10
77.2318525
20
0.7403565
11
77.0381525
21
0.7980565
0
LINE
8
DEFAULT_255_2_778
10
77.0381525
20
0.7980565
11
76.8379525
21
0.8162565
0
LINE
8
DEFAULT_255_2_778
10
76.8379525
20
0.8162565
11
72.3008525
21
0.8162565
0
LINE
8
DEFAULT_255_2_778
10
72.3008525
20
0.8162565
11
72.3008525
21
0.9133565
0
LINE
8
DEFAULT_255_2_778
10
98.0035525
20
35.5595565
11
98.0035525
21
34.6181565
0
LINE
8
DEFAULT_255_2_778
10
98.0035525
20
34.6181565
11
96.1847525
21
34.5226565
0
LINE
8
DEFAULT_255_2_778
10
96.1847525
20
34.5226565
11
96.1847525
21
35.9555565
0
LINE
8
DEFAULT_255_2_778
10
96.1847525
20
35.9555565
11
96.3419525
21
35.9637565
0
LINE
8
DEFAULT_255_2_778
10
96.3419525
20
35.9637565
11
98.0035525
21
35.5595565
0
LINE
8
DEFAULT_255_2_778
10
98.1040525
20
33.8045565
11
98.1051525
21
33.9180565
0
LINE
8
DEFAULT_255_2_778
10
98.1051525
20
33.9180565
11
96.5551525
21
33.9341565
0
LINE
8
DEFAULT_255_2_778
10
96.3834525
20
33.9193565
11
96.0032525
21
33.8495565
0
LINE
8
DEFAULT_255_2_778
10
98.0032525
20
29.5397565
11
98.0032525
21
29.5301565
0
LINE
8
DEFAULT_255_2_778
10
98.0032525
20
30.4810565
11
98.0032525
21
29.5397565
0
LINE
8
DEFAULT_255_2_778
10
98.0032525
20
29.5397565
11
96.1844525
21
29.4441565
0
LINE
8
DEFAULT_255_2_778
10
96.1844525
20
29.4441565
11
96.1844525
21
30.8771565
0
LINE
8
DEFAULT_255_2_778
10
96.1844525
20
30.8771565
11
96.3416525
21
30.8853565
0
LINE
8
DEFAULT_255_2_778
10
96.3416525
20
30.8853565
11
98.0032525
21
30.4810565
0
LINE
8
DEFAULT_255_2_778
10
98.1037525
20
28.7261565
11
98.1048525
21
28.8396565
0
LINE
8
DEFAULT_255_2_778
10
98.1048525
20
28.8396565
11
96.5549525
21
28.8557565
0
LINE
8
DEFAULT_255_2_778
10
96.3831525
20
28.8409565
11
96.0029525
21
28.7710565
0
LINE
8
DEFAULT_255_2_778
10
95.9947525
20
27.3725565
11
95.9947525
21
30.6636565
0
LINE
8
DEFAULT_255_2_778
10
95.9945525
20
32.4527565
11
95.9945525
21
35.7423565
0
LINE
8
DEFAULT_255_2_778
10
98.1916525
20
32.5882565
11
98.1916525
21
30.5752565
0
LINE
8
DEFAULT_255_2_778
10
95.9942525
20
62.9240565
11
95.9942525
21
66.2130565
0
LINE
8
DEFAULT_255_2_778
10
98.0021525
20
71.1105565
11
98.0021525
21
70.1691565
0
LINE
8
DEFAULT_255_2_778
10
98.0021525
20
70.1691565
11
96.1834525
21
70.0736565
0
LINE
8
DEFAULT_255_2_778
10
96.1834525
20
70.0736565
11
96.1834525
21
71.5065565
0
LINE
8
DEFAULT_255_2_778
10
96.1834525
20
71.5065565
11
96.3405525
21
71.5147565
0
LINE
8
DEFAULT_255_2_778
10
96.3405525
20
71.5147565
11
98.0021525
21
71.1105565
0
LINE
8
DEFAULT_255_2_778
10
98.1027525
20
69.3555565
11
98.1037525
21
69.4690565
0
LINE
8
DEFAULT_255_2_778
10
98.1037525
20
69.4690565
11
96.5538525
21
69.4851565
0
LINE
8
DEFAULT_255_2_778
10
96.3821525
20
69.4703565
11
96.0019525
21
69.4005565
0
LINE
8
DEFAULT_255_2_778
10
98.0019525
20
65.0907565
11
98.0019525
21
65.0811565
0
LINE
8
DEFAULT_255_2_778
10
96.6324525
20
64.4059565
11
96.6311525
21
64.2768565
0
LINE
8
DEFAULT_255_2_778
10
96.6311525
20
64.8766565
11
96.6324525
21
64.7475565
0
LINE
8
DEFAULT_255_2_778
10
98.0019525
20
66.0318565
11
98.0019525
21
65.0904565
0
LINE
8
DEFAULT_255_2_778
10
98.0019525
20
65.0904565
11
96.1831525
21
64.9949565
0
LINE
8
DEFAULT_255_2_778
10
96.1831525
20
64.9949565
11
96.1831525
21
66.4279565
0
LINE
8
DEFAULT_255_2_778
10
96.1831525
20
66.4279565
11
96.3403525
21
66.4361565
0
LINE
8
DEFAULT_255_2_778
10
96.3403525
20
66.4361565
11
98.0019525
21
66.0318565
0
LINE
8
DEFAULT_255_2_778
10
98.1024525
20
64.2768565
11
98.1035525
21
64.3903565
0
LINE
8
DEFAULT_255_2_778
10
98.1035525
20
64.3903565
11
96.5535525
21
64.4064565
0
LINE
8
DEFAULT_255_2_778
10
96.3818525
20
64.3916565
11
96.0016525
21
64.3218565
0
LINE
8
DEFAULT_255_2_778
10
95.9934525
20
68.0016565
11
95.9934525
21
71.2912565
0
LINE
8
DEFAULT_255_2_778
10
98.1905525
20
68.1059565
11
98.1905525
21
66.1866565
0
LINE
8
DEFAULT_255_2_778
10
25.5074525
20
98.8570565
11
25.5074525
21
98.3956565
0
LINE
8
DEFAULT_255_2_778
10
25.3716525
20
98.8570565
11
25.3716525
21
98.3956565
0
LINE
8
DEFAULT_255_2_778
10
0.9755525
20
71.1038565
11
0.7900525
21
71.1049565
0
LINE
8
DEFAULT_255_2_778
10
0.7900525
20
71.6026565
11
0.9755525
21
71.6036565
0
LINE
8
DEFAULT_255_2_778
10
45.1580525
20
71.4536565
11
45.1580525
21
71.2536565
0
LINE
8
DEFAULT_255_2_778
10
85.0428525
20
2.9885565
11
84.9947525
21
-0.2449435
0
LINE
8
DEFAULT_255_2_778
10
84.9947525
20
-0.2449435
11
85.2958525
21
-0.1817435
0
LINE
8
DEFAULT_255_2_778
10
85.2958525
20
-0.1817435
11
85.5286525
21
-0.0211435
0
LINE
8
DEFAULT_255_2_778
10
85.5286525
20
-0.0211435
11
85.6852525
21
0.2146565
0
LINE
8
DEFAULT_255_2_778
10
85.6852525
20
0.2146565
11
85.7434525
21
0.4916565
0
ENDSEC
0
EOF