0
SECTION
2
HEADER
9
$MEASUREMENT
70
1
0
ENDSEC
0
SECTION
2
TABLES
0
TABLE
2
LTYPE
0
LTYPE
72
65
70
64
2
CONTINUOUS
3
______
73
0
40
0
0
ENDTAB
0
TABLE
2
LAYER
0
LAYER
2
DEFAULT_255_2_778
70
0
62
255
6
CONTINUOUS
0
ENDTAB
0
ENDSEC
0
SECTION
2
ENTITIES
0
ARC
8
DEFAULT_255_2_778
10
90.8970362
20
86.8671492
40
0.750028
50
45.0084437
51
89.9945252
0
ARC
8
DEFAULT_255_2_778
10
90.8965307
20
86.8671607
40
0.7503772
50
0.0165237
51
44.9805217
0
ARC
8
DEFAULT_255_2_778
10
90.8968795
20
76.8674491
40
0.7500284
50
315.0084514
51
359.9945033
0
ARC
8
DEFAULT_255_2_778
10
90.8968918
20
76.8679539
40
0.7503767
50
270.0165018
51
314.9805294
0
ARC
8
DEFAULT_255_2_778
10
36.3971794
20
76.8676049
40
0.7500278
50
225.0084399
51
269.994536
0
ARC
8
DEFAULT_255_2_778
10
36.3976844
20
76.8675931
40
0.7503765
50
180.0164909
51
224.9805332
0
ARC
8
DEFAULT_255_2_778
10
36.3973353
20
86.8673054
40
0.7500273
50
135.008405
51
179.9945195
0
ARC
8
DEFAULT_255_2_778
10
36.3973239
20
86.8668006
40
0.7503765
50
90.0164909
51
134.9805332
0
ARC
8
DEFAULT_255_2_778
10
88.2715252
20
54.6658942
40
0.5001831
50
0.0667788
51
89.9561556
0
ARC
8
DEFAULT_255_2_778
10
88.6371478
20
3.088094
40
0.1781604
50
359.9696533
51
0.0910426
0
ARC
8
DEFAULT_255_2_778
10
88.315593
20
3.0879659
40
0.4997151
50
315.0102269
51
0.0038708
0
ARC
8
DEFAULT_255_2_778
10
88.3150756
20
3.0882792
40
0.5003024
50
270.0495072
51
315.0267424
0
ARC
8
DEFAULT_255_2_778
10
55.1657051
20
3.0880742
40
0.5000973
50
180.0225813
51
269.9544912
0
ARC
8
DEFAULT_255_2_778
10
55.1656836
20
54.6660014
40
0.5000758
50
90.0430481
51
179.9684087
0
LINE
8
DEFAULT_255_2_778
10
91.6469079
20
86.8673771
11
91.6469079
21
76.8673771
0
LINE
8
DEFAULT_255_2_778
10
90.8971079
20
76.1175771
11
36.3971079
21
76.1175771
0
LINE
8
DEFAULT_255_2_778
10
35.6473079
20
76.8673771
11
35.6473079
21
86.8673771
0
LINE
8
DEFAULT_255_2_778
10
36.3971079
20
87.6171771
11
90.8971079
21
87.6171771
0
LINE
8
DEFAULT_255_2_778
10
88.7717079
20
54.6664771
11
88.8153079
21
3.0883771
0
LINE
8
DEFAULT_255_2_778
10
88.3155079
20
2.5879771
11
55.1653079
21
2.5879771
0
LINE
8
DEFAULT_255_2_778
10
54.6656079
20
3.0878771
11
54.6656079
21
54.6662771
0
LINE
8
DEFAULT_255_2_778
10
55.1653079
20
55.1660771
11
88.2719079
21
55.1660771
0
ARC
8
DEFAULT_255_2_778
10
56.5168146
20
48.818311
40
0.5000116
50
270.0013268
51
0.0101312
0
ARC
8
DEFAULT_255_2_778
10
57.5169231
20
52.6183024
40
0.5000969
50
89.9996485
51
180.0003515
0
ARC
8
DEFAULT_255_2_778
10
62.4170146
20
52.6183878
40
0.5000116
50
359.9898688
51
89.9986732
0
LINE
8
DEFAULT_255_2_778
10
55.9167261
20
48.1481994
11
55.9167261
21
48.3182994
0
LINE
8
DEFAULT_255_2_778
10
55.9167261
20
48.3182994
11
56.5168261
21
48.3182994
0
LINE
8
DEFAULT_255_2_778
10
57.0168261
20
48.8183994
11
57.0168261
21
52.6182994
0
LINE
8
DEFAULT_255_2_778
10
57.5169261
20
53.1183994
11
62.4170261
21
53.1183994
0
LINE
8
DEFAULT_255_2_778
10
62.9170261
20
52.6182994
11
62.9170261
21
48.1481994
0
ARC
8
DEFAULT_255_2_778
10
62.4164752
20
5.1282854
40
0.5000969
50
269.9996485
51
0.0003515
0
ARC
8
DEFAULT_255_2_778
10
57.516669
20
5.1282854
40
0.5000969
50
179.9996485
51
270.0003515
0
ARC
8
DEFAULT_255_2_778
10
56.5164965
20
8.9282129
40
0.5000756
50
359.9972001
51
89.9913338
0
LINE
8
DEFAULT_255_2_778
10
62.9181721
20
9.6081884
11
62.9165721
21
5.1282884
0
LINE
8
DEFAULT_255_2_778
10
62.4164721
20
4.6281884
11
57.5166721
21
4.6281884
0
LINE
8
DEFAULT_255_2_778
10
57.0165721
20
5.1282884
11
57.0165721
21
8.9281884
0
LINE
8
DEFAULT_255_2_778
10
56.5165721
20
9.4282884
11
55.9164721
21
9.4282884
0
LINE
8
DEFAULT_255_2_778
10
55.9164721
20
9.4282884
11
55.9164721
21
9.6081884
0
LINE
8
DEFAULT_255_2_778
10
55.3667
20
9.6082038
11
55.3667
21
48.1482038
0
LINE
8
DEFAULT_255_2_778
10
62.9165428
20
9.6082038
11
62.9165428
21
48.1482038
0
LINE
8
DEFAULT_255_2_778
10
62.9165428
20
48.1482038
11
55.1666428
21
48.1482038
0
LINE
8
DEFAULT_255_2_778
10
55.1666428
20
48.1482038
11
55.1666428
21
9.6082038
0
LINE
8
DEFAULT_255_2_778
10
55.1666428
20
9.6082038
11
62.9165428
21
9.6082038
0
LINE
8
DEFAULT_255_2_778
10
62.7224
20
48.1482038
11
62.7224
21
9.6082038
0
ARC
8
DEFAULT_255_2_778
10
59.9739236
20
7.2316082
40
1.9516044
50
156.1319169
51
180.100711
0
ARC
8
DEFAULT_255_2_778
10
59.9678063
20
7.2323111
40
1.9457268
50
100.1292829
51
156.0779549
0
ARC
8
DEFAULT_255_2_778
10
59.971342
20
7.2013373
40
1.9768408
50
89.971592
51
100.0722797
0
ARC
8
DEFAULT_255_2_778
10
59.9757526
20
7.2265764
40
1.9516044
50
66.1319169
51
90.100711
0
ARC
8
DEFAULT_255_2_778
10
59.9764554
20
7.2326937
40
1.9457268
50
10.1292829
51
66.0779549
0
ARC
8
DEFAULT_255_2_778
10
59.9454817
20
7.229158
40
1.9768408
50
359.971592
51
10.0722797
0
ARC
8
DEFAULT_255_2_778
10
59.9707208
20
7.2247474
40
1.9516044
50
336.1319169
51
0.100711
0
ARC
8
DEFAULT_255_2_778
10
59.976838
20
7.2240446
40
1.9457268
50
280.1292829
51
336.0779549
0
ARC
8
DEFAULT_255_2_778
10
59.9733023
20
7.2550183
40
1.9768408
50
269.971592
51
280.0722797
0
ARC
8
DEFAULT_255_2_778
10
59.9688918
20
7.2297792
40
1.9516044
50
246.1319169
51
270.100711
0
ARC
8
DEFAULT_255_2_778
10
59.9681889
20
7.223662
40
1.9457268
50
190.1292829
51
246.0779549
0
ARC
8
DEFAULT_255_2_778
10
59.9991627
20
7.2271977
40
1.9768408
50
179.971592
51
190.0722797
0
LINE
8
DEFAULT_255_2_778
10
58.0223222
20
7.2281778
11
58.0223222
21
7.2281778
0
ARC
8
DEFAULT_255_2_778
10
61.7759775
20
5.8067901
40
0.9964361
50
318.3557664
51
0.0833208
0
ARC
8
DEFAULT_255_2_778
10
61.773372
20
5.8057783
40
0.997714
50
271.7306446
51
318.498614
0
ARC
8
DEFAULT_255_2_778
10
61.7722223
20
5.8271629
40
1.0191238
50
269.9994553
51
271.7589451
0
ARC
8
DEFAULT_255_2_778
10
58.170889
20
5.8043199
40
0.9962817
50
228.352397
51
270.0818679
0
ARC
8
DEFAULT_255_2_778
10
58.1699933
20
5.8070848
40
0.9977557
50
181.7308645
51
228.4963478
0
ARC
8
DEFAULT_255_2_778
10
58.1913363
20
5.8082295
40
1.0191238
50
179.9994553
51
181.7589451
0
LINE
8
DEFAULT_255_2_778
10
62.7724126
20
9.6081392
11
62.7724126
21
5.8082392
0
LINE
8
DEFAULT_255_2_778
10
61.7722126
20
4.8080392
11
58.1723126
21
4.8080392
0
LINE
8
DEFAULT_255_2_778
10
57.1722126
20
5.8082392
11
57.1722126
21
9.6081392
0
ARC
8
DEFAULT_255_2_778
10
59.9739236
20
50.3839082
40
1.9516044
50
156.1319169
51
180.100711
0
ARC
8
DEFAULT_255_2_778
10
59.9678063
20
50.3846111
40
1.9457268
50
100.1292829
51
156.0779549
0
ARC
8
DEFAULT_255_2_778
10
59.971342
20
50.3536373
40
1.9768408
50
89.971592
51
100.0722797
0
ARC
8
DEFAULT_255_2_778
10
59.9757526
20
50.3788764
40
1.9516044
50
66.1319169
51
90.100711
0
ARC
8
DEFAULT_255_2_778
10
59.9764554
20
50.3849937
40
1.9457268
50
10.1292829
51
66.0779549
0
ARC
8
DEFAULT_255_2_778
10
59.9454817
20
50.381458
40
1.9768408
50
359.971592
51
10.0722797
0
ARC
8
DEFAULT_255_2_778
10
59.9707208
20
50.3770474
40
1.9516044
50
336.1319169
51
0.100711
0
ARC
8
DEFAULT_255_2_778
10
59.976838
20
50.3763446
40
1.9457268
50
280.1292829
51
336.0779549
0
ARC
8
DEFAULT_255_2_778
10
59.9733023
20
50.4073183
40
1.9768408
50
269.971592
51
280.0722797
0
ARC
8
DEFAULT_255_2_778
10
59.9688918
20
50.3820792
40
1.9516044
50
246.1319169
51
270.100711
0
ARC
8
DEFAULT_255_2_778
10
59.9681889
20
50.375962
40
1.9457268
50
190.1292829
51
246.0779549
0
ARC
8
DEFAULT_255_2_778
10
59.9991627
20
50.3794977
40
1.9768408
50
179.971592
51
190.0722797
0
LINE
8
DEFAULT_255_2_778
10
58.0223222
20
50.3804778
11
58.0223222
21
50.3804778
0
ARC
8
DEFAULT_255_2_778
10
58.1688342
20
51.8069488
40
0.9963226
50
138.3541388
51
180.0816049
0
ARC
8
DEFAULT_255_2_778
10
58.1714962
20
51.8079683
40
0.9976376
50
91.732932
51
138.4994886
0
ARC
8
DEFAULT_255_2_778
10
58.1726029
20
51.7868705
40
1.0187592
50
89.9994554
51
91.7592612
0
ARC
8
DEFAULT_255_2_778
10
61.7739571
20
51.8091538
40
0.996477
50
48.3575081
51
90.0830578
0
ARC
8
DEFAULT_255_2_778
10
61.7750926
20
51.8066512
40
0.9975959
50
1.7327121
51
48.5017548
0
ARC
8
DEFAULT_255_2_778
10
61.7539534
20
51.8055394
40
1.0187592
50
359.9994554
51
1.7592612
0
LINE
8
DEFAULT_255_2_778
10
57.1725126
20
48.1481297
11
57.1725126
21
51.8055297
0
LINE
8
DEFAULT_255_2_778
10
58.1726126
20
52.8056297
11
61.7725126
21
52.8056297
0
LINE
8
DEFAULT_255_2_778
10
62.7727126
20
51.8055297
11
62.7727126
21
48.1481297
0
ARC
8
DEFAULT_255_2_778
10
60.8646967
20
42.0862613
40
1.4980165
50
151.5794485
51
180.1201144
0
ARC
8
DEFAULT_255_2_778
10
60.8629147
20
42.0865466
40
1.4963136
50
98.4345278
51
151.556579
0
ARC
8
DEFAULT_255_2_778
10
60.8660344
20
42.0590749
40
1.523946
50
89.9793545
51
98.3990533
0
ARC
8
DEFAULT_255_2_778
10
60.8697013
20
42.0849735
40
1.4980506
50
61.5830241
51
90.1192473
0
ARC
8
DEFAULT_255_2_778
10
60.8700709
20
42.0868208
40
1.4962501
50
8.4354362
51
61.5618085
0
ARC
8
DEFAULT_255_2_778
10
60.8423881
20
42.0836732
40
1.5240956
50
359.9792366
51
8.3998208
0
ARC
8
DEFAULT_255_2_778
10
60.8683843
20
42.0799581
40
1.4981026
50
331.5802751
51
0.1209614
0
ARC
8
DEFAULT_255_2_778
10
60.8703286
20
42.079623
40
1.4962333
50
278.4320341
51
331.5561276
0
ARC
8
DEFAULT_255_2_778
10
60.8671339
20
42.107352
40
1.5241313
50
269.9793083
51
278.3979756
0
ARC
8
DEFAULT_255_2_778
10
60.8634875
20
42.0810596
40
1.497842
50
241.5777617
51
270.1184315
0
ARC
8
DEFAULT_255_2_778
10
60.8633034
20
42.0796053
40
1.4964755
50
188.4395422
51
241.5574586
0
ARC
8
DEFAULT_255_2_778
10
60.8902221
20
42.082573
40
1.5235387
50
179.9793954
51
188.4013619
0
ARC
8
DEFAULT_255_2_778
10
60.8646967
20
45.8962613
40
1.4980165
50
151.5794485
51
180.1201144
0
ARC
8
DEFAULT_255_2_778
10
60.8629147
20
45.8965466
40
1.4963136
50
98.4345278
51
151.556579
0
ARC
8
DEFAULT_255_2_778
10
60.8660344
20
45.8690749
40
1.523946
50
89.9793545
51
98.3990533
0
ARC
8
DEFAULT_255_2_778
10
60.8696796
20
45.8951821
40
1.497842
50
61.5777617
51
90.1184315
0
ARC
8
DEFAULT_255_2_778
10
60.8698637
20
45.8966364
40
1.4964755
50
8.4395422
51
61.5574586
0
ARC
8
DEFAULT_255_2_778
10
60.842945
20
45.8936687
40
1.5235387
50
359.9793954
51
8.4013619
0
ARC
8
DEFAULT_255_2_778
10
60.8686448
20
45.8900248
40
1.497842
50
331.5777617
51
0.1184315
0
ARC
8
DEFAULT_255_2_778
10
60.870099
20
45.8898407
40
1.4964755
50
278.4395422
51
331.5574586
0
ARC
8
DEFAULT_255_2_778
10
60.8671314
20
45.9167594
40
1.5235387
50
269.9793954
51
278.4013619
0
ARC
8
DEFAULT_255_2_778
10
60.8634544
20
45.8913695
40
1.4981519
50
241.5856128
51
270.11967
0
ARC
8
DEFAULT_255_2_778
10
60.8629924
20
45.8893286
40
1.4961372
50
188.4333789
51
241.563985
0
ARC
8
DEFAULT_255_2_778
10
60.8910581
20
45.8925664
40
1.5243748
50
179.9791601
51
188.3990496
0
ARC
8
DEFAULT_255_2_778
10
60.8646967
20
34.4662613
40
1.4980165
50
151.5794485
51
180.1201144
0
ARC
8
DEFAULT_255_2_778
10
60.8629147
20
34.4665466
40
1.4963136
50
98.4345278
51
151.556579
0
ARC
8
DEFAULT_255_2_778
10
60.8660344
20
34.4390749
40
1.523946
50
89.9793545
51
98.3990533
0
ARC
8
DEFAULT_255_2_778
10
60.8696796
20
34.4651821
40
1.497842
50
61.5777617
51
90.1184315
0
ARC
8
DEFAULT_255_2_778
10
60.8698637
20
34.4666364
40
1.4964755
50
8.4395422
51
61.5574586
0
ARC
8
DEFAULT_255_2_778
10
60.842945
20
34.4636687
40
1.5235387
50
359.9793954
51
8.4013619
0
ARC
8
DEFAULT_255_2_778
10
60.8686448
20
34.4600248
40
1.497842
50
331.5777617
51
0.1184315
0
ARC
8
DEFAULT_255_2_778
10
60.870099
20
34.4598407
40
1.4964755
50
278.4395422
51
331.5574586
0
ARC
8
DEFAULT_255_2_778
10
60.8671314
20
34.4867594
40
1.5235387
50
269.9793954
51
278.4013619
0
ARC
8
DEFAULT_255_2_778
10
60.8634875
20
34.4610596
40
1.497842
50
241.5777617
51
270.1184315
0
ARC
8
DEFAULT_255_2_778
10
60.8633034
20
34.4596053
40
1.4964755
50
188.4395422
51
241.5574586
0
ARC
8
DEFAULT_255_2_778
10
60.8902221
20
34.462573
40
1.5235387
50
179.9793954
51
188.4013619
0
ARC
8
DEFAULT_255_2_778
10
60.8646967
20
38.2762613
40
1.4980165
50
151.5794485
51
180.1201144
0
ARC
8
DEFAULT_255_2_778
10
60.8629147
20
38.2765466
40
1.4963136
50
98.4345278
51
151.556579
0
ARC
8
DEFAULT_255_2_778
10
60.8660344
20
38.2490749
40
1.523946
50
89.9793545
51
98.3990533
0
ARC
8
DEFAULT_255_2_778
10
60.8696796
20
38.2751821
40
1.497842
50
61.5777617
51
90.1184315
0
ARC
8
DEFAULT_255_2_778
10
60.8698637
20
38.2766364
40
1.4964755
50
8.4395422
51
61.5574586
0
ARC
8
DEFAULT_255_2_778
10
60.842945
20
38.2736687
40
1.5235387
50
359.9793954
51
8.4013619
0
ARC
8
DEFAULT_255_2_778
10
60.8686448
20
38.2700248
40
1.497842
50
331.5777617
51
0.1184315
0
ARC
8
DEFAULT_255_2_778
10
60.870099
20
38.2698407
40
1.4964755
50
278.4395422
51
331.5574586
0
ARC
8
DEFAULT_255_2_778
10
60.8671314
20
38.2967594
40
1.5235387
50
269.9793954
51
278.4013619
0
ARC
8
DEFAULT_255_2_778
10
60.8634875
20
38.2710596
40
1.497842
50
241.5777617
51
270.1184315
0
ARC
8
DEFAULT_255_2_778
10
60.8633034
20
38.2696053
40
1.4964755
50
188.4395422
51
241.5574586
0
ARC
8
DEFAULT_255_2_778
10
60.8902221
20
38.272573
40
1.5235387
50
179.9793954
51
188.4013619
0
ARC
8
DEFAULT_255_2_778
10
60.8646967
20
26.8462613
40
1.4980165
50
151.5794485
51
180.1201144
0
ARC
8
DEFAULT_255_2_778
10
60.8629147
20
26.8465466
40
1.4963136
50
98.4345278
51
151.556579
0
ARC
8
DEFAULT_255_2_778
10
60.8660344
20
26.8190749
40
1.523946
50
89.9793545
51
98.3990533
0
ARC
8
DEFAULT_255_2_778
10
60.8696796
20
26.8451821
40
1.497842
50
61.5777617
51
90.1184315
0
ARC
8
DEFAULT_255_2_778
10
60.8698637
20
26.8466364
40
1.4964755
50
8.4395422
51
61.5574586
0
ARC
8
DEFAULT_255_2_778
10
60.842945
20
26.8436687
40
1.5235387
50
359.9793954
51
8.4013619
0
ARC
8
DEFAULT_255_2_778
10
60.8686448
20
26.8400248
40
1.497842
50
331.5777617
51
0.1184315
0
ARC
8
DEFAULT_255_2_778
10
60.870099
20
26.8398407
40
1.4964755
50
278.4395422
51
331.5574586
0
ARC
8
DEFAULT_255_2_778
10
60.8671314
20
26.8667594
40
1.5235387
50
269.9793954
51
278.4013619
0
ARC
8
DEFAULT_255_2_778
10
60.8634875
20
26.8410596
40
1.497842
50
241.5777617
51
270.1184315
0
ARC
8
DEFAULT_255_2_778
10
60.8633034
20
26.8396053
40
1.4964755
50
188.4395422
51
241.5574586
0
ARC
8
DEFAULT_255_2_778
10
60.8902221
20
26.842573
40
1.5235387
50
179.9793954
51
188.4013619
0
ARC
8
DEFAULT_255_2_778
10
60.8646967
20
30.6562613
40
1.4980165
50
151.5794485
51
180.1201144
0
ARC
8
DEFAULT_255_2_778
10
60.8629147
20
30.6565466
40
1.4963136
50
98.4345278
51
151.556579
0
ARC
8
DEFAULT_255_2_778
10
60.8660344
20
30.6290749
40
1.523946
50
89.9793545
51
98.3990533
0
ARC
8
DEFAULT_255_2_778
10
60.8696796
20
30.6551821
40
1.497842
50
61.5777617
51
90.1184315
0
ARC
8
DEFAULT_255_2_778
10
60.8698637
20
30.6566364
40
1.4964755
50
8.4395422
51
61.5574586
0
ARC
8
DEFAULT_255_2_778
10
60.842945
20
30.6536687
40
1.5235387
50
359.9793954
51
8.4013619
0
ARC
8
DEFAULT_255_2_778
10
60.8685131
20
30.6500348
40
1.4979736
50
331.5790435
51
0.1180395
0
ARC
8
DEFAULT_255_2_778
10
60.8700246
20
30.64978
40
1.4965231
50
278.442153
51
331.5600789
0
ARC
8
DEFAULT_255_2_778
10
60.8671301
20
30.6764744
40
1.5233536
50
269.9794418
51
278.4024397
0
ARC
8
DEFAULT_255_2_778
10
60.863496
20
30.6508241
40
1.4977064
50
241.5745851
51
270.1181169
0
ARC
8
DEFAULT_255_2_778
10
60.8634617
20
30.6496244
40
1.4966352
50
188.4394625
51
241.5538755
0
ARC
8
DEFAULT_255_2_778
10
60.8902709
20
30.6525741
40
1.5235875
50
179.9794408
51
188.4012255
0
ARC
8
DEFAULT_255_2_778
10
60.8646967
20
19.2262613
40
1.4980165
50
151.5794485
51
180.1201144
0
ARC
8
DEFAULT_255_2_778
10
60.8629147
20
19.2265466
40
1.4963136
50
98.4345278
51
151.556579
0
ARC
8
DEFAULT_255_2_778
10
60.8660344
20
19.1990749
40
1.523946
50
89.9793545
51
98.3990533
0
ARC
8
DEFAULT_255_2_778
10
60.8696796
20
19.2251821
40
1.497842
50
61.5777617
51
90.1184315
0
ARC
8
DEFAULT_255_2_778
10
60.8698637
20
19.2266364
40
1.4964755
50
8.4395422
51
61.5574586
0
ARC
8
DEFAULT_255_2_778
10
60.842945
20
19.2236687
40
1.5235387
50
359.9793954
51
8.4013619
0
ARC
8
DEFAULT_255_2_778
10
60.8686448
20
19.2200248
40
1.497842
50
331.5777617
51
0.1184315
0
ARC
8
DEFAULT_255_2_778
10
60.870099
20
19.2198407
40
1.4964755
50
278.4395422
51
331.5574586
0
ARC
8
DEFAULT_255_2_778
10
60.8671314
20
19.2467594
40
1.5235387
50
269.9793954
51
278.4013619
0
ARC
8
DEFAULT_255_2_778
10
60.8634875
20
19.2210596
40
1.497842
50
241.5777617
51
270.1184315
0
ARC
8
DEFAULT_255_2_778
10
60.8633034
20
19.2196053
40
1.4964755
50
188.4395422
51
241.5574586
0
ARC
8
DEFAULT_255_2_778
10
60.8902221
20
19.222573
40
1.5235387
50
179.9793954
51
188.4013619
0
ARC
8
DEFAULT_255_2_778
10
60.8646967
20
23.0362613
40
1.4980165
50
151.5794485
51
180.1201144
0
ARC
8
DEFAULT_255_2_778
10
60.8629147
20
23.0365466
40
1.4963136
50
98.4345278
51
151.556579
0
ARC
8
DEFAULT_255_2_778
10
60.8660344
20
23.0090749
40
1.523946
50
89.9793545
51
98.3990533
0
ARC
8
DEFAULT_255_2_778
10
60.8696796
20
23.0351821
40
1.497842
50
61.5777617
51
90.1184315
0
ARC
8
DEFAULT_255_2_778
10
60.8698637
20
23.0366364
40
1.4964755
50
8.4395422
51
61.5574586
0
ARC
8
DEFAULT_255_2_778
10
60.842945
20
23.0336687
40
1.5235387
50
359.9793954
51
8.4013619
0
ARC
8
DEFAULT_255_2_778
10
60.8686448
20
23.0300248
40
1.497842
50
331.5777617
51
0.1184315
0
ARC
8
DEFAULT_255_2_778
10
60.870099
20
23.0298407
40
1.4964755
50
278.4395422
51
331.5574586
0
ARC
8
DEFAULT_255_2_778
10
60.8671314
20
23.0567594
40
1.5235387
50
269.9793954
51
278.4013619
0
ARC
8
DEFAULT_255_2_778
10
60.8634875
20
23.0310596
40
1.497842
50
241.5777617
51
270.1184315
0
ARC
8
DEFAULT_255_2_778
10
60.8633034
20
23.0296053
40
1.4964755
50
188.4395422
51
241.5574586
0
ARC
8
DEFAULT_255_2_778
10
60.8902221
20
23.032573
40
1.5235387
50
179.9793954
51
188.4013619
0
ARC
8
DEFAULT_255_2_778
10
60.8646967
20
11.6062613
40
1.4980165
50
151.5794485
51
180.1201144
0
ARC
8
DEFAULT_255_2_778
10
60.8629147
20
11.6065466
40
1.4963136
50
98.4345278
51
151.556579
0
ARC
8
DEFAULT_255_2_778
10
60.8660344
20
11.5790749
40
1.523946
50
89.9793545
51
98.3990533
0
ARC
8
DEFAULT_255_2_778
10
60.8696796
20
11.6051821
40
1.497842
50
61.5777617
51
90.1184315
0
ARC
8
DEFAULT_255_2_778
10
60.8698637
20
11.6066364
40
1.4964755
50
8.4395422
51
61.5574586
0
ARC
8
DEFAULT_255_2_778
10
60.842945
20
11.6036687
40
1.5235387
50
359.9793954
51
8.4013619
0
ARC
8
DEFAULT_255_2_778
10
60.8686448
20
11.6000248
40
1.497842
50
331.5777617
51
0.1184315
0
ARC
8
DEFAULT_255_2_778
10
60.870099
20
11.5998407
40
1.4964755
50
278.4395422
51
331.5574586
0
ARC
8
DEFAULT_255_2_778
10
60.8671314
20
11.6267594
40
1.5235387
50
269.9793954
51
278.4013619
0
ARC
8
DEFAULT_255_2_778
10
60.8634875
20
11.6010596
40
1.497842
50
241.5777617
51
270.1184315
0
ARC
8
DEFAULT_255_2_778
10
60.8633034
20
11.5996053
40
1.4964755
50
188.4395422
51
241.5574586
0
ARC
8
DEFAULT_255_2_778
10
60.8902221
20
11.602573
40
1.5235387
50
179.9793954
51
188.4013619
0
ARC
8
DEFAULT_255_2_778
10
60.8646967
20
15.4162613
40
1.4980165
50
151.5794485
51
180.1201144
0
ARC
8
DEFAULT_255_2_778
10
60.8629147
20
15.4165466
40
1.4963136
50
98.4345278
51
151.556579
0
ARC
8
DEFAULT_255_2_778
10
60.8660344
20
15.3890749
40
1.523946
50
89.9793545
51
98.3990533
0
ARC
8
DEFAULT_255_2_778
10
60.8696796
20
15.4151821
40
1.497842
50
61.5777617
51
90.1184315
0
ARC
8
DEFAULT_255_2_778
10
60.8698637
20
15.4166364
40
1.4964755
50
8.4395422
51
61.5574586
0
ARC
8
DEFAULT_255_2_778
10
60.842945
20
15.4136687
40
1.5235387
50
359.9793954
51
8.4013619
0
ARC
8
DEFAULT_255_2_778
10
60.8686448
20
15.4100248
40
1.497842
50
331.5777617
51
0.1184315
0
ARC
8
DEFAULT_255_2_778
10
60.870099
20
15.4098407
40
1.4964755
50
278.4395422
51
331.5574586
0
ARC
8
DEFAULT_255_2_778
10
60.8671314
20
15.4367594
40
1.5235387
50
269.9793954
51
278.4013619
0
ARC
8
DEFAULT_255_2_778
10
60.8634875
20
15.4110596
40
1.497842
50
241.5777617
51
270.1184315
0
ARC
8
DEFAULT_255_2_778
10
60.8633034
20
15.4096053
40
1.4964755
50
188.4395422
51
241.5574586
0
ARC
8
DEFAULT_255_2_778
10
60.8902221
20
15.412573
40
1.5235387
50
179.9793954
51
188.4013619
0
LINE
8
DEFAULT_255_2_778
10
59.3666835
20
42.0831208
11
59.3666835
21
42.0831208
0
LINE
8
DEFAULT_255_2_778
10
59.3666835
20
45.8931208
11
59.3666835
21
45.8931208
0
LINE
8
DEFAULT_255_2_778
10
59.3666835
20
34.4631208
11
59.3666835
21
34.4631208
0
LINE
8
DEFAULT_255_2_778
10
59.3666835
20
38.2731208
11
59.3666835
21
38.2731208
0
LINE
8
DEFAULT_255_2_778
10
59.3666835
20
26.8431208
11
59.3666835
21
26.8431208
0
LINE
8
DEFAULT_255_2_778
10
59.3666835
20
30.6531208
11
59.3666835
21
30.6531208
0
LINE
8
DEFAULT_255_2_778
10
59.3666835
20
19.2231208
11
59.3666835
21
19.2231208
0
LINE
8
DEFAULT_255_2_778
10
59.3666835
20
23.0331208
11
59.3666835
21
23.0331208
0
LINE
8
DEFAULT_255_2_778
10
59.3666835
20
11.6031208
11
59.3666835
21
11.6031208
0
LINE
8
DEFAULT_255_2_778
10
59.3666835
20
15.4131208
11
59.3666835
21
15.4131208
0
LINE
8
DEFAULT_255_2_778
10
59.6079625
20
48.1481407
11
59.6079625
21
47.4980407
0
LINE
8
DEFAULT_255_2_778
10
59.6079625
20
47.4980407
11
56.8152625
21
47.4980407
0
LINE
8
DEFAULT_255_2_778
10
56.8152625
20
47.4980407
11
56.8152625
21
48.1481407
0
LINE
8
DEFAULT_255_2_778
10
57.0152625
20
48.1481407
11
57.0152625
21
47.4980407
0
LINE
8
DEFAULT_255_2_778
10
58.7998625
20
48.1481407
11
58.7998625
21
47.4980407
0
LINE
8
DEFAULT_255_2_778
10
59.4348625
20
48.1481407
11
59.4348625
21
47.4980407
0
LINE
8
DEFAULT_255_2_778
10
57.2152625
20
47.4980407
11
57.2152625
21
48.1481407
0
LINE
8
DEFAULT_255_2_778
10
58.9729625
20
47.4980407
11
58.9729625
21
48.1481407
0
LINE
8
DEFAULT_255_2_778
10
57.1153277
20
44.5979462
11
57.1153277
21
47.4480462
0
LINE
8
DEFAULT_255_2_778
10
57.1153277
20
47.4480462
11
58.8152277
21
47.4480462
0
LINE
8
DEFAULT_255_2_778
10
58.8152277
20
47.4480462
11
58.8152277
21
44.5979462
0
LINE
8
DEFAULT_255_2_778
10
57.6678277
20
47.4480462
11
57.6678277
21
44.5979462
0
LINE
8
DEFAULT_255_2_778
10
58.3922277
20
47.4480462
11
58.3922277
21
44.5979462
0
LINE
8
DEFAULT_255_2_778
10
57.5378277
20
44.5979462
11
57.5378277
21
47.4480462
0
LINE
8
DEFAULT_255_2_778
10
58.2623277
20
44.5979462
11
58.2623277
21
47.4480462
0
LINE
8
DEFAULT_255_2_778
10
59.6079625
20
43.6383529
11
59.6079625
21
44.5982529
0
LINE
8
DEFAULT_255_2_778
10
59.6079625
20
44.5982529
11
56.8152625
21
44.5982529
0
LINE
8
DEFAULT_255_2_778
10
56.8152625
20
44.5982529
11
56.8152625
21
43.6383529
0
LINE
8
DEFAULT_255_2_778
10
56.8152625
20
43.6383529
11
59.6079625
21
43.6383529
0
LINE
8
DEFAULT_255_2_778
10
57.0152625
20
44.5982529
11
57.0152625
21
43.6383529
0
LINE
8
DEFAULT_255_2_778
10
57.2152625
20
43.6383529
11
57.2152625
21
44.5982529
0
LINE
8
DEFAULT_255_2_778
10
58.7998625
20
44.5982529
11
58.7998625
21
43.6383529
0
LINE
8
DEFAULT_255_2_778
10
58.9731625
20
43.6383529
11
58.9731625
21
44.5982529
0
LINE
8
DEFAULT_255_2_778
10
59.4351625
20
44.5982529
11
59.4351625
21
43.6383529
0
LINE
8
DEFAULT_255_2_778
10
57.6677904
20
43.6380462
11
57.6677904
21
40.7879462
0
LINE
8
DEFAULT_255_2_778
10
58.3921904
20
43.6380462
11
58.3921904
21
40.7879462
0
LINE
8
DEFAULT_255_2_778
10
58.8149904
20
40.7879462
11
58.8149904
21
43.6380462
0
LINE
8
DEFAULT_255_2_778
10
57.5378904
20
40.7879462
11
57.5378904
21
43.6380462
0
LINE
8
DEFAULT_255_2_778
10
58.2622904
20
40.7879462
11
58.2622904
21
43.6380462
0
LINE
8
DEFAULT_255_2_778
10
57.1147904
20
43.6380462
11
57.1147904
21
40.7879462
0
LINE
8
DEFAULT_255_2_778
10
57.0153544
20
40.7882529
11
57.0153544
21
39.8283529
0
LINE
8
DEFAULT_255_2_778
10
58.7999544
20
40.7882529
11
58.7999544
21
39.8283529
0
LINE
8
DEFAULT_255_2_778
10
59.4349544
20
40.7882529
11
59.4349544
21
39.8283529
0
LINE
8
DEFAULT_255_2_778
10
59.6082544
20
39.8283529
11
59.6082544
21
40.7882529
0
LINE
8
DEFAULT_255_2_778
10
59.6082544
20
40.7882529
11
56.8155544
21
40.7882529
0
LINE
8
DEFAULT_255_2_778
10
56.8155544
20
40.7882529
11
56.8155544
21
39.8283529
0
LINE
8
DEFAULT_255_2_778
10
56.8155544
20
39.8283529
11
59.6082544
21
39.8283529
0
LINE
8
DEFAULT_255_2_778
10
57.2153544
20
39.8283529
11
57.2153544
21
40.7882529
0
LINE
8
DEFAULT_255_2_778
10
58.9729544
20
39.8283529
11
58.9729544
21
40.7882529
0
LINE
8
DEFAULT_255_2_778
10
58.8152985
20
36.9779462
11
58.8152985
21
39.8280462
0
LINE
8
DEFAULT_255_2_778
10
57.6677985
20
39.8280462
11
57.6677985
21
36.9779462
0
LINE
8
DEFAULT_255_2_778
10
58.3921985
20
39.8280462
11
58.3921985
21
36.9779462
0
LINE
8
DEFAULT_255_2_778
10
57.1150985
20
39.8280462
11
57.1150985
21
36.9779462
0
LINE
8
DEFAULT_255_2_778
10
57.5378985
20
36.9779462
11
57.5378985
21
39.8280462
0
LINE
8
DEFAULT_255_2_778
10
58.2622985
20
36.9779462
11
58.2622985
21
39.8280462
0
LINE
8
DEFAULT_255_2_778
10
59.6079625
20
36.0183529
11
59.6079625
21
36.9782529
0
LINE
8
DEFAULT_255_2_778
10
59.6079625
20
36.9782529
11
56.8152625
21
36.9782529
0
LINE
8
DEFAULT_255_2_778
10
56.8152625
20
36.9782529
11
56.8152625
21
36.0183529
0
LINE
8
DEFAULT_255_2_778
10
56.8152625
20
36.0183529
11
59.6079625
21
36.0183529
0
LINE
8
DEFAULT_255_2_778
10
57.0152625
20
36.9782529
11
57.0152625
21
36.0183529
0
LINE
8
DEFAULT_255_2_778
10
57.2152625
20
36.0183529
11
57.2152625
21
36.9782529
0
LINE
8
DEFAULT_255_2_778
10
58.7998625
20
36.9782529
11
58.7998625
21
36.0183529
0
LINE
8
DEFAULT_255_2_778
10
58.9731625
20
36.0183529
11
58.9731625
21
36.9782529
0
LINE
8
DEFAULT_255_2_778
10
59.4351625
20
36.9782529
11
59.4351625
21
36.0183529
0
LINE
8
DEFAULT_255_2_778
10
57.6677904
20
36.0180462
11
57.6677904
21
33.1679462
0
LINE
8
DEFAULT_255_2_778
10
58.3921904
20
36.0180462
11
58.3921904
21
33.1679462
0
LINE
8
DEFAULT_255_2_778
10
58.8149904
20
33.1679462
11
58.8149904
21
36.0180462
0
LINE
8
DEFAULT_255_2_778
10
57.5378904
20
33.1679462
11
57.5378904
21
36.0180462
0
LINE
8
DEFAULT_255_2_778
10
58.2622904
20
33.1679462
11
58.2622904
21
36.0180462
0
LINE
8
DEFAULT_255_2_778
10
57.1147904
20
36.0180462
11
57.1147904
21
33.1679462
0
LINE
8
DEFAULT_255_2_778
10
57.0153544
20
33.1682529
11
57.0153544
21
32.2083529
0
LINE
8
DEFAULT_255_2_778
10
58.7999544
20
33.1682529
11
58.7999544
21
32.2083529
0
LINE
8
DEFAULT_255_2_778
10
59.4349544
20
33.1682529
11
59.4349544
21
32.2083529
0
LINE
8
DEFAULT_255_2_778
10
59.6082544
20
32.2083529
11
59.6082544
21
33.1682529
0
LINE
8
DEFAULT_255_2_778
10
59.6082544
20
33.1682529
11
56.8155544
21
33.1682529
0
LINE
8
DEFAULT_255_2_778
10
56.8155544
20
33.1682529
11
56.8155544
21
32.2083529
0
LINE
8
DEFAULT_255_2_778
10
56.8155544
20
32.2083529
11
59.6082544
21
32.2083529
0
LINE
8
DEFAULT_255_2_778
10
57.2153544
20
32.2083529
11
57.2153544
21
33.1682529
0
LINE
8
DEFAULT_255_2_778
10
58.9729544
20
32.2083529
11
58.9729544
21
33.1682529
0
LINE
8
DEFAULT_255_2_778
10
58.8152985
20
29.3579462
11
58.8152985
21
32.2080462
0
LINE
8
DEFAULT_255_2_778
10
57.6677985
20
32.2080462
11
57.6677985
21
29.3579462
0
LINE
8
DEFAULT_255_2_778
10
58.3921985
20
32.2080462
11
58.3921985
21
29.3579462
0
LINE
8
DEFAULT_255_2_778
10
57.1150985
20
32.2080462
11
57.1150985
21
29.3579462
0
LINE
8
DEFAULT_255_2_778
10
57.5378985
20
29.3579462
11
57.5378985
21
32.2080462
0
LINE
8
DEFAULT_255_2_778
10
58.2622985
20
29.3579462
11
58.2622985
21
32.2080462
0
LINE
8
DEFAULT_255_2_778
10
59.6079625
20
28.3983529
11
59.6079625
21
29.3582529
0
LINE
8
DEFAULT_255_2_778
10
59.6079625
20
29.3582529
11
56.8152625
21
29.3582529
0
LINE
8
DEFAULT_255_2_778
10
56.8152625
20
29.3582529
11
56.8152625
21
28.3983529
0
LINE
8
DEFAULT_255_2_778
10
56.8152625
20
28.3983529
11
59.6079625
21
28.3983529
0
LINE
8
DEFAULT_255_2_778
10
57.0152625
20
29.3582529
11
57.0152625
21
28.3983529
0
LINE
8
DEFAULT_255_2_778
10
57.2152625
20
28.3983529
11
57.2152625
21
29.3582529
0
LINE
8
DEFAULT_255_2_778
10
58.7998625
20
29.3582529
11
58.7998625
21
28.3983529
0
LINE
8
DEFAULT_255_2_778
10
58.9731625
20
28.3983529
11
58.9731625
21
29.3582529
0
LINE
8
DEFAULT_255_2_778
10
59.4351625
20
29.3582529
11
59.4351625
21
28.3983529
0
LINE
8
DEFAULT_255_2_778
10
57.6677904
20
28.3980462
11
57.6677904
21
25.5479462
0
LINE
8
DEFAULT_255_2_778
10
58.3921904
20
28.3980462
11
58.3921904
21
25.5479462
0
LINE
8
DEFAULT_255_2_778
10
58.8149904
20
25.5479462
11
58.8149904
21
28.3980462
0
LINE
8
DEFAULT_255_2_778
10
57.5378904
20
25.5479462
11
57.5378904
21
28.3980462
0
LINE
8
DEFAULT_255_2_778
10
58.2622904
20
25.5479462
11
58.2622904
21
28.3980462
0
LINE
8
DEFAULT_255_2_778
10
57.1147904
20
28.3980462
11
57.1147904
21
25.5479462
0
LINE
8
DEFAULT_255_2_778
10
59.6079625
20
24.5883529
11
59.6079625
21
25.5482529
0
LINE
8
DEFAULT_255_2_778
10
59.6079625
20
25.5482529
11
56.8152625
21
25.5482529
0
LINE
8
DEFAULT_255_2_778
10
56.8152625
20
25.5482529
11
56.8152625
21
24.5883529
0
LINE
8
DEFAULT_255_2_778
10
56.8152625
20
24.5883529
11
59.6079625
21
24.5883529
0
LINE
8
DEFAULT_255_2_778
10
57.2150625
20
24.5883529
11
57.2150625
21
25.5482529
0
LINE
8
DEFAULT_255_2_778
10
58.9726625
20
24.5883529
11
58.9726625
21
25.5482529
0
LINE
8
DEFAULT_255_2_778
10
57.0150625
20
25.5482529
11
57.0150625
21
24.5883529
0
LINE
8
DEFAULT_255_2_778
10
58.7996625
20
25.5482529
11
58.7996625
21
24.5883529
0
LINE
8
DEFAULT_255_2_778
10
59.4346625
20
25.5482529
11
59.4346625
21
24.5883529
0
LINE
8
DEFAULT_255_2_778
10
58.8152985
20
21.7379462
11
58.8152985
21
24.5880462
0
LINE
8
DEFAULT_255_2_778
10
57.6677985
20
24.5880462
11
57.6677985
21
21.7379462
0
LINE
8
DEFAULT_255_2_778
10
58.3921985
20
24.5880462
11
58.3921985
21
21.7379462
0
LINE
8
DEFAULT_255_2_778
10
57.1150985
20
24.5880462
11
57.1150985
21
21.7379462
0
LINE
8
DEFAULT_255_2_778
10
57.5378985
20
21.7379462
11
57.5378985
21
24.5880462
0
LINE
8
DEFAULT_255_2_778
10
58.2622985
20
21.7379462
11
58.2622985
21
24.5880462
0
LINE
8
DEFAULT_255_2_778
10
59.6079625
20
20.7783529
11
59.6079625
21
21.7382529
0
LINE
8
DEFAULT_255_2_778
10
59.6079625
20
21.7382529
11
56.8152625
21
21.7382529
0
LINE
8
DEFAULT_255_2_778
10
56.8152625
20
21.7382529
11
56.8152625
21
20.7783529
0
LINE
8
DEFAULT_255_2_778
10
56.8152625
20
20.7783529
11
59.6079625
21
20.7783529
0
LINE
8
DEFAULT_255_2_778
10
57.0152625
20
21.7382529
11
57.0152625
21
20.7783529
0
LINE
8
DEFAULT_255_2_778
10
57.2152625
20
20.7783529
11
57.2152625
21
21.7382529
0
LINE
8
DEFAULT_255_2_778
10
58.7998625
20
21.7382529
11
58.7998625
21
20.7783529
0
LINE
8
DEFAULT_255_2_778
10
58.9731625
20
20.7783529
11
58.9731625
21
21.7382529
0
LINE
8
DEFAULT_255_2_778
10
59.4351625
20
21.7382529
11
59.4351625
21
20.7783529
0
LINE
8
DEFAULT_255_2_778
10
57.6677904
20
20.7780462
11
57.6677904
21
17.9279462
0
LINE
8
DEFAULT_255_2_778
10
58.3921904
20
20.7780462
11
58.3921904
21
17.9279462
0
LINE
8
DEFAULT_255_2_778
10
58.8149904
20
17.9279462
11
58.8149904
21
20.7780462
0
LINE
8
DEFAULT_255_2_778
10
57.5378904
20
17.9279462
11
57.5378904
21
20.7780462
0
LINE
8
DEFAULT_255_2_778
10
58.2622904
20
17.9279462
11
58.2622904
21
20.7780462
0
LINE
8
DEFAULT_255_2_778
10
57.1147904
20
20.7780462
11
57.1147904
21
17.9279462
0
LINE
8
DEFAULT_255_2_778
10
57.0153544
20
17.9282529
11
57.0153544
21
16.9683529
0
LINE
8
DEFAULT_255_2_778
10
58.7999544
20
17.9282529
11
58.7999544
21
16.9683529
0
LINE
8
DEFAULT_255_2_778
10
59.4349544
20
17.9282529
11
59.4349544
21
16.9683529
0
LINE
8
DEFAULT_255_2_778
10
59.6082544
20
16.9683529
11
59.6082544
21
17.9282529
0
LINE
8
DEFAULT_255_2_778
10
59.6082544
20
17.9282529
11
56.8155544
21
17.9282529
0
LINE
8
DEFAULT_255_2_778
10
56.8155544
20
17.9282529
11
56.8155544
21
16.9683529
0
LINE
8
DEFAULT_255_2_778
10
56.8155544
20
16.9683529
11
59.6082544
21
16.9683529
0
LINE
8
DEFAULT_255_2_778
10
57.2153544
20
16.9683529
11
57.2153544
21
17.9282529
0
LINE
8
DEFAULT_255_2_778
10
58.9729544
20
16.9683529
11
58.9729544
21
17.9282529
0
LINE
8
DEFAULT_255_2_778
10
58.8152985
20
14.1179503
11
58.8152985
21
16.9680503
0
LINE
8
DEFAULT_255_2_778
10
57.6677985
20
16.9680503
11
57.6677985
21
14.1179503
0
LINE
8
DEFAULT_255_2_778
10
58.3921985
20
16.9680503
11
58.3921985
21
14.1179503
0
LINE
8
DEFAULT_255_2_778
10
57.1150985
20
16.9680503
11
57.1150985
21
14.1179503
0
LINE
8
DEFAULT_255_2_778
10
57.5378985
20
14.1179503
11
57.5378985
21
16.9680503
0
LINE
8
DEFAULT_255_2_778
10
58.2622985
20
14.1179503
11
58.2622985
21
16.9680503
0
LINE
8
DEFAULT_255_2_778
10
59.6079625
20
13.1583529
11
59.6079625
21
14.1182529
0
LINE
8
DEFAULT_255_2_778
10
59.6079625
20
14.1182529
11
56.8152625
21
14.1182529
0
LINE
8
DEFAULT_255_2_778
10
56.8152625
20
14.1182529
11
56.8152625
21
13.1583529
0
LINE
8
DEFAULT_255_2_778
10
56.8152625
20
13.1583529
11
59.6079625
21
13.1583529
0
LINE
8
DEFAULT_255_2_778
10
57.0152625
20
14.1182529
11
57.0152625
21
13.1583529
0
LINE
8
DEFAULT_255_2_778
10
57.2152625
20
13.1583529
11
57.2152625
21
14.1182529
0
LINE
8
DEFAULT_255_2_778
10
58.7998625
20
14.1182529
11
58.7998625
21
13.1583529
0
LINE
8
DEFAULT_255_2_778
10
58.9731625
20
13.1583529
11
58.9731625
21
14.1182529
0
LINE
8
DEFAULT_255_2_778
10
59.4351625
20
14.1182529
11
59.4351625
21
13.1583529
0
LINE
8
DEFAULT_255_2_778
10
58.8152277
20
13.1580503
11
58.8152277
21
10.3079503
0
LINE
8
DEFAULT_255_2_778
10
58.8152277
20
10.3079503
11
57.1153277
21
10.3079503
0
LINE
8
DEFAULT_255_2_778
10
57.1153277
20
10.3079503
11
57.1153277
21
13.1580503
0
LINE
8
DEFAULT_255_2_778
10
57.6678277
20
13.1580503
11
57.6678277
21
10.3079503
0
LINE
8
DEFAULT_255_2_778
10
58.3922277
20
13.1580503
11
58.3922277
21
10.3079503
0
LINE
8
DEFAULT_255_2_778
10
57.5378277
20
10.3079503
11
57.5378277
21
13.1580503
0
LINE
8
DEFAULT_255_2_778
10
58.2623277
20
10.3079503
11
58.2623277
21
13.1580503
0
LINE
8
DEFAULT_255_2_778
10
57.0152625
20
10.2582367
11
57.0152625
21
9.6081367
0
LINE
8
DEFAULT_255_2_778
10
58.7998625
20
10.2582367
11
58.7998625
21
9.6081367
0
LINE
8
DEFAULT_255_2_778
10
59.4348625
20
10.2582367
11
59.4348625
21
9.6081367
0
LINE
8
DEFAULT_255_2_778
10
56.8152625
20
9.6081367
11
56.8152625
21
10.2582367
0
LINE
8
DEFAULT_255_2_778
10
56.8152625
20
10.2582367
11
59.6079625
21
10.2582367
0
LINE
8
DEFAULT_255_2_778
10
59.6079625
20
10.2582367
11
59.6079625
21
9.6081367
0
LINE
8
DEFAULT_255_2_778
10
57.2150625
20
9.6081367
11
57.2150625
21
10.2582367
0
LINE
8
DEFAULT_255_2_778
10
58.9726625
20
9.6081367
11
58.9726625
21
10.2582367
0
ARC
8
DEFAULT_255_2_778
10
56.0665865
20
14.8130833
40
0.2997853
50
224.9743446
51
270.023866
0
ARC
8
DEFAULT_255_2_778
10
56.0664727
20
14.8131634
40
0.2997615
50
179.9551574
51
225.0005479
0
ARC
8
DEFAULT_255_2_778
10
56.0668205
20
16.2633885
40
0.3001092
50
135.0269519
51
180.0172772
0
ARC
8
DEFAULT_255_2_778
10
56.0666202
20
16.2631899
40
0.3001081
50
89.9825861
51
134.9730961
0
LINE
8
DEFAULT_255_2_778
10
57.1153114
20
14.513298
11
56.0667114
21
14.513298
0
LINE
8
DEFAULT_255_2_778
10
55.7667114
20
14.813398
11
55.7667114
21
16.263298
0
LINE
8
DEFAULT_255_2_778
10
56.0667114
20
16.563298
11
57.1153114
21
16.563298
0
ARC
8
DEFAULT_255_2_778
10
56.0666204
20
11.0034112
40
0.3001092
50
225.0270198
51
270.0173732
0
ARC
8
DEFAULT_255_2_778
10
56.0668208
20
11.0032114
40
0.3001094
50
179.9826924
51
224.9729979
0
ARC
8
DEFAULT_255_2_778
10
56.0668199
20
12.4533929
40
0.3001085
50
135.0269231
51
180.0173591
0
ARC
8
DEFAULT_255_2_778
10
56.0666207
20
12.4531924
40
0.3001095
50
89.9826815
51
134.972961
0
LINE
8
DEFAULT_255_2_778
10
57.1153114
20
10.703302
11
56.0667114
21
10.703302
0
LINE
8
DEFAULT_255_2_778
10
55.7667114
20
11.003302
11
55.7667114
21
12.453302
0
LINE
8
DEFAULT_255_2_778
10
56.0667114
20
12.753302
11
57.1153114
21
12.753302
0
ARC
8
DEFAULT_255_2_778
10
56.0666204
20
22.4334071
40
0.3001092
50
225.0270198
51
270.0173732
0
ARC
8
DEFAULT_255_2_778
10
56.0668208
20
22.4332073
40
0.3001094
50
179.9826924
51
224.9729979
0
ARC
8
DEFAULT_255_2_778
10
56.0668205
20
23.8833885
40
0.3001092
50
135.0269519
51
180.0172772
0
ARC
8
DEFAULT_255_2_778
10
56.0666202
20
23.8831899
40
0.3001081
50
89.9825861
51
134.9730961
0
LINE
8
DEFAULT_255_2_778
10
57.1153114
20
22.133298
11
56.0667114
21
22.133298
0
LINE
8
DEFAULT_255_2_778
10
55.7667114
20
22.433298
11
55.7667114
21
23.883298
0
LINE
8
DEFAULT_255_2_778
10
56.0667114
20
24.183298
11
57.1153114
21
24.183298
0
ARC
8
DEFAULT_255_2_778
10
56.0666204
20
18.6234071
40
0.3001092
50
225.0270198
51
270.0173732
0
ARC
8
DEFAULT_255_2_778
10
56.0668208
20
18.6232073
40
0.3001094
50
179.9826924
51
224.9729979
0
ARC
8
DEFAULT_255_2_778
10
56.0668205
20
20.0733885
40
0.3001092
50
135.0269519
51
180.0172772
0
ARC
8
DEFAULT_255_2_778
10
56.0666202
20
20.0731899
40
0.3001081
50
89.9825861
51
134.9730961
0
LINE
8
DEFAULT_255_2_778
10
57.1153114
20
18.323298
11
56.0667114
21
18.323298
0
LINE
8
DEFAULT_255_2_778
10
55.7667114
20
18.623298
11
55.7667114
21
20.073298
0
LINE
8
DEFAULT_255_2_778
10
56.0667114
20
20.373298
11
57.1153114
21
20.373298
0
ARC
8
DEFAULT_255_2_778
10
56.0666204
20
30.0534071
40
0.3001092
50
225.0270198
51
270.0173732
0
ARC
8
DEFAULT_255_2_778
10
56.0668208
20
30.0532073
40
0.3001094
50
179.9826924
51
224.9729979
0
ARC
8
DEFAULT_255_2_778
10
56.0668205
20
31.5033885
40
0.3001092
50
135.0269519
51
180.0172772
0
ARC
8
DEFAULT_255_2_778
10
56.0666202
20
31.5031899
40
0.3001081
50
89.9825861
51
134.9730961
0
LINE
8
DEFAULT_255_2_778
10
57.1153114
20
29.753298
11
56.0667114
21
29.753298
0
LINE
8
DEFAULT_255_2_778
10
55.7667114
20
30.053298
11
55.7667114
21
31.503298
0
LINE
8
DEFAULT_255_2_778
10
56.0667114
20
31.803298
11
57.1153114
21
31.803298
0
ARC
8
DEFAULT_255_2_778
10
56.0666204
20
26.2434071
40
0.3001092
50
225.0270198
51
270.0173732
0
ARC
8
DEFAULT_255_2_778
10
56.0668208
20
26.2432073
40
0.3001094
50
179.9826924
51
224.9729979
0
ARC
8
DEFAULT_255_2_778
10
56.0668205
20
27.6933885
40
0.3001092
50
135.0269519
51
180.0172772
0
ARC
8
DEFAULT_255_2_778
10
56.0666202
20
27.6931899
40
0.3001081
50
89.9825861
51
134.9730961
0
LINE
8
DEFAULT_255_2_778
10
57.1153114
20
25.943298
11
56.0667114
21
25.943298
0
LINE
8
DEFAULT_255_2_778
10
55.7667114
20
26.243298
11
55.7667114
21
27.693298
0
LINE
8
DEFAULT_255_2_778
10
56.0667114
20
27.993298
11
57.1153114
21
27.993298
0
ARC
8
DEFAULT_255_2_778
10
56.0666204
20
37.6734071
40
0.3001092
50
225.0270198
51
270.0173732
0
ARC
8
DEFAULT_255_2_778
10
56.0668208
20
37.6732073
40
0.3001094
50
179.9826924
51
224.9729979
0
ARC
8
DEFAULT_255_2_778
10
56.0668205
20
39.1233885
40
0.3001092
50
135.0269519
51
180.0172772
0
ARC
8
DEFAULT_255_2_778
10
56.0666202
20
39.1231899
40
0.3001081
50
89.9825861
51
134.9730961
0
LINE
8
DEFAULT_255_2_778
10
57.1153114
20
37.373298
11
56.0667114
21
37.373298
0
LINE
8
DEFAULT_255_2_778
10
55.7667114
20
37.673298
11
55.7667114
21
39.123298
0
LINE
8
DEFAULT_255_2_778
10
56.0667114
20
39.423298
11
57.1153114
21
39.423298
0
ARC
8
DEFAULT_255_2_778
10
56.0666204
20
33.8634071
40
0.3001092
50
225.0270198
51
270.0173732
0
ARC
8
DEFAULT_255_2_778
10
56.0668208
20
33.8632073
40
0.3001094
50
179.9826924
51
224.9729979
0
ARC
8
DEFAULT_255_2_778
10
56.0668205
20
35.3133885
40
0.3001092
50
135.0269519
51
180.0172772
0
ARC
8
DEFAULT_255_2_778
10
56.0666202
20
35.3131899
40
0.3001081
50
89.9825861
51
134.9730961
0
LINE
8
DEFAULT_255_2_778
10
57.1153114
20
33.563298
11
56.0667114
21
33.563298
0
LINE
8
DEFAULT_255_2_778
10
55.7667114
20
33.863298
11
55.7667114
21
35.313298
0
LINE
8
DEFAULT_255_2_778
10
56.0667114
20
35.613298
11
57.1153114
21
35.613298
0
ARC
8
DEFAULT_255_2_778
10
56.0666204
20
45.2934031
40
0.3001092
50
225.0270198
51
270.0173732
0
ARC
8
DEFAULT_255_2_778
10
56.0668208
20
45.2932033
40
0.3001094
50
179.9826924
51
224.9729979
0
ARC
8
DEFAULT_255_2_778
10
56.0668199
20
46.7433849
40
0.3001085
50
135.0269231
51
180.0173591
0
ARC
8
DEFAULT_255_2_778
10
56.0666207
20
46.7431844
40
0.3001095
50
89.9826815
51
134.972961
0
LINE
8
DEFAULT_255_2_778
10
57.1153114
20
44.9932939
11
56.0667114
21
44.9932939
0
LINE
8
DEFAULT_255_2_778
10
55.7667114
20
45.2932939
11
55.7667114
21
46.7432939
0
LINE
8
DEFAULT_255_2_778
10
56.0667114
20
47.0432939
11
57.1153114
21
47.0432939
0
ARC
8
DEFAULT_255_2_778
10
56.0666204
20
41.4834112
40
0.3001092
50
225.0270198
51
270.0173732
0
ARC
8
DEFAULT_255_2_778
10
56.0668208
20
41.4832114
40
0.3001094
50
179.9826924
51
224.9729979
0
ARC
8
DEFAULT_255_2_778
10
56.0668199
20
42.9333929
40
0.3001085
50
135.0269231
51
180.0173591
0
ARC
8
DEFAULT_255_2_778
10
56.0666207
20
42.9331924
40
0.3001095
50
89.9826815
51
134.972961
0
LINE
8
DEFAULT_255_2_778
10
57.1153114
20
41.183302
11
56.0667114
21
41.183302
0
LINE
8
DEFAULT_255_2_778
10
55.7667114
20
41.483302
11
55.7667114
21
42.933302
0
LINE
8
DEFAULT_255_2_778
10
56.0667114
20
43.233302
11
57.1153114
21
43.233302
0
ARC
8
DEFAULT_255_2_778
10
64.8168146
20
48.818311
40
0.5000116
50
270.0013268
51
0.0101312
0
ARC
8
DEFAULT_255_2_778
10
65.8169231
20
52.6183024
40
0.5000969
50
89.9996485
51
180.0003515
0
ARC
8
DEFAULT_255_2_778
10
70.7170146
20
52.6183878
40
0.5000116
50
359.9898688
51
89.9986732
0
LINE
8
DEFAULT_255_2_778
10
64.2167261
20
48.1481994
11
64.2167261
21
48.3182994
0
LINE
8
DEFAULT_255_2_778
10
64.2167261
20
48.3182994
11
64.8168261
21
48.3182994
0
LINE
8
DEFAULT_255_2_778
10
65.3168261
20
48.8183994
11
65.3168261
21
52.6182994
0
LINE
8
DEFAULT_255_2_778
10
65.8169261
20
53.1183994
11
70.7170261
21
53.1183994
0
LINE
8
DEFAULT_255_2_778
10
71.2170261
20
52.6182994
11
71.2170261
21
48.1481994
0
ARC
8
DEFAULT_255_2_778
10
70.7164752
20
5.1282854
40
0.5000969
50
269.9996485
51
0.0003515
0
ARC
8
DEFAULT_255_2_778
10
65.816669
20
5.1282854
40
0.5000969
50
179.9996485
51
270.0003515
0
ARC
8
DEFAULT_255_2_778
10
64.8164965
20
8.9282129
40
0.5000756
50
359.9972001
51
89.9913338
0
LINE
8
DEFAULT_255_2_778
10
71.2181721
20
9.6081884
11
71.2165721
21
5.1282884
0
LINE
8
DEFAULT_255_2_778
10
70.7164721
20
4.6281884
11
65.8166721
21
4.6281884
0
LINE
8
DEFAULT_255_2_778
10
65.3165721
20
5.1282884
11
65.3165721
21
8.9281884
0
LINE
8
DEFAULT_255_2_778
10
64.8165721
20
9.4282884
11
64.2164721
21
9.4282884
0
LINE
8
DEFAULT_255_2_778
10
64.2164721
20
9.4282884
11
64.2164721
21
9.6081884
0
LINE
8
DEFAULT_255_2_778
10
63.6667
20
9.6082038
11
63.6667
21
48.1482038
0
LINE
8
DEFAULT_255_2_778
10
71.2165428
20
9.6082038
11
71.2165428
21
48.1482038
0
LINE
8
DEFAULT_255_2_778
10
71.2165428
20
48.1482038
11
63.4666428
21
48.1482038
0
LINE
8
DEFAULT_255_2_778
10
63.4666428
20
48.1482038
11
63.4666428
21
9.6082038
0
LINE
8
DEFAULT_255_2_778
10
63.4666428
20
9.6082038
11
71.2165428
21
9.6082038
0
LINE
8
DEFAULT_255_2_778
10
71.0224
20
48.1482038
11
71.0224
21
9.6082038
0
ARC
8
DEFAULT_255_2_778
10
68.2739236
20
7.2316082
40
1.9516044
50
156.1319169
51
180.100711
0
ARC
8
DEFAULT_255_2_778
10
68.2678063
20
7.2323111
40
1.9457268
50
100.1292829
51
156.0779549
0
ARC
8
DEFAULT_255_2_778
10
68.271342
20
7.2013373
40
1.9768408
50
89.971592
51
100.0722797
0
ARC
8
DEFAULT_255_2_778
10
68.2757526
20
7.2265764
40
1.9516044
50
66.1319169
51
90.100711
0
ARC
8
DEFAULT_255_2_778
10
68.2764554
20
7.2326937
40
1.9457268
50
10.1292829
51
66.0779549
0
ARC
8
DEFAULT_255_2_778
10
68.2454817
20
7.229158
40
1.9768408
50
359.971592
51
10.0722797
0
ARC
8
DEFAULT_255_2_778
10
68.2707208
20
7.2247474
40
1.9516044
50
336.1319169
51
0.100711
0
ARC
8
DEFAULT_255_2_778
10
68.276838
20
7.2240446
40
1.9457268
50
280.1292829
51
336.0779549
0
ARC
8
DEFAULT_255_2_778
10
68.2733023
20
7.2550183
40
1.9768408
50
269.971592
51
280.0722797
0
ARC
8
DEFAULT_255_2_778
10
68.2688918
20
7.2297792
40
1.9516044
50
246.1319169
51
270.100711
0
ARC
8
DEFAULT_255_2_778
10
68.2681889
20
7.223662
40
1.9457268
50
190.1292829
51
246.0779549
0
ARC
8
DEFAULT_255_2_778
10
68.2991627
20
7.2271977
40
1.9768408
50
179.971592
51
190.0722797
0
LINE
8
DEFAULT_255_2_778
10
66.3223222
20
7.2281778
11
66.3223222
21
7.2281778
0
ARC
8
DEFAULT_255_2_778
10
70.0759775
20
5.8067901
40
0.9964361
50
318.3557664
51
0.0833208
0
ARC
8
DEFAULT_255_2_778
10
70.073372
20
5.8057783
40
0.997714
50
271.7306446
51
318.498614
0
ARC
8
DEFAULT_255_2_778
10
70.0722223
20
5.8271629
40
1.0191238
50
269.9994553
51
271.7589451
0
ARC
8
DEFAULT_255_2_778
10
66.470889
20
5.8043199
40
0.9962817
50
228.352397
51
270.0818679
0
ARC
8
DEFAULT_255_2_778
10
66.4699933
20
5.8070848
40
0.9977557
50
181.7308645
51
228.4963478
0
ARC
8
DEFAULT_255_2_778
10
66.4913363
20
5.8082295
40
1.0191238
50
179.9994553
51
181.7589451
0
LINE
8
DEFAULT_255_2_778
10
71.0724126
20
9.6081392
11
71.0724126
21
5.8082392
0
LINE
8
DEFAULT_255_2_778
10
70.0722126
20
4.8080392
11
66.4723126
21
4.8080392
0
LINE
8
DEFAULT_255_2_778
10
65.4722126
20
5.8082392
11
65.4722126
21
9.6081392
0
ARC
8
DEFAULT_255_2_778
10
68.2739236
20
50.3839082
40
1.9516044
50
156.1319169
51
180.100711
0
ARC
8
DEFAULT_255_2_778
10
68.2678063
20
50.3846111
40
1.9457268
50
100.1292829
51
156.0779549
0
ARC
8
DEFAULT_255_2_778
10
68.271342
20
50.3536373
40
1.9768408
50
89.971592
51
100.0722797
0
ARC
8
DEFAULT_255_2_778
10
68.2757526
20
50.3788764
40
1.9516044
50
66.1319169
51
90.100711
0
ARC
8
DEFAULT_255_2_778
10
68.2764554
20
50.3849937
40
1.9457268
50
10.1292829
51
66.0779549
0
ARC
8
DEFAULT_255_2_778
10
68.2454817
20
50.381458
40
1.9768408
50
359.971592
51
10.0722797
0
ARC
8
DEFAULT_255_2_778
10
68.2707208
20
50.3770474
40
1.9516044
50
336.1319169
51
0.100711
0
ARC
8
DEFAULT_255_2_778
10
68.276838
20
50.3763446
40
1.9457268
50
280.1292829
51
336.0779549
0
ARC
8
DEFAULT_255_2_778
10
68.2733023
20
50.4073183
40
1.9768408
50
269.971592
51
280.0722797
0
ARC
8
DEFAULT_255_2_778
10
68.2688918
20
50.3820792
40
1.9516044
50
246.1319169
51
270.100711
0
ARC
8
DEFAULT_255_2_778
10
68.2681889
20
50.375962
40
1.9457268
50
190.1292829
51
246.0779549
0
ARC
8
DEFAULT_255_2_778
10
68.2991627
20
50.3794977
40
1.9768408
50
179.971592
51
190.0722797
0
LINE
8
DEFAULT_255_2_778
10
66.3223222
20
50.3804778
11
66.3223222
21
50.3804778
0
ARC
8
DEFAULT_255_2_778
10
66.4688342
20
51.8069488
40
0.9963226
50
138.3541388
51
180.0816049
0
ARC
8
DEFAULT_255_2_778
10
66.4714962
20
51.8079683
40
0.9976376
50
91.732932
51
138.4994886
0
ARC
8
DEFAULT_255_2_778
10
66.4726029
20
51.7868705
40
1.0187592
50
89.9994554
51
91.7592612
0
ARC
8
DEFAULT_255_2_778
10
70.0740316
20
51.8093081
40
0.9963226
50
48.3541388
51
90.0816049
0
ARC
8
DEFAULT_255_2_778
10
70.0750511
20
51.8066461
40
0.9976376
50
1.732932
51
48.4994886
0
ARC
8
DEFAULT_255_2_778
10
70.0539534
20
51.8055394
40
1.0187592
50
359.9994554
51
1.7592612
0
LINE
8
DEFAULT_255_2_778
10
65.4725126
20
48.1481297
11
65.4725126
21
51.8055297
0
LINE
8
DEFAULT_255_2_778
10
66.4726126
20
52.8056297
11
70.0726126
21
52.8056297
0
LINE
8
DEFAULT_255_2_778
10
71.0727126
20
51.8055297
11
71.0727126
21
48.1481297
0
ARC
8
DEFAULT_255_2_778
10
69.1646887
20
42.0862613
40
1.4980165
50
151.5794485
51
180.1201144
0
ARC
8
DEFAULT_255_2_778
10
69.1629066
20
42.0865466
40
1.4963136
50
98.4345278
51
151.556579
0
ARC
8
DEFAULT_255_2_778
10
69.1660263
20
42.0590749
40
1.523946
50
89.9793545
51
98.3990533
0
ARC
8
DEFAULT_255_2_778
10
69.1696933
20
42.0849735
40
1.4980506
50
61.5830241
51
90.1192473
0
ARC
8
DEFAULT_255_2_778
10
69.1700629
20
42.0868208
40
1.4962501
50
8.4354362
51
61.5618085
0
ARC
8
DEFAULT_255_2_778
10
69.14238
20
42.0836732
40
1.5240956
50
359.9792366
51
8.3998208
0
ARC
8
DEFAULT_255_2_778
10
69.1683762
20
42.0799581
40
1.4981026
50
331.5802751
51
0.1209614
0
ARC
8
DEFAULT_255_2_778
10
69.1703205
20
42.079623
40
1.4962333
50
278.4320341
51
331.5561276
0
ARC
8
DEFAULT_255_2_778
10
69.1671259
20
42.107352
40
1.5241313
50
269.9793083
51
278.3979756
0
ARC
8
DEFAULT_255_2_778
10
69.1634794
20
42.0810596
40
1.497842
50
241.5777617
51
270.1184315
0
ARC
8
DEFAULT_255_2_778
10
69.1632953
20
42.0796053
40
1.4964755
50
188.4395422
51
241.5574586
0
ARC
8
DEFAULT_255_2_778
10
69.190214
20
42.082573
40
1.5235387
50
179.9793954
51
188.4013619
0
ARC
8
DEFAULT_255_2_778
10
69.1646887
20
45.8962613
40
1.4980165
50
151.5794485
51
180.1201144
0
ARC
8
DEFAULT_255_2_778
10
69.1629066
20
45.8965466
40
1.4963136
50
98.4345278
51
151.556579
0
ARC
8
DEFAULT_255_2_778
10
69.1660263
20
45.8690749
40
1.523946
50
89.9793545
51
98.3990533
0
ARC
8
DEFAULT_255_2_778
10
69.1696715
20
45.8951821
40
1.497842
50
61.5777617
51
90.1184315
0
ARC
8
DEFAULT_255_2_778
10
69.1698556
20
45.8966364
40
1.4964755
50
8.4395422
51
61.5574586
0
ARC
8
DEFAULT_255_2_778
10
69.1429369
20
45.8936687
40
1.5235387
50
359.9793954
51
8.4013619
0
ARC
8
DEFAULT_255_2_778
10
69.1686367
20
45.8900248
40
1.497842
50
331.5777617
51
0.1184315
0
ARC
8
DEFAULT_255_2_778
10
69.170091
20
45.8898407
40
1.4964755
50
278.4395422
51
331.5574586
0
ARC
8
DEFAULT_255_2_778
10
69.1671233
20
45.9167594
40
1.5235387
50
269.9793954
51
278.4013619
0
ARC
8
DEFAULT_255_2_778
10
69.1634464
20
45.8913695
40
1.4981519
50
241.5856128
51
270.11967
0
ARC
8
DEFAULT_255_2_778
10
69.1629843
20
45.8893286
40
1.4961372
50
188.4333789
51
241.563985
0
ARC
8
DEFAULT_255_2_778
10
69.1910501
20
45.8925664
40
1.5243748
50
179.9791601
51
188.3990496
0
ARC
8
DEFAULT_255_2_778
10
69.1646887
20
34.4662613
40
1.4980165
50
151.5794485
51
180.1201144
0
ARC
8
DEFAULT_255_2_778
10
69.1629066
20
34.4665466
40
1.4963136
50
98.4345278
51
151.556579
0
ARC
8
DEFAULT_255_2_778
10
69.1660263
20
34.4390749
40
1.523946
50
89.9793545
51
98.3990533
0
ARC
8
DEFAULT_255_2_778
10
69.1696715
20
34.4651821
40
1.497842
50
61.5777617
51
90.1184315
0
ARC
8
DEFAULT_255_2_778
10
69.1698556
20
34.4666364
40
1.4964755
50
8.4395422
51
61.5574586
0
ARC
8
DEFAULT_255_2_778
10
69.1429369
20
34.4636687
40
1.5235387
50
359.9793954
51
8.4013619
0
ARC
8
DEFAULT_255_2_778
10
69.1686367
20
34.4600248
40
1.497842
50
331.5777617
51
0.1184315
0
ARC
8
DEFAULT_255_2_778
10
69.170091
20
34.4598407
40
1.4964755
50
278.4395422
51
331.5574586
0
ARC
8
DEFAULT_255_2_778
10
69.1671233
20
34.4867594
40
1.5235387
50
269.9793954
51
278.4013619
0
ARC
8
DEFAULT_255_2_778
10
69.1634794
20
34.4610596
40
1.497842
50
241.5777617
51
270.1184315
0
ARC
8
DEFAULT_255_2_778
10
69.1632953
20
34.4596053
40
1.4964755
50
188.4395422
51
241.5574586
0
ARC
8
DEFAULT_255_2_778
10
69.190214
20
34.462573
40
1.5235387
50
179.9793954
51
188.4013619
0
ARC
8
DEFAULT_255_2_778
10
69.1646887
20
38.2762613
40
1.4980165
50
151.5794485
51
180.1201144
0
ARC
8
DEFAULT_255_2_778
10
69.1629066
20
38.2765466
40
1.4963136
50
98.4345278
51
151.556579
0
ARC
8
DEFAULT_255_2_778
10
69.1660263
20
38.2490749
40
1.523946
50
89.9793545
51
98.3990533
0
ARC
8
DEFAULT_255_2_778
10
69.1696715
20
38.2751821
40
1.497842
50
61.5777617
51
90.1184315
0
ARC
8
DEFAULT_255_2_778
10
69.1698556
20
38.2766364
40
1.4964755
50
8.4395422
51
61.5574586
0
ARC
8
DEFAULT_255_2_778
10
69.1429369
20
38.2736687
40
1.5235387
50
359.9793954
51
8.4013619
0
ARC
8
DEFAULT_255_2_778
10
69.1686367
20
38.2700248
40
1.497842
50
331.5777617
51
0.1184315
0
ARC
8
DEFAULT_255_2_778
10
69.170091
20
38.2698407
40
1.4964755
50
278.4395422
51
331.5574586
0
ARC
8
DEFAULT_255_2_778
10
69.1671233
20
38.2967594
40
1.5235387
50
269.9793954
51
278.4013619
0
ARC
8
DEFAULT_255_2_778
10
69.1634794
20
38.2710596
40
1.497842
50
241.5777617
51
270.1184315
0
ARC
8
DEFAULT_255_2_778
10
69.1632953
20
38.2696053
40
1.4964755
50
188.4395422
51
241.5574586
0
ARC
8
DEFAULT_255_2_778
10
69.190214
20
38.272573
40
1.5235387
50
179.9793954
51
188.4013619
0
ARC
8
DEFAULT_255_2_778
10
69.1646887
20
26.8462613
40
1.4980165
50
151.5794485
51
180.1201144
0
ARC
8
DEFAULT_255_2_778
10
69.1629066
20
26.8465466
40
1.4963136
50
98.4345278
51
151.556579
0
ARC
8
DEFAULT_255_2_778
10
69.1660263
20
26.8190749
40
1.523946
50
89.9793545
51
98.3990533
0
ARC
8
DEFAULT_255_2_778
10
69.1696715
20
26.8451821
40
1.497842
50
61.5777617
51
90.1184315
0
ARC
8
DEFAULT_255_2_778
10
69.1698556
20
26.8466364
40
1.4964755
50
8.4395422
51
61.5574586
0
ARC
8
DEFAULT_255_2_778
10
69.1429369
20
26.8436687
40
1.5235387
50
359.9793954
51
8.4013619
0
ARC
8
DEFAULT_255_2_778
10
69.1686367
20
26.8400248
40
1.497842
50
331.5777617
51
0.1184315
0
ARC
8
DEFAULT_255_2_778
10
69.170091
20
26.8398407
40
1.4964755
50
278.4395422
51
331.5574586
0
ARC
8
DEFAULT_255_2_778
10
69.1671233
20
26.8667594
40
1.5235387
50
269.9793954
51
278.4013619
0
ARC
8
DEFAULT_255_2_778
10
69.1634794
20
26.8410596
40
1.497842
50
241.5777617
51
270.1184315
0
ARC
8
DEFAULT_255_2_778
10
69.1632953
20
26.8396053
40
1.4964755
50
188.4395422
51
241.5574586
0
ARC
8
DEFAULT_255_2_778
10
69.190214
20
26.842573
40
1.5235387
50
179.9793954
51
188.4013619
0
ARC
8
DEFAULT_255_2_778
10
69.1646887
20
30.6562613
40
1.4980165
50
151.5794485
51
180.1201144
0
ARC
8
DEFAULT_255_2_778
10
69.1629066
20
30.6565466
40
1.4963136
50
98.4345278
51
151.556579
0
ARC
8
DEFAULT_255_2_778
10
69.1660263
20
30.6290749
40
1.523946
50
89.9793545
51
98.3990533
0
ARC
8
DEFAULT_255_2_778
10
69.1696715
20
30.6551821
40
1.497842
50
61.5777617
51
90.1184315
0
ARC
8
DEFAULT_255_2_778
10
69.1698556
20
30.6566364
40
1.4964755
50
8.4395422
51
61.5574586
0
ARC
8
DEFAULT_255_2_778
10
69.1429369
20
30.6536687
40
1.5235387
50
359.9793954
51
8.4013619
0
ARC
8
DEFAULT_255_2_778
10
69.168505
20
30.6500348
40
1.4979736
50
331.5790435
51
0.1180395
0
ARC
8
DEFAULT_255_2_778
10
69.1700166
20
30.64978
40
1.4965231
50
278.442153
51
331.5600789
0
ARC
8
DEFAULT_255_2_778
10
69.167122
20
30.6764744
40
1.5233536
50
269.9794418
51
278.4024397
0
ARC
8
DEFAULT_255_2_778
10
69.1634879
20
30.6508241
40
1.4977064
50
241.5745851
51
270.1181169
0
ARC
8
DEFAULT_255_2_778
10
69.1634536
20
30.6496244
40
1.4966352
50
188.4394625
51
241.5538755
0
ARC
8
DEFAULT_255_2_778
10
69.1902628
20
30.6525741
40
1.5235875
50
179.9794408
51
188.4012255
0
ARC
8
DEFAULT_255_2_778
10
69.1646887
20
19.2262613
40
1.4980165
50
151.5794485
51
180.1201144
0
ARC
8
DEFAULT_255_2_778
10
69.1629066
20
19.2265466
40
1.4963136
50
98.4345278
51
151.556579
0
ARC
8
DEFAULT_255_2_778
10
69.1660263
20
19.1990749
40
1.523946
50
89.9793545
51
98.3990533
0
ARC
8
DEFAULT_255_2_778
10
69.1696715
20
19.2251821
40
1.497842
50
61.5777617
51
90.1184315
0
ARC
8
DEFAULT_255_2_778
10
69.1698556
20
19.2266364
40
1.4964755
50
8.4395422
51
61.5574586
0
ARC
8
DEFAULT_255_2_778
10
69.1429369
20
19.2236687
40
1.5235387
50
359.9793954
51
8.4013619
0
ARC
8
DEFAULT_255_2_778
10
69.1686367
20
19.2200248
40
1.497842
50
331.5777617
51
0.1184315
0
ARC
8
DEFAULT_255_2_778
10
69.170091
20
19.2198407
40
1.4964755
50
278.4395422
51
331.5574586
0
ARC
8
DEFAULT_255_2_778
10
69.1671233
20
19.2467594
40
1.5235387
50
269.9793954
51
278.4013619
0
ARC
8
DEFAULT_255_2_778
10
69.1634794
20
19.2210596
40
1.497842
50
241.5777617
51
270.1184315
0
ARC
8
DEFAULT_255_2_778
10
69.1632953
20
19.2196053
40
1.4964755
50
188.4395422
51
241.5574586
0
ARC
8
DEFAULT_255_2_778
10
69.190214
20
19.222573
40
1.5235387
50
179.9793954
51
188.4013619
0
ARC
8
DEFAULT_255_2_778
10
69.1646887
20
23.0362613
40
1.4980165
50
151.5794485
51
180.1201144
0
ARC
8
DEFAULT_255_2_778
10
69.1629066
20
23.0365466
40
1.4963136
50
98.4345278
51
151.556579
0
ARC
8
DEFAULT_255_2_778
10
69.1660263
20
23.0090749
40
1.523946
50
89.9793545
51
98.3990533
0
ARC
8
DEFAULT_255_2_778
10
69.1696715
20
23.0351821
40
1.497842
50
61.5777617
51
90.1184315
0
ARC
8
DEFAULT_255_2_778
10
69.1698556
20
23.0366364
40
1.4964755
50
8.4395422
51
61.5574586
0
ARC
8
DEFAULT_255_2_778
10
69.1429369
20
23.0336687
40
1.5235387
50
359.9793954
51
8.4013619
0
ARC
8
DEFAULT_255_2_778
10
69.1686367
20
23.0300248
40
1.497842
50
331.5777617
51
0.1184315
0
ARC
8
DEFAULT_255_2_778
10
69.170091
20
23.0298407
40
1.4964755
50
278.4395422
51
331.5574586
0
ARC
8
DEFAULT_255_2_778
10
69.1671233
20
23.0567594
40
1.5235387
50
269.9793954
51
278.4013619
0
ARC
8
DEFAULT_255_2_778
10
69.1634794
20
23.0310596
40
1.497842
50
241.5777617
51
270.1184315
0
ARC
8
DEFAULT_255_2_778
10
69.1632953
20
23.0296053
40
1.4964755
50
188.4395422
51
241.5574586
0
ARC
8
DEFAULT_255_2_778
10
69.190214
20
23.032573
40
1.5235387
50
179.9793954
51
188.4013619
0
ARC
8
DEFAULT_255_2_778
10
69.1646887
20
11.6062613
40
1.4980165
50
151.5794485
51
180.1201144
0
ARC
8
DEFAULT_255_2_778
10
69.1629066
20
11.6065466
40
1.4963136
50
98.4345278
51
151.556579
0
ARC
8
DEFAULT_255_2_778
10
69.1660263
20
11.5790749
40
1.523946
50
89.9793545
51
98.3990533
0
ARC
8
DEFAULT_255_2_778
10
69.1696715
20
11.6051821
40
1.497842
50
61.5777617
51
90.1184315
0
ARC
8
DEFAULT_255_2_778
10
69.1698556
20
11.6066364
40
1.4964755
50
8.4395422
51
61.5574586
0
ARC
8
DEFAULT_255_2_778
10
69.1429369
20
11.6036687
40
1.5235387
50
359.9793954
51
8.4013619
0
ARC
8
DEFAULT_255_2_778
10
69.1686367
20
11.6000248
40
1.497842
50
331.5777617
51
0.1184315
0
ARC
8
DEFAULT_255_2_778
10
69.170091
20
11.5998407
40
1.4964755
50
278.4395422
51
331.5574586
0
ARC
8
DEFAULT_255_2_778
10
69.1671233
20
11.6267594
40
1.5235387
50
269.9793954
51
278.4013619
0
ARC
8
DEFAULT_255_2_778
10
69.1634794
20
11.6010596
40
1.497842
50
241.5777617
51
270.1184315
0
ARC
8
DEFAULT_255_2_778
10
69.1632953
20
11.5996053
40
1.4964755
50
188.4395422
51
241.5574586
0
ARC
8
DEFAULT_255_2_778
10
69.190214
20
11.602573
40
1.5235387
50
179.9793954
51
188.4013619
0
ARC
8
DEFAULT_255_2_778
10
69.1646887
20
15.4162613
40
1.4980165
50
151.5794485
51
180.1201144
0
ARC
8
DEFAULT_255_2_778
10
69.1629066
20
15.4165466
40
1.4963136
50
98.4345278
51
151.556579
0
ARC
8
DEFAULT_255_2_778
10
69.1660263
20
15.3890749
40
1.523946
50
89.9793545
51
98.3990533
0
ARC
8
DEFAULT_255_2_778
10
69.1696715
20
15.4151821
40
1.497842
50
61.5777617
51
90.1184315
0
ARC
8
DEFAULT_255_2_778
10
69.1698556
20
15.4166364
40
1.4964755
50
8.4395422
51
61.5574586
0
ARC
8
DEFAULT_255_2_778
10
69.1429369
20
15.4136687
40
1.5235387
50
359.9793954
51
8.4013619
0
ARC
8
DEFAULT_255_2_778
10
69.1686367
20
15.4100248
40
1.497842
50
331.5777617
51
0.1184315
0
ARC
8
DEFAULT_255_2_778
10
69.170091
20
15.4098407
40
1.4964755
50
278.4395422
51
331.5574586
0
ARC
8
DEFAULT_255_2_778
10
69.1671233
20
15.4367594
40
1.5235387
50
269.9793954
51
278.4013619
0
ARC
8
DEFAULT_255_2_778
10
69.1634794
20
15.4110596
40
1.497842
50
241.5777617
51
270.1184315
0
ARC
8
DEFAULT_255_2_778
10
69.1632953
20
15.4096053
40
1.4964755
50
188.4395422
51
241.5574586
0
ARC
8
DEFAULT_255_2_778
10
69.190214
20
15.412573
40
1.5235387
50
179.9793954
51
188.4013619
0
LINE
8
DEFAULT_255_2_778
10
67.6666754
20
42.0831208
11
67.6666754
21
42.0831208
0
LINE
8
DEFAULT_255_2_778
10
67.6666754
20
45.8931208
11
67.6666754
21
45.8931208
0
LINE
8
DEFAULT_255_2_778
10
67.6666754
20
34.4631208
11
67.6666754
21
34.4631208
0
LINE
8
DEFAULT_255_2_778
10
67.6666754
20
38.2731208
11
67.6666754
21
38.2731208
0
LINE
8
DEFAULT_255_2_778
10
67.6666754
20
26.8431208
11
67.6666754
21
26.8431208
0
LINE
8
DEFAULT_255_2_778
10
67.6666754
20
30.6531208
11
67.6666754
21
30.6531208
0
LINE
8
DEFAULT_255_2_778
10
67.6666754
20
19.2231208
11
67.6666754
21
19.2231208
0
LINE
8
DEFAULT_255_2_778
10
67.6666754
20
23.0331208
11
67.6666754
21
23.0331208
0
LINE
8
DEFAULT_255_2_778
10
67.6666754
20
11.6031208
11
67.6666754
21
11.6031208
0
LINE
8
DEFAULT_255_2_778
10
67.6666754
20
15.4131208
11
67.6666754
21
15.4131208
0
LINE
8
DEFAULT_255_2_778
10
67.9079625
20
48.1481407
11
67.9079625
21
47.4980407
0
LINE
8
DEFAULT_255_2_778
10
67.9079625
20
47.4980407
11
65.1152625
21
47.4980407
0
LINE
8
DEFAULT_255_2_778
10
65.1152625
20
47.4980407
11
65.1152625
21
48.1481407
0
LINE
8
DEFAULT_255_2_778
10
65.3152625
20
48.1481407
11
65.3152625
21
47.4980407
0
LINE
8
DEFAULT_255_2_778
10
67.0998625
20
48.1481407
11
67.0998625
21
47.4980407
0
LINE
8
DEFAULT_255_2_778
10
67.7348625
20
48.1481407
11
67.7348625
21
47.4980407
0
LINE
8
DEFAULT_255_2_778
10
65.5153625
20
47.4980407
11
65.5153625
21
48.1481407
0
LINE
8
DEFAULT_255_2_778
10
67.2729625
20
47.4980407
11
67.2729625
21
48.1481407
0
LINE
8
DEFAULT_255_2_778
10
65.4153196
20
44.5979462
11
65.4153196
21
47.4480462
0
LINE
8
DEFAULT_255_2_778
10
65.4153196
20
47.4480462
11
67.1153196
21
47.4480462
0
LINE
8
DEFAULT_255_2_778
10
67.1153196
20
47.4480462
11
67.1153196
21
44.5979462
0
LINE
8
DEFAULT_255_2_778
10
65.9678196
20
47.4480462
11
65.9678196
21
44.5979462
0
LINE
8
DEFAULT_255_2_778
10
66.6922196
20
47.4480462
11
66.6922196
21
44.5979462
0
LINE
8
DEFAULT_255_2_778
10
65.8379196
20
44.5979462
11
65.8379196
21
47.4480462
0
LINE
8
DEFAULT_255_2_778
10
66.5623196
20
44.5979462
11
66.5623196
21
47.4480462
0
LINE
8
DEFAULT_255_2_778
10
67.9079625
20
43.6383529
11
67.9079625
21
44.5982529
0
LINE
8
DEFAULT_255_2_778
10
67.9079625
20
44.5982529
11
65.1152625
21
44.5982529
0
LINE
8
DEFAULT_255_2_778
10
65.1152625
20
44.5982529
11
65.1152625
21
43.6383529
0
LINE
8
DEFAULT_255_2_778
10
65.1152625
20
43.6383529
11
67.9079625
21
43.6383529
0
LINE
8
DEFAULT_255_2_778
10
65.3152625
20
44.5982529
11
65.3152625
21
43.6383529
0
LINE
8
DEFAULT_255_2_778
10
65.5153625
20
43.6383529
11
65.5153625
21
44.5982529
0
LINE
8
DEFAULT_255_2_778
10
67.0998625
20
44.5982529
11
67.0998625
21
43.6383529
0
LINE
8
DEFAULT_255_2_778
10
67.2731625
20
43.6383529
11
67.2731625
21
44.5982529
0
LINE
8
DEFAULT_255_2_778
10
67.7351625
20
44.5982529
11
67.7351625
21
43.6383529
0
LINE
8
DEFAULT_255_2_778
10
65.9677985
20
43.6380462
11
65.9677985
21
40.7879462
0
LINE
8
DEFAULT_255_2_778
10
66.6921985
20
43.6380462
11
66.6921985
21
40.7879462
0
LINE
8
DEFAULT_255_2_778
10
67.1149985
20
40.7879462
11
67.1149985
21
43.6380462
0
LINE
8
DEFAULT_255_2_778
10
65.8378985
20
40.7879462
11
65.8378985
21
43.6380462
0
LINE
8
DEFAULT_255_2_778
10
66.5622985
20
40.7879462
11
66.5622985
21
43.6380462
0
LINE
8
DEFAULT_255_2_778
10
65.4147985
20
43.6380462
11
65.4147985
21
40.7879462
0
LINE
8
DEFAULT_255_2_778
10
65.3153544
20
40.7882529
11
65.3153544
21
39.8283529
0
LINE
8
DEFAULT_255_2_778
10
67.0999544
20
40.7882529
11
67.0999544
21
39.8283529
0
LINE
8
DEFAULT_255_2_778
10
67.7349544
20
40.7882529
11
67.7349544
21
39.8283529
0
LINE
8
DEFAULT_255_2_778
10
67.9082544
20
39.8283529
11
67.9082544
21
40.7882529
0
LINE
8
DEFAULT_255_2_778
10
67.9082544
20
40.7882529
11
65.1155544
21
40.7882529
0
LINE
8
DEFAULT_255_2_778
10
65.1155544
20
40.7882529
11
65.1155544
21
39.8283529
0
LINE
8
DEFAULT_255_2_778
10
65.1155544
20
39.8283529
11
67.9082544
21
39.8283529
0
LINE
8
DEFAULT_255_2_778
10
65.5153544
20
39.8283529
11
65.5153544
21
40.7882529
0
LINE
8
DEFAULT_255_2_778
10
67.2729544
20
39.8283529
11
67.2729544
21
40.7882529
0
LINE
8
DEFAULT_255_2_778
10
67.1152904
20
36.9779462
11
67.1152904
21
39.8280462
0
LINE
8
DEFAULT_255_2_778
10
65.9677904
20
39.8280462
11
65.9677904
21
36.9779462
0
LINE
8
DEFAULT_255_2_778
10
66.6922904
20
39.8280462
11
66.6922904
21
36.9779462
0
LINE
8
DEFAULT_255_2_778
10
65.4150904
20
39.8280462
11
65.4150904
21
36.9779462
0
LINE
8
DEFAULT_255_2_778
10
65.8378904
20
36.9779462
11
65.8378904
21
39.8280462
0
LINE
8
DEFAULT_255_2_778
10
66.5622904
20
36.9779462
11
66.5622904
21
39.8280462
0
LINE
8
DEFAULT_255_2_778
10
67.9079625
20
36.0183529
11
67.9079625
21
36.9782529
0
LINE
8
DEFAULT_255_2_778
10
67.9079625
20
36.9782529
11
65.1152625
21
36.9782529
0
LINE
8
DEFAULT_255_2_778
10
65.1152625
20
36.9782529
11
65.1152625
21
36.0183529
0
LINE
8
DEFAULT_255_2_778
10
65.1152625
20
36.0183529
11
67.9079625
21
36.0183529
0
LINE
8
DEFAULT_255_2_778
10
65.3152625
20
36.9782529
11
65.3152625
21
36.0183529
0
LINE
8
DEFAULT_255_2_778
10
65.5153625
20
36.0183529
11
65.5153625
21
36.9782529
0
LINE
8
DEFAULT_255_2_778
10
67.0998625
20
36.9782529
11
67.0998625
21
36.0183529
0
LINE
8
DEFAULT_255_2_778
10
67.2731625
20
36.0183529
11
67.2731625
21
36.9782529
0
LINE
8
DEFAULT_255_2_778
10
67.7351625
20
36.9782529
11
67.7351625
21
36.0183529
0
LINE
8
DEFAULT_255_2_778
10
65.9677985
20
36.0180462
11
65.9677985
21
33.1679462
0
LINE
8
DEFAULT_255_2_778
10
66.6921985
20
36.0180462
11
66.6921985
21
33.1679462
0
LINE
8
DEFAULT_255_2_778
10
67.1149985
20
33.1679462
11
67.1149985
21
36.0180462
0
LINE
8
DEFAULT_255_2_778
10
65.8378985
20
33.1679462
11
65.8378985
21
36.0180462
0
LINE
8
DEFAULT_255_2_778
10
66.5622985
20
33.1679462
11
66.5622985
21
36.0180462
0
LINE
8
DEFAULT_255_2_778
10
65.4147985
20
36.0180462
11
65.4147985
21
33.1679462
0
LINE
8
DEFAULT_255_2_778
10
65.3153544
20
33.1682529
11
65.3153544
21
32.2083529
0
LINE
8
DEFAULT_255_2_778
10
67.0999544
20
33.1682529
11
67.0999544
21
32.2083529
0
LINE
8
DEFAULT_255_2_778
10
67.7349544
20
33.1682529
11
67.7349544
21
32.2083529
0
LINE
8
DEFAULT_255_2_778
10
67.9082544
20
32.2083529
11
67.9082544
21
33.1682529
0
LINE
8
DEFAULT_255_2_778
10
67.9082544
20
33.1682529
11
65.1155544
21
33.1682529
0
LINE
8
DEFAULT_255_2_778
10
65.1155544
20
33.1682529
11
65.1155544
21
32.2083529
0
LINE
8
DEFAULT_255_2_778
10
65.1155544
20
32.2083529
11
67.9082544
21
32.2083529
0
LINE
8
DEFAULT_255_2_778
10
65.5153544
20
32.2083529
11
65.5153544
21
33.1682529
0
LINE
8
DEFAULT_255_2_778
10
67.2729544
20
32.2083529
11
67.2729544
21
33.1682529
0
LINE
8
DEFAULT_255_2_778
10
67.1152904
20
29.3579462
11
67.1152904
21
32.2080462
0
LINE
8
DEFAULT_255_2_778
10
65.9677904
20
32.2080462
11
65.9677904
21
29.3579462
0
LINE
8
DEFAULT_255_2_778
10
66.6922904
20
32.2080462
11
66.6922904
21
29.3579462
0
LINE
8
DEFAULT_255_2_778
10
65.4150904
20
32.2080462
11
65.4150904
21
29.3579462
0
LINE
8
DEFAULT_255_2_778
10
65.8378904
20
29.3579462
11
65.8378904
21
32.2080462
0
LINE
8
DEFAULT_255_2_778
10
66.5622904
20
29.3579462
11
66.5622904
21
32.2080462
0
LINE
8
DEFAULT_255_2_778
10
67.9079625
20
28.3983529
11
67.9079625
21
29.3582529
0
LINE
8
DEFAULT_255_2_778
10
67.9079625
20
29.3582529
11
65.1152625
21
29.3582529
0
LINE
8
DEFAULT_255_2_778
10
65.1152625
20
29.3582529
11
65.1152625
21
28.3983529
0
LINE
8
DEFAULT_255_2_778
10
65.1152625
20
28.3983529
11
67.9079625
21
28.3983529
0
LINE
8
DEFAULT_255_2_778
10
65.3152625
20
29.3582529
11
65.3152625
21
28.3983529
0
LINE
8
DEFAULT_255_2_778
10
65.5153625
20
28.3983529
11
65.5153625
21
29.3582529
0
LINE
8
DEFAULT_255_2_778
10
67.0998625
20
29.3582529
11
67.0998625
21
28.3983529
0
LINE
8
DEFAULT_255_2_778
10
67.2731625
20
28.3983529
11
67.2731625
21
29.3582529
0
LINE
8
DEFAULT_255_2_778
10
67.7351625
20
29.3582529
11
67.7351625
21
28.3983529
0
LINE
8
DEFAULT_255_2_778
10
65.9677985
20
28.3980462
11
65.9677985
21
25.5479462
0
LINE
8
DEFAULT_255_2_778
10
66.6921985
20
28.3980462
11
66.6921985
21
25.5479462
0
LINE
8
DEFAULT_255_2_778
10
67.1149985
20
25.5479462
11
67.1149985
21
28.3980462
0
LINE
8
DEFAULT_255_2_778
10
65.8378985
20
25.5479462
11
65.8378985
21
28.3980462
0
LINE
8
DEFAULT_255_2_778
10
66.5622985
20
25.5479462
11
66.5622985
21
28.3980462
0
LINE
8
DEFAULT_255_2_778
10
65.4147985
20
28.3980462
11
65.4147985
21
25.5479462
0
LINE
8
DEFAULT_255_2_778
10
67.9079625
20
24.5883529
11
67.9079625
21
25.5482529
0
LINE
8
DEFAULT_255_2_778
10
67.9079625
20
25.5482529
11
65.1152625
21
25.5482529
0
LINE
8
DEFAULT_255_2_778
10
65.1152625
20
25.5482529
11
65.1152625
21
24.5883529
0
LINE
8
DEFAULT_255_2_778
10
65.1152625
20
24.5883529
11
67.9079625
21
24.5883529
0
LINE
8
DEFAULT_255_2_778
10
65.5150625
20
24.5883529
11
65.5150625
21
25.5482529
0
LINE
8
DEFAULT_255_2_778
10
67.2726625
20
24.5883529
11
67.2726625
21
25.5482529
0
LINE
8
DEFAULT_255_2_778
10
65.3150625
20
25.5482529
11
65.3150625
21
24.5883529
0
LINE
8
DEFAULT_255_2_778
10
67.0996625
20
25.5482529
11
67.0996625
21
24.5883529
0
LINE
8
DEFAULT_255_2_778
10
67.7346625
20
25.5482529
11
67.7346625
21
24.5883529
0
LINE
8
DEFAULT_255_2_778
10
67.1152904
20
21.7379462
11
67.1152904
21
24.5880462
0
LINE
8
DEFAULT_255_2_778
10
65.9677904
20
24.5880462
11
65.9677904
21
21.7379462
0
LINE
8
DEFAULT_255_2_778
10
66.6922904
20
24.5880462
11
66.6922904
21
21.7379462
0
LINE
8
DEFAULT_255_2_778
10
65.4150904
20
24.5880462
11
65.4150904
21
21.7379462
0
LINE
8
DEFAULT_255_2_778
10
65.8378904
20
21.7379462
11
65.8378904
21
24.5880462
0
LINE
8
DEFAULT_255_2_778
10
66.5622904
20
21.7379462
11
66.5622904
21
24.5880462
0
LINE
8
DEFAULT_255_2_778
10
67.9079625
20
20.7783529
11
67.9079625
21
21.7382529
0
LINE
8
DEFAULT_255_2_778
10
67.9079625
20
21.7382529
11
65.1152625
21
21.7382529
0
LINE
8
DEFAULT_255_2_778
10
65.1152625
20
21.7382529
11
65.1152625
21
20.7783529
0
LINE
8
DEFAULT_255_2_778
10
65.1152625
20
20.7783529
11
67.9079625
21
20.7783529
0
LINE
8
DEFAULT_255_2_778
10
65.3152625
20
21.7382529
11
65.3152625
21
20.7783529
0
LINE
8
DEFAULT_255_2_778
10
65.5153625
20
20.7783529
11
65.5153625
21
21.7382529
0
LINE
8
DEFAULT_255_2_778
10
67.0998625
20
21.7382529
11
67.0998625
21
20.7783529
0
LINE
8
DEFAULT_255_2_778
10
67.2731625
20
20.7783529
11
67.2731625
21
21.7382529
0
LINE
8
DEFAULT_255_2_778
10
67.7351625
20
21.7382529
11
67.7351625
21
20.7783529
0
LINE
8
DEFAULT_255_2_778
10
65.9677985
20
20.7780462
11
65.9677985
21
17.9279462
0
LINE
8
DEFAULT_255_2_778
10
66.6921985
20
20.7780462
11
66.6921985
21
17.9279462
0
LINE
8
DEFAULT_255_2_778
10
67.1149985
20
17.9279462
11
67.1149985
21
20.7780462
0
LINE
8
DEFAULT_255_2_778
10
65.8378985
20
17.9279462
11
65.8378985
21
20.7780462
0
LINE
8
DEFAULT_255_2_778
10
66.5622985
20
17.9279462
11
66.5622985
21
20.7780462
0
LINE
8
DEFAULT_255_2_778
10
65.4147985
20
20.7780462
11
65.4147985
21
17.9279462
0
LINE
8
DEFAULT_255_2_778
10
65.3153544
20
17.9282529
11
65.3153544
21
16.9683529
0
LINE
8
DEFAULT_255_2_778
10
67.0999544
20
17.9282529
11
67.0999544
21
16.9683529
0
LINE
8
DEFAULT_255_2_778
10
67.7349544
20
17.9282529
11
67.7349544
21
16.9683529
0
LINE
8
DEFAULT_255_2_778
10
67.9082544
20
16.9683529
11
67.9082544
21
17.9282529
0
LINE
8
DEFAULT_255_2_778
10
67.9082544
20
17.9282529
11
65.1155544
21
17.9282529
0
LINE
8
DEFAULT_255_2_778
10
65.1155544
20
17.9282529
11
65.1155544
21
16.9683529
0
LINE
8
DEFAULT_255_2_778
10
65.1155544
20
16.9683529
11
67.9082544
21
16.9683529
0
LINE
8
DEFAULT_255_2_778
10
65.5153544
20
16.9683529
11
65.5153544
21
17.9282529
0
LINE
8
DEFAULT_255_2_778
10
67.2729544
20
16.9683529
11
67.2729544
21
17.9282529
0
LINE
8
DEFAULT_255_2_778
10
67.1152904
20
14.1179503
11
67.1152904
21
16.9680503
0
LINE
8
DEFAULT_255_2_778
10
65.9677904
20
16.9680503
11
65.9677904
21
14.1179503
0
LINE
8
DEFAULT_255_2_778
10
66.6922904
20
16.9680503
11
66.6922904
21
14.1179503
0
LINE
8
DEFAULT_255_2_778
10
65.4150904
20
16.9680503
11
65.4150904
21
14.1179503
0
LINE
8
DEFAULT_255_2_778
10
65.8378904
20
14.1179503
11
65.8378904
21
16.9680503
0
LINE
8
DEFAULT_255_2_778
10
66.5622904
20
14.1179503
11
66.5622904
21
16.9680503
0
LINE
8
DEFAULT_255_2_778
10
67.9079625
20
13.1583529
11
67.9079625
21
14.1182529
0
LINE
8
DEFAULT_255_2_778
10
67.9079625
20
14.1182529
11
65.1152625
21
14.1182529
0
LINE
8
DEFAULT_255_2_778
10
65.1152625
20
14.1182529
11
65.1152625
21
13.1583529
0
LINE
8
DEFAULT_255_2_778
10
65.1152625
20
13.1583529
11
67.9079625
21
13.1583529
0
LINE
8
DEFAULT_255_2_778
10
65.3152625
20
14.1182529
11
65.3152625
21
13.1583529
0
LINE
8
DEFAULT_255_2_778
10
65.5153625
20
13.1583529
11
65.5153625
21
14.1182529
0
LINE
8
DEFAULT_255_2_778
10
67.0998625
20
14.1182529
11
67.0998625
21
13.1583529
0
LINE
8
DEFAULT_255_2_778
10
67.2731625
20
13.1583529
11
67.2731625
21
14.1182529
0
LINE
8
DEFAULT_255_2_778
10
67.7351625
20
14.1182529
11
67.7351625
21
13.1583529
0
LINE
8
DEFAULT_255_2_778
10
67.1153196
20
13.1580503
11
67.1153196
21
10.3079503
0
LINE
8
DEFAULT_255_2_778
10
67.1153196
20
10.3079503
11
65.4153196
21
10.3079503
0
LINE
8
DEFAULT_255_2_778
10
65.4153196
20
10.3079503
11
65.4153196
21
13.1580503
0
LINE
8
DEFAULT_255_2_778
10
65.9678196
20
13.1580503
11
65.9678196
21
10.3079503
0
LINE
8
DEFAULT_255_2_778
10
66.6922196
20
13.1580503
11
66.6922196
21
10.3079503
0
LINE
8
DEFAULT_255_2_778
10
65.8379196
20
10.3079503
11
65.8379196
21
13.1580503
0
LINE
8
DEFAULT_255_2_778
10
66.5623196
20
10.3079503
11
66.5623196
21
13.1580503
0
LINE
8
DEFAULT_255_2_778
10
65.3152625
20
10.2582367
11
65.3152625
21
9.6081367
0
LINE
8
DEFAULT_255_2_778
10
67.0998625
20
10.2582367
11
67.0998625
21
9.6081367
0
LINE
8
DEFAULT_255_2_778
10
67.7348625
20
10.2582367
11
67.7348625
21
9.6081367
0
LINE
8
DEFAULT_255_2_778
10
65.1152625
20
9.6081367
11
65.1152625
21
10.2582367
0
LINE
8
DEFAULT_255_2_778
10
65.1152625
20
10.2582367
11
67.9079625
21
10.2582367
0
LINE
8
DEFAULT_255_2_778
10
67.9079625
20
10.2582367
11
67.9079625
21
9.6081367
0
LINE
8
DEFAULT_255_2_778
10
65.5150625
20
9.6081367
11
65.5150625
21
10.2582367
0
LINE
8
DEFAULT_255_2_778
10
67.2726625
20
9.6081367
11
67.2726625
21
10.2582367
0
ARC
8
DEFAULT_255_2_778
10
64.3665865
20
14.8130833
40
0.2997853
50
224.9743446
51
270.023866
0
ARC
8
DEFAULT_255_2_778
10
64.3664727
20
14.8131634
40
0.2997615
50
179.9551574
51
225.0005479
0
ARC
8
DEFAULT_255_2_778
10
64.3668205
20
16.2633885
40
0.3001092
50
135.0269519
51
180.0172772
0
ARC
8
DEFAULT_255_2_778
10
64.3666202
20
16.2631899
40
0.3001081
50
89.9825861
51
134.9730961
0
LINE
8
DEFAULT_255_2_778
10
65.4153114
20
14.513298
11
64.3667114
21
14.513298
0
LINE
8
DEFAULT_255_2_778
10
64.0667114
20
14.813398
11
64.0667114
21
16.263298
0
LINE
8
DEFAULT_255_2_778
10
64.3667114
20
16.563298
11
65.4153114
21
16.563298
0
ARC
8
DEFAULT_255_2_778
10
64.3666204
20
11.0034112
40
0.3001092
50
225.0270198
51
270.0173732
0
ARC
8
DEFAULT_255_2_778
10
64.3668208
20
11.0032114
40
0.3001094
50
179.9826924
51
224.9729979
0
ARC
8
DEFAULT_255_2_778
10
64.3668199
20
12.4533929
40
0.3001085
50
135.0269231
51
180.0173591
0
ARC
8
DEFAULT_255_2_778
10
64.3666207
20
12.4531924
40
0.3001095
50
89.9826815
51
134.972961
0
LINE
8
DEFAULT_255_2_778
10
65.4153114
20
10.703302
11
64.3667114
21
10.703302
0
LINE
8
DEFAULT_255_2_778
10
64.0667114
20
11.003302
11
64.0667114
21
12.453302
0
LINE
8
DEFAULT_255_2_778
10
64.3667114
20
12.753302
11
65.4153114
21
12.753302
0
ARC
8
DEFAULT_255_2_778
10
64.3666204
20
22.4334071
40
0.3001092
50
225.0270198
51
270.0173732
0
ARC
8
DEFAULT_255_2_778
10
64.3668208
20
22.4332073
40
0.3001094
50
179.9826924
51
224.9729979
0
ARC
8
DEFAULT_255_2_778
10
64.3668205
20
23.8833885
40
0.3001092
50
135.0269519
51
180.0172772
0
ARC
8
DEFAULT_255_2_778
10
64.3666202
20
23.8831899
40
0.3001081
50
89.9825861
51
134.9730961
0
LINE
8
DEFAULT_255_2_778
10
65.4153114
20
22.133298
11
64.3667114
21
22.133298
0
LINE
8
DEFAULT_255_2_778
10
64.0667114
20
22.433298
11
64.0667114
21
23.883298
0
LINE
8
DEFAULT_255_2_778
10
64.3667114
20
24.183298
11
65.4153114
21
24.183298
0
ARC
8
DEFAULT_255_2_778
10
64.3666204
20
18.6234071
40
0.3001092
50
225.0270198
51
270.0173732
0
ARC
8
DEFAULT_255_2_778
10
64.3668208
20
18.6232073
40
0.3001094
50
179.9826924
51
224.9729979
0
ARC
8
DEFAULT_255_2_778
10
64.3668205
20
20.0733885
40
0.3001092
50
135.0269519
51
180.0172772
0
ARC
8
DEFAULT_255_2_778
10
64.3666202
20
20.0731899
40
0.3001081
50
89.9825861
51
134.9730961
0
LINE
8
DEFAULT_255_2_778
10
65.4153114
20
18.323298
11
64.3667114
21
18.323298
0
LINE
8
DEFAULT_255_2_778
10
64.0667114
20
18.623298
11
64.0667114
21
20.073298
0
LINE
8
DEFAULT_255_2_778
10
64.3667114
20
20.373298
11
65.4153114
21
20.373298
0
ARC
8
DEFAULT_255_2_778
10
64.3666204
20
30.0534071
40
0.3001092
50
225.0270198
51
270.0173732
0
ARC
8
DEFAULT_255_2_778
10
64.3668208
20
30.0532073
40
0.3001094
50
179.9826924
51
224.9729979
0
ARC
8
DEFAULT_255_2_778
10
64.3668205
20
31.5033885
40
0.3001092
50
135.0269519
51
180.0172772
0
ARC
8
DEFAULT_255_2_778
10
64.3666202
20
31.5031899
40
0.3001081
50
89.9825861
51
134.9730961
0
LINE
8
DEFAULT_255_2_778
10
65.4153114
20
29.753298
11
64.3667114
21
29.753298
0
LINE
8
DEFAULT_255_2_778
10
64.0667114
20
30.053298
11
64.0667114
21
31.503298
0
LINE
8
DEFAULT_255_2_778
10
64.3667114
20
31.803298
11
65.4153114
21
31.803298
0
ARC
8
DEFAULT_255_2_778
10
64.3666204
20
26.2434071
40
0.3001092
50
225.0270198
51
270.0173732
0
ARC
8
DEFAULT_255_2_778
10
64.3668208
20
26.2432073
40
0.3001094
50
179.9826924
51
224.9729979
0
ARC
8
DEFAULT_255_2_778
10
64.3668205
20
27.6933885
40
0.3001092
50
135.0269519
51
180.0172772
0
ARC
8
DEFAULT_255_2_778
10
64.3666202
20
27.6931899
40
0.3001081
50
89.9825861
51
134.9730961
0
LINE
8
DEFAULT_255_2_778
10
65.4153114
20
25.943298
11
64.3667114
21
25.943298
0
LINE
8
DEFAULT_255_2_778
10
64.0667114
20
26.243298
11
64.0667114
21
27.693298
0
LINE
8
DEFAULT_255_2_778
10
64.3667114
20
27.993298
11
65.4153114
21
27.993298
0
ARC
8
DEFAULT_255_2_778
10
64.3666204
20
37.6734071
40
0.3001092
50
225.0270198
51
270.0173732
0
ARC
8
DEFAULT_255_2_778
10
64.3668208
20
37.6732073
40
0.3001094
50
179.9826924
51
224.9729979
0
ARC
8
DEFAULT_255_2_778
10
64.3668205
20
39.1233885
40
0.3001092
50
135.0269519
51
180.0172772
0
ARC
8
DEFAULT_255_2_778
10
64.3666202
20
39.1231899
40
0.3001081
50
89.9825861
51
134.9730961
0
LINE
8
DEFAULT_255_2_778
10
65.4153114
20
37.373298
11
64.3667114
21
37.373298
0
LINE
8
DEFAULT_255_2_778
10
64.0667114
20
37.673298
11
64.0667114
21
39.123298
0
LINE
8
DEFAULT_255_2_778
10
64.3667114
20
39.423298
11
65.4153114
21
39.423298
0
ARC
8
DEFAULT_255_2_778
10
64.3666204
20
33.8634071
40
0.3001092
50
225.0270198
51
270.0173732
0
ARC
8
DEFAULT_255_2_778
10
64.3668208
20
33.8632073
40
0.3001094
50
179.9826924
51
224.9729979
0
ARC
8
DEFAULT_255_2_778
10
64.3668205
20
35.3133885
40
0.3001092
50
135.0269519
51
180.0172772
0
ARC
8
DEFAULT_255_2_778
10
64.3666202
20
35.3131899
40
0.3001081
50
89.9825861
51
134.9730961
0
LINE
8
DEFAULT_255_2_778
10
65.4153114
20
33.563298
11
64.3667114
21
33.563298
0
LINE
8
DEFAULT_255_2_778
10
64.0667114
20
33.863298
11
64.0667114
21
35.313298
0
LINE
8
DEFAULT_255_2_778
10
64.3667114
20
35.613298
11
65.4153114
21
35.613298
0
ARC
8
DEFAULT_255_2_778
10
64.3666204
20
45.2934031
40
0.3001092
50
225.0270198
51
270.0173732
0
ARC
8
DEFAULT_255_2_778
10
64.3668208
20
45.2932033
40
0.3001094
50
179.9826924
51
224.9729979
0
ARC
8
DEFAULT_255_2_778
10
64.3668199
20
46.7433849
40
0.3001085
50
135.0269231
51
180.0173591
0
ARC
8
DEFAULT_255_2_778
10
64.3666207
20
46.7431844
40
0.3001095
50
89.9826815
51
134.972961
0
LINE
8
DEFAULT_255_2_778
10
65.4153114
20
44.9932939
11
64.3667114
21
44.9932939
0
LINE
8
DEFAULT_255_2_778
10
64.0667114
20
45.2932939
11
64.0667114
21
46.7432939
0
LINE
8
DEFAULT_255_2_778
10
64.3667114
20
47.0432939
11
65.4153114
21
47.0432939
0
ARC
8
DEFAULT_255_2_778
10
64.3666204
20
41.4834112
40
0.3001092
50
225.0270198
51
270.0173732
0
ARC
8
DEFAULT_255_2_778
10
64.3668208
20
41.4832114
40
0.3001094
50
179.9826924
51
224.9729979
0
ARC
8
DEFAULT_255_2_778
10
64.3668199
20
42.9333929
40
0.3001085
50
135.0269231
51
180.0173591
0
ARC
8
DEFAULT_255_2_778
10
64.3666207
20
42.9331924
40
0.3001095
50
89.9826815
51
134.972961
0
LINE
8
DEFAULT_255_2_778
10
65.4153114
20
41.183302
11
64.3667114
21
41.183302
0
LINE
8
DEFAULT_255_2_778
10
64.0667114
20
41.483302
11
64.0667114
21
42.933302
0
LINE
8
DEFAULT_255_2_778
10
64.3667114
20
43.233302
11
65.4153114
21
43.233302
0
ARC
8
DEFAULT_255_2_778
10
73.1168146
20
48.818311
40
0.5000116
50
270.0013268
51
0.0101312
0
ARC
8
DEFAULT_255_2_778
10
74.1169231
20
52.6183024
40
0.5000969
50
89.9996485
51
180.0003515
0
ARC
8
DEFAULT_255_2_778
10
79.0170146
20
52.6183878
40
0.5000116
50
359.9898688
51
89.9986732
0
LINE
8
DEFAULT_255_2_778
10
72.5167261
20
48.1481994
11
72.5167261
21
48.3182994
0
LINE
8
DEFAULT_255_2_778
10
72.5167261
20
48.3182994
11
73.1168261
21
48.3182994
0
LINE
8
DEFAULT_255_2_778
10
73.6168261
20
48.8183994
11
73.6168261
21
52.6182994
0
LINE
8
DEFAULT_255_2_778
10
74.1169261
20
53.1183994
11
79.0170261
21
53.1183994
0
LINE
8
DEFAULT_255_2_778
10
79.5170261
20
52.6182994
11
79.5170261
21
48.1481994
0
ARC
8
DEFAULT_255_2_778
10
79.0164752
20
5.1282854
40
0.5000969
50
269.9996485
51
0.0003515
0
ARC
8
DEFAULT_255_2_778
10
74.116669
20
5.1282854
40
0.5000969
50
179.9996485
51
270.0003515
0
ARC
8
DEFAULT_255_2_778
10
73.1164965
20
8.9282129
40
0.5000756
50
359.9972001
51
89.9913338
0
LINE
8
DEFAULT_255_2_778
10
79.5181721
20
9.6081884
11
79.5165721
21
5.1282884
0
LINE
8
DEFAULT_255_2_778
10
79.0164721
20
4.6281884
11
74.1166721
21
4.6281884
0
LINE
8
DEFAULT_255_2_778
10
73.6165721
20
5.1282884
11
73.6165721
21
8.9281884
0
LINE
8
DEFAULT_255_2_778
10
73.1165721
20
9.4282884
11
72.5164721
21
9.4282884
0
LINE
8
DEFAULT_255_2_778
10
72.5164721
20
9.4282884
11
72.5164721
21
9.6081884
0
LINE
8
DEFAULT_255_2_778
10
79.5165428
20
9.6082038
11
79.5165428
21
48.1482038
0
LINE
8
DEFAULT_255_2_778
10
79.5165428
20
48.1482038
11
71.7666428
21
48.1482038
0
LINE
8
DEFAULT_255_2_778
10
71.7666428
20
48.1482038
11
71.7666428
21
9.6082038
0
LINE
8
DEFAULT_255_2_778
10
71.7666428
20
9.6082038
11
79.5165428
21
9.6082038
0
LINE
8
DEFAULT_255_2_778
10
79.3223
20
48.1482038
11
79.3223
21
9.6082038
0
ARC
8
DEFAULT_255_2_778
10
76.5739236
20
7.2316082
40
1.9516044
50
156.1319169
51
180.100711
0
ARC
8
DEFAULT_255_2_778
10
76.5678063
20
7.2323111
40
1.9457268
50
100.1292829
51
156.0779549
0
ARC
8
DEFAULT_255_2_778
10
76.571342
20
7.2013373
40
1.9768408
50
89.971592
51
100.0722797
0
ARC
8
DEFAULT_255_2_778
10
76.5757526
20
7.2265764
40
1.9516044
50
66.1319169
51
90.100711
0
ARC
8
DEFAULT_255_2_778
10
76.5764554
20
7.2326937
40
1.9457268
50
10.1292829
51
66.0779549
0
ARC
8
DEFAULT_255_2_778
10
76.5454817
20
7.229158
40
1.9768408
50
359.971592
51
10.0722797
0
ARC
8
DEFAULT_255_2_778
10
76.5707208
20
7.2247474
40
1.9516044
50
336.1319169
51
0.100711
0
ARC
8
DEFAULT_255_2_778
10
76.576838
20
7.2240446
40
1.9457268
50
280.1292829
51
336.0779549
0
ARC
8
DEFAULT_255_2_778
10
76.5733023
20
7.2550183
40
1.9768408
50
269.971592
51
280.0722797
0
ARC
8
DEFAULT_255_2_778
10
76.5688918
20
7.2297792
40
1.9516044
50
246.1319169
51
270.100711
0
ARC
8
DEFAULT_255_2_778
10
76.5681889
20
7.223662
40
1.9457268
50
190.1292829
51
246.0779549
0
ARC
8
DEFAULT_255_2_778
10
76.5991627
20
7.2271977
40
1.9768408
50
179.971592
51
190.0722797
0
LINE
8
DEFAULT_255_2_778
10
74.6223222
20
7.2281778
11
74.6223222
21
7.2281778
0
ARC
8
DEFAULT_255_2_778
10
78.3759775
20
5.8067901
40
0.9964361
50
318.3557664
51
0.0833208
0
ARC
8
DEFAULT_255_2_778
10
78.373372
20
5.8057783
40
0.997714
50
271.7306446
51
318.498614
0
ARC
8
DEFAULT_255_2_778
10
78.3722223
20
5.8271629
40
1.0191238
50
269.9994553
51
271.7589451
0
ARC
8
DEFAULT_255_2_778
10
74.770889
20
5.8043199
40
0.9962817
50
228.352397
51
270.0818679
0
ARC
8
DEFAULT_255_2_778
10
74.7699933
20
5.8070848
40
0.9977557
50
181.7308645
51
228.4963478
0
ARC
8
DEFAULT_255_2_778
10
74.7913363
20
5.8082295
40
1.0191238
50
179.9994553
51
181.7589451
0
LINE
8
DEFAULT_255_2_778
10
79.3724126
20
9.6081392
11
79.3724126
21
5.8082392
0
LINE
8
DEFAULT_255_2_778
10
78.3722126
20
4.8080392
11
74.7723126
21
4.8080392
0
LINE
8
DEFAULT_255_2_778
10
73.7722126
20
5.8082392
11
73.7722126
21
9.6081392
0
ARC
8
DEFAULT_255_2_778
10
76.5739236
20
50.3839082
40
1.9516044
50
156.1319169
51
180.100711
0
ARC
8
DEFAULT_255_2_778
10
76.5678063
20
50.3846111
40
1.9457268
50
100.1292829
51
156.0779549
0
ARC
8
DEFAULT_255_2_778
10
76.571342
20
50.3536373
40
1.9768408
50
89.971592
51
100.0722797
0
ARC
8
DEFAULT_255_2_778
10
76.5757526
20
50.3788764
40
1.9516044
50
66.1319169
51
90.100711
0
ARC
8
DEFAULT_255_2_778
10
76.5764554
20
50.3849937
40
1.9457268
50
10.1292829
51
66.0779549
0
ARC
8
DEFAULT_255_2_778
10
76.5454817
20
50.381458
40
1.9768408
50
359.971592
51
10.0722797
0
ARC
8
DEFAULT_255_2_778
10
76.5707208
20
50.3770474
40
1.9516044
50
336.1319169
51
0.100711
0
ARC
8
DEFAULT_255_2_778
10
76.576838
20
50.3763446
40
1.9457268
50
280.1292829
51
336.0779549
0
ARC
8
DEFAULT_255_2_778
10
76.5733023
20
50.4073183
40
1.9768408
50
269.971592
51
280.0722797
0
ARC
8
DEFAULT_255_2_778
10
76.5688918
20
50.3820792
40
1.9516044
50
246.1319169
51
270.100711
0
ARC
8
DEFAULT_255_2_778
10
76.5681889
20
50.375962
40
1.9457268
50
190.1292829
51
246.0779549
0
ARC
8
DEFAULT_255_2_778
10
76.5991627
20
50.3794977
40
1.9768408
50
179.971592
51
190.0722797
0
LINE
8
DEFAULT_255_2_778
10
74.6223222
20
50.3804778
11
74.6223222
21
50.3804778
0
ARC
8
DEFAULT_255_2_778
10
74.7687342
20
51.8069488
40
0.9963226
50
138.3541388
51
180.0816049
0
ARC
8
DEFAULT_255_2_778
10
74.7713962
20
51.8079683
40
0.9976376
50
91.732932
51
138.4994886
0
ARC
8
DEFAULT_255_2_778
10
74.7725029
20
51.7868705
40
1.0187592
50
89.9994554
51
91.7592612
0
ARC
8
DEFAULT_255_2_778
10
78.3739316
20
51.8093081
40
0.9963226
50
48.3541388
51
90.0816049
0
ARC
8
DEFAULT_255_2_778
10
78.3749511
20
51.8066461
40
0.9976376
50
1.732932
51
48.4994886
0
ARC
8
DEFAULT_255_2_778
10
78.3538534
20
51.8055394
40
1.0187592
50
359.9994554
51
1.7592612
0
LINE
8
DEFAULT_255_2_778
10
73.7724126
20
48.1481297
11
73.7724126
21
51.8055297
0
LINE
8
DEFAULT_255_2_778
10
74.7725126
20
52.8056297
11
78.3725126
21
52.8056297
0
LINE
8
DEFAULT_255_2_778
10
79.3726126
20
51.8055297
11
79.3726126
21
48.1481297
0
ARC
8
DEFAULT_255_2_778
10
77.4646887
20
42.0862613
40
1.4980165
50
151.5794485
51
180.1201144
0
ARC
8
DEFAULT_255_2_778
10
77.4629066
20
42.0865466
40
1.4963136
50
98.4345278
51
151.556579
0
ARC
8
DEFAULT_255_2_778
10
77.4660263
20
42.0590749
40
1.523946
50
89.9793545
51
98.3990533
0
ARC
8
DEFAULT_255_2_778
10
77.4696933
20
42.0849735
40
1.4980506
50
61.5830241
51
90.1192473
0
ARC
8
DEFAULT_255_2_778
10
77.4700629
20
42.0868208
40
1.4962501
50
8.4354362
51
61.5618085
0
ARC
8
DEFAULT_255_2_778
10
77.44238
20
42.0836732
40
1.5240956
50
359.9792366
51
8.3998208
0
ARC
8
DEFAULT_255_2_778
10
77.4683762
20
42.0799581
40
1.4981026
50
331.5802751
51
0.1209614
0
ARC
8
DEFAULT_255_2_778
10
77.4703205
20
42.079623
40
1.4962333
50
278.4320341
51
331.5561276
0
ARC
8
DEFAULT_255_2_778
10
77.4671259
20
42.107352
40
1.5241313
50
269.9793083
51
278.3979756
0
ARC
8
DEFAULT_255_2_778
10
77.4634794
20
42.0810596
40
1.497842
50
241.5777617
51
270.1184315
0
ARC
8
DEFAULT_255_2_778
10
77.4632953
20
42.0796053
40
1.4964755
50
188.4395422
51
241.5574586
0
ARC
8
DEFAULT_255_2_778
10
77.490214
20
42.082573
40
1.5235387
50
179.9793954
51
188.4013619
0
ARC
8
DEFAULT_255_2_778
10
77.4646887
20
45.8962613
40
1.4980165
50
151.5794485
51
180.1201144
0
ARC
8
DEFAULT_255_2_778
10
77.4629066
20
45.8965466
40
1.4963136
50
98.4345278
51
151.556579
0
ARC
8
DEFAULT_255_2_778
10
77.4660263
20
45.8690749
40
1.523946
50
89.9793545
51
98.3990533
0
ARC
8
DEFAULT_255_2_778
10
77.4696715
20
45.8951821
40
1.497842
50
61.5777617
51
90.1184315
0
ARC
8
DEFAULT_255_2_778
10
77.4698556
20
45.8966364
40
1.4964755
50
8.4395422
51
61.5574586
0
ARC
8
DEFAULT_255_2_778
10
77.4429369
20
45.8936687
40
1.5235387
50
359.9793954
51
8.4013619
0
ARC
8
DEFAULT_255_2_778
10
77.4686367
20
45.8900248
40
1.497842
50
331.5777617
51
0.1184315
0
ARC
8
DEFAULT_255_2_778
10
77.470091
20
45.8898407
40
1.4964755
50
278.4395422
51
331.5574586
0
ARC
8
DEFAULT_255_2_778
10
77.4671233
20
45.9167594
40
1.5235387
50
269.9793954
51
278.4013619
0
ARC
8
DEFAULT_255_2_778
10
77.4634464
20
45.8913695
40
1.4981519
50
241.5856128
51
270.11967
0
ARC
8
DEFAULT_255_2_778
10
77.4629843
20
45.8893286
40
1.4961372
50
188.4333789
51
241.563985
0
ARC
8
DEFAULT_255_2_778
10
77.4910501
20
45.8925664
40
1.5243748
50
179.9791601
51
188.3990496
0
ARC
8
DEFAULT_255_2_778
10
77.4646887
20
34.4662613
40
1.4980165
50
151.5794485
51
180.1201144
0
ARC
8
DEFAULT_255_2_778
10
77.4629066
20
34.4665466
40
1.4963136
50
98.4345278
51
151.556579
0
ARC
8
DEFAULT_255_2_778
10
77.4660263
20
34.4390749
40
1.523946
50
89.9793545
51
98.3990533
0
ARC
8
DEFAULT_255_2_778
10
77.4696715
20
34.4651821
40
1.497842
50
61.5777617
51
90.1184315
0
ARC
8
DEFAULT_255_2_778
10
77.4698556
20
34.4666364
40
1.4964755
50
8.4395422
51
61.5574586
0
ARC
8
DEFAULT_255_2_778
10
77.4429369
20
34.4636687
40
1.5235387
50
359.9793954
51
8.4013619
0
ARC
8
DEFAULT_255_2_778
10
77.4686367
20
34.4600248
40
1.497842
50
331.5777617
51
0.1184315
0
ARC
8
DEFAULT_255_2_778
10
77.470091
20
34.4598407
40
1.4964755
50
278.4395422
51
331.5574586
0
ARC
8
DEFAULT_255_2_778
10
77.4671233
20
34.4867594
40
1.5235387
50
269.9793954
51
278.4013619
0
ARC
8
DEFAULT_255_2_778
10
77.4634794
20
34.4610596
40
1.497842
50
241.5777617
51
270.1184315
0
ARC
8
DEFAULT_255_2_778
10
77.4632953
20
34.4596053
40
1.4964755
50
188.4395422
51
241.5574586
0
ARC
8
DEFAULT_255_2_778
10
77.490214
20
34.462573
40
1.5235387
50
179.9793954
51
188.4013619
0
ARC
8
DEFAULT_255_2_778
10
77.4646887
20
38.2762613
40
1.4980165
50
151.5794485
51
180.1201144
0
ARC
8
DEFAULT_255_2_778
10
77.4629066
20
38.2765466
40
1.4963136
50
98.4345278
51
151.556579
0
ARC
8
DEFAULT_255_2_778
10
77.4660263
20
38.2490749
40
1.523946
50
89.9793545
51
98.3990533
0
ARC
8
DEFAULT_255_2_778
10
77.4696715
20
38.2751821
40
1.497842
50
61.5777617
51
90.1184315
0
ARC
8
DEFAULT_255_2_778
10
77.4698556
20
38.2766364
40
1.4964755
50
8.4395422
51
61.5574586
0
ARC
8
DEFAULT_255_2_778
10
77.4429369
20
38.2736687
40
1.5235387
50
359.9793954
51
8.4013619
0
ARC
8
DEFAULT_255_2_778
10
77.4686367
20
38.2700248
40
1.497842
50
331.5777617
51
0.1184315
0
ARC
8
DEFAULT_255_2_778
10
77.470091
20
38.2698407
40
1.4964755
50
278.4395422
51
331.5574586
0
ARC
8
DEFAULT_255_2_778
10
77.4671233
20
38.2967594
40
1.5235387
50
269.9793954
51
278.4013619
0
ARC
8
DEFAULT_255_2_778
10
77.4634794
20
38.2710596
40
1.497842
50
241.5777617
51
270.1184315
0
ARC
8
DEFAULT_255_2_778
10
77.4632953
20
38.2696053
40
1.4964755
50
188.4395422
51
241.5574586
0
ARC
8
DEFAULT_255_2_778
10
77.490214
20
38.272573
40
1.5235387
50
179.9793954
51
188.4013619
0
ARC
8
DEFAULT_255_2_778
10
77.4646887
20
26.8462613
40
1.4980165
50
151.5794485
51
180.1201144
0
ARC
8
DEFAULT_255_2_778
10
77.4629066
20
26.8465466
40
1.4963136
50
98.4345278
51
151.556579
0
ARC
8
DEFAULT_255_2_778
10
77.4660263
20
26.8190749
40
1.523946
50
89.9793545
51
98.3990533
0
ARC
8
DEFAULT_255_2_778
10
77.4696715
20
26.8451821
40
1.497842
50
61.5777617
51
90.1184315
0
ARC
8
DEFAULT_255_2_778
10
77.4698556
20
26.8466364
40
1.4964755
50
8.4395422
51
61.5574586
0
ARC
8
DEFAULT_255_2_778
10
77.4429369
20
26.8436687
40
1.5235387
50
359.9793954
51
8.4013619
0
ARC
8
DEFAULT_255_2_778
10
77.4686367
20
26.8400248
40
1.497842
50
331.5777617
51
0.1184315
0
ARC
8
DEFAULT_255_2_778
10
77.470091
20
26.8398407
40
1.4964755
50
278.4395422
51
331.5574586
0
ARC
8
DEFAULT_255_2_778
10
77.4671233
20
26.8667594
40
1.5235387
50
269.9793954
51
278.4013619
0
ARC
8
DEFAULT_255_2_778
10
77.4634794
20
26.8410596
40
1.497842
50
241.5777617
51
270.1184315
0
ARC
8
DEFAULT_255_2_778
10
77.4632953
20
26.8396053
40
1.4964755
50
188.4395422
51
241.5574586
0
ARC
8
DEFAULT_255_2_778
10
77.490214
20
26.842573
40
1.5235387
50
179.9793954
51
188.4013619
0
ARC
8
DEFAULT_255_2_778
10
77.4646887
20
30.6562613
40
1.4980165
50
151.5794485
51
180.1201144
0
ARC
8
DEFAULT_255_2_778
10
77.4629066
20
30.6565466
40
1.4963136
50
98.4345278
51
151.556579
0
ARC
8
DEFAULT_255_2_778
10
77.4660263
20
30.6290749
40
1.523946
50
89.9793545
51
98.3990533
0
ARC
8
DEFAULT_255_2_778
10
77.4696715
20
30.6551821
40
1.497842
50
61.5777617
51
90.1184315
0
ARC
8
DEFAULT_255_2_778
10
77.4698556
20
30.6566364
40
1.4964755
50
8.4395422
51
61.5574586
0
ARC
8
DEFAULT_255_2_778
10
77.4429369
20
30.6536687
40
1.5235387
50
359.9793954
51
8.4013619
0
ARC
8
DEFAULT_255_2_778
10
77.468505
20
30.6500348
40
1.4979736
50
331.5790435
51
0.1180395
0
ARC
8
DEFAULT_255_2_778
10
77.4700166
20
30.64978
40
1.4965231
50
278.442153
51
331.5600789
0
ARC
8
DEFAULT_255_2_778
10
77.467122
20
30.6764744
40
1.5233536
50
269.9794418
51
278.4024397
0
ARC
8
DEFAULT_255_2_778
10
77.4634879
20
30.6508241
40
1.4977064
50
241.5745851
51
270.1181169
0
ARC
8
DEFAULT_255_2_778
10
77.4634536
20
30.6496244
40
1.4966352
50
188.4394625
51
241.5538755
0
ARC
8
DEFAULT_255_2_778
10
77.4902628
20
30.6525741
40
1.5235875
50
179.9794408
51
188.4012255
0
ARC
8
DEFAULT_255_2_778
10
77.4646887
20
19.2262613
40
1.4980165
50
151.5794485
51
180.1201144
0
ARC
8
DEFAULT_255_2_778
10
77.4629066
20
19.2265466
40
1.4963136
50
98.4345278
51
151.556579
0
ARC
8
DEFAULT_255_2_778
10
77.4660263
20
19.1990749
40
1.523946
50
89.9793545
51
98.3990533
0
ARC
8
DEFAULT_255_2_778
10
77.4696715
20
19.2251821
40
1.497842
50
61.5777617
51
90.1184315
0
ARC
8
DEFAULT_255_2_778
10
77.4698556
20
19.2266364
40
1.4964755
50
8.4395422
51
61.5574586
0
ARC
8
DEFAULT_255_2_778
10
77.4429369
20
19.2236687
40
1.5235387
50
359.9793954
51
8.4013619
0
ARC
8
DEFAULT_255_2_778
10
77.4686367
20
19.2200248
40
1.497842
50
331.5777617
51
0.1184315
0
ARC
8
DEFAULT_255_2_778
10
77.470091
20
19.2198407
40
1.4964755
50
278.4395422
51
331.5574586
0
ARC
8
DEFAULT_255_2_778
10
77.4671233
20
19.2467594
40
1.5235387
50
269.9793954
51
278.4013619
0
ARC
8
DEFAULT_255_2_778
10
77.4634794
20
19.2210596
40
1.497842
50
241.5777617
51
270.1184315
0
ARC
8
DEFAULT_255_2_778
10
77.4632953
20
19.2196053
40
1.4964755
50
188.4395422
51
241.5574586
0
ARC
8
DEFAULT_255_2_778
10
77.490214
20
19.222573
40
1.5235387
50
179.9793954
51
188.4013619
0
ARC
8
DEFAULT_255_2_778
10
77.4646887
20
23.0362613
40
1.4980165
50
151.5794485
51
180.1201144
0
ARC
8
DEFAULT_255_2_778
10
77.4629066
20
23.0365466
40
1.4963136
50
98.4345278
51
151.556579
0
ARC
8
DEFAULT_255_2_778
10
77.4660263
20
23.0090749
40
1.523946
50
89.9793545
51
98.3990533
0
ARC
8
DEFAULT_255_2_778
10
77.4696715
20
23.0351821
40
1.497842
50
61.5777617
51
90.1184315
0
ARC
8
DEFAULT_255_2_778
10
77.4698556
20
23.0366364
40
1.4964755
50
8.4395422
51
61.5574586
0
ARC
8
DEFAULT_255_2_778
10
77.4429369
20
23.0336687
40
1.5235387
50
359.9793954
51
8.4013619
0
ARC
8
DEFAULT_255_2_778
10
77.4686367
20
23.0300248
40
1.497842
50
331.5777617
51
0.1184315
0
ARC
8
DEFAULT_255_2_778
10
77.470091
20
23.0298407
40
1.4964755
50
278.4395422
51
331.5574586
0
ARC
8
DEFAULT_255_2_778
10
77.4671233
20
23.0567594
40
1.5235387
50
269.9793954
51
278.4013619
0
ARC
8
DEFAULT_255_2_778
10
77.4634794
20
23.0310596
40
1.497842
50
241.5777617
51
270.1184315
0
ARC
8
DEFAULT_255_2_778
10
77.4632953
20
23.0296053
40
1.4964755
50
188.4395422
51
241.5574586
0
ARC
8
DEFAULT_255_2_778
10
77.490214
20
23.032573
40
1.5235387
50
179.9793954
51
188.4013619
0
ARC
8
DEFAULT_255_2_778
10
77.4646887
20
11.6062613
40
1.4980165
50
151.5794485
51
180.1201144
0
ARC
8
DEFAULT_255_2_778
10
77.4629066
20
11.6065466
40
1.4963136
50
98.4345278
51
151.556579
0
ARC
8
DEFAULT_255_2_778
10
77.4660263
20
11.5790749
40
1.523946
50
89.9793545
51
98.3990533
0
ARC
8
DEFAULT_255_2_778
10
77.4696715
20
11.6051821
40
1.497842
50
61.5777617
51
90.1184315
0
ARC
8
DEFAULT_255_2_778
10
77.4698556
20
11.6066364
40
1.4964755
50
8.4395422
51
61.5574586
0
ARC
8
DEFAULT_255_2_778
10
77.4429369
20
11.6036687
40
1.5235387
50
359.9793954
51
8.4013619
0
ARC
8
DEFAULT_255_2_778
10
77.4686367
20
11.6000248
40
1.497842
50
331.5777617
51
0.1184315
0
ARC
8
DEFAULT_255_2_778
10
77.470091
20
11.5998407
40
1.4964755
50
278.4395422
51
331.5574586
0
ARC
8
DEFAULT_255_2_778
10
77.4671233
20
11.6267594
40
1.5235387
50
269.9793954
51
278.4013619
0
ARC
8
DEFAULT_255_2_778
10
77.4634794
20
11.6010596
40
1.497842
50
241.5777617
51
270.1184315
0
ARC
8
DEFAULT_255_2_778
10
77.4632953
20
11.5996053
40
1.4964755
50
188.4395422
51
241.5574586
0
ARC
8
DEFAULT_255_2_778
10
77.490214
20
11.602573
40
1.5235387
50
179.9793954
51
188.4013619
0
ARC
8
DEFAULT_255_2_778
10
77.4646887
20
15.4162613
40
1.4980165
50
151.5794485
51
180.1201144
0
ARC
8
DEFAULT_255_2_778
10
77.4629066
20
15.4165466
40
1.4963136
50
98.4345278
51
151.556579
0
ARC
8
DEFAULT_255_2_778
10
77.4660263
20
15.3890749
40
1.523946
50
89.9793545
51
98.3990533
0
ARC
8
DEFAULT_255_2_778
10
77.4696715
20
15.4151821
40
1.497842
50
61.5777617
51
90.1184315
0
ARC
8
DEFAULT_255_2_778
10
77.4698556
20
15.4166364
40
1.4964755
50
8.4395422
51
61.5574586
0
ARC
8
DEFAULT_255_2_778
10
77.4429369
20
15.4136687
40
1.5235387
50
359.9793954
51
8.4013619
0
ARC
8
DEFAULT_255_2_778
10
77.4686367
20
15.4100248
40
1.497842
50
331.5777617
51
0.1184315
0
ARC
8
DEFAULT_255_2_778
10
77.470091
20
15.4098407
40
1.4964755
50
278.4395422
51
331.5574586
0
ARC
8
DEFAULT_255_2_778
10
77.4671233
20
15.4367594
40
1.5235387
50
269.9793954
51
278.4013619
0
ARC
8
DEFAULT_255_2_778
10
77.4634794
20
15.4110596
40
1.497842
50
241.5777617
51
270.1184315
0
ARC
8
DEFAULT_255_2_778
10
77.4632953
20
15.4096053
40
1.4964755
50
188.4395422
51
241.5574586
0
ARC
8
DEFAULT_255_2_778
10
77.490214
20
15.412573
40
1.5235387
50
179.9793954
51
188.4013619
0
LINE
8
DEFAULT_255_2_778
10
75.9666754
20
42.0831208
11
75.9666754
21
42.0831208
0
LINE
8
DEFAULT_255_2_778
10
75.9666754
20
45.8931208
11
75.9666754
21
45.8931208
0
LINE
8
DEFAULT_255_2_778
10
75.9666754
20
34.4631208
11
75.9666754
21
34.4631208
0
LINE
8
DEFAULT_255_2_778
10
75.9666754
20
38.2731208
11
75.9666754
21
38.2731208
0
LINE
8
DEFAULT_255_2_778
10
75.9666754
20
26.8431208
11
75.9666754
21
26.8431208
0
LINE
8
DEFAULT_255_2_778
10
75.9666754
20
30.6531208
11
75.9666754
21
30.6531208
0
LINE
8
DEFAULT_255_2_778
10
75.9666754
20
19.2231208
11
75.9666754
21
19.2231208
0
LINE
8
DEFAULT_255_2_778
10
75.9666754
20
23.0331208
11
75.9666754
21
23.0331208
0
LINE
8
DEFAULT_255_2_778
10
75.9666754
20
11.6031208
11
75.9666754
21
11.6031208
0
LINE
8
DEFAULT_255_2_778
10
75.9666754
20
15.4131208
11
75.9666754
21
15.4131208
0
LINE
8
DEFAULT_255_2_778
10
76.2079625
20
48.1481407
11
76.2079625
21
47.4980407
0
LINE
8
DEFAULT_255_2_778
10
76.2079625
20
47.4980407
11
73.4152625
21
47.4980407
0
LINE
8
DEFAULT_255_2_778
10
73.4152625
20
47.4980407
11
73.4152625
21
48.1481407
0
LINE
8
DEFAULT_255_2_778
10
73.6152625
20
48.1481407
11
73.6152625
21
47.4980407
0
LINE
8
DEFAULT_255_2_778
10
75.3998625
20
48.1481407
11
75.3998625
21
47.4980407
0
LINE
8
DEFAULT_255_2_778
10
76.0348625
20
48.1481407
11
76.0348625
21
47.4980407
0
LINE
8
DEFAULT_255_2_778
10
73.8153625
20
47.4980407
11
73.8153625
21
48.1481407
0
LINE
8
DEFAULT_255_2_778
10
75.5729625
20
47.4980407
11
75.5729625
21
48.1481407
0
LINE
8
DEFAULT_255_2_778
10
73.7153196
20
44.5979462
11
73.7153196
21
47.4480462
0
LINE
8
DEFAULT_255_2_778
10
73.7153196
20
47.4480462
11
75.4153196
21
47.4480462
0
LINE
8
DEFAULT_255_2_778
10
75.4153196
20
47.4480462
11
75.4153196
21
44.5979462
0
LINE
8
DEFAULT_255_2_778
10
74.2678196
20
47.4480462
11
74.2678196
21
44.5979462
0
LINE
8
DEFAULT_255_2_778
10
74.9922196
20
47.4480462
11
74.9922196
21
44.5979462
0
LINE
8
DEFAULT_255_2_778
10
74.1379196
20
44.5979462
11
74.1379196
21
47.4480462
0
LINE
8
DEFAULT_255_2_778
10
74.8623196
20
44.5979462
11
74.8623196
21
47.4480462
0
LINE
8
DEFAULT_255_2_778
10
76.2079625
20
43.6383529
11
76.2079625
21
44.5982529
0
LINE
8
DEFAULT_255_2_778
10
76.2079625
20
44.5982529
11
73.4152625
21
44.5982529
0
LINE
8
DEFAULT_255_2_778
10
73.4152625
20
44.5982529
11
73.4152625
21
43.6383529
0
LINE
8
DEFAULT_255_2_778
10
73.4152625
20
43.6383529
11
76.2079625
21
43.6383529
0
LINE
8
DEFAULT_255_2_778
10
73.6152625
20
44.5982529
11
73.6152625
21
43.6383529
0
LINE
8
DEFAULT_255_2_778
10
73.8153625
20
43.6383529
11
73.8153625
21
44.5982529
0
LINE
8
DEFAULT_255_2_778
10
75.3998625
20
44.5982529
11
75.3998625
21
43.6383529
0
LINE
8
DEFAULT_255_2_778
10
75.5731625
20
43.6383529
11
75.5731625
21
44.5982529
0
LINE
8
DEFAULT_255_2_778
10
76.0351625
20
44.5982529
11
76.0351625
21
43.6383529
0
LINE
8
DEFAULT_255_2_778
10
74.2677985
20
43.6380462
11
74.2677985
21
40.7879462
0
LINE
8
DEFAULT_255_2_778
10
74.9921985
20
43.6380462
11
74.9921985
21
40.7879462
0
LINE
8
DEFAULT_255_2_778
10
75.4149985
20
40.7879462
11
75.4149985
21
43.6380462
0
LINE
8
DEFAULT_255_2_778
10
74.1378985
20
40.7879462
11
74.1378985
21
43.6380462
0
LINE
8
DEFAULT_255_2_778
10
74.8622985
20
40.7879462
11
74.8622985
21
43.6380462
0
LINE
8
DEFAULT_255_2_778
10
73.7147985
20
43.6380462
11
73.7147985
21
40.7879462
0
LINE
8
DEFAULT_255_2_778
10
73.6153544
20
40.7882529
11
73.6153544
21
39.8283529
0
LINE
8
DEFAULT_255_2_778
10
75.3999544
20
40.7882529
11
75.3999544
21
39.8283529
0
LINE
8
DEFAULT_255_2_778
10
76.0349544
20
40.7882529
11
76.0349544
21
39.8283529
0
LINE
8
DEFAULT_255_2_778
10
76.2082544
20
39.8283529
11
76.2082544
21
40.7882529
0
LINE
8
DEFAULT_255_2_778
10
76.2082544
20
40.7882529
11
73.4155544
21
40.7882529
0
LINE
8
DEFAULT_255_2_778
10
73.4155544
20
40.7882529
11
73.4155544
21
39.8283529
0
LINE
8
DEFAULT_255_2_778
10
73.4155544
20
39.8283529
11
76.2082544
21
39.8283529
0
LINE
8
DEFAULT_255_2_778
10
73.8153544
20
39.8283529
11
73.8153544
21
40.7882529
0
LINE
8
DEFAULT_255_2_778
10
75.5729544
20
39.8283529
11
75.5729544
21
40.7882529
0
LINE
8
DEFAULT_255_2_778
10
75.4151904
20
36.9779462
11
75.4151904
21
39.8280462
0
LINE
8
DEFAULT_255_2_778
10
74.2676904
20
39.8280462
11
74.2676904
21
36.9779462
0
LINE
8
DEFAULT_255_2_778
10
74.9921904
20
39.8280462
11
74.9921904
21
36.9779462
0
LINE
8
DEFAULT_255_2_778
10
73.7149904
20
39.8280462
11
73.7149904
21
36.9779462
0
LINE
8
DEFAULT_255_2_778
10
74.1377904
20
36.9779462
11
74.1377904
21
39.8280462
0
LINE
8
DEFAULT_255_2_778
10
74.8621904
20
36.9779462
11
74.8621904
21
39.8280462
0
LINE
8
DEFAULT_255_2_778
10
76.2079625
20
36.0183529
11
76.2079625
21
36.9782529
0
LINE
8
DEFAULT_255_2_778
10
76.2079625
20
36.9782529
11
73.4152625
21
36.9782529
0
LINE
8
DEFAULT_255_2_778
10
73.4152625
20
36.9782529
11
73.4152625
21
36.0183529
0
LINE
8
DEFAULT_255_2_778
10
73.4152625
20
36.0183529
11
76.2079625
21
36.0183529
0
LINE
8
DEFAULT_255_2_778
10
73.6152625
20
36.9782529
11
73.6152625
21
36.0183529
0
LINE
8
DEFAULT_255_2_778
10
73.8153625
20
36.0183529
11
73.8153625
21
36.9782529
0
LINE
8
DEFAULT_255_2_778
10
75.3998625
20
36.9782529
11
75.3998625
21
36.0183529
0
LINE
8
DEFAULT_255_2_778
10
75.5731625
20
36.0183529
11
75.5731625
21
36.9782529
0
LINE
8
DEFAULT_255_2_778
10
76.0351625
20
36.9782529
11
76.0351625
21
36.0183529
0
LINE
8
DEFAULT_255_2_778
10
74.2677985
20
36.0180462
11
74.2677985
21
33.1679462
0
LINE
8
DEFAULT_255_2_778
10
74.9921985
20
36.0180462
11
74.9921985
21
33.1679462
0
LINE
8
DEFAULT_255_2_778
10
75.4149985
20
33.1679462
11
75.4149985
21
36.0180462
0
LINE
8
DEFAULT_255_2_778
10
74.1378985
20
33.1679462
11
74.1378985
21
36.0180462
0
LINE
8
DEFAULT_255_2_778
10
74.8622985
20
33.1679462
11
74.8622985
21
36.0180462
0
LINE
8
DEFAULT_255_2_778
10
73.7147985
20
36.0180462
11
73.7147985
21
33.1679462
0
LINE
8
DEFAULT_255_2_778
10
73.6153544
20
33.1682529
11
73.6153544
21
32.2083529
0
LINE
8
DEFAULT_255_2_778
10
75.3999544
20
33.1682529
11
75.3999544
21
32.2083529
0
LINE
8
DEFAULT_255_2_778
10
76.0349544
20
33.1682529
11
76.0349544
21
32.2083529
0
LINE
8
DEFAULT_255_2_778
10
76.2082544
20
32.2083529
11
76.2082544
21
33.1682529
0
LINE
8
DEFAULT_255_2_778
10
76.2082544
20
33.1682529
11
73.4155544
21
33.1682529
0
LINE
8
DEFAULT_255_2_778
10
73.4155544
20
33.1682529
11
73.4155544
21
32.2083529
0
LINE
8
DEFAULT_255_2_778
10
73.4155544
20
32.2083529
11
76.2082544
21
32.2083529
0
LINE
8
DEFAULT_255_2_778
10
73.8153544
20
32.2083529
11
73.8153544
21
33.1682529
0
LINE
8
DEFAULT_255_2_778
10
75.5729544
20
32.2083529
11
75.5729544
21
33.1682529
0
LINE
8
DEFAULT_255_2_778
10
75.4151904
20
29.3579462
11
75.4151904
21
32.2080462
0
LINE
8
DEFAULT_255_2_778
10
74.2676904
20
32.2080462
11
74.2676904
21
29.3579462
0
LINE
8
DEFAULT_255_2_778
10
74.9921904
20
32.2080462
11
74.9921904
21
29.3579462
0
LINE
8
DEFAULT_255_2_778
10
73.7149904
20
32.2080462
11
73.7149904
21
29.3579462
0
LINE
8
DEFAULT_255_2_778
10
74.1377904
20
29.3579462
11
74.1377904
21
32.2080462
0
LINE
8
DEFAULT_255_2_778
10
74.8621904
20
29.3579462
11
74.8621904
21
32.2080462
0
LINE
8
DEFAULT_255_2_778
10
76.2079625
20
28.3983529
11
76.2079625
21
29.3582529
0
LINE
8
DEFAULT_255_2_778
10
76.2079625
20
29.3582529
11
73.4152625
21
29.3582529
0
LINE
8
DEFAULT_255_2_778
10
73.4152625
20
29.3582529
11
73.4152625
21
28.3983529
0
LINE
8
DEFAULT_255_2_778
10
73.4152625
20
28.3983529
11
76.2079625
21
28.3983529
0
LINE
8
DEFAULT_255_2_778
10
73.6152625
20
29.3582529
11
73.6152625
21
28.3983529
0
LINE
8
DEFAULT_255_2_778
10
73.8153625
20
28.3983529
11
73.8153625
21
29.3582529
0
LINE
8
DEFAULT_255_2_778
10
75.3998625
20
29.3582529
11
75.3998625
21
28.3983529
0
LINE
8
DEFAULT_255_2_778
10
75.5731625
20
28.3983529
11
75.5731625
21
29.3582529
0
LINE
8
DEFAULT_255_2_778
10
76.0351625
20
29.3582529
11
76.0351625
21
28.3983529
0
LINE
8
DEFAULT_255_2_778
10
74.2677985
20
28.3980462
11
74.2677985
21
25.5479462
0
LINE
8
DEFAULT_255_2_778
10
74.9921985
20
28.3980462
11
74.9921985
21
25.5479462
0
LINE
8
DEFAULT_255_2_778
10
75.4149985
20
25.5479462
11
75.4149985
21
28.3980462
0
LINE
8
DEFAULT_255_2_778
10
74.1378985
20
25.5479462
11
74.1378985
21
28.3980462
0
LINE
8
DEFAULT_255_2_778
10
74.8622985
20
25.5479462
11
74.8622985
21
28.3980462
0
LINE
8
DEFAULT_255_2_778
10
73.7147985
20
28.3980462
11
73.7147985
21
25.5479462
0
LINE
8
DEFAULT_255_2_778
10
76.2079625
20
24.5883529
11
76.2079625
21
25.5482529
0
LINE
8
DEFAULT_255_2_778
10
76.2079625
20
25.5482529
11
73.4152625
21
25.5482529
0
LINE
8
DEFAULT_255_2_778
10
73.4152625
20
25.5482529
11
73.4152625
21
24.5883529
0
LINE
8
DEFAULT_255_2_778
10
73.4152625
20
24.5883529
11
76.2079625
21
24.5883529
0
LINE
8
DEFAULT_255_2_778
10
73.8150625
20
24.5883529
11
73.8150625
21
25.5482529
0
LINE
8
DEFAULT_255_2_778
10
75.5726625
20
24.5883529
11
75.5726625
21
25.5482529
0
LINE
8
DEFAULT_255_2_778
10
73.6150625
20
25.5482529
11
73.6150625
21
24.5883529
0
LINE
8
DEFAULT_255_2_778
10
75.3996625
20
25.5482529
11
75.3996625
21
24.5883529
0
LINE
8
DEFAULT_255_2_778
10
76.0346625
20
25.5482529
11
76.0346625
21
24.5883529
0
LINE
8
DEFAULT_255_2_778
10
75.4151904
20
21.7379462
11
75.4151904
21
24.5880462
0
LINE
8
DEFAULT_255_2_778
10
74.2676904
20
24.5880462
11
74.2676904
21
21.7379462
0
LINE
8
DEFAULT_255_2_778
10
74.9921904
20
24.5880462
11
74.9921904
21
21.7379462
0
LINE
8
DEFAULT_255_2_778
10
73.7149904
20
24.5880462
11
73.7149904
21
21.7379462
0
LINE
8
DEFAULT_255_2_778
10
74.1377904
20
21.7379462
11
74.1377904
21
24.5880462
0
LINE
8
DEFAULT_255_2_778
10
74.8621904
20
21.7379462
11
74.8621904
21
24.5880462
0
LINE
8
DEFAULT_255_2_778
10
76.2079625
20
20.7783529
11
76.2079625
21
21.7382529
0
LINE
8
DEFAULT_255_2_778
10
76.2079625
20
21.7382529
11
73.4152625
21
21.7382529
0
LINE
8
DEFAULT_255_2_778
10
73.4152625
20
21.7382529
11
73.4152625
21
20.7783529
0
LINE
8
DEFAULT_255_2_778
10
73.4152625
20
20.7783529
11
76.2079625
21
20.7783529
0
LINE
8
DEFAULT_255_2_778
10
73.6152625
20
21.7382529
11
73.6152625
21
20.7783529
0
LINE
8
DEFAULT_255_2_778
10
73.8153625
20
20.7783529
11
73.8153625
21
21.7382529
0
LINE
8
DEFAULT_255_2_778
10
75.3998625
20
21.7382529
11
75.3998625
21
20.7783529
0
LINE
8
DEFAULT_255_2_778
10
75.5731625
20
20.7783529
11
75.5731625
21
21.7382529
0
LINE
8
DEFAULT_255_2_778
10
76.0351625
20
21.7382529
11
76.0351625
21
20.7783529
0
LINE
8
DEFAULT_255_2_778
10
74.2677985
20
20.7780462
11
74.2677985
21
17.9279462
0
LINE
8
DEFAULT_255_2_778
10
74.9921985
20
20.7780462
11
74.9921985
21
17.9279462
0
LINE
8
DEFAULT_255_2_778
10
75.4149985
20
17.9279462
11
75.4149985
21
20.7780462
0
LINE
8
DEFAULT_255_2_778
10
74.1378985
20
17.9279462
11
74.1378985
21
20.7780462
0
LINE
8
DEFAULT_255_2_778
10
74.8622985
20
17.9279462
11
74.8622985
21
20.7780462
0
LINE
8
DEFAULT_255_2_778
10
73.7147985
20
20.7780462
11
73.7147985
21
17.9279462
0
LINE
8
DEFAULT_255_2_778
10
73.6153544
20
17.9282529
11
73.6153544
21
16.9683529
0
LINE
8
DEFAULT_255_2_778
10
75.3999544
20
17.9282529
11
75.3999544
21
16.9683529
0
LINE
8
DEFAULT_255_2_778
10
76.0349544
20
17.9282529
11
76.0349544
21
16.9683529
0
LINE
8
DEFAULT_255_2_778
10
76.2082544
20
16.9683529
11
76.2082544
21
17.9282529
0
LINE
8
DEFAULT_255_2_778
10
76.2082544
20
17.9282529
11
73.4155544
21
17.9282529
0
LINE
8
DEFAULT_255_2_778
10
73.4155544
20
17.9282529
11
73.4155544
21
16.9683529
0
LINE
8
DEFAULT_255_2_778
10
73.4155544
20
16.9683529
11
76.2082544
21
16.9683529
0
LINE
8
DEFAULT_255_2_778
10
73.8153544
20
16.9683529
11
73.8153544
21
17.9282529
0
LINE
8
DEFAULT_255_2_778
10
75.5729544
20
16.9683529
11
75.5729544
21
17.9282529
0
LINE
8
DEFAULT_255_2_778
10
75.4151904
20
14.1179503
11
75.4151904
21
16.9680503
0
LINE
8
DEFAULT_255_2_778
10
74.2676904
20
16.9680503
11
74.2676904
21
14.1179503
0
LINE
8
DEFAULT_255_2_778
10
74.9921904
20
16.9680503
11
74.9921904
21
14.1179503
0
LINE
8
DEFAULT_255_2_778
10
73.7149904
20
16.9680503
11
73.7149904
21
14.1179503
0
LINE
8
DEFAULT_255_2_778
10
74.1377904
20
14.1179503
11
74.1377904
21
16.9680503
0
LINE
8
DEFAULT_255_2_778
10
74.8621904
20
14.1179503
11
74.8621904
21
16.9680503
0
LINE
8
DEFAULT_255_2_778
10
76.2079625
20
13.1583529
11
76.2079625
21
14.1182529
0
LINE
8
DEFAULT_255_2_778
10
76.2079625
20
14.1182529
11
73.4152625
21
14.1182529
0
LINE
8
DEFAULT_255_2_778
10
73.4152625
20
14.1182529
11
73.4152625
21
13.1583529
0
LINE
8
DEFAULT_255_2_778
10
73.4152625
20
13.1583529
11
76.2079625
21
13.1583529
0
LINE
8
DEFAULT_255_2_778
10
73.6152625
20
14.1182529
11
73.6152625
21
13.1583529
0
LINE
8
DEFAULT_255_2_778
10
73.8153625
20
13.1583529
11
73.8153625
21
14.1182529
0
LINE
8
DEFAULT_255_2_778
10
75.3998625
20
14.1182529
11
75.3998625
21
13.1583529
0
LINE
8
DEFAULT_255_2_778
10
75.5731625
20
13.1583529
11
75.5731625
21
14.1182529
0
LINE
8
DEFAULT_255_2_778
10
76.0351625
20
14.1182529
11
76.0351625
21
13.1583529
0
LINE
8
DEFAULT_255_2_778
10
75.4153196
20
13.1580503
11
75.4153196
21
10.3079503
0
LINE
8
DEFAULT_255_2_778
10
75.4153196
20
10.3079503
11
73.7153196
21
10.3079503
0
LINE
8
DEFAULT_255_2_778
10
73.7153196
20
10.3079503
11
73.7153196
21
13.1580503
0
LINE
8
DEFAULT_255_2_778
10
74.2678196
20
13.1580503
11
74.2678196
21
10.3079503
0
LINE
8
DEFAULT_255_2_778
10
74.9922196
20
13.1580503
11
74.9922196
21
10.3079503
0
LINE
8
DEFAULT_255_2_778
10
74.1379196
20
10.3079503
11
74.1379196
21
13.1580503
0
LINE
8
DEFAULT_255_2_778
10
74.8623196
20
10.3079503
11
74.8623196
21
13.1580503
0
LINE
8
DEFAULT_255_2_778
10
73.6152625
20
10.2582367
11
73.6152625
21
9.6081367
0
LINE
8
DEFAULT_255_2_778
10
75.3998625
20
10.2582367
11
75.3998625
21
9.6081367
0
LINE
8
DEFAULT_255_2_778
10
76.0348625
20
10.2582367
11
76.0348625
21
9.6081367
0
LINE
8
DEFAULT_255_2_778
10
73.4152625
20
9.6081367
11
73.4152625
21
10.2582367
0
LINE
8
DEFAULT_255_2_778
10
73.4152625
20
10.2582367
11
76.2079625
21
10.2582367
0
LINE
8
DEFAULT_255_2_778
10
76.2079625
20
10.2582367
11
76.2079625
21
9.6081367
0
LINE
8
DEFAULT_255_2_778
10
73.8150625
20
9.6081367
11
73.8150625
21
10.2582367
0
LINE
8
DEFAULT_255_2_778
10
75.5726625
20
9.6081367
11
75.5726625
21
10.2582367
0
ARC
8
DEFAULT_255_2_778
10
72.6665865
20
14.8130833
40
0.2997853
50
224.9743446
51
270.023866
0
ARC
8
DEFAULT_255_2_778
10
72.6664727
20
14.8131634
40
0.2997615
50
179.9551574
51
225.0005479
0
ARC
8
DEFAULT_255_2_778
10
72.6668205
20
16.2633885
40
0.3001092
50
135.0269519
51
180.0172772
0
ARC
8
DEFAULT_255_2_778
10
72.6666202
20
16.2631899
40
0.3001081
50
89.9825861
51
134.9730961
0
LINE
8
DEFAULT_255_2_778
10
73.7153114
20
14.513298
11
72.6667114
21
14.513298
0
LINE
8
DEFAULT_255_2_778
10
72.3667114
20
14.813398
11
72.3667114
21
16.263298
0
LINE
8
DEFAULT_255_2_778
10
72.6667114
20
16.563298
11
73.7153114
21
16.563298
0
ARC
8
DEFAULT_255_2_778
10
72.6666204
20
11.0034112
40
0.3001092
50
225.0270198
51
270.0173732
0
ARC
8
DEFAULT_255_2_778
10
72.6668208
20
11.0032114
40
0.3001094
50
179.9826924
51
224.9729979
0
ARC
8
DEFAULT_255_2_778
10
72.6668199
20
12.4533929
40
0.3001085
50
135.0269231
51
180.0173591
0
ARC
8
DEFAULT_255_2_778
10
72.6666207
20
12.4531924
40
0.3001095
50
89.9826815
51
134.972961
0
LINE
8
DEFAULT_255_2_778
10
73.7153114
20
10.703302
11
72.6667114
21
10.703302
0
LINE
8
DEFAULT_255_2_778
10
72.3667114
20
11.003302
11
72.3667114
21
12.453302
0
LINE
8
DEFAULT_255_2_778
10
72.6667114
20
12.753302
11
73.7153114
21
12.753302
0
ARC
8
DEFAULT_255_2_778
10
72.6666204
20
22.4334071
40
0.3001092
50
225.0270198
51
270.0173732
0
ARC
8
DEFAULT_255_2_778
10
72.6668208
20
22.4332073
40
0.3001094
50
179.9826924
51
224.9729979
0
ARC
8
DEFAULT_255_2_778
10
72.6668205
20
23.8833885
40
0.3001092
50
135.0269519
51
180.0172772
0
ARC
8
DEFAULT_255_2_778
10
72.6666202
20
23.8831899
40
0.3001081
50
89.9825861
51
134.9730961
0
LINE
8
DEFAULT_255_2_778
10
73.7153114
20
22.133298
11
72.6667114
21
22.133298
0
LINE
8
DEFAULT_255_2_778
10
72.3667114
20
22.433298
11
72.3667114
21
23.883298
0
LINE
8
DEFAULT_255_2_778
10
72.6667114
20
24.183298
11
73.7153114
21
24.183298
0
ARC
8
DEFAULT_255_2_778
10
72.6666204
20
18.6234071
40
0.3001092
50
225.0270198
51
270.0173732
0
ARC
8
DEFAULT_255_2_778
10
72.6668208
20
18.6232073
40
0.3001094
50
179.9826924
51
224.9729979
0
ARC
8
DEFAULT_255_2_778
10
72.6668205
20
20.0733885
40
0.3001092
50
135.0269519
51
180.0172772
0
ARC
8
DEFAULT_255_2_778
10
72.6666202
20
20.0731899
40
0.3001081
50
89.9825861
51
134.9730961
0
LINE
8
DEFAULT_255_2_778
10
73.7153114
20
18.323298
11
72.6667114
21
18.323298
0
LINE
8
DEFAULT_255_2_778
10
72.3667114
20
18.623298
11
72.3667114
21
20.073298
0
LINE
8
DEFAULT_255_2_778
10
72.6667114
20
20.373298
11
73.7153114
21
20.373298
0
ARC
8
DEFAULT_255_2_778
10
72.6666204
20
30.0534071
40
0.3001092
50
225.0270198
51
270.0173732
0
ARC
8
DEFAULT_255_2_778
10
72.6668208
20
30.0532073
40
0.3001094
50
179.9826924
51
224.9729979
0
ARC
8
DEFAULT_255_2_778
10
72.6668205
20
31.5033885
40
0.3001092
50
135.0269519
51
180.0172772
0
ARC
8
DEFAULT_255_2_778
10
72.6666202
20
31.5031899
40
0.3001081
50
89.9825861
51
134.9730961
0
LINE
8
DEFAULT_255_2_778
10
73.7153114
20
29.753298
11
72.6667114
21
29.753298
0
LINE
8
DEFAULT_255_2_778
10
72.3667114
20
30.053298
11
72.3667114
21
31.503298
0
LINE
8
DEFAULT_255_2_778
10
72.6667114
20
31.803298
11
73.7153114
21
31.803298
0
ARC
8
DEFAULT_255_2_778
10
72.6666204
20
26.2434071
40
0.3001092
50
225.0270198
51
270.0173732
0
ARC
8
DEFAULT_255_2_778
10
72.6668208
20
26.2432073
40
0.3001094
50
179.9826924
51
224.9729979
0
ARC
8
DEFAULT_255_2_778
10
72.6668205
20
27.6933885
40
0.3001092
50
135.0269519
51
180.0172772
0
ARC
8
DEFAULT_255_2_778
10
72.6666202
20
27.6931899
40
0.3001081
50
89.9825861
51
134.9730961
0
LINE
8
DEFAULT_255_2_778
10
73.7153114
20
25.943298
11
72.6667114
21
25.943298
0
LINE
8
DEFAULT_255_2_778
10
72.3667114
20
26.243298
11
72.3667114
21
27.693298
0
LINE
8
DEFAULT_255_2_778
10
72.6667114
20
27.993298
11
73.7153114
21
27.993298
0
ARC
8
DEFAULT_255_2_778
10
72.6666204
20
37.6734071
40
0.3001092
50
225.0270198
51
270.0173732
0
ARC
8
DEFAULT_255_2_778
10
72.6668208
20
37.6732073
40
0.3001094
50
179.9826924
51
224.9729979
0
ARC
8
DEFAULT_255_2_778
10
72.6668205
20
39.1233885
40
0.3001092
50
135.0269519
51
180.0172772
0
ARC
8
DEFAULT_255_2_778
10
72.6666202
20
39.1231899
40
0.3001081
50
89.9825861
51
134.9730961
0
LINE
8
DEFAULT_255_2_778
10
73.7153114
20
37.373298
11
72.6667114
21
37.373298
0
LINE
8
DEFAULT_255_2_778
10
72.3667114
20
37.673298
11
72.3667114
21
39.123298
0
LINE
8
DEFAULT_255_2_778
10
72.6667114
20
39.423298
11
73.7153114
21
39.423298
0
ARC
8
DEFAULT_255_2_778
10
72.6666204
20
33.8634071
40
0.3001092
50
225.0270198
51
270.0173732
0
ARC
8
DEFAULT_255_2_778
10
72.6668208
20
33.8632073
40
0.3001094
50
179.9826924
51
224.9729979
0
ARC
8
DEFAULT_255_2_778
10
72.6668205
20
35.3133885
40
0.3001092
50
135.0269519
51
180.0172772
0
ARC
8
DEFAULT_255_2_778
10
72.6666202
20
35.3131899
40
0.3001081
50
89.9825861
51
134.9730961
0
LINE
8
DEFAULT_255_2_778
10
73.7153114
20
33.563298
11
72.6667114
21
33.563298
0
LINE
8
DEFAULT_255_2_778
10
72.3667114
20
33.863298
11
72.3667114
21
35.313298
0
LINE
8
DEFAULT_255_2_778
10
72.6667114
20
35.613298
11
73.7153114
21
35.613298
0
ARC
8
DEFAULT_255_2_778
10
72.6666204
20
45.2934031
40
0.3001092
50
225.0270198
51
270.0173732
0
ARC
8
DEFAULT_255_2_778
10
72.6668208
20
45.2932033
40
0.3001094
50
179.9826924
51
224.9729979
0
ARC
8
DEFAULT_255_2_778
10
72.6668199
20
46.7433849
40
0.3001085
50
135.0269231
51
180.0173591
0
ARC
8
DEFAULT_255_2_778
10
72.6666207
20
46.7431844
40
0.3001095
50
89.9826815
51
134.972961
0
LINE
8
DEFAULT_255_2_778
10
73.7153114
20
44.9932939
11
72.6667114
21
44.9932939
0
LINE
8
DEFAULT_255_2_778
10
72.3667114
20
45.2932939
11
72.3667114
21
46.7432939
0
LINE
8
DEFAULT_255_2_778
10
72.6667114
20
47.0432939
11
73.7153114
21
47.0432939
0
ARC
8
DEFAULT_255_2_778
10
72.6666204
20
41.4834112
40
0.3001092
50
225.0270198
51
270.0173732
0
ARC
8
DEFAULT_255_2_778
10
72.6668208
20
41.4832114
40
0.3001094
50
179.9826924
51
224.9729979
0
ARC
8
DEFAULT_255_2_778
10
72.6668199
20
42.9333929
40
0.3001085
50
135.0269231
51
180.0173591
0
ARC
8
DEFAULT_255_2_778
10
72.6666207
20
42.9331924
40
0.3001095
50
89.9826815
51
134.972961
0
LINE
8
DEFAULT_255_2_778
10
73.7153114
20
41.183302
11
72.6667114
21
41.183302
0
LINE
8
DEFAULT_255_2_778
10
72.3667114
20
41.483302
11
72.3667114
21
42.933302
0
LINE
8
DEFAULT_255_2_778
10
72.6667114
20
43.233302
11
73.7153114
21
43.233302
0
ARC
8
DEFAULT_255_2_778
10
81.4151379
20
8.9281947
40
0.5000969
50
359.9996485
51
90.0003515
0
ARC
8
DEFAULT_255_2_778
10
82.4153318
20
5.1282886
40
0.5000969
50
179.9996485
51
270.0003515
0
ARC
8
DEFAULT_255_2_778
10
87.3151233
20
5.1282032
40
0.5000116
50
270.0013268
51
0.0101312
0
ARC
8
DEFAULT_255_2_778
10
81.4151379
20
48.8183886
40
0.5000969
50
269.9996485
51
0.0003515
0
ARC
8
DEFAULT_255_2_778
10
82.4153318
20
52.6182947
40
0.5000969
50
89.9996485
51
180.0003515
0
ARC
8
DEFAULT_255_2_778
10
87.3153983
20
52.6185611
40
0.4998306
50
44.967091
51
90.007272
0
ARC
8
DEFAULT_255_2_778
10
87.315623
20
52.6183625
40
0.4998121
50
0.0121376
51
45.0014014
0
ARC
8
DEFAULT_255_2_778
10
87.6379894
20
52.6183742
40
0.1774456
50
359.9087642
51
0.0304112
0
LINE
8
DEFAULT_255_2_778
10
71.9666349
20
9.6081916
11
71.9666349
21
48.1481916
0
LINE
8
DEFAULT_255_2_778
10
80.8151349
20
9.6081916
11
80.8151349
21
9.4282916
0
LINE
8
DEFAULT_255_2_778
10
80.8151349
20
9.4282916
11
81.4151349
21
9.4282916
0
LINE
8
DEFAULT_255_2_778
10
81.9152349
20
8.9281916
11
81.9152349
21
5.1282916
0
LINE
8
DEFAULT_255_2_778
10
82.4153349
20
4.6281916
11
87.3151349
21
4.6281916
0
LINE
8
DEFAULT_255_2_778
10
87.8151349
20
5.1282916
11
87.8167349
21
9.6081916
0
LINE
8
DEFAULT_255_2_778
10
87.8167349
20
9.6081916
11
87.8167349
21
48.1481916
0
LINE
8
DEFAULT_255_2_778
10
87.8167349
20
48.1481916
11
80.0668349
21
48.1481916
0
LINE
8
DEFAULT_255_2_778
10
80.0668349
20
48.1481916
11
80.0668349
21
9.6081916
0
LINE
8
DEFAULT_255_2_778
10
80.0668349
20
9.6081916
11
87.8167349
21
9.6081916
0
LINE
8
DEFAULT_255_2_778
10
80.8151349
20
48.1481916
11
80.8151349
21
48.3182916
0
LINE
8
DEFAULT_255_2_778
10
80.8151349
20
48.3182916
11
81.4151349
21
48.3182916
0
LINE
8
DEFAULT_255_2_778
10
81.9152349
20
48.8183916
11
81.9152349
21
52.6182916
0
LINE
8
DEFAULT_255_2_778
10
82.4153349
20
53.1183916
11
87.3153349
21
53.1183916
0
LINE
8
DEFAULT_255_2_778
10
87.6223349
20
48.1481916
11
87.6223349
21
9.6081916
0
LINE
8
DEFAULT_255_2_778
10
87.8152858
20
52.6180368
11
87.8154858
21
48.1479368
0
LINE
8
DEFAULT_255_2_778
10
80.2666858
20
9.6081368
11
80.2666858
21
48.1481368
0
ARC
8
DEFAULT_255_2_778
10
84.8138236
20
7.2316082
40
1.9516044
50
156.1319169
51
180.100711
0
ARC
8
DEFAULT_255_2_778
10
84.8077063
20
7.2323111
40
1.9457268
50
100.1292829
51
156.0779549
0
ARC
8
DEFAULT_255_2_778
10
84.811242
20
7.2013373
40
1.9768408
50
89.971592
51
100.0722797
0
ARC
8
DEFAULT_255_2_778
10
84.8156526
20
7.2265764
40
1.9516044
50
66.1319169
51
90.100711
0
ARC
8
DEFAULT_255_2_778
10
84.8163554
20
7.2326937
40
1.9457268
50
10.1292829
51
66.0779549
0
ARC
8
DEFAULT_255_2_778
10
84.7853817
20
7.229158
40
1.9768408
50
359.971592
51
10.0722797
0
ARC
8
DEFAULT_255_2_778
10
84.8106208
20
7.2247474
40
1.9516044
50
336.1319169
51
0.100711
0
ARC
8
DEFAULT_255_2_778
10
84.816738
20
7.2240446
40
1.9457268
50
280.1292829
51
336.0779549
0
ARC
8
DEFAULT_255_2_778
10
84.8132023
20
7.2550183
40
1.9768408
50
269.971592
51
280.0722797
0
ARC
8
DEFAULT_255_2_778
10
84.8087918
20
7.2297792
40
1.9516044
50
246.1319169
51
270.100711
0
ARC
8
DEFAULT_255_2_778
10
84.8080889
20
7.223662
40
1.9457268
50
190.1292829
51
246.0779549
0
ARC
8
DEFAULT_255_2_778
10
84.8390627
20
7.2271977
40
1.9768408
50
179.971592
51
190.0722797
0
LINE
8
DEFAULT_255_2_778
10
82.8622222
20
7.2281778
11
82.8622222
21
7.2281778
0
ARC
8
DEFAULT_255_2_778
10
86.6155856
20
5.8067901
40
0.9964361
50
318.3557664
51
0.0833208
0
ARC
8
DEFAULT_255_2_778
10
86.6129801
20
5.8057783
40
0.997714
50
271.7306446
51
318.498614
0
ARC
8
DEFAULT_255_2_778
10
86.6118304
20
5.8271629
40
1.0191238
50
269.9994553
51
271.7589451
0
ARC
8
DEFAULT_255_2_778
10
83.0104971
20
5.8043199
40
0.9962817
50
228.352397
51
270.0818679
0
ARC
8
DEFAULT_255_2_778
10
83.0096014
20
5.8070848
40
0.9977557
50
181.7308645
51
228.4963478
0
ARC
8
DEFAULT_255_2_778
10
83.0309444
20
5.8082295
40
1.0191238
50
179.9994553
51
181.7589451
0
LINE
8
DEFAULT_255_2_778
10
87.6120207
20
9.6081392
11
87.6120207
21
5.8082392
0
LINE
8
DEFAULT_255_2_778
10
86.6118207
20
4.8080392
11
83.0119207
21
4.8080392
0
LINE
8
DEFAULT_255_2_778
10
82.0118207
20
5.8082392
11
82.0118207
21
9.6081392
0
ARC
8
DEFAULT_255_2_778
10
84.8138236
20
50.3839082
40
1.9516044
50
156.1319169
51
180.100711
0
ARC
8
DEFAULT_255_2_778
10
84.8077063
20
50.3846111
40
1.9457268
50
100.1292829
51
156.0779549
0
ARC
8
DEFAULT_255_2_778
10
84.811242
20
50.3536373
40
1.9768408
50
89.971592
51
100.0722797
0
ARC
8
DEFAULT_255_2_778
10
84.8156526
20
50.3788764
40
1.9516044
50
66.1319169
51
90.100711
0
ARC
8
DEFAULT_255_2_778
10
84.8163554
20
50.3849937
40
1.9457268
50
10.1292829
51
66.0779549
0
ARC
8
DEFAULT_255_2_778
10
84.7853817
20
50.381458
40
1.9768408
50
359.971592
51
10.0722797
0
ARC
8
DEFAULT_255_2_778
10
84.8106208
20
50.3770474
40
1.9516044
50
336.1319169
51
0.100711
0
ARC
8
DEFAULT_255_2_778
10
84.816738
20
50.3763446
40
1.9457268
50
280.1292829
51
336.0779549
0
ARC
8
DEFAULT_255_2_778
10
84.8132023
20
50.4073183
40
1.9768408
50
269.971592
51
280.0722797
0
ARC
8
DEFAULT_255_2_778
10
84.8087918
20
50.3820792
40
1.9516044
50
246.1319169
51
270.100711
0
ARC
8
DEFAULT_255_2_778
10
84.8080889
20
50.375962
40
1.9457268
50
190.1292829
51
246.0779549
0
ARC
8
DEFAULT_255_2_778
10
84.8390627
20
50.3794977
40
1.9768408
50
179.971592
51
190.0722797
0
LINE
8
DEFAULT_255_2_778
10
82.8622222
20
50.3804778
11
82.8622222
21
50.3804778
0
ARC
8
DEFAULT_255_2_778
10
83.0084342
20
51.8069488
40
0.9963226
50
138.3541388
51
180.0816049
0
ARC
8
DEFAULT_255_2_778
10
83.0110962
20
51.8079683
40
0.9976376
50
91.732932
51
138.4994886
0
ARC
8
DEFAULT_255_2_778
10
83.0122029
20
51.7868705
40
1.0187592
50
89.9994554
51
91.7592612
0
ARC
8
DEFAULT_255_2_778
10
86.6135571
20
51.8091538
40
0.996477
50
48.3575081
51
90.0830578
0
ARC
8
DEFAULT_255_2_778
10
86.6146926
20
51.8066512
40
0.9975959
50
1.7327121
51
48.5017548
0
ARC
8
DEFAULT_255_2_778
10
86.5935534
20
51.8055394
40
1.0187592
50
359.9994554
51
1.7592612
0
LINE
8
DEFAULT_255_2_778
10
82.0121126
20
48.1481297
11
82.0121126
21
51.8055297
0
LINE
8
DEFAULT_255_2_778
10
83.0122126
20
52.8056297
11
86.6121126
21
52.8056297
0
LINE
8
DEFAULT_255_2_778
10
87.6123126
20
51.8055297
11
87.6123126
21
48.1481297
0
ARC
8
DEFAULT_255_2_778
10
85.7629967
20
42.0862613
40
1.4980165
50
151.5794485
51
180.1201144
0
ARC
8
DEFAULT_255_2_778
10
85.7612147
20
42.0865466
40
1.4963136
50
98.4345278
51
151.556579
0
ARC
8
DEFAULT_255_2_778
10
85.7643344
20
42.0590749
40
1.523946
50
89.9793545
51
98.3990533
0
ARC
8
DEFAULT_255_2_778
10
85.7680013
20
42.0849735
40
1.4980506
50
61.5830241
51
90.1192473
0
ARC
8
DEFAULT_255_2_778
10
85.7683709
20
42.0868208
40
1.4962501
50
8.4354362
51
61.5618085
0
ARC
8
DEFAULT_255_2_778
10
85.7406881
20
42.0836732
40
1.5240956
50
359.9792366
51
8.3998208
0
ARC
8
DEFAULT_255_2_778
10
85.7666843
20
42.0799581
40
1.4981026
50
331.5802751
51
0.1209614
0
ARC
8
DEFAULT_255_2_778
10
85.7686286
20
42.079623
40
1.4962333
50
278.4320341
51
331.5561276
0
ARC
8
DEFAULT_255_2_778
10
85.7654339
20
42.107352
40
1.5241313
50
269.9793083
51
278.3979756
0
ARC
8
DEFAULT_255_2_778
10
85.7617875
20
42.0810596
40
1.497842
50
241.5777617
51
270.1184315
0
ARC
8
DEFAULT_255_2_778
10
85.7616034
20
42.0796053
40
1.4964755
50
188.4395422
51
241.5574586
0
ARC
8
DEFAULT_255_2_778
10
85.7885221
20
42.082573
40
1.5235387
50
179.9793954
51
188.4013619
0
ARC
8
DEFAULT_255_2_778
10
85.7629967
20
45.8962613
40
1.4980165
50
151.5794485
51
180.1201144
0
ARC
8
DEFAULT_255_2_778
10
85.7612147
20
45.8965466
40
1.4963136
50
98.4345278
51
151.556579
0
ARC
8
DEFAULT_255_2_778
10
85.7643344
20
45.8690749
40
1.523946
50
89.9793545
51
98.3990533
0
ARC
8
DEFAULT_255_2_778
10
85.7679796
20
45.8951821
40
1.497842
50
61.5777617
51
90.1184315
0
ARC
8
DEFAULT_255_2_778
10
85.7681637
20
45.8966364
40
1.4964755
50
8.4395422
51
61.5574586
0
ARC
8
DEFAULT_255_2_778
10
85.741245
20
45.8936687
40
1.5235387
50
359.9793954
51
8.4013619
0
ARC
8
DEFAULT_255_2_778
10
85.7669448
20
45.8900248
40
1.497842
50
331.5777617
51
0.1184315
0
ARC
8
DEFAULT_255_2_778
10
85.768399
20
45.8898407
40
1.4964755
50
278.4395422
51
331.5574586
0
ARC
8
DEFAULT_255_2_778
10
85.7654314
20
45.9167594
40
1.5235387
50
269.9793954
51
278.4013619
0
ARC
8
DEFAULT_255_2_778
10
85.7617544
20
45.8913695
40
1.4981519
50
241.5856128
51
270.11967
0
ARC
8
DEFAULT_255_2_778
10
85.7612924
20
45.8893286
40
1.4961372
50
188.4333789
51
241.563985
0
ARC
8
DEFAULT_255_2_778
10
85.7893581
20
45.8925664
40
1.5243748
50
179.9791601
51
188.3990496
0
ARC
8
DEFAULT_255_2_778
10
85.7629967
20
34.4662613
40
1.4980165
50
151.5794485
51
180.1201144
0
ARC
8
DEFAULT_255_2_778
10
85.7612147
20
34.4665466
40
1.4963136
50
98.4345278
51
151.556579
0
ARC
8
DEFAULT_255_2_778
10
85.7643344
20
34.4390749
40
1.523946
50
89.9793545
51
98.3990533
0
ARC
8
DEFAULT_255_2_778
10
85.7679796
20
34.4651821
40
1.497842
50
61.5777617
51
90.1184315
0
ARC
8
DEFAULT_255_2_778
10
85.7681637
20
34.4666364
40
1.4964755
50
8.4395422
51
61.5574586
0
ARC
8
DEFAULT_255_2_778
10
85.741245
20
34.4636687
40
1.5235387
50
359.9793954
51
8.4013619
0
ARC
8
DEFAULT_255_2_778
10
85.7669448
20
34.4600248
40
1.497842
50
331.5777617
51
0.1184315
0
ARC
8
DEFAULT_255_2_778
10
85.768399
20
34.4598407
40
1.4964755
50
278.4395422
51
331.5574586
0
ARC
8
DEFAULT_255_2_778
10
85.7654314
20
34.4867594
40
1.5235387
50
269.9793954
51
278.4013619
0
ARC
8
DEFAULT_255_2_778
10
85.7617875
20
34.4610596
40
1.497842
50
241.5777617
51
270.1184315
0
ARC
8
DEFAULT_255_2_778
10
85.7616034
20
34.4596053
40
1.4964755
50
188.4395422
51
241.5574586
0
ARC
8
DEFAULT_255_2_778
10
85.7885221
20
34.462573
40
1.5235387
50
179.9793954
51
188.4013619
0
ARC
8
DEFAULT_255_2_778
10
85.7629967
20
38.2762613
40
1.4980165
50
151.5794485
51
180.1201144
0
ARC
8
DEFAULT_255_2_778
10
85.7612147
20
38.2765466
40
1.4963136
50
98.4345278
51
151.556579
0
ARC
8
DEFAULT_255_2_778
10
85.7643344
20
38.2490749
40
1.523946
50
89.9793545
51
98.3990533
0
ARC
8
DEFAULT_255_2_778
10
85.7679796
20
38.2751821
40
1.497842
50
61.5777617
51
90.1184315
0
ARC
8
DEFAULT_255_2_778
10
85.7681637
20
38.2766364
40
1.4964755
50
8.4395422
51
61.5574586
0
ARC
8
DEFAULT_255_2_778
10
85.741245
20
38.2736687
40
1.5235387
50
359.9793954
51
8.4013619
0
ARC
8
DEFAULT_255_2_778
10
85.7669448
20
38.2700248
40
1.497842
50
331.5777617
51
0.1184315
0
ARC
8
DEFAULT_255_2_778
10
85.768399
20
38.2698407
40
1.4964755
50
278.4395422
51
331.5574586
0
ARC
8
DEFAULT_255_2_778
10
85.7654314
20
38.2967594
40
1.5235387
50
269.9793954
51
278.4013619
0
ARC
8
DEFAULT_255_2_778
10
85.7617875
20
38.2710596
40
1.497842
50
241.5777617
51
270.1184315
0
ARC
8
DEFAULT_255_2_778
10
85.7616034
20
38.2696053
40
1.4964755
50
188.4395422
51
241.5574586
0
ARC
8
DEFAULT_255_2_778
10
85.7885221
20
38.272573
40
1.5235387
50
179.9793954
51
188.4013619
0
ARC
8
DEFAULT_255_2_778
10
85.7629967
20
26.8462613
40
1.4980165
50
151.5794485
51
180.1201144
0
ARC
8
DEFAULT_255_2_778
10
85.7612147
20
26.8465466
40
1.4963136
50
98.4345278
51
151.556579
0
ARC
8
DEFAULT_255_2_778
10
85.7643344
20
26.8190749
40
1.523946
50
89.9793545
51
98.3990533
0
ARC
8
DEFAULT_255_2_778
10
85.7679796
20
26.8451821
40
1.497842
50
61.5777617
51
90.1184315
0
ARC
8
DEFAULT_255_2_778
10
85.7681637
20
26.8466364
40
1.4964755
50
8.4395422
51
61.5574586
0
ARC
8
DEFAULT_255_2_778
10
85.741245
20
26.8436687
40
1.5235387
50
359.9793954
51
8.4013619
0
ARC
8
DEFAULT_255_2_778
10
85.7669448
20
26.8400248
40
1.497842
50
331.5777617
51
0.1184315
0
ARC
8
DEFAULT_255_2_778
10
85.768399
20
26.8398407
40
1.4964755
50
278.4395422
51
331.5574586
0
ARC
8
DEFAULT_255_2_778
10
85.7654314
20
26.8667594
40
1.5235387
50
269.9793954
51
278.4013619
0
ARC
8
DEFAULT_255_2_778
10
85.7617875
20
26.8410596
40
1.497842
50
241.5777617
51
270.1184315
0
ARC
8
DEFAULT_255_2_778
10
85.7616034
20
26.8396053
40
1.4964755
50
188.4395422
51
241.5574586
0
ARC
8
DEFAULT_255_2_778
10
85.7885221
20
26.842573
40
1.5235387
50
179.9793954
51
188.4013619
0
ARC
8
DEFAULT_255_2_778
10
85.7629967
20
30.6562613
40
1.4980165
50
151.5794485
51
180.1201144
0
ARC
8
DEFAULT_255_2_778
10
85.7612147
20
30.6565466
40
1.4963136
50
98.4345278
51
151.556579
0
ARC
8
DEFAULT_255_2_778
10
85.7643344
20
30.6290749
40
1.523946
50
89.9793545
51
98.3990533
0
ARC
8
DEFAULT_255_2_778
10
85.7679796
20
30.6551821
40
1.497842
50
61.5777617
51
90.1184315
0
ARC
8
DEFAULT_255_2_778
10
85.7681637
20
30.6566364
40
1.4964755
50
8.4395422
51
61.5574586
0
ARC
8
DEFAULT_255_2_778
10
85.741245
20
30.6536687
40
1.5235387
50
359.9793954
51
8.4013619
0
ARC
8
DEFAULT_255_2_778
10
85.7668131
20
30.6500348
40
1.4979736
50
331.5790435
51
0.1180395
0
ARC
8
DEFAULT_255_2_778
10
85.7683246
20
30.64978
40
1.4965231
50
278.442153
51
331.5600789
0
ARC
8
DEFAULT_255_2_778
10
85.7654301
20
30.6764744
40
1.5233536
50
269.9794418
51
278.4024397
0
ARC
8
DEFAULT_255_2_778
10
85.761796
20
30.6508241
40
1.4977064
50
241.5745851
51
270.1181169
0
ARC
8
DEFAULT_255_2_778
10
85.7617617
20
30.6496244
40
1.4966352
50
188.4394625
51
241.5538755
0
ARC
8
DEFAULT_255_2_778
10
85.7885709
20
30.6525741
40
1.5235875
50
179.9794408
51
188.4012255
0
ARC
8
DEFAULT_255_2_778
10
85.7629967
20
19.2262613
40
1.4980165
50
151.5794485
51
180.1201144
0
ARC
8
DEFAULT_255_2_778
10
85.7612147
20
19.2265466
40
1.4963136
50
98.4345278
51
151.556579
0
ARC
8
DEFAULT_255_2_778
10
85.7643344
20
19.1990749
40
1.523946
50
89.9793545
51
98.3990533
0
ARC
8
DEFAULT_255_2_778
10
85.7679796
20
19.2251821
40
1.497842
50
61.5777617
51
90.1184315
0
ARC
8
DEFAULT_255_2_778
10
85.7681637
20
19.2266364
40
1.4964755
50
8.4395422
51
61.5574586
0
ARC
8
DEFAULT_255_2_778
10
85.741245
20
19.2236687
40
1.5235387
50
359.9793954
51
8.4013619
0
ARC
8
DEFAULT_255_2_778
10
85.7669448
20
19.2200248
40
1.497842
50
331.5777617
51
0.1184315
0
ARC
8
DEFAULT_255_2_778
10
85.768399
20
19.2198407
40
1.4964755
50
278.4395422
51
331.5574586
0
ARC
8
DEFAULT_255_2_778
10
85.7654314
20
19.2467594
40
1.5235387
50
269.9793954
51
278.4013619
0
ARC
8
DEFAULT_255_2_778
10
85.7617875
20
19.2210596
40
1.497842
50
241.5777617
51
270.1184315
0
ARC
8
DEFAULT_255_2_778
10
85.7616034
20
19.2196053
40
1.4964755
50
188.4395422
51
241.5574586
0
ARC
8
DEFAULT_255_2_778
10
85.7885221
20
19.222573
40
1.5235387
50
179.9793954
51
188.4013619
0
ARC
8
DEFAULT_255_2_778
10
85.7629967
20
23.0362613
40
1.4980165
50
151.5794485
51
180.1201144
0
ARC
8
DEFAULT_255_2_778
10
85.7612147
20
23.0365466
40
1.4963136
50
98.4345278
51
151.556579
0
ARC
8
DEFAULT_255_2_778
10
85.7643344
20
23.0090749
40
1.523946
50
89.9793545
51
98.3990533
0
ARC
8
DEFAULT_255_2_778
10
85.7679796
20
23.0351821
40
1.497842
50
61.5777617
51
90.1184315
0
ARC
8
DEFAULT_255_2_778
10
85.7681637
20
23.0366364
40
1.4964755
50
8.4395422
51
61.5574586
0
ARC
8
DEFAULT_255_2_778
10
85.741245
20
23.0336687
40
1.5235387
50
359.9793954
51
8.4013619
0
ARC
8
DEFAULT_255_2_778
10
85.7669448
20
23.0300248
40
1.497842
50
331.5777617
51
0.1184315
0
ARC
8
DEFAULT_255_2_778
10
85.768399
20
23.0298407
40
1.4964755
50
278.4395422
51
331.5574586
0
ARC
8
DEFAULT_255_2_778
10
85.7654314
20
23.0567594
40
1.5235387
50
269.9793954
51
278.4013619
0
ARC
8
DEFAULT_255_2_778
10
85.7617875
20
23.0310596
40
1.497842
50
241.5777617
51
270.1184315
0
ARC
8
DEFAULT_255_2_778
10
85.7616034
20
23.0296053
40
1.4964755
50
188.4395422
51
241.5574586
0
ARC
8
DEFAULT_255_2_778
10
85.7885221
20
23.032573
40
1.5235387
50
179.9793954
51
188.4013619
0
ARC
8
DEFAULT_255_2_778
10
85.7629967
20
11.6062613
40
1.4980165
50
151.5794485
51
180.1201144
0
ARC
8
DEFAULT_255_2_778
10
85.7612147
20
11.6065466
40
1.4963136
50
98.4345278
51
151.556579
0
ARC
8
DEFAULT_255_2_778
10
85.7643344
20
11.5790749
40
1.523946
50
89.9793545
51
98.3990533
0
ARC
8
DEFAULT_255_2_778
10
85.7679796
20
11.6051821
40
1.497842
50
61.5777617
51
90.1184315
0
ARC
8
DEFAULT_255_2_778
10
85.7681637
20
11.6066364
40
1.4964755
50
8.4395422
51
61.5574586
0
ARC
8
DEFAULT_255_2_778
10
85.741245
20
11.6036687
40
1.5235387
50
359.9793954
51
8.4013619
0
ARC
8
DEFAULT_255_2_778
10
85.7669448
20
11.6000248
40
1.497842
50
331.5777617
51
0.1184315
0
ARC
8
DEFAULT_255_2_778
10
85.768399
20
11.5998407
40
1.4964755
50
278.4395422
51
331.5574586
0
ARC
8
DEFAULT_255_2_778
10
85.7654314
20
11.6267594
40
1.5235387
50
269.9793954
51
278.4013619
0
ARC
8
DEFAULT_255_2_778
10
85.7617875
20
11.6010596
40
1.497842
50
241.5777617
51
270.1184315
0
ARC
8
DEFAULT_255_2_778
10
85.7616034
20
11.5996053
40
1.4964755
50
188.4395422
51
241.5574586
0
ARC
8
DEFAULT_255_2_778
10
85.7885221
20
11.602573
40
1.5235387
50
179.9793954
51
188.4013619
0
ARC
8
DEFAULT_255_2_778
10
85.7629967
20
15.4162613
40
1.4980165
50
151.5794485
51
180.1201144
0
ARC
8
DEFAULT_255_2_778
10
85.7612147
20
15.4165466
40
1.4963136
50
98.4345278
51
151.556579
0
ARC
8
DEFAULT_255_2_778
10
85.7643344
20
15.3890749
40
1.523946
50
89.9793545
51
98.3990533
0
ARC
8
DEFAULT_255_2_778
10
85.7679796
20
15.4151821
40
1.497842
50
61.5777617
51
90.1184315
0
ARC
8
DEFAULT_255_2_778
10
85.7681637
20
15.4166364
40
1.4964755
50
8.4395422
51
61.5574586
0
ARC
8
DEFAULT_255_2_778
10
85.741245
20
15.4136687
40
1.5235387
50
359.9793954
51
8.4013619
0
ARC
8
DEFAULT_255_2_778
10
85.7669448
20
15.4100248
40
1.497842
50
331.5777617
51
0.1184315
0
ARC
8
DEFAULT_255_2_778
10
85.768399
20
15.4098407
40
1.4964755
50
278.4395422
51
331.5574586
0
ARC
8
DEFAULT_255_2_778
10
85.7654314
20
15.4367594
40
1.5235387
50
269.9793954
51
278.4013619
0
ARC
8
DEFAULT_255_2_778
10
85.7617875
20
15.4110596
40
1.497842
50
241.5777617
51
270.1184315
0
ARC
8
DEFAULT_255_2_778
10
85.7616034
20
15.4096053
40
1.4964755
50
188.4395422
51
241.5574586
0
ARC
8
DEFAULT_255_2_778
10
85.7885221
20
15.412573
40
1.5235387
50
179.9793954
51
188.4013619
0
LINE
8
DEFAULT_255_2_778
10
84.2649835
20
42.0831208
11
84.2649835
21
42.0831208
0
LINE
8
DEFAULT_255_2_778
10
84.2649835
20
45.8931208
11
84.2649835
21
45.8931208
0
LINE
8
DEFAULT_255_2_778
10
84.2649835
20
34.4631208
11
84.2649835
21
34.4631208
0
LINE
8
DEFAULT_255_2_778
10
84.2649835
20
38.2731208
11
84.2649835
21
38.2731208
0
LINE
8
DEFAULT_255_2_778
10
84.2649835
20
26.8431208
11
84.2649835
21
26.8431208
0
LINE
8
DEFAULT_255_2_778
10
84.2649835
20
30.6531208
11
84.2649835
21
30.6531208
0
LINE
8
DEFAULT_255_2_778
10
84.2649835
20
19.2231208
11
84.2649835
21
19.2231208
0
LINE
8
DEFAULT_255_2_778
10
84.2649835
20
23.0331208
11
84.2649835
21
23.0331208
0
LINE
8
DEFAULT_255_2_778
10
84.2649835
20
11.6031208
11
84.2649835
21
11.6031208
0
LINE
8
DEFAULT_255_2_778
10
84.2649835
20
15.4131208
11
84.2649835
21
15.4131208
0
LINE
8
DEFAULT_255_2_778
10
84.5063625
20
48.1481407
11
84.5063625
21
47.4980407
0
LINE
8
DEFAULT_255_2_778
10
84.5063625
20
47.4980407
11
81.7136625
21
47.4980407
0
LINE
8
DEFAULT_255_2_778
10
81.7136625
20
47.4980407
11
81.7136625
21
48.1481407
0
LINE
8
DEFAULT_255_2_778
10
81.9136625
20
48.1481407
11
81.9136625
21
47.4980407
0
LINE
8
DEFAULT_255_2_778
10
83.6982625
20
48.1481407
11
83.6982625
21
47.4980407
0
LINE
8
DEFAULT_255_2_778
10
84.3332625
20
48.1481407
11
84.3332625
21
47.4980407
0
LINE
8
DEFAULT_255_2_778
10
82.1136625
20
47.4980407
11
82.1136625
21
48.1481407
0
LINE
8
DEFAULT_255_2_778
10
83.8713625
20
47.4980407
11
83.8713625
21
48.1481407
0
LINE
8
DEFAULT_255_2_778
10
82.0137277
20
44.5979462
11
82.0137277
21
47.4480462
0
LINE
8
DEFAULT_255_2_778
10
82.0137277
20
47.4480462
11
83.7136277
21
47.4480462
0
LINE
8
DEFAULT_255_2_778
10
83.7136277
20
47.4480462
11
83.7136277
21
44.5979462
0
LINE
8
DEFAULT_255_2_778
10
82.5662277
20
47.4480462
11
82.5662277
21
44.5979462
0
LINE
8
DEFAULT_255_2_778
10
83.2906277
20
47.4480462
11
83.2906277
21
44.5979462
0
LINE
8
DEFAULT_255_2_778
10
82.4362277
20
44.5979462
11
82.4362277
21
47.4480462
0
LINE
8
DEFAULT_255_2_778
10
83.1607277
20
44.5979462
11
83.1607277
21
47.4480462
0
LINE
8
DEFAULT_255_2_778
10
84.5063625
20
43.6383529
11
84.5063625
21
44.5982529
0
LINE
8
DEFAULT_255_2_778
10
84.5063625
20
44.5982529
11
81.7136625
21
44.5982529
0
LINE
8
DEFAULT_255_2_778
10
81.7136625
20
44.5982529
11
81.7136625
21
43.6383529
0
LINE
8
DEFAULT_255_2_778
10
81.7136625
20
43.6383529
11
84.5063625
21
43.6383529
0
LINE
8
DEFAULT_255_2_778
10
81.9136625
20
44.5982529
11
81.9136625
21
43.6383529
0
LINE
8
DEFAULT_255_2_778
10
82.1136625
20
43.6383529
11
82.1136625
21
44.5982529
0
LINE
8
DEFAULT_255_2_778
10
83.6982625
20
44.5982529
11
83.6982625
21
43.6383529
0
LINE
8
DEFAULT_255_2_778
10
83.8715625
20
43.6383529
11
83.8715625
21
44.5982529
0
LINE
8
DEFAULT_255_2_778
10
84.3335625
20
44.5982529
11
84.3335625
21
43.6383529
0
LINE
8
DEFAULT_255_2_778
10
82.5661904
20
43.6380462
11
82.5661904
21
40.7879462
0
LINE
8
DEFAULT_255_2_778
10
83.2905904
20
43.6380462
11
83.2905904
21
40.7879462
0
LINE
8
DEFAULT_255_2_778
10
83.7133904
20
40.7879462
11
83.7133904
21
43.6380462
0
LINE
8
DEFAULT_255_2_778
10
82.4362904
20
40.7879462
11
82.4362904
21
43.6380462
0
LINE
8
DEFAULT_255_2_778
10
83.1606904
20
40.7879462
11
83.1606904
21
43.6380462
0
LINE
8
DEFAULT_255_2_778
10
82.0131904
20
43.6380462
11
82.0131904
21
40.7879462
0
LINE
8
DEFAULT_255_2_778
10
81.9137625
20
40.7882529
11
81.9137625
21
39.8283529
0
LINE
8
DEFAULT_255_2_778
10
83.6983625
20
40.7882529
11
83.6983625
21
39.8283529
0
LINE
8
DEFAULT_255_2_778
10
84.3333625
20
40.7882529
11
84.3333625
21
39.8283529
0
LINE
8
DEFAULT_255_2_778
10
84.5066625
20
39.8283529
11
84.5066625
21
40.7882529
0
LINE
8
DEFAULT_255_2_778
10
84.5066625
20
40.7882529
11
81.7139625
21
40.7882529
0
LINE
8
DEFAULT_255_2_778
10
81.7139625
20
40.7882529
11
81.7139625
21
39.8283529
0
LINE
8
DEFAULT_255_2_778
10
81.7139625
20
39.8283529
11
84.5066625
21
39.8283529
0
LINE
8
DEFAULT_255_2_778
10
82.1137625
20
39.8283529
11
82.1137625
21
40.7882529
0
LINE
8
DEFAULT_255_2_778
10
83.8713625
20
39.8283529
11
83.8713625
21
40.7882529
0
LINE
8
DEFAULT_255_2_778
10
83.7135985
20
36.9779462
11
83.7135985
21
39.8280462
0
LINE
8
DEFAULT_255_2_778
10
82.5660985
20
39.8280462
11
82.5660985
21
36.9779462
0
LINE
8
DEFAULT_255_2_778
10
83.2904985
20
39.8280462
11
83.2904985
21
36.9779462
0
LINE
8
DEFAULT_255_2_778
10
82.0133985
20
39.8280462
11
82.0133985
21
36.9779462
0
LINE
8
DEFAULT_255_2_778
10
82.4361985
20
36.9779462
11
82.4361985
21
39.8280462
0
LINE
8
DEFAULT_255_2_778
10
83.1605985
20
36.9779462
11
83.1605985
21
39.8280462
0
LINE
8
DEFAULT_255_2_778
10
84.5063625
20
36.0183529
11
84.5063625
21
36.9782529
0
LINE
8
DEFAULT_255_2_778
10
84.5063625
20
36.9782529
11
81.7136625
21
36.9782529
0
LINE
8
DEFAULT_255_2_778
10
81.7136625
20
36.9782529
11
81.7136625
21
36.0183529
0
LINE
8
DEFAULT_255_2_778
10
81.7136625
20
36.0183529
11
84.5063625
21
36.0183529
0
LINE
8
DEFAULT_255_2_778
10
81.9136625
20
36.9782529
11
81.9136625
21
36.0183529
0
LINE
8
DEFAULT_255_2_778
10
82.1136625
20
36.0183529
11
82.1136625
21
36.9782529
0
LINE
8
DEFAULT_255_2_778
10
83.6982625
20
36.9782529
11
83.6982625
21
36.0183529
0
LINE
8
DEFAULT_255_2_778
10
83.8715625
20
36.0183529
11
83.8715625
21
36.9782529
0
LINE
8
DEFAULT_255_2_778
10
84.3335625
20
36.9782529
11
84.3335625
21
36.0183529
0
LINE
8
DEFAULT_255_2_778
10
82.5661904
20
36.0180462
11
82.5661904
21
33.1679462
0
LINE
8
DEFAULT_255_2_778
10
83.2905904
20
36.0180462
11
83.2905904
21
33.1679462
0
LINE
8
DEFAULT_255_2_778
10
83.7133904
20
33.1679462
11
83.7133904
21
36.0180462
0
LINE
8
DEFAULT_255_2_778
10
82.4362904
20
33.1679462
11
82.4362904
21
36.0180462
0
LINE
8
DEFAULT_255_2_778
10
83.1606904
20
33.1679462
11
83.1606904
21
36.0180462
0
LINE
8
DEFAULT_255_2_778
10
82.0131904
20
36.0180462
11
82.0131904
21
33.1679462
0
LINE
8
DEFAULT_255_2_778
10
81.9137625
20
33.1682529
11
81.9137625
21
32.2083529
0
LINE
8
DEFAULT_255_2_778
10
83.6983625
20
33.1682529
11
83.6983625
21
32.2083529
0
LINE
8
DEFAULT_255_2_778
10
84.3333625
20
33.1682529
11
84.3333625
21
32.2083529
0
LINE
8
DEFAULT_255_2_778
10
84.5066625
20
32.2083529
11
84.5066625
21
33.1682529
0
LINE
8
DEFAULT_255_2_778
10
84.5066625
20
33.1682529
11
81.7139625
21
33.1682529
0
LINE
8
DEFAULT_255_2_778
10
81.7139625
20
33.1682529
11
81.7139625
21
32.2083529
0
LINE
8
DEFAULT_255_2_778
10
81.7139625
20
32.2083529
11
84.5066625
21
32.2083529
0
LINE
8
DEFAULT_255_2_778
10
82.1137625
20
32.2083529
11
82.1137625
21
33.1682529
0
LINE
8
DEFAULT_255_2_778
10
83.8713625
20
32.2083529
11
83.8713625
21
33.1682529
0
LINE
8
DEFAULT_255_2_778
10
83.7135985
20
29.3579462
11
83.7135985
21
32.2080462
0
LINE
8
DEFAULT_255_2_778
10
82.5660985
20
32.2080462
11
82.5660985
21
29.3579462
0
LINE
8
DEFAULT_255_2_778
10
83.2904985
20
32.2080462
11
83.2904985
21
29.3579462
0
LINE
8
DEFAULT_255_2_778
10
82.0133985
20
32.2080462
11
82.0133985
21
29.3579462
0
LINE
8
DEFAULT_255_2_778
10
82.4361985
20
29.3579462
11
82.4361985
21
32.2080462
0
LINE
8
DEFAULT_255_2_778
10
83.1605985
20
29.3579462
11
83.1605985
21
32.2080462
0
LINE
8
DEFAULT_255_2_778
10
84.5063625
20
28.3983529
11
84.5063625
21
29.3582529
0
LINE
8
DEFAULT_255_2_778
10
84.5063625
20
29.3582529
11
81.7136625
21
29.3582529
0
LINE
8
DEFAULT_255_2_778
10
81.7136625
20
29.3582529
11
81.7136625
21
28.3983529
0
LINE
8
DEFAULT_255_2_778
10
81.7136625
20
28.3983529
11
84.5063625
21
28.3983529
0
LINE
8
DEFAULT_255_2_778
10
81.9136625
20
29.3582529
11
81.9136625
21
28.3983529
0
LINE
8
DEFAULT_255_2_778
10
82.1136625
20
28.3983529
11
82.1136625
21
29.3582529
0
LINE
8
DEFAULT_255_2_778
10
83.6982625
20
29.3582529
11
83.6982625
21
28.3983529
0
LINE
8
DEFAULT_255_2_778
10
83.8715625
20
28.3983529
11
83.8715625
21
29.3582529
0
LINE
8
DEFAULT_255_2_778
10
84.3335625
20
29.3582529
11
84.3335625
21
28.3983529
0
LINE
8
DEFAULT_255_2_778
10
82.5661904
20
28.3980462
11
82.5661904
21
25.5479462
0
LINE
8
DEFAULT_255_2_778
10
83.2905904
20
28.3980462
11
83.2905904
21
25.5479462
0
LINE
8
DEFAULT_255_2_778
10
83.7133904
20
25.5479462
11
83.7133904
21
28.3980462
0
LINE
8
DEFAULT_255_2_778
10
82.4362904
20
25.5479462
11
82.4362904
21
28.3980462
0
LINE
8
DEFAULT_255_2_778
10
83.1606904
20
25.5479462
11
83.1606904
21
28.3980462
0
LINE
8
DEFAULT_255_2_778
10
82.0131904
20
28.3980462
11
82.0131904
21
25.5479462
0
LINE
8
DEFAULT_255_2_778
10
84.5063625
20
24.5883529
11
84.5063625
21
25.5482529
0
LINE
8
DEFAULT_255_2_778
10
84.5063625
20
25.5482529
11
81.7136625
21
25.5482529
0
LINE
8
DEFAULT_255_2_778
10
81.7136625
20
25.5482529
11
81.7136625
21
24.5883529
0
LINE
8
DEFAULT_255_2_778
10
81.7136625
20
24.5883529
11
84.5063625
21
24.5883529
0
LINE
8
DEFAULT_255_2_778
10
82.1134625
20
24.5883529
11
82.1134625
21
25.5482529
0
LINE
8
DEFAULT_255_2_778
10
83.8710625
20
24.5883529
11
83.8710625
21
25.5482529
0
LINE
8
DEFAULT_255_2_778
10
81.9134625
20
25.5482529
11
81.9134625
21
24.5883529
0
LINE
8
DEFAULT_255_2_778
10
83.6980625
20
25.5482529
11
83.6980625
21
24.5883529
0
LINE
8
DEFAULT_255_2_778
10
84.3330625
20
25.5482529
11
84.3330625
21
24.5883529
0
LINE
8
DEFAULT_255_2_778
10
83.7135985
20
21.7379462
11
83.7135985
21
24.5880462
0
LINE
8
DEFAULT_255_2_778
10
82.5660985
20
24.5880462
11
82.5660985
21
21.7379462
0
LINE
8
DEFAULT_255_2_778
10
83.2904985
20
24.5880462
11
83.2904985
21
21.7379462
0
LINE
8
DEFAULT_255_2_778
10
82.0133985
20
24.5880462
11
82.0133985
21
21.7379462
0
LINE
8
DEFAULT_255_2_778
10
82.4361985
20
21.7379462
11
82.4361985
21
24.5880462
0
LINE
8
DEFAULT_255_2_778
10
83.1605985
20
21.7379462
11
83.1605985
21
24.5880462
0
LINE
8
DEFAULT_255_2_778
10
84.5063625
20
20.7783529
11
84.5063625
21
21.7382529
0
LINE
8
DEFAULT_255_2_778
10
84.5063625
20
21.7382529
11
81.7136625
21
21.7382529
0
LINE
8
DEFAULT_255_2_778
10
81.7136625
20
21.7382529
11
81.7136625
21
20.7783529
0
LINE
8
DEFAULT_255_2_778
10
81.7136625
20
20.7783529
11
84.5063625
21
20.7783529
0
LINE
8
DEFAULT_255_2_778
10
81.9136625
20
21.7382529
11
81.9136625
21
20.7783529
0
LINE
8
DEFAULT_255_2_778
10
82.1136625
20
20.7783529
11
82.1136625
21
21.7382529
0
LINE
8
DEFAULT_255_2_778
10
83.6982625
20
21.7382529
11
83.6982625
21
20.7783529
0
LINE
8
DEFAULT_255_2_778
10
83.8715625
20
20.7783529
11
83.8715625
21
21.7382529
0
LINE
8
DEFAULT_255_2_778
10
84.3335625
20
21.7382529
11
84.3335625
21
20.7783529
0
LINE
8
DEFAULT_255_2_778
10
82.5661904
20
20.7780462
11
82.5661904
21
17.9279462
0
LINE
8
DEFAULT_255_2_778
10
83.2905904
20
20.7780462
11
83.2905904
21
17.9279462
0
LINE
8
DEFAULT_255_2_778
10
83.7133904
20
17.9279462
11
83.7133904
21
20.7780462
0
LINE
8
DEFAULT_255_2_778
10
82.4362904
20
17.9279462
11
82.4362904
21
20.7780462
0
LINE
8
DEFAULT_255_2_778
10
83.1606904
20
17.9279462
11
83.1606904
21
20.7780462
0
LINE
8
DEFAULT_255_2_778
10
82.0131904
20
20.7780462
11
82.0131904
21
17.9279462
0
LINE
8
DEFAULT_255_2_778
10
81.9137625
20
17.9282529
11
81.9137625
21
16.9683529
0
LINE
8
DEFAULT_255_2_778
10
83.6983625
20
17.9282529
11
83.6983625
21
16.9683529
0
LINE
8
DEFAULT_255_2_778
10
84.3333625
20
17.9282529
11
84.3333625
21
16.9683529
0
LINE
8
DEFAULT_255_2_778
10
84.5066625
20
16.9683529
11
84.5066625
21
17.9282529
0
LINE
8
DEFAULT_255_2_778
10
84.5066625
20
17.9282529
11
81.7139625
21
17.9282529
0
LINE
8
DEFAULT_255_2_778
10
81.7139625
20
17.9282529
11
81.7139625
21
16.9683529
0
LINE
8
DEFAULT_255_2_778
10
81.7139625
20
16.9683529
11
84.5066625
21
16.9683529
0
LINE
8
DEFAULT_255_2_778
10
82.1137625
20
16.9683529
11
82.1137625
21
17.9282529
0
LINE
8
DEFAULT_255_2_778
10
83.8713625
20
16.9683529
11
83.8713625
21
17.9282529
0
LINE
8
DEFAULT_255_2_778
10
83.7135985
20
14.1179503
11
83.7135985
21
16.9680503
0
LINE
8
DEFAULT_255_2_778
10
82.5660985
20
16.9680503
11
82.5660985
21
14.1179503
0
LINE
8
DEFAULT_255_2_778
10
83.2904985
20
16.9680503
11
83.2904985
21
14.1179503
0
LINE
8
DEFAULT_255_2_778
10
82.0133985
20
16.9680503
11
82.0133985
21
14.1179503
0
LINE
8
DEFAULT_255_2_778
10
82.4361985
20
14.1179503
11
82.4361985
21
16.9680503
0
LINE
8
DEFAULT_255_2_778
10
83.1605985
20
14.1179503
11
83.1605985
21
16.9680503
0
LINE
8
DEFAULT_255_2_778
10
84.5063625
20
13.1583529
11
84.5063625
21
14.1182529
0
LINE
8
DEFAULT_255_2_778
10
84.5063625
20
14.1182529
11
81.7136625
21
14.1182529
0
LINE
8
DEFAULT_255_2_778
10
81.7136625
20
14.1182529
11
81.7136625
21
13.1583529
0
LINE
8
DEFAULT_255_2_778
10
81.7136625
20
13.1583529
11
84.5063625
21
13.1583529
0
LINE
8
DEFAULT_255_2_778
10
81.9136625
20
14.1182529
11
81.9136625
21
13.1583529
0
LINE
8
DEFAULT_255_2_778
10
82.1136625
20
13.1583529
11
82.1136625
21
14.1182529
0
LINE
8
DEFAULT_255_2_778
10
83.6982625
20
14.1182529
11
83.6982625
21
13.1583529
0
LINE
8
DEFAULT_255_2_778
10
83.8715625
20
13.1583529
11
83.8715625
21
14.1182529
0
LINE
8
DEFAULT_255_2_778
10
84.3335625
20
14.1182529
11
84.3335625
21
13.1583529
0
LINE
8
DEFAULT_255_2_778
10
83.7136277
20
13.1580503
11
83.7136277
21
10.3079503
0
LINE
8
DEFAULT_255_2_778
10
83.7136277
20
10.3079503
11
82.0137277
21
10.3079503
0
LINE
8
DEFAULT_255_2_778
10
82.0137277
20
10.3079503
11
82.0137277
21
13.1580503
0
LINE
8
DEFAULT_255_2_778
10
82.5662277
20
13.1580503
11
82.5662277
21
10.3079503
0
LINE
8
DEFAULT_255_2_778
10
83.2906277
20
13.1580503
11
83.2906277
21
10.3079503
0
LINE
8
DEFAULT_255_2_778
10
82.4362277
20
10.3079503
11
82.4362277
21
13.1580503
0
LINE
8
DEFAULT_255_2_778
10
83.1607277
20
10.3079503
11
83.1607277
21
13.1580503
0
LINE
8
DEFAULT_255_2_778
10
81.9136625
20
10.2582367
11
81.9136625
21
9.6081367
0
LINE
8
DEFAULT_255_2_778
10
83.6982625
20
10.2582367
11
83.6982625
21
9.6081367
0
LINE
8
DEFAULT_255_2_778
10
84.3332625
20
10.2582367
11
84.3332625
21
9.6081367
0
LINE
8
DEFAULT_255_2_778
10
81.7136625
20
9.6081367
11
81.7136625
21
10.2582367
0
LINE
8
DEFAULT_255_2_778
10
81.7136625
20
10.2582367
11
84.5063625
21
10.2582367
0
LINE
8
DEFAULT_255_2_778
10
84.5063625
20
10.2582367
11
84.5063625
21
9.6081367
0
LINE
8
DEFAULT_255_2_778
10
82.1134625
20
9.6081367
11
82.1134625
21
10.2582367
0
LINE
8
DEFAULT_255_2_778
10
83.8710625
20
9.6081367
11
83.8710625
21
10.2582367
0
ARC
8
DEFAULT_255_2_778
10
80.9649865
20
14.8130833
40
0.2997853
50
224.9743446
51
270.023866
0
ARC
8
DEFAULT_255_2_778
10
80.9648727
20
14.8131634
40
0.2997615
50
179.9551574
51
225.0005479
0
ARC
8
DEFAULT_255_2_778
10
80.9652205
20
16.2633885
40
0.3001092
50
135.0269519
51
180.0172772
0
ARC
8
DEFAULT_255_2_778
10
80.9650202
20
16.2631899
40
0.3001081
50
89.9825861
51
134.9730961
0
LINE
8
DEFAULT_255_2_778
10
82.0137114
20
14.513298
11
80.9651114
21
14.513298
0
LINE
8
DEFAULT_255_2_778
10
80.6651114
20
14.813398
11
80.6651114
21
16.263298
0
LINE
8
DEFAULT_255_2_778
10
80.9651114
20
16.563298
11
82.0137114
21
16.563298
0
ARC
8
DEFAULT_255_2_778
10
80.9650204
20
11.0034112
40
0.3001092
50
225.0270198
51
270.0173732
0
ARC
8
DEFAULT_255_2_778
10
80.9652208
20
11.0032114
40
0.3001094
50
179.9826924
51
224.9729979
0
ARC
8
DEFAULT_255_2_778
10
80.9652199
20
12.4533929
40
0.3001085
50
135.0269231
51
180.0173591
0
ARC
8
DEFAULT_255_2_778
10
80.9650207
20
12.4531924
40
0.3001095
50
89.9826815
51
134.972961
0
LINE
8
DEFAULT_255_2_778
10
82.0137114
20
10.703302
11
80.9651114
21
10.703302
0
LINE
8
DEFAULT_255_2_778
10
80.6651114
20
11.003302
11
80.6651114
21
12.453302
0
LINE
8
DEFAULT_255_2_778
10
80.9651114
20
12.753302
11
82.0137114
21
12.753302
0
ARC
8
DEFAULT_255_2_778
10
80.9650204
20
22.4334071
40
0.3001092
50
225.0270198
51
270.0173732
0
ARC
8
DEFAULT_255_2_778
10
80.9652208
20
22.4332073
40
0.3001094
50
179.9826924
51
224.9729979
0
ARC
8
DEFAULT_255_2_778
10
80.9652205
20
23.8833885
40
0.3001092
50
135.0269519
51
180.0172772
0
ARC
8
DEFAULT_255_2_778
10
80.9650202
20
23.8831899
40
0.3001081
50
89.9825861
51
134.9730961
0
LINE
8
DEFAULT_255_2_778
10
82.0137114
20
22.133298
11
80.9651114
21
22.133298
0
LINE
8
DEFAULT_255_2_778
10
80.6651114
20
22.433298
11
80.6651114
21
23.883298
0
LINE
8
DEFAULT_255_2_778
10
80.9651114
20
24.183298
11
82.0137114
21
24.183298
0
ARC
8
DEFAULT_255_2_778
10
80.9650204
20
18.6234071
40
0.3001092
50
225.0270198
51
270.0173732
0
ARC
8
DEFAULT_255_2_778
10
80.9652208
20
18.6232073
40
0.3001094
50
179.9826924
51
224.9729979
0
ARC
8
DEFAULT_255_2_778
10
80.9652205
20
20.0733885
40
0.3001092
50
135.0269519
51
180.0172772
0
ARC
8
DEFAULT_255_2_778
10
80.9650202
20
20.0731899
40
0.3001081
50
89.9825861
51
134.9730961
0
LINE
8
DEFAULT_255_2_778
10
82.0137114
20
18.323298
11
80.9651114
21
18.323298
0
LINE
8
DEFAULT_255_2_778
10
80.6651114
20
18.623298
11
80.6651114
21
20.073298
0
LINE
8
DEFAULT_255_2_778
10
80.9651114
20
20.373298
11
82.0137114
21
20.373298
0
ARC
8
DEFAULT_255_2_778
10
80.9650204
20
30.0534071
40
0.3001092
50
225.0270198
51
270.0173732
0
ARC
8
DEFAULT_255_2_778
10
80.9652208
20
30.0532073
40
0.3001094
50
179.9826924
51
224.9729979
0
ARC
8
DEFAULT_255_2_778
10
80.9652205
20
31.5033885
40
0.3001092
50
135.0269519
51
180.0172772
0
ARC
8
DEFAULT_255_2_778
10
80.9650202
20
31.5031899
40
0.3001081
50
89.9825861
51
134.9730961
0
LINE
8
DEFAULT_255_2_778
10
82.0137114
20
29.753298
11
80.9651114
21
29.753298
0
LINE
8
DEFAULT_255_2_778
10
80.6651114
20
30.053298
11
80.6651114
21
31.503298
0
LINE
8
DEFAULT_255_2_778
10
80.9651114
20
31.803298
11
82.0137114
21
31.803298
0
ARC
8
DEFAULT_255_2_778
10
80.9650204
20
26.2434071
40
0.3001092
50
225.0270198
51
270.0173732
0
ARC
8
DEFAULT_255_2_778
10
80.9652208
20
26.2432073
40
0.3001094
50
179.9826924
51
224.9729979
0
ARC
8
DEFAULT_255_2_778
10
80.9652205
20
27.6933885
40
0.3001092
50
135.0269519
51
180.0172772
0
ARC
8
DEFAULT_255_2_778
10
80.9650202
20
27.6931899
40
0.3001081
50
89.9825861
51
134.9730961
0
LINE
8
DEFAULT_255_2_778
10
82.0137114
20
25.943298
11
80.9651114
21
25.943298
0
LINE
8
DEFAULT_255_2_778
10
80.6651114
20
26.243298
11
80.6651114
21
27.693298
0
LINE
8
DEFAULT_255_2_778
10
80.9651114
20
27.993298
11
82.0137114
21
27.993298
0
ARC
8
DEFAULT_255_2_778
10
80.9650204
20
37.6734071
40
0.3001092
50
225.0270198
51
270.0173732
0
ARC
8
DEFAULT_255_2_778
10
80.9652208
20
37.6732073
40
0.3001094
50
179.9826924
51
224.9729979
0
ARC
8
DEFAULT_255_2_778
10
80.9652205
20
39.1233885
40
0.3001092
50
135.0269519
51
180.0172772
0
ARC
8
DEFAULT_255_2_778
10
80.9650202
20
39.1231899
40
0.3001081
50
89.9825861
51
134.9730961
0
LINE
8
DEFAULT_255_2_778
10
82.0137114
20
37.373298
11
80.9651114
21
37.373298
0
LINE
8
DEFAULT_255_2_778
10
80.6651114
20
37.673298
11
80.6651114
21
39.123298
0
LINE
8
DEFAULT_255_2_778
10
80.9651114
20
39.423298
11
82.0137114
21
39.423298
0
ARC
8
DEFAULT_255_2_778
10
80.9650204
20
33.8634071
40
0.3001092
50
225.0270198
51
270.0173732
0
ARC
8
DEFAULT_255_2_778
10
80.9652208
20
33.8632073
40
0.3001094
50
179.9826924
51
224.9729979
0
ARC
8
DEFAULT_255_2_778
10
80.9652205
20
35.3133885
40
0.3001092
50
135.0269519
51
180.0172772
0
ARC
8
DEFAULT_255_2_778
10
80.9650202
20
35.3131899
40
0.3001081
50
89.9825861
51
134.9730961
0
LINE
8
DEFAULT_255_2_778
10
82.0137114
20
33.563298
11
80.9651114
21
33.563298
0
LINE
8
DEFAULT_255_2_778
10
80.6651114
20
33.863298
11
80.6651114
21
35.313298
0
LINE
8
DEFAULT_255_2_778
10
80.9651114
20
35.613298
11
82.0137114
21
35.613298
0
ARC
8
DEFAULT_255_2_778
10
80.9650204
20
45.2934031
40
0.3001092
50
225.0270198
51
270.0173732
0
ARC
8
DEFAULT_255_2_778
10
80.9652208
20
45.2932033
40
0.3001094
50
179.9826924
51
224.9729979
0
ARC
8
DEFAULT_255_2_778
10
80.9652199
20
46.7433849
40
0.3001085
50
135.0269231
51
180.0173591
0
ARC
8
DEFAULT_255_2_778
10
80.9650207
20
46.7431844
40
0.3001095
50
89.9826815
51
134.972961
0
LINE
8
DEFAULT_255_2_778
10
82.0137114
20
44.9932939
11
80.9651114
21
44.9932939
0
LINE
8
DEFAULT_255_2_778
10
80.6651114
20
45.2932939
11
80.6651114
21
46.7432939
0
LINE
8
DEFAULT_255_2_778
10
80.9651114
20
47.0432939
11
82.0137114
21
47.0432939
0
ARC
8
DEFAULT_255_2_778
10
80.9650204
20
41.4834112
40
0.3001092
50
225.0270198
51
270.0173732
0
ARC
8
DEFAULT_255_2_778
10
80.9652208
20
41.4832114
40
0.3001094
50
179.9826924
51
224.9729979
0
ARC
8
DEFAULT_255_2_778
10
80.9652199
20
42.9333929
40
0.3001085
50
135.0269231
51
180.0173591
0
ARC
8
DEFAULT_255_2_778
10
80.9650207
20
42.9331924
40
0.3001095
50
89.9826815
51
134.972961
0
LINE
8
DEFAULT_255_2_778
10
82.0137114
20
41.183302
11
80.9651114
21
41.183302
0
LINE
8
DEFAULT_255_2_778
10
80.6651114
20
41.483302
11
80.6651114
21
42.933302
0
LINE
8
DEFAULT_255_2_778
10
80.9651114
20
43.233302
11
82.0137114
21
43.233302
0
ARC
8
DEFAULT_255_2_778
10
36.1435061
20
6.5193306
40
0.4999689
50
270.0193577
51
359.9806308
0
ARC
8
DEFAULT_255_2_778
10
27.5565436
20
6.5193302
40
0.4999687
50
180.01933
51
269.98067
0
ARC
8
DEFAULT_255_2_778
10
27.5565441
20
41.6066924
40
0.4999691
50
90.019379
51
179.9806187
0
ARC
8
DEFAULT_255_2_778
10
36.143506
20
41.6066926
40
0.499969
50
0.0193651
51
89.9806325
0
ARC
8
DEFAULT_255_2_778
10
38.1717516
20
13.9046467
40
1.8510798
50
155.4330726
51
180.1047791
0
ARC
8
DEFAULT_255_2_778
10
38.1661519
20
13.9054307
40
1.8456617
50
99.7543067
51
155.3829347
0
ARC
8
DEFAULT_255_2_778
10
38.1697977
20
13.8743775
40
1.8768843
50
89.973218
51
99.7033841
0
ARC
8
DEFAULT_255_2_778
10
38.1740601
20
13.9001849
40
1.8510798
50
65.4330726
51
90.1047791
0
ARC
8
DEFAULT_255_2_778
10
38.1748441
20
13.9057846
40
1.8456617
50
9.7543067
51
65.3829347
0
ARC
8
DEFAULT_255_2_778
10
38.143791
20
13.9021389
40
1.8768843
50
359.973218
51
9.7033841
0
ARC
8
DEFAULT_255_2_778
10
38.1697177
20
13.8978683
40
1.8509604
50
335.4322666
51
0.1050351
0
ARC
8
DEFAULT_255_2_778
10
38.1752828
20
13.8971368
40
1.8455956
50
279.7519877
51
335.3810892
0
ARC
8
DEFAULT_255_2_778
10
38.1715522
20
13.9284667
40
1.8771054
50
269.9732229
51
279.7022318
0
ARC
8
DEFAULT_255_2_778
10
38.1673078
20
13.9022219
40
1.8508634
50
245.4293976
51
270.1042339
0
ARC
8
DEFAULT_255_2_778
10
38.1666781
20
13.8970124
40
1.8458644
50
189.75936
51
245.3799359
0
ARC
8
DEFAULT_255_2_778
10
38.1967156
20
13.9003916
40
1.8760409
50
179.9734329
51
189.7055673
0
ARC
8
DEFAULT_255_2_778
10
38.1717516
20
18.9846467
40
1.8510798
50
155.4330726
51
180.1047791
0
ARC
8
DEFAULT_255_2_778
10
38.1661519
20
18.9854307
40
1.8456617
50
99.7543067
51
155.3829347
0
ARC
8
DEFAULT_255_2_778
10
38.1697977
20
18.9543775
40
1.8768843
50
89.973218
51
99.7033841
0
ARC
8
DEFAULT_255_2_778
10
38.1740446
20
18.9804329
40
1.8508317
50
65.4290347
51
90.1043142
0
ARC
8
DEFAULT_255_2_778
10
38.1746295
20
18.9855921
40
1.8458971
50
9.7575159
51
65.3789557
0
ARC
8
DEFAULT_255_2_778
10
38.144317
20
18.9821329
40
1.8763582
50
359.9733924
51
9.7047455
0
ARC
8
DEFAULT_255_2_778
10
38.170236
20
18.9778948
40
1.850442
50
335.254563
51
0.1042458
0
ARC
8
DEFAULT_255_2_778
10
38.1750112
20
18.9774046
40
1.8459008
50
279.995183
51
335.2063367
0
ARC
8
DEFAULT_255_2_778
10
38.1715853
20
19.0072574
40
1.8758961
50
269.9721952
51
279.9399759
0
ARC
8
DEFAULT_255_2_778
10
38.167284
20
18.982592
40
1.8512336
50
245.4354476
51
270.104952
0
ARC
8
DEFAULT_255_2_778
10
38.1663567
20
18.9767238
40
1.8455116
50
189.7545475
51
245.3858919
0
ARC
8
DEFAULT_255_2_778
10
38.1975064
20
18.9803828
40
1.8768317
50
179.9731736
51
189.7035181
0
ARC
8
DEFAULT_255_2_778
10
38.1717516
20
24.0646467
40
1.8510798
50
155.4330726
51
180.1047791
0
ARC
8
DEFAULT_255_2_778
10
38.1661519
20
24.0654307
40
1.8456617
50
99.7543067
51
155.3829347
0
ARC
8
DEFAULT_255_2_778
10
38.1697977
20
24.0343775
40
1.8768843
50
89.973218
51
99.7033841
0
ARC
8
DEFAULT_255_2_778
10
38.1740446
20
24.0604329
40
1.8508317
50
65.4290347
51
90.1043142
0
ARC
8
DEFAULT_255_2_778
10
38.1746295
20
24.0655921
40
1.8458971
50
9.7575159
51
65.3789557
0
ARC
8
DEFAULT_255_2_778
10
38.144317
20
24.0621329
40
1.8763582
50
359.9733924
51
9.7047455
0
ARC
8
DEFAULT_255_2_778
10
38.170236
20
24.0578948
40
1.850442
50
335.254563
51
0.1042458
0
ARC
8
DEFAULT_255_2_778
10
38.1750112
20
24.0574046
40
1.8459008
50
279.995183
51
335.2063367
0
ARC
8
DEFAULT_255_2_778
10
38.1715853
20
24.0872574
40
1.8758961
50
269.9721952
51
279.9399759
0
ARC
8
DEFAULT_255_2_778
10
38.1673078
20
24.0622219
40
1.8508634
50
245.4293976
51
270.1042339
0
ARC
8
DEFAULT_255_2_778
10
38.1666781
20
24.0570124
40
1.8458644
50
189.75936
51
245.3799359
0
ARC
8
DEFAULT_255_2_778
10
38.1967156
20
24.0603916
40
1.8760409
50
179.9734329
51
189.7055673
0
ARC
8
DEFAULT_255_2_778
10
38.1717516
20
29.1446467
40
1.8510798
50
155.4330726
51
180.1047791
0
ARC
8
DEFAULT_255_2_778
10
38.1661519
20
29.1454307
40
1.8456617
50
99.7543067
51
155.3829347
0
ARC
8
DEFAULT_255_2_778
10
38.1697977
20
29.1143775
40
1.8768843
50
89.973218
51
99.7033841
0
ARC
8
DEFAULT_255_2_778
10
38.1740601
20
29.1401849
40
1.8510798
50
65.4330726
51
90.1047791
0
ARC
8
DEFAULT_255_2_778
10
38.1748441
20
29.1457846
40
1.8456617
50
9.7543067
51
65.3829347
0
ARC
8
DEFAULT_255_2_778
10
38.143791
20
29.1421389
40
1.8768843
50
359.973218
51
9.7033841
0
ARC
8
DEFAULT_255_2_778
10
38.1697177
20
29.1378683
40
1.8509604
50
335.4322666
51
0.1050351
0
ARC
8
DEFAULT_255_2_778
10
38.1752828
20
29.1371368
40
1.8455956
50
279.7519877
51
335.3810892
0
ARC
8
DEFAULT_255_2_778
10
38.1715522
20
29.1684667
40
1.8771054
50
269.9732229
51
279.7022318
0
ARC
8
DEFAULT_255_2_778
10
38.1673078
20
29.1422219
40
1.8508634
50
245.4293976
51
270.1042339
0
ARC
8
DEFAULT_255_2_778
10
38.1666781
20
29.1370124
40
1.8458644
50
189.75936
51
245.3799359
0
ARC
8
DEFAULT_255_2_778
10
38.1967156
20
29.1403916
40
1.8760409
50
179.9734329
51
189.7055673
0
ARC
8
DEFAULT_255_2_778
10
38.1717516
20
34.2246467
40
1.8510798
50
155.4330726
51
180.1047791
0
ARC
8
DEFAULT_255_2_778
10
38.1661519
20
34.2254307
40
1.8456617
50
99.7543067
51
155.3829347
0
ARC
8
DEFAULT_255_2_778
10
38.1697977
20
34.1943775
40
1.8768843
50
89.973218
51
99.7033841
0
ARC
8
DEFAULT_255_2_778
10
38.1740446
20
34.2204329
40
1.8508317
50
65.4290347
51
90.1043142
0
ARC
8
DEFAULT_255_2_778
10
38.1746295
20
34.2255921
40
1.8458971
50
9.7575159
51
65.3789557
0
ARC
8
DEFAULT_255_2_778
10
38.144317
20
34.2221329
40
1.8763582
50
359.9733924
51
9.7047455
0
ARC
8
DEFAULT_255_2_778
10
38.170236
20
34.2178948
40
1.850442
50
335.254563
51
0.1042458
0
ARC
8
DEFAULT_255_2_778
10
38.1750112
20
34.2174046
40
1.8459008
50
279.995183
51
335.2063367
0
ARC
8
DEFAULT_255_2_778
10
38.1715853
20
34.2472574
40
1.8758961
50
269.9721952
51
279.9399759
0
ARC
8
DEFAULT_255_2_778
10
38.167284
20
34.222592
40
1.8512336
50
245.4354476
51
270.104952
0
ARC
8
DEFAULT_255_2_778
10
38.1663567
20
34.2167238
40
1.8455116
50
189.7545475
51
245.3858919
0
ARC
8
DEFAULT_255_2_778
10
38.1975064
20
34.2203828
40
1.8768317
50
179.9731736
51
189.7035181
0
LINE
8
DEFAULT_255_2_778
10
36.643475
20
11.3678615
11
36.643475
21
6.5191615
0
LINE
8
DEFAULT_255_2_778
10
36.143675
20
6.0193615
11
27.556375
21
6.0193615
0
LINE
8
DEFAULT_255_2_778
10
27.056575
20
6.5191615
11
27.056575
21
41.6068615
0
LINE
8
DEFAULT_255_2_778
10
27.556375
20
42.1066615
11
36.143675
21
42.1066615
0
LINE
8
DEFAULT_255_2_778
10
36.643475
20
41.6068615
11
36.643475
21
36.7681615
0
LINE
8
DEFAULT_255_2_778
10
36.320675
20
13.9012615
11
36.320675
21
13.9012615
0
LINE
8
DEFAULT_255_2_778
10
36.320675
20
18.9812615
11
36.320675
21
18.9812615
0
LINE
8
DEFAULT_255_2_778
10
36.320675
20
24.0612615
11
36.320675
21
24.0612615
0
LINE
8
DEFAULT_255_2_778
10
36.320675
20
29.1412615
11
36.320675
21
29.1412615
0
LINE
8
DEFAULT_255_2_778
10
36.320675
20
34.2212615
11
36.320675
21
34.2212615
0
ARC
8
DEFAULT_255_2_778
10
29.5776241
20
40.849242
40
0.9963226
50
138.3541388
51
180.0816049
0
ARC
8
DEFAULT_255_2_778
10
29.5802862
20
40.8502615
40
0.9976376
50
91.732932
51
138.4994886
0
ARC
8
DEFAULT_255_2_778
10
29.5813929
20
40.8291638
40
1.0187592
50
89.9994554
51
91.7592612
0
ARC
8
DEFAULT_255_2_778
10
33.3828216
20
40.8516014
40
0.9963226
50
48.3541388
51
90.0816049
0
ARC
8
DEFAULT_255_2_778
10
33.3838411
20
40.8489393
40
0.9976376
50
1.732932
51
48.4994886
0
ARC
8
DEFAULT_255_2_778
10
33.3627434
20
40.8478327
40
1.0187592
50
359.9994554
51
1.7592612
0
LINE
8
DEFAULT_255_2_778
10
32.2762026
20
15.226323
11
32.2762026
21
12.576323
0
LINE
8
DEFAULT_255_2_778
10
32.2762026
20
12.576323
11
29.3708026
21
12.576323
0
LINE
8
DEFAULT_255_2_778
10
29.3708026
20
12.576323
11
29.3708026
21
15.226323
0
LINE
8
DEFAULT_255_2_778
10
29.3708026
20
15.226323
11
32.2762026
21
15.226323
0
LINE
8
DEFAULT_255_2_778
10
32.2762026
20
20.306323
11
32.2762026
21
17.656323
0
LINE
8
DEFAULT_255_2_778
10
32.2762026
20
17.656323
11
29.3708026
21
17.656323
0
LINE
8
DEFAULT_255_2_778
10
29.3708026
20
17.656323
11
29.3708026
21
20.306323
0
LINE
8
DEFAULT_255_2_778
10
29.3708026
20
20.306323
11
32.2762026
21
20.306323
0
LINE
8
DEFAULT_255_2_778
10
32.2762026
20
25.386323
11
32.2762026
21
22.736323
0
LINE
8
DEFAULT_255_2_778
10
32.2762026
20
22.736323
11
29.3708026
21
22.736323
0
LINE
8
DEFAULT_255_2_778
10
29.3708026
20
22.736323
11
29.3708026
21
25.386323
0
LINE
8
DEFAULT_255_2_778
10
29.3708026
20
25.386323
11
32.2762026
21
25.386323
0
LINE
8
DEFAULT_255_2_778
10
32.2762026
20
30.466323
11
32.2762026
21
27.816323
0
LINE
8
DEFAULT_255_2_778
10
32.2762026
20
27.816323
11
29.3708026
21
27.816323
0
LINE
8
DEFAULT_255_2_778
10
29.3708026
20
27.816323
11
29.3708026
21
30.466323
0
LINE
8
DEFAULT_255_2_778
10
29.3708026
20
30.466323
11
32.2762026
21
30.466323
0
LINE
8
DEFAULT_255_2_778
10
32.2762026
20
35.546323
11
32.2762026
21
32.896323
0
LINE
8
DEFAULT_255_2_778
10
32.2762026
20
32.896323
11
29.3708026
21
32.896323
0
LINE
8
DEFAULT_255_2_778
10
29.3708026
20
32.896323
11
29.3708026
21
35.546323
0
LINE
8
DEFAULT_255_2_778
10
29.3708026
20
35.546323
11
32.2762026
21
35.546323
0
LINE
8
DEFAULT_255_2_778
10
28.5813026
20
36.767923
11
28.5813026
21
40.847823
0
LINE
8
DEFAULT_255_2_778
10
29.5814026
20
41.847923
11
33.3814026
21
41.847923
0
LINE
8
DEFAULT_255_2_778
10
34.3815026
20
40.847823
11
34.3815026
21
36.767923
0
ARC
8
DEFAULT_255_2_778
10
31.4680236
20
39.2859082
40
1.9516044
50
156.1319169
51
180.100711
0
ARC
8
DEFAULT_255_2_778
10
31.4619063
20
39.2866111
40
1.9457268
50
100.1292829
51
156.0779549
0
ARC
8
DEFAULT_255_2_778
10
31.465442
20
39.2556373
40
1.9768408
50
89.971592
51
100.0722797
0
ARC
8
DEFAULT_255_2_778
10
31.4698526
20
39.2808764
40
1.9516044
50
66.1319169
51
90.100711
0
ARC
8
DEFAULT_255_2_778
10
31.4705554
20
39.2869937
40
1.9457268
50
10.1292829
51
66.0779549
0
ARC
8
DEFAULT_255_2_778
10
31.4395817
20
39.283458
40
1.9768408
50
359.971592
51
10.0722797
0
ARC
8
DEFAULT_255_2_778
10
31.4648208
20
39.2790474
40
1.9516044
50
336.1319169
51
0.100711
0
ARC
8
DEFAULT_255_2_778
10
31.470938
20
39.2783446
40
1.9457268
50
280.1292829
51
336.0779549
0
ARC
8
DEFAULT_255_2_778
10
31.4674023
20
39.3093183
40
1.9768408
50
269.971592
51
280.0722797
0
ARC
8
DEFAULT_255_2_778
10
31.4629918
20
39.2840792
40
1.9516044
50
246.1319169
51
270.100711
0
ARC
8
DEFAULT_255_2_778
10
31.4622889
20
39.277962
40
1.9457268
50
190.1292829
51
246.0779549
0
ARC
8
DEFAULT_255_2_778
10
31.4932627
20
39.2814977
40
1.9768408
50
179.971592
51
190.0722797
0
LINE
8
DEFAULT_255_2_778
10
29.5164222
20
39.2824778
11
29.5164222
21
39.2824778
0
ARC
8
DEFAULT_255_2_778
10
33.384981
20
7.2865825
40
0.9963226
50
318.3541388
51
0.0816049
0
ARC
8
DEFAULT_255_2_778
10
33.3823189
20
7.285563
40
0.9976376
50
271.732932
51
318.4994886
0
ARC
8
DEFAULT_255_2_778
10
33.3812122
20
7.3066607
40
1.0187592
50
269.9994554
51
271.7592612
0
ARC
8
DEFAULT_255_2_778
10
29.5797835
20
7.2842231
40
0.9963226
50
228.3541388
51
270.0816049
0
ARC
8
DEFAULT_255_2_778
10
29.578764
20
7.2868852
40
0.9976376
50
181.732932
51
228.4994886
0
ARC
8
DEFAULT_255_2_778
10
29.5998617
20
7.2879919
40
1.0187592
50
179.9994554
51
181.7592612
0
LINE
8
DEFAULT_255_2_778
10
34.3813026
20
11.3679015
11
34.3813026
21
7.2880015
0
LINE
8
DEFAULT_255_2_778
10
33.3812026
20
6.2879015
11
29.5812026
21
6.2879015
0
LINE
8
DEFAULT_255_2_778
10
28.5811026
20
7.2880015
11
28.5811026
21
11.3679015
0
ARC
8
DEFAULT_255_2_778
10
31.4680236
20
8.8059082
40
1.9516044
50
156.1319169
51
180.100711
0
ARC
8
DEFAULT_255_2_778
10
31.4619063
20
8.8066111
40
1.9457268
50
100.1292829
51
156.0779549
0
ARC
8
DEFAULT_255_2_778
10
31.465442
20
8.7756373
40
1.9768408
50
89.971592
51
100.0722797
0
ARC
8
DEFAULT_255_2_778
10
31.4698526
20
8.8008764
40
1.9516044
50
66.1319169
51
90.100711
0
ARC
8
DEFAULT_255_2_778
10
31.4705554
20
8.8069937
40
1.9457268
50
10.1292829
51
66.0779549
0
ARC
8
DEFAULT_255_2_778
10
31.4395817
20
8.803458
40
1.9768408
50
359.971592
51
10.0722797
0
ARC
8
DEFAULT_255_2_778
10
31.4648208
20
8.7990474
40
1.9516044
50
336.1319169
51
0.100711
0
ARC
8
DEFAULT_255_2_778
10
31.470938
20
8.7983446
40
1.9457268
50
280.1292829
51
336.0779549
0
ARC
8
DEFAULT_255_2_778
10
31.4674023
20
8.8293183
40
1.9768408
50
269.971592
51
280.0722797
0
ARC
8
DEFAULT_255_2_778
10
31.4629918
20
8.8040792
40
1.9516044
50
246.1319169
51
270.100711
0
ARC
8
DEFAULT_255_2_778
10
31.4622889
20
8.797962
40
1.9457268
50
190.1292829
51
246.0779549
0
ARC
8
DEFAULT_255_2_778
10
31.4932627
20
8.8014977
40
1.9768408
50
179.971592
51
190.0722797
0
LINE
8
DEFAULT_255_2_778
10
29.5164222
20
8.8024778
11
29.5164222
21
8.8024778
0
ARC
8
DEFAULT_255_2_778
10
20.1613614
20
26.1981373
40
0.4999965
50
180.061191
51
258.545354
0
ARC
8
DEFAULT_255_2_778
10
20.1655145
20
26.1975469
40
0.5041492
50
174.2907743
51
179.9935837
0
ARC
8
DEFAULT_255_2_778
10
20.1613694
20
26.1982445
40
0.4999554
50
90.0691483
51
174.3230649
0
LINE
8
DEFAULT_255_2_778
10
20.160766
20
26.6981996
11
20.1613603
21
26.6982
0
ARC
8
DEFAULT_255_2_778
10
20.1613931
20
26.1981219
40
0.5000781
50
5.8508695
51
90.0037511
0
ARC
8
DEFAULT_255_2_778
10
20.1571999
20
26.1975713
40
0.5043055
50
0.0071225
51
5.8645338
0
ARC
8
DEFAULT_255_2_778
10
20.1614049
20
26.1981653
40
0.5001009
50
281.6119189
51
359.939135
0
ARC
8
DEFAULT_255_2_778
10
21.1867818
20
25.7344629
40
0.9250858
50
181.6206557
51
263.7933266
0
ARC
8
DEFAULT_255_2_778
10
21.1881856
20
26.6957573
40
1.0226299
50
275.5374746
51
322.8583392
0
ARC
8
DEFAULT_255_2_778
10
21.1895262
20
26.69688
40
1.0222406
50
322.7628074
51
0.0683602
0
ARC
8
DEFAULT_255_2_778
10
21.1908488
20
26.6969057
40
1.2210179
50
322.1696227
51
0.0560256
0
ARC
8
DEFAULT_255_2_778
10
21.1878159
20
26.6964209
40
1.2231178
50
277.3687793
51
322.2746963
0
ARC
8
DEFAULT_255_2_778
10
21.1854867
20
26.7143797
40
1.2412271
50
274.6849479
51
277.3690866
0
ARC
8
DEFAULT_255_2_778
10
21.1867553
20
23.5021354
40
0.6251323
50
0.0478475
51
80.7847894
0
ARC
8
DEFAULT_255_2_778
10
21.1798714
20
23.5027049
40
0.6320159
50
355.4165314
51
359.995701
0
ARC
8
DEFAULT_255_2_778
10
21.1875663
20
23.5015529
40
0.6242537
50
269.9981472
51
355.4654871
0
LINE
8
DEFAULT_255_2_778
10
21.1875461
20
22.8772992
11
21.186766
21
22.8772996
0
LINE
8
DEFAULT_255_2_778
10
21.186766
20
22.8772996
11
21.1859862
21
22.8772992
0
ARC
8
DEFAULT_255_2_778
10
21.1860959
20
23.5016937
40
0.6243946
50
184.546453
51
269.9899333
0
ARC
8
DEFAULT_255_2_778
10
21.1932012
20
23.503234
40
0.6316003
50
180.0048299
51
184.6346446
0
ARC
8
DEFAULT_255_2_778
10
21.1860598
20
23.5026854
40
0.6244591
50
99.1492963
51
179.9545515
0
ARC
8
DEFAULT_255_2_778
10
21.1854628
20
25.7318057
40
1.1221548
50
221.7815397
51
264.9541488
0
ARC
8
DEFAULT_255_2_778
10
21.184518
20
25.7337385
40
1.12274
50
181.2983073
51
221.8872166
0
LINE
8
DEFAULT_255_2_778
10
42.569666
20
36.7678996
11
42.569666
21
11.3678996
0
LINE
8
DEFAULT_255_2_778
10
42.569666
20
11.3678996
11
27.569566
21
11.3678996
0
LINE
8
DEFAULT_255_2_778
10
27.569566
20
11.3678996
11
27.569566
21
36.7678996
0
LINE
8
DEFAULT_255_2_778
10
27.569566
20
36.7678996
11
42.569666
21
36.7678996
0
LINE
8
DEFAULT_255_2_778
10
33.538066
20
11.3678996
11
33.538066
21
36.7678996
0
LINE
8
DEFAULT_255_2_778
10
34.113566
20
36.7678996
11
34.113566
21
11.3678996
0
LINE
8
DEFAULT_255_2_778
10
34.290566
20
11.3678996
11
34.290566
21
36.7678996
0
LINE
8
DEFAULT_255_2_778
10
34.440866
20
11.3678996
11
34.440866
21
36.7678996
0
LINE
8
DEFAULT_255_2_778
10
35.520566
20
36.7678996
11
35.520566
21
11.3678996
0
LINE
8
DEFAULT_255_2_778
10
36.003466
20
11.3678996
11
36.003466
21
36.7678996
0
LINE
8
DEFAULT_255_2_778
10
40.219866
20
36.7678996
11
40.219866
21
11.3678996
0
LINE
8
DEFAULT_255_2_778
10
40.419866
20
36.7678996
11
40.419866
21
11.3678996
0
LINE
8
DEFAULT_255_2_778
10
21.086766
20
24.8147996
11
21.086766
21
28.6980996
0
LINE
8
DEFAULT_255_2_778
10
21.086766
20
28.6980996
11
20.561866
21
28.6980996
0
LINE
8
DEFAULT_255_2_778
10
20.561866
20
28.6980996
11
21.186766
21
29.7804996
0
LINE
8
DEFAULT_255_2_778
10
21.186766
20
29.7804996
11
21.811766
21
28.6980996
0
LINE
8
DEFAULT_255_2_778
10
21.811766
20
28.6980996
11
21.286866
21
28.6980996
0
LINE
8
DEFAULT_255_2_778
10
21.286866
20
28.6980996
11
21.286866
21
25.6778996
0
LINE
8
DEFAULT_255_2_778
10
22.211766
20
26.6980996
11
21.811766
21
26.6980996
0
LINE
8
DEFAULT_255_2_778
10
21.811766
20
26.6980996
11
21.811766
21
27.6982996
0
LINE
8
DEFAULT_255_2_778
10
21.811766
20
27.6982996
11
22.811866
21
27.6982996
0
LINE
8
DEFAULT_255_2_778
10
22.811866
20
27.6982996
11
22.811866
21
26.6980996
0
LINE
8
DEFAULT_255_2_778
10
22.811866
20
26.6980996
11
22.411866
21
26.6980996
0
LINE
8
DEFAULT_255_2_778
10
21.286866
20
25.4772996
11
21.286866
21
24.1191996
0
LINE
8
DEFAULT_255_2_778
10
21.086766
20
24.1191996
11
21.086766
21
24.6139996
0
LINE
8
DEFAULT_255_2_778
10
5.781966
20
30.1847996
11
17.445366
21
30.1847996
0
LINE
8
DEFAULT_255_2_778
10
17.445366
20
30.1847996
11
17.445366
21
17.2344996
0
LINE
8
DEFAULT_255_2_778
10
17.445366
20
17.2344996
11
5.781966
21
17.2344996
0
LINE
8
DEFAULT_255_2_778
10
5.781966
20
17.2344996
11
5.781966
21
30.1847996
0
ARC
8
DEFAULT_255_2_778
10
6.657726
20
29.2291492
40
0.3810262
50
90.0039451
51
179.9960549
0
ARC
8
DEFAULT_255_2_778
10
6.657726
20
18.1902017
40
0.3810262
50
180.0039451
51
269.9960549
0
LINE
8
DEFAULT_255_2_778
10
6.6576998
20
29.6101754
11
15.9032998
21
29.6101754
0
LINE
8
DEFAULT_255_2_778
10
15.9032998
20
29.6101754
11
15.9032998
21
17.8091754
0
LINE
8
DEFAULT_255_2_778
10
15.9032998
20
17.8091754
11
6.6576998
21
17.8091754
0
LINE
8
DEFAULT_255_2_778
10
6.2766998
20
18.1901754
11
6.2766998
21
29.2291754
0
LINE
8
DEFAULT_255_2_778
10
9.498301
20
27.6402737
11
9.761301
21
27.7799737
0
LINE
8
DEFAULT_255_2_778
10
9.761301
20
27.7799737
11
10.294701
21
27.7799737
0
LINE
8
DEFAULT_255_2_778
10
10.294701
20
27.7799737
11
10.294701
21
27.2388737
0
LINE
8
DEFAULT_255_2_778
10
10.294701
20
27.2388737
11
10.637601
21
25.9688737
0
LINE
8
DEFAULT_255_2_778
10
10.637601
20
25.9688737
11
12.491801
21
25.9688737
0
LINE
8
DEFAULT_255_2_778
10
12.491801
20
25.9688737
11
12.834701
21
27.2388737
0
LINE
8
DEFAULT_255_2_778
10
12.834701
20
27.2388737
11
12.834701
21
27.9069737
0
LINE
8
DEFAULT_255_2_778
10
12.834701
20
27.9069737
11
14.968301
21
27.9069737
0
LINE
8
DEFAULT_255_2_778
10
14.968301
20
27.9069737
11
14.968301
21
19.5096737
0
LINE
8
DEFAULT_255_2_778
10
14.968301
20
19.5096737
11
12.834701
21
19.5096737
0
LINE
8
DEFAULT_255_2_778
10
12.834701
20
19.5096737
11
12.834701
21
20.1776737
0
LINE
8
DEFAULT_255_2_778
10
12.834701
20
20.1776737
11
12.491801
21
21.4476737
0
LINE
8
DEFAULT_255_2_778
10
12.491801
20
21.4476737
11
10.637601
21
21.4476737
0
LINE
8
DEFAULT_255_2_778
10
10.637601
20
21.4476737
11
10.294701
21
20.1776737
0
LINE
8
DEFAULT_255_2_778
10
10.294701
20
20.1776737
11
10.294701
21
19.6366737
0
LINE
8
DEFAULT_255_2_778
10
10.294701
20
19.6366737
11
9.761301
21
19.6366737
0
LINE
8
DEFAULT_255_2_778
10
9.761301
20
19.6366737
11
9.498301
21
19.7763737
0
LINE
8
DEFAULT_255_2_778
10
9.498301
20
19.7763737
11
8.764101
21
19.7763737
0
LINE
8
DEFAULT_255_2_778
10
8.764101
20
19.7763737
11
7.424501
21
21.3701737
0
LINE
8
DEFAULT_255_2_778
10
7.424501
20
21.3701737
11
7.424501
21
26.0464737
0
LINE
8
DEFAULT_255_2_778
10
7.424501
20
26.0464737
11
8.764101
21
27.6402737
0
LINE
8
DEFAULT_255_2_778
10
8.764101
20
27.6402737
11
9.498301
21
27.6402737
0
ARC
8
DEFAULT_255_2_778
10
23.1879487
20
17.548099
40
0.0991688
50
359.9945279
51
30.2462178
0
ARC
8
DEFAULT_255_2_778
10
23.1232434
20
17.54818
40
0.1638742
50
359.8417246
51
359.9683447
0
ARC
8
DEFAULT_255_2_778
10
23.1875383
20
17.5481161
40
0.0995794
50
329.817504
51
359.7763038
0
ARC
8
DEFAULT_255_2_778
10
23.187069
20
17.5479587
40
0.0999066
50
270.0278568
51
330.030854
0
ARC
8
DEFAULT_255_2_778
10
19.1866568
20
17.5475963
40
0.0995444
50
209.8486413
51
270.0925551
0
ARC
8
DEFAULT_255_2_778
10
19.1883278
20
17.5484093
40
0.1013985
50
180.3853301
51
209.7771147
0
ARC
8
DEFAULT_255_2_778
10
19.191935
20
17.5483071
40
0.1050051
50
180.0000012
51
180.3163314
0
ARC
8
DEFAULT_255_2_778
10
19.1855941
20
17.5484279
40
0.0986644
50
149.8040511
51
180.0701835
0
ARC
8
DEFAULT_255_2_778
10
21.1868662
20
21.0123452
40
0.0999067
50
90.0278855
51
150.0308435
0
ARC
8
DEFAULT_255_2_778
10
21.1869784
20
21.0127077
40
0.0995444
50
29.8486413
51
90.0925551
0
LINE
8
DEFAULT_255_2_778
10
10.0407176
20
25.613352
11
12.0727176
21
25.613352
0
LINE
8
DEFAULT_255_2_778
10
12.0727176
20
25.613352
11
12.0727176
21
21.803352
0
LINE
8
DEFAULT_255_2_778
10
12.0727176
20
21.803352
11
11.7727176
21
22.103352
0
LINE
8
DEFAULT_255_2_778
10
11.7727176
20
22.103352
11
11.7727176
21
25.313352
0
LINE
8
DEFAULT_255_2_778
10
11.7727176
20
25.313352
11
10.3407176
21
25.313352
0
LINE
8
DEFAULT_255_2_778
10
11.7727176
20
22.103352
11
10.3407176
21
22.103352
0
LINE
8
DEFAULT_255_2_778
10
10.3407176
20
22.103352
11
10.3407176
21
25.313352
0
LINE
8
DEFAULT_255_2_778
10
10.3407176
20
25.313352
11
10.0407176
21
25.613352
0
LINE
8
DEFAULT_255_2_778
10
10.0407176
20
25.613352
11
10.0407176
21
21.803352
0
LINE
8
DEFAULT_255_2_778
10
10.0407176
20
21.803352
11
12.0727176
21
21.803352
0
LINE
8
DEFAULT_255_2_778
10
10.3407176
20
22.103352
11
10.0407176
21
21.803352
0
LINE
8
DEFAULT_255_2_778
10
12.0727176
20
25.613352
11
11.7727176
21
25.313352
0
LINE
8
DEFAULT_255_2_778
10
21.3257176
20
17.850252
11
21.3257176
21
18.106552
0
LINE
8
DEFAULT_255_2_778
10
21.3257176
20
18.106552
11
21.0693176
21
18.106552
0
LINE
8
DEFAULT_255_2_778
10
21.0693176
20
18.106552
11
21.0693176
21
17.850252
0
LINE
8
DEFAULT_255_2_778
10
21.0693176
20
17.850252
11
21.3257176
21
17.850252
0
LINE
8
DEFAULT_255_2_778
10
21.2744176
20
18.311652
11
21.3257176
21
19.396652
0
LINE
8
DEFAULT_255_2_778
10
21.3257176
20
19.396652
11
21.3257176
21
19.850252
0
LINE
8
DEFAULT_255_2_778
10
21.3257176
20
19.850252
11
21.0693176
21
19.850252
0
LINE
8
DEFAULT_255_2_778
10
21.0693176
20
19.850252
11
21.0693176
21
19.396652
0
LINE
8
DEFAULT_255_2_778
10
21.0693176
20
19.396652
11
21.1207176
21
18.311652
0
LINE
8
DEFAULT_255_2_778
10
21.1207176
20
18.311652
11
21.2744176
21
18.311652
0
LINE
8
DEFAULT_255_2_778
10
23.1871176
20
17.448052
11
19.1868176
21
17.448052
0
LINE
8
DEFAULT_255_2_778
10
19.1003176
20
17.598052
11
21.1003176
21
21.062252
0
LINE
8
DEFAULT_255_2_778
10
21.2733176
20
21.062252
11
23.2736176
21
17.598052
0
LINE
8
DEFAULT_255_2_778
10
19.1871176
20
17.548052
11
21.1871176
21
21.012252
0
LINE
8
DEFAULT_255_2_778
10
21.1871176
20
21.012252
11
23.1871176
21
17.548052
0
LINE
8
DEFAULT_255_2_778
10
23.1871176
20
17.548052
11
19.1871176
21
17.548052
0
ARC
8
DEFAULT_255_2_778
10
38.3174943
20
123.0591702
40
0.0424614
50
42.6309471
51
89.2710283
0
ARC
8
DEFAULT_255_2_778
10
37.938097
20
123.4237164
40
0.6485596
50
294.1300921
51
319.2109698
0
ARC
8
DEFAULT_255_2_778
10
37.9186921
20
123.4881733
40
0.7153694
50
272.6197745
51
293.4379701
0
ARC
8
DEFAULT_255_2_778
10
37.8839537
20
123.843134
40
1.0717061
50
269.950862
51
273.60768
0
ARC
8
DEFAULT_255_2_778
10
37.8724806
20
123.5243752
40
0.7530209
50
247.6088777
51
270.8030508
0
ARC
8
DEFAULT_255_2_778
10
37.8363321
20
123.4299219
40
0.651924
50
222.8179221
51
247.3841779
0
ARC
8
DEFAULT_255_2_778
10
37.8882766
20
123.4687517
40
0.7164501
50
199.3107066
51
222.2722748
0
ARC
8
DEFAULT_255_2_778
10
38.0747947
20
123.5357134
40
0.9146194
50
179.3475554
51
199.4055892
0
ARC
8
DEFAULT_255_2_778
10
38.0202561
20
123.5561542
40
0.86008
50
159.2745458
51
180.6679127
0
ARC
8
DEFAULT_255_2_778
10
37.8868735
20
123.606229
40
0.7176081
50
135.8547833
51
159.2451257
0
ARC
8
DEFAULT_255_2_778
10
37.8689778
20
123.6165002
40
0.6976315
50
111.5583093
51
135.436442
0
ARC
8
DEFAULT_255_2_778
10
37.9122139
20
123.5016903
40
0.8202992
50
89.3000665
51
111.4203492
0
ARC
8
DEFAULT_255_2_778
10
37.9351561
20
123.5481545
40
0.7738816
50
72.3632545
51
90.9567184
0
ARC
8
DEFAULT_255_2_778
10
37.9937743
20
123.7627734
40
0.5516664
50
66.8524479
51
71.4115886
0
ARC
8
DEFAULT_255_2_778
10
37.9265109
20
123.5998289
40
0.7279378
50
46.6685717
51
67.0260209
0
ARC
8
DEFAULT_255_2_778
10
38.29912
20
124.076368
40
0.0729829
50
306.4049606
51
325.5935267
0
ARC
8
DEFAULT_255_2_778
10
38.3178179
20
124.0581312
40
0.0473969
50
266.3912115
51
301.2901795
0
ARC
8
DEFAULT_255_2_778
10
38.3170927
20
124.06474
40
0.053959
50
234.4686982
51
267.601492
0
ARC
8
DEFAULT_255_2_778
10
39.2467271
20
125.468714
40
1.7377802
50
234.9700989
51
236.426927
0
ARC
8
DEFAULT_255_2_778
10
37.8132429
20
123.4169808
40
0.7651222
50
55.2614438
51
59.6768987
0
ARC
8
DEFAULT_255_2_778
10
37.983209
20
123.7043832
40
0.4312301
50
59.8909302
51
69.8534214
0
ARC
8
DEFAULT_255_2_778
10
37.9407483
20
123.5877874
40
0.5553163
50
69.8839108
51
79.6271632
0
ARC
8
DEFAULT_255_2_778
10
37.9281445
20
123.5139601
40
0.6302071
50
79.7085333
51
90.6373264
0
ARC
8
DEFAULT_255_2_778
10
37.9141366
20
123.5672662
40
0.5769044
50
89.3049793
51
111.9560778
0
ARC
8
DEFAULT_255_2_778
10
37.8863006
20
123.6409068
40
0.4982002
50
112.1535183
51
136.5977324
0
ARC
8
DEFAULT_255_2_778
10
37.9198805
20
123.6156403
40
0.5399791
50
137.0981445
51
160.6081223
0
ARC
8
DEFAULT_255_2_778
10
38.0878601
20
123.5561102
40
0.718195
50
160.5778749
51
180.7963625
0
ARC
8
DEFAULT_255_2_778
10
38.1001598
20
123.5342256
40
0.7305222
50
179.0664203
51
199.2625475
0
ARC
8
DEFAULT_255_2_778
10
37.937617
20
123.4780821
40
0.5585578
50
199.3263585
51
221.8629099
0
ARC
8
DEFAULT_255_2_778
10
37.8676796
20
123.4214827
40
0.4687226
50
222.4155214
51
247.503612
0
ARC
8
DEFAULT_255_2_778
10
37.8914316
20
123.4811377
40
0.5329268
50
247.5983268
51
270.4626264
0
ARC
8
DEFAULT_255_2_778
10
37.9019776
20
123.7934012
40
0.845196
50
269.5767778
51
277.851365
0
ARC
8
DEFAULT_255_2_778
10
37.9460912
20
123.4565894
40
0.5055208
50
278.1131531
51
289.8246154
0
ARC
8
DEFAULT_255_2_778
10
37.9734007
20
123.37601
40
0.4204583
50
290.0476623
51
303.1359125
0
ARC
8
DEFAULT_255_2_778
10
37.8367851
20
123.5794552
40
0.6655038
50
303.4105572
51
312.1206483
0
ARC
8
DEFAULT_255_2_778
10
38.3213676
20
123.0478212
40
0.0539101
50
93.5446857
51
135.169938
0
LINE
8
DEFAULT_255_2_778
10
38.3487345
20
123.0879282
11
38.4291345
21
123.0000282
0
LINE
8
DEFAULT_255_2_778
10
38.4260345
20
124.1293282
11
38.3593345
21
124.0351282
0
LINE
8
DEFAULT_255_2_778
10
38.3180345
20
123.1016282
11
38.3180345
21
123.1016282
0
ARC
8
DEFAULT_255_2_778
10
39.1113416
20
123.327521
40
0.5500604
50
68.221664
51
90.8456634
0
ARC
8
DEFAULT_255_2_778
10
39.1486116
20
123.424676
40
0.4460142
50
42.7133865
51
68.0371551
0
ARC
8
DEFAULT_255_2_778
10
39.110095
20
123.3968052
40
0.4932525
50
18.4761112
51
42.057223
0
ARC
8
DEFAULT_255_2_778
10
38.9221332
20
123.3342461
40
0.6913516
50
359.2354873
51
18.4568619
0
ARC
8
DEFAULT_255_2_778
10
38.9233116
20
123.3151345
40
0.6901824
50
341.5249452
51
0.8207928
0
ARC
8
DEFAULT_255_2_778
10
39.1096483
20
123.2541409
40
0.4941222
50
317.9083224
51
341.3859851
0
ARC
8
DEFAULT_255_2_778
10
39.1523984
20
123.2218266
40
0.4407625
50
291.7075945
51
317.3003833
0
ARC
8
DEFAULT_255_2_778
10
39.1114161
20
123.331257
40
0.5575957
50
269.1581107
51
291.4610864
0
ARC
8
DEFAULT_255_2_778
10
39.0951186
20
123.331742
40
0.5580794
50
248.5487025
51
270.8321004
0
ARC
8
DEFAULT_255_2_778
10
39.0566544
20
123.2270957
40
0.4466222
50
222.9261385
51
248.2317644
0
ARC
8
DEFAULT_255_2_778
10
39.0964457
20
123.2569301
40
0.4961054
50
198.8769856
51
222.3192886
0
ARC
8
DEFAULT_255_2_778
10
39.2723816
20
123.3151873
40
0.6814293
50
179.1731016
51
198.7258145
0
ARC
8
DEFAULT_255_2_778
10
39.2735456
20
123.3341929
40
0.682584
50
161.2926188
51
180.7698673
0
ARC
8
DEFAULT_255_2_778
10
39.0959721
20
123.3940441
40
0.4951956
50
137.7149296
51
161.2619784
0
ARC
8
DEFAULT_255_2_778
10
39.0605139
20
123.4193081
40
0.4519948
50
112.0233081
51
137.0600019
0
ARC
8
DEFAULT_255_2_778
10
39.0951931
20
123.327043
40
0.550537
50
89.1642586
51
111.7684139
0
ARC
8
DEFAULT_255_2_778
10
39.1177797
20
123.2137763
40
0.2933163
50
267.1554025
51
308.9611584
0
ARC
8
DEFAULT_255_2_778
10
39.1362166
20
123.1766705
40
0.2530306
50
310.9985998
51
323.7697492
0
ARC
8
DEFAULT_255_2_778
10
38.9965678
20
123.2647202
40
0.4178767
50
325.3483386
51
354.2516933
0
ARC
8
DEFAULT_255_2_778
10
38.6503713
20
123.320944
40
0.7682581
50
352.6654557
51
0.2295097
0
ARC
8
DEFAULT_255_2_778
10
38.7896737
20
123.336641
40
0.6290761
50
358.8505439
51
17.4135387
0
ARC
8
DEFAULT_255_2_778
10
39.0503369
20
123.4135702
40
0.3573666
50
18.1517383
51
35.7618345
0
ARC
8
DEFAULT_255_2_778
10
39.1239266
20
123.4575249
40
0.2720632
50
37.3077933
51
92.8028684
0
ARC
8
DEFAULT_255_2_778
10
39.1032574
20
123.2664257
40
0.4628956
50
89.088303
51
90.0042324
0
ARC
8
DEFAULT_255_2_778
10
39.0954751
20
123.4000937
40
0.3293189
50
88.6518426
51
113.6207763
0
ARC
8
DEFAULT_255_2_778
10
39.0728314
20
123.4643735
40
0.2613997
50
114.7187876
51
142.7983761
0
ARC
8
DEFAULT_255_2_778
10
39.1477781
20
123.4131865
40
0.3520738
50
143.5377604
51
166.5761475
0
ARC
8
DEFAULT_255_2_778
10
39.4687082
20
123.3322659
40
0.6830347
50
166.2234163
51
180.6915967
0
ARC
8
DEFAULT_255_2_778
10
39.461984
20
123.3154801
40
0.6763147
50
179.2763762
51
193.8466715
0
ARC
8
DEFAULT_255_2_778
10
39.1438059
20
123.2351444
40
0.3481617
50
193.5416786
51
216.690312
0
ARC
8
DEFAULT_255_2_778
10
39.0736207
20
123.1879657
40
0.2637249
50
217.581842
51
245.3249788
0
ARC
8
DEFAULT_255_2_778
10
39.0954751
20
123.2500492
40
0.3293189
50
246.3792237
51
271.3481574
0
LINE
8
DEFAULT_255_2_778
10
39.1032232
20
123.8775214
11
39.1032232
21
123.8775214
0
LINE
8
DEFAULT_255_2_778
10
39.1032232
20
122.9208214
11
39.1032232
21
122.9208214
0
ARC
8
DEFAULT_255_2_778
10
39.9620226
20
123.8125798
40
0.0480517
50
10.4562578
51
94.2323408
0
ARC
8
DEFAULT_255_2_778
10
40.4531325
20
123.3669488
40
0.5510104
50
122.647886
51
141.3217751
0
ARC
8
DEFAULT_255_2_778
10
40.3200884
20
123.5646788
40
0.3127932
50
88.7748441
51
121.6672989
0
ARC
8
DEFAULT_255_2_778
10
40.338416
20
123.6238291
40
0.2538384
50
49.5873657
51
92.628203
0
ARC
8
DEFAULT_255_2_778
10
40.2715386
20
123.5694146
40
0.3389863
50
14.4669129
51
46.9422775
0
ARC
8
DEFAULT_255_2_778
10
40.91646
20
123.5364852
40
0.3378193
50
139.7628588
51
159.6251637
0
ARC
8
DEFAULT_255_2_778
10
40.9178866
20
123.5331328
40
0.3410778
50
121.322388
51
139.487766
0
ARC
8
DEFAULT_255_2_778
10
40.9207776
20
123.5272283
40
0.3476251
50
103.8816535
51
121.2235201
0
ARC
8
DEFAULT_255_2_778
10
40.941506
20
123.4441625
40
0.4332381
50
89.9774719
51
103.9073192
0
ARC
8
DEFAULT_255_2_778
10
40.9485103
20
123.4809464
40
0.396513
50
68.7105111
51
90.9875493
0
ARC
8
DEFAULT_255_2_778
10
40.9818208
20
123.5735643
40
0.2981324
50
41.6252614
51
68.2126761
0
ARC
8
DEFAULT_255_2_778
10
40.9378052
20
123.5410599
40
0.3526601
50
16.9885817
51
40.8225898
0
ARC
8
DEFAULT_255_2_778
10
40.7334259
20
123.4798073
40
0.5660189
50
359.1084888
51
16.8735816
0
ARC
8
DEFAULT_255_2_778
10
40.7694762
20
123.4834541
40
0.3417271
50
357.9114947
51
24.1418
0
ARC
8
DEFAULT_255_2_778
10
40.9080753
20
123.5380191
40
0.1930566
50
26.1882471
51
39.994925
0
ARC
8
DEFAULT_255_2_778
10
40.908981
20
123.5299527
40
0.197663
50
41.9553354
51
93.7142508
0
ARC
8
DEFAULT_255_2_778
10
40.8949645
20
123.4886383
40
0.2385652
50
89.7089462
51
111.4364304
0
ARC
8
DEFAULT_255_2_778
10
40.8854146
20
123.5115432
40
0.2137553
50
111.2975349
51
135.0343155
0
ARC
8
DEFAULT_255_2_778
10
40.8966547
20
123.5047978
40
0.2264971
50
135.8363724
51
159.8825379
0
ARC
8
DEFAULT_255_2_778
10
40.9760252
20
123.4769487
40
0.3106059
50
160.0945265
51
181.0973008
0
ARC
8
DEFAULT_255_2_778
10
40.0998241
20
123.4831836
40
0.3774489
50
358.1503137
51
20.8545119
0
ARC
8
DEFAULT_255_2_778
10
40.27739
20
123.5448608
40
0.189641
50
22.5394783
51
38.8038721
0
ARC
8
DEFAULT_255_2_778
10
40.2858403
20
123.5437072
40
0.183883
50
40.7343506
51
93.7304565
0
ARC
8
DEFAULT_255_2_778
10
40.2728922
20
123.4880971
40
0.2391054
50
89.7641854
51
122.5695377
0
ARC
8
DEFAULT_255_2_778
10
40.3745155
20
123.3327986
40
0.4246925
50
122.8449166
51
143.1492606
0
ARC
8
DEFAULT_255_2_778
10
41.6998226
20
123.8125798
40
0.0480517
50
10.4562578
51
94.2323408
0
ARC
8
DEFAULT_255_2_778
10
42.2073068
20
123.3336095
40
0.5723778
50
120.1204597
51
140.9378987
0
ARC
8
DEFAULT_255_2_778
10
42.1156997
20
123.4780841
40
0.4014976
50
88.8473421
51
119.1589528
0
ARC
8
DEFAULT_255_2_778
10
42.1291367
20
123.4922622
40
0.3872754
50
65.2983842
51
90.7930775
0
ARC
8
DEFAULT_255_2_778
10
42.142947
20
123.53247
40
0.3450018
50
36.8344953
51
64.5915624
0
ARC
8
DEFAULT_255_2_778
10
42.0137366
20
123.4419266
40
0.5027241
50
14.4413646
51
36.2653058
0
ARC
8
DEFAULT_255_2_778
10
41.6524135
20
123.3450128
40
0.8768079
50
359.3758622
51
14.685861
0
ARC
8
DEFAULT_255_2_778
10
41.2582207
20
123.3312431
40
1.2709556
50
0.0025854
51
0.1901776
0
ARC
8
DEFAULT_255_2_778
10
41.7909457
20
123.3251261
40
0.7382565
50
343.1151789
51
0.4791957
0
ARC
8
DEFAULT_255_2_778
10
41.9835408
20
123.2633555
40
0.5360322
50
322.0758292
51
343.4538774
0
ARC
8
DEFAULT_255_2_778
10
42.0733446
20
123.1977813
40
0.4249038
50
296.1901137
51
321.6081215
0
ARC
8
DEFAULT_255_2_778
10
42.0734675
20
123.2038613
40
0.4303144
50
269.0957324
51
295.8181437
0
ARC
8
DEFAULT_255_2_778
10
42.0557494
20
123.173431
40
0.3999798
50
246.5809661
51
271.5654391
0
ARC
8
DEFAULT_255_2_778
10
42.0588166
20
123.1522722
40
0.381948
50
221.4369986
51
244.8969933
0
ARC
8
DEFAULT_255_2_778
10
42.0546946
20
123.4242424
40
0.3030318
50
88.7365431
51
120.7016507
0
ARC
8
DEFAULT_255_2_778
10
42.1483745
20
123.2922338
40
0.4645538
50
122.3237526
51
144.0139039
0
ARC
8
DEFAULT_255_2_778
10
42.0213371
20
123.2192666
40
0.3028948
50
214.7539254
51
243.4979334
0
ARC
8
DEFAULT_255_2_778
10
42.0197315
20
123.2453748
40
0.325806
50
245.8000408
51
270.799271
0
ARC
8
DEFAULT_255_2_778
10
42.038413
20
123.1894569
40
0.2702265
50
267.0012488
51
322.9123124
0
ARC
8
DEFAULT_255_2_778
10
41.9178173
20
123.2637083
40
0.4114249
50
324.7916147
51
353.4111338
0
ARC
8
DEFAULT_255_2_778
10
41.5499114
20
123.3272823
40
0.784475
50
351.8816225
51
0.2934779
0
ARC
8
DEFAULT_255_2_778
10
41.5612133
20
123.3432088
40
0.7732547
50
359.1175936
51
12.1965782
0
ARC
8
DEFAULT_255_2_778
10
41.8420106
20
123.3947418
40
0.4879904
50
13.2478514
51
13.8189384
0
ARC
8
DEFAULT_255_2_778
10
41.9728336
20
123.4357844
40
0.3512563
50
12.4148557
51
34.4529706
0
ARC
8
DEFAULT_255_2_778
10
42.0923177
20
123.514604
40
0.2081565
50
35.1691305
51
66.092235
0
ARC
8
DEFAULT_255_2_778
10
42.0662351
20
123.4430986
40
0.2841435
50
67.1275356
51
90.9797906
0
ARC
8
DEFAULT_255_2_778
10
43.4522706
20
122.8881649
40
0.0998448
50
246.0729728
51
272.2992722
0
ARC
8
DEFAULT_255_2_778
10
43.4361507
20
122.8367764
40
0.0467354
50
184.7571439
51
238.5643583
0
ARC
8
DEFAULT_255_2_778
10
42.5722263
20
123.811386
40
1.1860211
50
306.9930239
51
312.1657855
0
ARC
8
DEFAULT_255_2_778
10
43.0040177
20
123.2380387
40
0.4682671
50
294.9001905
51
307.0074248
0
ARC
8
DEFAULT_255_2_778
10
43.0194405
20
123.2055958
40
0.4323466
50
281.6135898
51
294.8565292
0
ARC
8
DEFAULT_255_2_778
10
42.9996069
20
123.3144291
40
0.5429501
50
269.4902326
51
281.3517002
0
ARC
8
DEFAULT_255_2_778
10
42.9919236
20
123.1537246
40
0.3822348
50
252.640293
51
270.4276198
0
ARC
8
DEFAULT_255_2_778
10
42.9571712
20
123.0439796
40
0.2671199
50
229.3547562
51
252.7314262
0
ARC
8
DEFAULT_255_2_778
10
42.9487027
20
123.0287657
40
0.2500844
50
203.3362952
51
228.5564248
0
ARC
8
DEFAULT_255_2_778
10
43.0040173
20
123.0487988
40
0.3088297
50
178.6266739
51
202.68373
0
ARC
8
DEFAULT_255_2_778
10
42.9305896
20
123.0549153
40
0.2353168
50
148.347827
51
179.6870837
0
ARC
8
DEFAULT_255_2_778
10
42.9888589
20
123.0120307
40
0.3074799
50
118.3232866
51
147.2431248
0
ARC
8
DEFAULT_255_2_778
10
43.16593
20
122.7030459
40
0.6635499
50
104.3783379
51
119.124297
0
ARC
8
DEFAULT_255_2_778
10
43.3011012
20
122.2532988
40
1.1329394
50
102.9776266
51
105.3521307
0
ARC
8
DEFAULT_255_2_778
10
43.3307958
20
122.0685845
40
1.3196638
50
93.6687942
51
102.4329435
0
ARC
8
DEFAULT_255_2_778
10
43.4025541
20
121.2021403
40
2.1889838
50
91.2532806
51
94.0920017
0
ARC
8
DEFAULT_255_2_778
10
43.011601
20
123.4866037
40
0.3432994
50
357.9294777
51
23.6242266
0
ARC
8
DEFAULT_255_2_778
10
43.1553037
20
123.5421252
40
0.1895095
50
25.6559214
51
39.6696599
0
ARC
8
DEFAULT_255_2_778
10
43.1565984
20
123.5335497
40
0.1941293
50
41.8623108
51
94.0237494
0
ARC
8
DEFAULT_255_2_778
10
43.1342443
20
123.3924872
40
0.3348272
50
88.5055954
51
108.6671194
0
ARC
8
DEFAULT_255_2_778
10
43.1760917
20
123.2955628
40
0.4401314
50
109.7897884
51
121.5836077
0
ARC
8
DEFAULT_255_2_778
10
43.7261017
20
122.4243668
40
1.4703976
50
122.0612865
51
124.826081
0
ARC
8
DEFAULT_255_2_778
10
42.8345105
20
123.6993064
40
0.0854475
50
271.7878219
51
307.3722138
0
ARC
8
DEFAULT_255_2_778
10
42.8360039
20
123.6702991
40
0.0564108
50
235.1589768
51
271.190893
0
ARC
8
DEFAULT_255_2_778
10
42.8466286
20
123.6860131
40
0.0753782
50
209.5826124
51
235.3545314
0
ARC
8
DEFAULT_255_2_778
10
43.1770108
20
123.2733788
40
0.612126
50
112.9143879
51
134.6037261
0
ARC
8
DEFAULT_255_2_778
10
43.1586023
20
123.2873277
40
0.5922225
50
89.2575361
51
111.7993281
0
ARC
8
DEFAULT_255_2_778
10
43.1737009
20
123.4734312
40
0.4061372
50
67.9644293
51
91.047481
0
ARC
8
DEFAULT_255_2_778
10
43.2014208
20
123.5474366
40
0.3271443
50
42.2506916
51
67.6017994
0
ARC
8
DEFAULT_255_2_778
10
43.1809433
20
123.5357617
40
0.3501895
50
17.1974205
51
41.4118535
0
ARC
8
DEFAULT_255_2_778
10
43.007998
20
123.4799476
40
0.5319094
50
359.3809216
51
17.4327674
0
ARC
8
DEFAULT_255_2_778
10
43.0545213
20
123.2896807
40
0.3858974
50
269.4587993
51
283.0833556
0
ARC
8
DEFAULT_255_2_778
10
43.0569551
20
123.2649288
40
0.3612516
50
283.5960429
51
296.7717468
0
ARC
8
DEFAULT_255_2_778
10
43.0354989
20
123.3052784
40
0.4069419
50
296.9099117
51
308.63508
0
ARC
8
DEFAULT_255_2_778
10
42.9126513
20
123.4596205
40
0.6042054
50
308.5967913
51
317.0190692
0
ARC
8
DEFAULT_255_2_778
10
43.3983874
20
121.5592325
40
1.712326
50
91.4627676
51
97.6993233
0
ARC
8
DEFAULT_255_2_778
10
43.3112554
20
122.2602078
40
1.0060252
50
98.1302446
51
100.1784343
0
ARC
8
DEFAULT_255_2_778
10
43.2359074
20
122.615771
40
0.6428427
50
99.1686334
51
112.2439812
0
ARC
8
DEFAULT_255_2_778
10
43.1337022
20
122.8870096
40
0.3531921
50
113.5546308
51
114.8498095
0
ARC
8
DEFAULT_255_2_778
10
43.0644954
20
123.0154686
40
0.2077304
50
112.4176586
51
141.3882981
0
ARC
8
DEFAULT_255_2_778
10
43.0108493
20
123.0657196
40
0.1345776
50
143.8535007
51
180.4764694
0
ARC
8
DEFAULT_255_2_778
10
43.0531955
20
123.0602411
40
0.1769728
50
178.5884821
51
202.8213797
0
ARC
8
DEFAULT_255_2_778
10
43.0168016
20
123.0460596
40
0.1379315
50
203.2551851
51
229.4202093
0
ARC
8
DEFAULT_255_2_778
10
43.0207248
20
123.0547054
40
0.1470738
50
230.4505039
51
254.7647569
0
ARC
8
DEFAULT_255_2_778
10
43.0488238
20
123.1555792
40
0.251787
50
254.6273983
51
270.4670649
0
ARC
8
DEFAULT_255_2_778
10
44.4879265
20
123.7178031
40
0.0838998
50
308.3439792
51
325.2665939
0
ARC
8
DEFAULT_255_2_778
10
44.5182229
20
123.6858922
40
0.0402723
50
266.3745112
51
302.694399
0
ARC
8
DEFAULT_255_2_778
10
44.5191108
20
123.7060751
40
0.0604722
50
231.2700792
51
266.7442141
0
ARC
8
DEFAULT_255_2_778
10
44.1829567
20
123.2287203
40
0.5234974
50
55.2596228
51
61.32198
0
ARC
8
DEFAULT_255_2_778
10
44.2481257
20
123.3419985
40
0.3928513
50
61.7323927
51
72.7112298
0
ARC
8
DEFAULT_255_2_778
10
44.2723932
20
123.4019163
40
0.3284725
50
73.6469667
51
91.328745
0
ARC
8
DEFAULT_255_2_778
10
44.2584296
20
123.4046819
40
0.3256805
50
88.8833699
51
113.9590027
0
ARC
8
DEFAULT_255_2_778
10
44.2394722
20
123.4572965
40
0.2699313
50
114.8169917
51
142.585512
0
ARC
8
DEFAULT_255_2_778
10
44.3195208
20
123.4013327
40
0.3675369
50
143.2380578
51
165.5090384
0
ARC
8
DEFAULT_255_2_778
10
44.5800074
20
123.3324506
40
0.6369746
50
165.3732141
51
180.6701472
0
ARC
8
DEFAULT_255_2_778
10
44.5588975
20
123.3160057
40
0.6158869
50
179.1631893
51
195.4533396
0
ARC
8
DEFAULT_255_2_778
10
44.3287823
20
123.2519123
40
0.3770132
50
195.3832357
51
217.022759
0
ARC
8
DEFAULT_255_2_778
10
44.2384872
20
123.1880032
40
0.2664612
50
217.7420017
51
244.9526576
0
ARC
8
DEFAULT_255_2_778
10
44.2505148
20
123.221285
40
0.3017221
50
245.5591835
51
270.9042386
0
ARC
8
DEFAULT_255_2_778
10
44.2650841
20
123.2514119
40
0.3319563
50
268.3069327
51
288.1656095
0
ARC
8
DEFAULT_255_2_778
10
44.2525428
20
123.2637126
40
0.3476478
50
289.497609
51
303.1358917
0
ARC
8
DEFAULT_255_2_778
10
44.1483673
20
123.4158868
40
0.5320355
50
303.5722224
51
310.1299155
0
ARC
8
DEFAULT_255_2_778
10
44.5320806
20
122.9667615
40
0.0588012
50
92.6360039
51
133.9425501
0
ARC
8
DEFAULT_255_2_778
10
44.5320275
20
122.9858029
40
0.039786
50
33.0490309
51
93.8208668
0
ARC
8
DEFAULT_255_2_778
10
44.30192
20
123.1949258
40
0.4071028
50
290.377725
51
320.9950772
0
ARC
8
DEFAULT_255_2_778
10
44.2255208
20
123.3927273
40
0.6191343
50
269.7182608
51
290.631474
0
ARC
8
DEFAULT_255_2_778
10
44.2183066
20
123.2425929
40
0.469011
50
247.08317
51
270.5093899
0
ARC
8
DEFAULT_255_2_778
10
44.2037627
20
123.2026535
40
0.4265661
50
221.8419772
51
246.7935507
0
ARC
8
DEFAULT_255_2_778
10
44.268656
20
123.2549834
40
0.509837
50
198.7501357
51
221.3583044
0
ARC
8
DEFAULT_255_2_778
10
44.4453899
20
123.3138152
40
0.6961035
50
179.0793096
51
198.6595905
0
ARC
8
DEFAULT_255_2_778
10
44.4538946
20
123.3317437
40
0.7045506
50
162.278644
51
180.548379
0
ARC
8
DEFAULT_255_2_778
10
44.2599544
20
123.395625
40
0.5003717
50
139.3929871
51
162.4866922
0
ARC
8
DEFAULT_255_2_778
10
44.2123992
20
123.4299492
40
0.4419549
50
113.1884861
51
138.7585821
0
ARC
8
DEFAULT_255_2_778
10
44.2443067
20
123.343355
40
0.5341385
50
88.9305156
51
112.6771008
0
ARC
8
DEFAULT_255_2_778
10
44.2636274
20
123.3681729
40
0.5093135
50
68.150762
51
91.0520143
0
ARC
8
DEFAULT_255_2_778
10
44.2693626
20
123.4017373
40
0.4760796
50
44.8850762
51
67.2880402
0
ARC
8
DEFAULT_255_2_778
10
45.1252137
20
123.0436796
40
0.2725268
50
233.7641817
51
272.8946753
0
ARC
8
DEFAULT_255_2_778
10
45.094014
20
122.9868388
40
0.2084078
50
223.8725368
51
231.4449249
0
ARC
8
DEFAULT_255_2_778
10
45.1428496
20
123.0196295
40
0.2665339
50
180.4161185
51
221.6777217
0
ARC
8
DEFAULT_255_2_778
10
45.35688
20
123.0462305
40
0.4814037
50
179.9559612
51
183.3983747
0
ARC
8
DEFAULT_255_2_778
10
44.745123
20
123.7447947
40
0.0420129
50
229.3895496
51
271.709424
0
ARC
8
DEFAULT_255_2_778
10
44.7450578
20
123.7408
40
0.0390213
50
175.1480549
51
225.6416973
0
ARC
8
DEFAULT_255_2_778
10
44.9651791
20
124.1680127
40
0.0402765
50
130.5847439
51
173.3162199
0
ARC
8
DEFAULT_255_2_778
10
44.9668656
20
124.1652899
40
0.0434443
50
87.7432519
51
129.9376948
0
ARC
8
DEFAULT_255_2_778
10
45.200242
20
123.0482035
40
0.1368165
50
175.3476981
51
220.8023697
0
ARC
8
DEFAULT_255_2_778
10
45.177031
20
123.0405406
40
0.1146225
50
225.4896948
51
272.1726043
0
ARC
8
DEFAULT_255_2_778
10
45.1845357
20
123.0759975
40
0.1500303
50
268.793378
51
288.7157316
0
ARC
8
DEFAULT_255_2_778
10
45.1566595
20
123.1463712
40
0.2256599
50
289.685967
51
300.230975
0
ARC
8
DEFAULT_255_2_778
10
45.0699308
20
123.2887847
40
0.3923856
50
300.7026876
51
305.389956
0
ARC
8
DEFAULT_255_2_778
10
45.3197444
20
122.9411727
40
0.0357512
50
94.7622037
51
129.1427013
0
ARC
8
DEFAULT_255_2_778
10
45.3140998
20
122.9443532
40
0.0325575
50
26.3432301
51
85.2845249
0
ARC
8
DEFAULT_255_2_778
10
45.1608691
20
123.1271093
40
0.3508356
50
289.9851256
51
312.5855914
0
ARC
8
DEFAULT_255_2_778
10
45.139308
20
123.170805
40
0.3993047
50
269.9524017
51
290.7497267
0
LINE
8
DEFAULT_255_2_778
10
40.0346763
20
122.7884005
11
39.8462763
21
122.7884005
0
LINE
8
DEFAULT_255_2_778
10
39.8462763
20
122.7884005
11
39.8462763
21
123.8605005
0
LINE
8
DEFAULT_255_2_778
10
39.8462763
20
123.8605005
11
39.9584763
21
123.8605005
0
LINE
8
DEFAULT_255_2_778
10
40.0092763
20
123.8213005
11
40.0229763
21
123.7113005
0
LINE
8
DEFAULT_255_2_778
10
41.2993763
20
123.4710005
11
41.2993763
21
122.7884005
0
LINE
8
DEFAULT_255_2_778
10
41.2993763
20
122.7884005
11
41.1109763
21
122.7884005
0
LINE
8
DEFAULT_255_2_778
10
41.1109763
20
122.7884005
11
41.1109763
21
123.4710005
0
LINE
8
DEFAULT_255_2_778
10
40.6654763
20
123.4710005
11
40.6654763
21
122.7884005
0
LINE
8
DEFAULT_255_2_778
10
40.6654763
20
122.7884005
11
40.4770763
21
122.7884005
0
LINE
8
DEFAULT_255_2_778
10
40.4770763
20
122.7884005
11
40.4770763
21
123.4710005
0
LINE
8
DEFAULT_255_2_778
10
40.0346763
20
123.5875005
11
40.0346763
21
122.7884005
0
LINE
8
DEFAULT_255_2_778
10
40.0346763
20
122.7884005
11
40.0346763
21
122.7884005
0
LINE
8
DEFAULT_255_2_778
10
41.7724763
20
122.4254005
11
41.5840763
21
122.4254005
0
LINE
8
DEFAULT_255_2_778
10
41.5840763
20
122.4254005
11
41.5840763
21
123.8605005
0
LINE
8
DEFAULT_255_2_778
10
41.5840763
20
123.8605005
11
41.6962763
21
123.8605005
0
LINE
8
DEFAULT_255_2_778
10
41.7470763
20
123.8213005
11
41.7628763
21
123.6943005
0
LINE
8
DEFAULT_255_2_778
10
41.7724763
20
122.8995005
11
41.7724763
21
122.4254005
0
LINE
8
DEFAULT_255_2_778
10
41.7724763
20
122.4254005
11
41.7724763
21
122.4254005
0
LINE
8
DEFAULT_255_2_778
10
41.7724763
20
123.5652005
11
41.7724763
21
123.0466005
0
LINE
8
DEFAULT_255_2_778
10
42.0613763
20
123.7272005
11
42.0613763
21
123.7272005
0
LINE
8
DEFAULT_255_2_778
10
43.5398763
20
123.4742005
11
43.5398763
21
122.7884005
0
LINE
8
DEFAULT_255_2_778
10
43.5398763
20
122.7884005
11
43.4562763
21
122.7884005
0
LINE
8
DEFAULT_255_2_778
10
43.3895763
20
122.8329005
11
43.3683763
21
122.9323005
0
LINE
8
DEFAULT_255_2_778
10
43.3546763
20
123.3906005
11
43.3546763
21
123.4742005
0
LINE
8
DEFAULT_255_2_778
10
42.7810763
20
123.6488005
11
42.7471763
21
123.7092005
0
LINE
8
DEFAULT_255_2_778
10
43.5398763
20
123.4742005
11
43.5398763
21
123.4742005
0
LINE
8
DEFAULT_255_2_778
10
43.3546763
20
123.0477005
11
43.3546763
21
123.2710005
0
LINE
8
DEFAULT_255_2_778
10
43.0508763
20
122.9038005
11
43.0508763
21
122.9038005
0
LINE
8
DEFAULT_255_2_778
10
44.6066763
20
123.7377005
11
44.5568763
21
123.6700005
0
LINE
8
DEFAULT_255_2_778
10
44.5653763
20
123.0075005
11
44.6182763
21
122.9387005
0
LINE
8
DEFAULT_255_2_778
10
44.6066763
20
123.7377005
11
44.6066763
21
123.7377005
0
LINE
8
DEFAULT_255_2_778
10
44.8754763
20
123.0466005
11
44.8754763
21
123.7028005
0
LINE
8
DEFAULT_255_2_778
10
44.8754763
20
123.7028005
11
44.7463763
21
123.7028005
0
LINE
8
DEFAULT_255_2_778
10
44.7061763
20
123.7441005
11
44.7061763
21
123.8192005
0
LINE
8
DEFAULT_255_2_778
10
44.7061763
20
123.8192005
11
44.8817763
21
123.8415005
0
LINE
8
DEFAULT_255_2_778
10
44.8817763
20
123.8415005
11
44.9251763
21
124.1727005
0
LINE
8
DEFAULT_255_2_778
10
44.9685763
20
124.2087005
11
45.0638763
21
124.2087005
0
LINE
8
DEFAULT_255_2_778
10
45.0638763
20
124.2087005
11
45.0638763
21
123.8393005
0
LINE
8
DEFAULT_255_2_778
10
45.0638763
20
123.8393005
11
45.3707763
21
123.8393005
0
LINE
8
DEFAULT_255_2_778
10
45.3707763
20
123.8393005
11
45.3707763
21
123.7028005
0
LINE
8
DEFAULT_255_2_778
10
45.3707763
20
123.7028005
11
45.0638763
21
123.7028005
0
LINE
8
DEFAULT_255_2_778
10
45.0638763
20
123.7028005
11
45.0638763
21
123.0593005
0
LINE
8
DEFAULT_255_2_778
10
45.3432763
20
122.9588005
11
45.3982763
21
122.8688005
0
LINE
8
DEFAULT_255_2_778
10
45.1389763
20
122.7715005
11
45.1389763
21
122.7715005
0
LINE
8
DEFAULT_255_2_778
10
45.8385763
20
124.3050005
11
45.8385763
21
122.9609005
0
LINE
8
DEFAULT_255_2_778
10
45.8385763
20
122.9609005
11
46.4946763
21
122.9609005
0
LINE
8
DEFAULT_255_2_778
10
46.4946763
20
122.9609005
11
46.4946763
21
122.7884005
0
LINE
8
DEFAULT_255_2_778
10
46.4946763
20
122.7884005
11
45.6332763
21
122.7884005
0
LINE
8
DEFAULT_255_2_778
10
45.6332763
20
122.7884005
11
45.6332763
21
124.3050005
0
LINE
8
DEFAULT_255_2_778
10
45.6332763
20
124.3050005
11
45.8385763
21
124.3050005
0
LINE
8
DEFAULT_255_2_778
10
45.8385763
20
124.3050005
11
45.8385763
21
124.3050005
0
ARC
8
DEFAULT_255_2_778
10
47.0954416
20
123.327521
40
0.5500604
50
68.221664
51
90.8456634
0
ARC
8
DEFAULT_255_2_778
10
47.1327116
20
123.424676
40
0.4460142
50
42.7133865
51
68.0371551
0
ARC
8
DEFAULT_255_2_778
10
47.094195
20
123.3968052
40
0.4932525
50
18.4761112
51
42.057223
0
ARC
8
DEFAULT_255_2_778
10
46.9062332
20
123.3342461
40
0.6913516
50
359.2354873
51
18.4568619
0
ARC
8
DEFAULT_255_2_778
10
46.9074116
20
123.3151345
40
0.6901824
50
341.5249452
51
0.8207928
0
ARC
8
DEFAULT_255_2_778
10
47.0937483
20
123.2541409
40
0.4941222
50
317.9083224
51
341.3859851
0
ARC
8
DEFAULT_255_2_778
10
47.1364984
20
123.2218266
40
0.4407625
50
291.7075945
51
317.3003833
0
ARC
8
DEFAULT_255_2_778
10
47.0955161
20
123.331257
40
0.5575957
50
269.1581107
51
291.4610864
0
ARC
8
DEFAULT_255_2_778
10
47.0792186
20
123.331742
40
0.5580794
50
248.5487025
51
270.8321004
0
ARC
8
DEFAULT_255_2_778
10
47.0407544
20
123.2270957
40
0.4466222
50
222.9261385
51
248.2317644
0
ARC
8
DEFAULT_255_2_778
10
47.0805457
20
123.2569301
40
0.4961054
50
198.8769856
51
222.3192886
0
ARC
8
DEFAULT_255_2_778
10
47.2564816
20
123.3151873
40
0.6814293
50
179.1731016
51
198.7258145
0
ARC
8
DEFAULT_255_2_778
10
47.2576456
20
123.3341929
40
0.682584
50
161.2926188
51
180.7698673
0
ARC
8
DEFAULT_255_2_778
10
47.0800721
20
123.3940441
40
0.4951956
50
137.7149296
51
161.2619784
0
ARC
8
DEFAULT_255_2_778
10
47.0446139
20
123.4193081
40
0.4519948
50
112.0233081
51
137.0600019
0
ARC
8
DEFAULT_255_2_778
10
47.0792931
20
123.327043
40
0.550537
50
89.1642586
51
111.7684139
0
ARC
8
DEFAULT_255_2_778
10
47.1018797
20
123.2137763
40
0.2933163
50
267.1554025
51
308.9611584
0
ARC
8
DEFAULT_255_2_778
10
47.1203166
20
123.1766705
40
0.2530306
50
310.9985998
51
323.7697492
0
ARC
8
DEFAULT_255_2_778
10
46.9806678
20
123.2647202
40
0.4178767
50
325.3483386
51
354.2516933
0
ARC
8
DEFAULT_255_2_778
10
46.6344713
20
123.320944
40
0.7682581
50
352.6654557
51
0.2295097
0
ARC
8
DEFAULT_255_2_778
10
46.7737737
20
123.336641
40
0.6290761
50
358.8505439
51
17.4135387
0
ARC
8
DEFAULT_255_2_778
10
47.0344369
20
123.4135702
40
0.3573666
50
18.1517383
51
35.7618345
0
ARC
8
DEFAULT_255_2_778
10
47.1080266
20
123.4575249
40
0.2720632
50
37.3077933
51
92.8028684
0
ARC
8
DEFAULT_255_2_778
10
47.0873574
20
123.2664257
40
0.4628956
50
89.088303
51
90.0042324
0
ARC
8
DEFAULT_255_2_778
10
47.0795751
20
123.4000937
40
0.3293189
50
88.6518426
51
113.6207763
0
ARC
8
DEFAULT_255_2_778
10
47.0569314
20
123.4643735
40
0.2613997
50
114.7187876
51
142.7983761
0
ARC
8
DEFAULT_255_2_778
10
47.1318781
20
123.4131865
40
0.3520738
50
143.5377604
51
166.5761475
0
ARC
8
DEFAULT_255_2_778
10
47.4528082
20
123.3322659
40
0.6830347
50
166.2234163
51
180.6915967
0
ARC
8
DEFAULT_255_2_778
10
47.446084
20
123.3154801
40
0.6763147
50
179.2763762
51
193.8466715
0
ARC
8
DEFAULT_255_2_778
10
47.1279059
20
123.2351444
40
0.3481617
50
193.5416786
51
216.690312
0
ARC
8
DEFAULT_255_2_778
10
47.0577207
20
123.1879657
40
0.2637249
50
217.581842
51
245.3249788
0
ARC
8
DEFAULT_255_2_778
10
47.0795751
20
123.2500492
40
0.3293189
50
246.3792237
51
271.3481574
0
LINE
8
DEFAULT_255_2_778
10
47.0873232
20
123.8775214
11
47.0873232
21
123.8775214
0
LINE
8
DEFAULT_255_2_778
10
47.0873232
20
122.9208214
11
47.0873232
21
122.9208214
0
ARC
8
DEFAULT_255_2_778
10
48.1947889
20
123.3468289
40
0.5317839
50
76.1720863
51
90.3878927
0
ARC
8
DEFAULT_255_2_778
10
48.2250794
20
123.4668496
40
0.4080027
50
59.4458175
51
76.2741585
0
ARC
8
DEFAULT_255_2_778
10
48.6776055
20
123.7497807
40
0.045904
50
271.8516238
51
358.2772755
0
ARC
8
DEFAULT_255_2_778
10
48.2676273
20
123.538075
40
0.3257921
50
359.2130837
51
27.2013283
0
ARC
8
DEFAULT_255_2_778
10
48.2638906
20
123.5290778
40
0.3295292
50
335.2659799
51
0.7864224
0
ARC
8
DEFAULT_255_2_778
10
48.2700895
20
123.5283102
40
0.3235834
50
310.3485033
51
334.9301775
0
ARC
8
DEFAULT_255_2_778
10
48.23778
20
123.5707165
40
0.376831
50
287.7382542
51
309.9179646
0
ARC
8
DEFAULT_255_2_778
10
48.1965971
20
123.6997358
40
0.5122636
50
269.3950712
51
287.7289474
0
ARC
8
DEFAULT_255_2_778
10
48.187881
20
123.7289774
40
0.5414869
50
255.1812043
51
270.3500012
0
ARC
8
DEFAULT_255_2_778
10
48.1403246
20
123.0509906
40
0.1792838
50
120.4786495
51
142.5527585
0
ARC
8
DEFAULT_255_2_778
10
48.0628841
20
123.1093046
40
0.0823499
50
142.003131
51
177.9149653
0
ARC
8
DEFAULT_255_2_778
10
48.0444218
20
123.1093415
40
0.0639016
50
177.3457558
51
238.7682362
0
ARC
8
DEFAULT_255_2_778
10
48.121837
20
123.2430905
40
0.21843
50
239.5953361
51
262.357785
0
ARC
8
DEFAULT_255_2_778
10
48.230552
20
123.8927213
40
0.8770084
50
260.9623664
51
268.5322937
0
ARC
8
DEFAULT_255_2_778
10
48.0918105
20
119.481557
40
3.5363558
50
85.9773499
51
88.1157282
0
ARC
8
DEFAULT_255_2_778
10
48.253393
20
121.7849544
40
1.227298
50
79.7592029
51
85.958639
0
ARC
8
DEFAULT_255_2_778
10
48.4048563
20
122.5967607
40
0.4015242
50
63.024932
51
80.4331703
0
ARC
8
DEFAULT_255_2_778
10
48.4897825
20
122.764081
40
0.213885
50
33.3294642
51
62.9685767
0
ARC
8
DEFAULT_255_2_778
10
48.4842305
20
122.7704883
40
0.2151675
50
357.4727722
51
31.0910417
0
ARC
8
DEFAULT_255_2_778
10
48.4187833
20
122.7621737
40
0.2804079
50
331.3198916
51
359.7603049
0
ARC
8
DEFAULT_255_2_778
10
48.3478688
20
122.8008154
40
0.3611669
50
307.1121564
51
331.3408903
0
ARC
8
DEFAULT_255_2_778
10
48.2598822
20
122.917959
40
0.5076731
50
286.9737101
51
307.0538823
0
ARC
8
DEFAULT_255_2_778
10
48.2072833
20
123.0833087
40
0.6811785
50
269.1761232
51
287.1450182
0
ARC
8
DEFAULT_255_2_778
10
48.1851989
20
123.2141761
40
0.8120684
50
256.2141867
51
270.8671432
0
ARC
8
DEFAULT_255_2_778
10
48.1047743
20
122.8945872
40
0.4825251
50
237.4401486
51
256.445985
0
ARC
8
DEFAULT_255_2_778
10
47.9922949
20
122.7172583
40
0.2725337
50
210.6309625
51
237.3068699
0
ARC
8
DEFAULT_255_2_778
10
47.9433026
20
122.6863079
40
0.2146145
50
180.1354217
51
210.1851396
0
ARC
8
DEFAULT_255_2_778
10
47.9226889
20
122.6903883
40
0.1940544
50
137.7752952
51
181.3546629
0
ARC
8
DEFAULT_255_2_778
10
48.0282536
20
122.5830971
40
0.3444357
50
108.8290047
51
136.3600205
0
ARC
8
DEFAULT_255_2_778
10
47.9941253
20
123.0823056
40
0.1895642
50
217.9223995
51
246.0218817
0
ARC
8
DEFAULT_255_2_778
10
47.9696703
20
123.0526618
40
0.1522835
50
177.0493624
51
214.7774921
0
ARC
8
DEFAULT_255_2_778
10
47.9655701
20
123.0591512
40
0.1479875
50
160.479355
51
179.4775053
0
ARC
8
DEFAULT_255_2_778
10
48.0020966
20
123.0473633
40
0.1863566
50
143.6573343
51
160.8159856
0
ARC
8
DEFAULT_255_2_778
10
48.0746996
20
122.9958198
40
0.2753869
50
130.7635611
51
143.9710475
0
ARC
8
DEFAULT_255_2_778
10
48.0788252
20
122.9909211
40
0.281791
50
116.2734688
51
130.7485688
0
ARC
8
DEFAULT_255_2_778
10
48.1137929
20
123.5362995
40
0.3334337
50
211.5968351
51
241.3819689
0
ARC
8
DEFAULT_255_2_778
10
48.1075029
20
123.5261451
40
0.3228003
50
178.6765457
51
210.6465498
0
ARC
8
DEFAULT_255_2_778
10
48.1140498
20
123.538077
40
0.3292915
50
155.2571692
51
180.7788903
0
ARC
8
DEFAULT_255_2_778
10
48.0997895
20
123.543104
40
0.3142394
50
129.6940054
51
155.0013385
0
ARC
8
DEFAULT_255_2_778
10
48.1423937
20
123.4873711
40
0.3843451
50
107.3640926
51
129.2746084
0
ARC
8
DEFAULT_255_2_778
10
48.1857257
20
123.3552154
40
0.5234138
50
89.4019758
51
107.5738654
0
ARC
8
DEFAULT_255_2_778
10
48.4337828
20
122.7347728
40
0.0919148
50
357.2111465
51
40.77435
0
ARC
8
DEFAULT_255_2_778
10
48.4000692
20
122.696257
40
0.1427787
50
43.6446972
51
72.4641874
0
ARC
8
DEFAULT_255_2_778
10
48.3035751
20
122.4136272
40
0.4414015
50
71.5746025
51
83.2849748
0
ARC
8
DEFAULT_255_2_778
10
48.185916
20
121.4962997
40
1.3662278
50
82.882886
51
87.2909912
0
ARC
8
DEFAULT_255_2_778
10
48.8512809
20
135.5713662
40
12.7245567
50
266.7878764
51
267.2937637
0
ARC
8
DEFAULT_255_2_778
10
48.1943771
20
123.9117502
40
1.0464538
50
260.923106
51
266.9275576
0
ARC
8
DEFAULT_255_2_778
10
48.1551654
20
122.5982925
40
0.307092
50
114.1984764
51
136.777167
0
ARC
8
DEFAULT_255_2_778
10
48.0349662
20
122.7126385
40
0.1411985
50
137.1856116
51
180.9892931
0
ARC
8
DEFAULT_255_2_778
10
48.0232815
20
122.7097032
40
0.1294937
50
179.7798987
51
211.0043082
0
ARC
8
DEFAULT_255_2_778
10
48.046293
20
122.7267944
40
0.158046
50
212.0180126
51
240.6753255
0
ARC
8
DEFAULT_255_2_778
10
48.1314656
20
122.8761687
40
0.329995
50
240.4841213
51
258.3251573
0
ARC
8
DEFAULT_255_2_778
10
48.1918222
20
123.1556542
40
0.6159173
50
258.0877648
51
270.8248422
0
ARC
8
DEFAULT_255_2_778
10
48.2075126
20
123.1596168
40
0.6198537
50
269.3692251
51
282.0851833
0
ARC
8
DEFAULT_255_2_778
10
48.2667923
20
122.8896795
40
0.3434909
50
281.8432713
51
300.1640475
0
ARC
8
DEFAULT_255_2_778
10
48.3431418
20
122.7589668
40
0.1921143
50
300.0653798
51
326.5246153
0
ARC
8
DEFAULT_255_2_778
10
48.3845127
20
122.7289788
40
0.1410822
50
327.4158109
51
0.5368248
0
ARC
8
DEFAULT_255_2_778
10
48.1963555
20
123.6106961
40
0.2983402
50
269.0076866
51
288.7570893
0
ARC
8
DEFAULT_255_2_778
10
48.2256969
20
123.5211388
40
0.2041068
50
289.0419032
51
313.3430587
0
ARC
8
DEFAULT_255_2_778
10
48.2398638
20
123.5033922
40
0.1814865
50
313.9358729
51
339.8926367
0
ARC
8
DEFAULT_255_2_778
10
48.1775022
20
123.5253696
40
0.2476039
50
340.0779456
51
0.6782736
0
ARC
8
DEFAULT_255_2_778
10
48.2168704
20
123.5385072
40
0.2084683
50
357.1936912
51
44.6064844
0
ARC
8
DEFAULT_255_2_778
10
48.2128803
20
123.5131916
40
0.2295916
50
48.407847
51
91.0394213
0
ARC
8
DEFAULT_255_2_778
10
48.1913501
20
123.3184734
40
0.4246273
50
87.6562091
51
90.0217787
0
ARC
8
DEFAULT_255_2_778
10
48.1780289
20
123.489176
40
0.2542654
50
87.0332511
51
123.9407623
0
ARC
8
DEFAULT_255_2_778
10
48.1414413
20
123.5582352
40
0.1767352
50
126.6015525
51
134.2176093
0
ARC
8
DEFAULT_255_2_778
10
48.166607
20
123.5385072
40
0.2084683
50
135.3935156
51
182.8063088
0
ARC
8
DEFAULT_255_2_778
10
48.1987136
20
123.5254287
40
0.240342
50
179.3153356
51
200.5658104
0
ARC
8
DEFAULT_255_2_778
10
48.1497837
20
123.508048
40
0.1884271
50
200.8440806
51
225.9143363
0
ARC
8
DEFAULT_255_2_778
10
48.1594415
20
123.521472
40
0.2048029
50
226.5864478
51
250.6814978
0
ARC
8
DEFAULT_255_2_778
10
48.1862122
20
123.6022599
40
0.289902
50
250.9706126
51
270.9836101
0
ARC
8
DEFAULT_255_2_778
10
49.0439303
20
124.1961841
40
0.119862
50
335.1436123
51
0.4381482
0
ARC
8
DEFAULT_255_2_778
10
49.0188502
20
124.2079495
40
0.1475643
50
314.9422604
51
335.0918826
0
ARC
8
DEFAULT_255_2_778
10
49.0261708
20
124.2002075
40
0.1369135
50
293.2373272
51
315.0624635
0
ARC
8
DEFAULT_255_2_778
10
49.0290071
20
124.1926404
40
0.1288417
50
269.6805326
51
293.4060114
0
ARC
8
DEFAULT_255_2_778
10
49.0272982
20
124.188443
40
0.1246463
50
246.1954726
51
270.4553363
0
ARC
8
DEFAULT_255_2_778
10
49.0323481
20
124.2001652
40
0.1374095
50
224.7067064
51
246.2417633
0
ARC
8
DEFAULT_255_2_778
10
49.0333144
20
124.2025091
40
0.1397487
50
203.9405622
51
225.1109682
0
ARC
8
DEFAULT_255_2_778
10
49.0196311
20
124.1961101
40
0.1246463
50
179.5446637
51
203.8045274
0
ARC
8
DEFAULT_255_2_778
10
49.0273942
20
124.1975885
40
0.1324064
50
156.9168239
51
180.2110924
0
ARC
8
DEFAULT_255_2_778
10
49.0310596
20
124.1968274
40
0.1360787
50
135.088624
51
157.227124
0
ARC
8
DEFAULT_255_2_778
10
49.0336972
20
124.194275
40
0.1397487
50
113.9405622
51
135.1109682
0
ARC
8
DEFAULT_255_2_778
10
49.0272982
20
124.2079583
40
0.1246463
50
89.5446637
51
113.8045274
0
ARC
8
DEFAULT_255_2_778
10
49.0290071
20
124.203761
40
0.1288417
50
66.5939886
51
90.3194674
0
ARC
8
DEFAULT_255_2_778
10
49.024865
20
124.1942688
40
0.1391983
50
45.1187993
51
66.5814099
0
ARC
8
DEFAULT_255_2_778
10
49.0216203
20
124.1919024
40
0.1431659
50
23.7231809
51
44.8669573
0
ARC
8
DEFAULT_255_2_778
10
49.0365095
20
124.1975145
40
0.1272799
50
359.8137068
51
24.1068486
0
ARC
8
DEFAULT_255_2_778
10
49.5293001
20
123.8003765
40
0.0604004
50
60.9936045
51
94.3786308
0
ARC
8
DEFAULT_255_2_778
10
49.5164331
20
123.7963055
40
0.0708107
50
30.2711258
51
53.4639438
0
ARC
8
DEFAULT_255_2_778
10
50.1027557
20
123.344017
40
0.27632
50
148.3279461
51
161.9136251
0
ARC
8
DEFAULT_255_2_778
10
50.2063911
20
123.7528498
40
0.1315437
50
131.3483083
51
145.2651846
0
ARC
8
DEFAULT_255_2_778
10
50.1445709
20
123.8212464
40
0.0393763
50
88.0820166
51
129.5674035
0
ARC
8
DEFAULT_255_2_778
10
50.1503337
20
122.8403603
40
0.0519438
50
229.7747349
51
273.2612084
0
ARC
8
DEFAULT_255_2_778
10
50.1922388
20
122.8837682
40
0.1122182
50
210.034447
51
227.7511968
0
ARC
8
DEFAULT_255_2_778
10
49.6373444
20
123.2919827
40
0.1930677
50
329.0882915
51
346.7710732
0
ARC
8
DEFAULT_255_2_778
10
49.3823162
20
122.9494017
40
0.2099216
50
314.8979927
51
324.5338773
0
ARC
8
DEFAULT_255_2_778
10
49.4996899
20
122.8332199
40
0.0447891
50
266.7987037
51
313.4435666
0
LINE
8
DEFAULT_255_2_778
10
48.4324887
20
123.8182007
11
48.7234887
21
123.8182007
0
LINE
8
DEFAULT_255_2_778
10
48.7234887
20
123.8182007
11
48.7234887
21
123.7484007
0
LINE
8
DEFAULT_255_2_778
10
48.6790887
20
123.7039007
11
48.5573887
21
123.6870007
0
LINE
8
DEFAULT_255_2_778
10
48.1911887
20
123.8786007
11
48.1911887
21
123.8786007
0
LINE
8
DEFAULT_255_2_778
10
48.5255887
20
122.7303007
11
48.5255887
21
122.7303007
0
LINE
8
DEFAULT_255_2_778
10
48.1911887
20
123.3124007
11
48.1911887
21
123.3124007
0
LINE
8
DEFAULT_255_2_778
10
48.9330887
20
123.8606007
11
49.1214887
21
123.8606007
0
LINE
8
DEFAULT_255_2_778
10
49.1214887
20
123.8606007
11
49.1214887
21
122.7885007
0
LINE
8
DEFAULT_255_2_778
10
49.1214887
20
122.7885007
11
48.9330887
21
122.7885007
0
LINE
8
DEFAULT_255_2_778
10
48.9330887
20
122.7885007
11
48.9330887
21
123.8606007
0
LINE
8
DEFAULT_255_2_778
10
48.9330887
20
123.8606007
11
48.9330887
21
123.8606007
0
LINE
8
DEFAULT_255_2_778
10
49.1637887
20
124.1971007
11
49.1637887
21
124.1971007
0
LINE
8
DEFAULT_255_2_778
10
49.3288887
20
122.7885007
11
49.7045887
21
123.3378007
0
LINE
8
DEFAULT_255_2_778
10
49.7045887
20
123.3378007
11
49.3436887
21
123.8606007
0
LINE
8
DEFAULT_255_2_778
10
49.3436887
20
123.8606007
11
49.5246887
21
123.8606007
0
LINE
8
DEFAULT_255_2_778
10
49.5775887
20
123.8320007
11
49.8400887
21
123.4298007
0
LINE
8
DEFAULT_255_2_778
10
49.8675887
20
123.4891007
11
50.0982887
21
123.8278007
0
LINE
8
DEFAULT_255_2_778
10
50.1458887
20
123.8606007
11
50.3194887
21
123.8606007
0
LINE
8
DEFAULT_255_2_778
10
50.3194887
20
123.8606007
11
49.9585887
21
123.3483007
0
LINE
8
DEFAULT_255_2_778
10
49.9585887
20
123.3483007
11
50.3342887
21
122.7885007
0
LINE
8
DEFAULT_255_2_778
10
50.3342887
20
122.7885007
11
50.1532887
21
122.7885007
0
LINE
8
DEFAULT_255_2_778
10
50.0950887
20
122.8276007
11
49.8252887
21
123.2478007
0
LINE
8
DEFAULT_255_2_778
10
49.8029887
20
123.1928007
11
49.5532887
21
122.8276007
0
LINE
8
DEFAULT_255_2_778
10
49.4971887
20
122.7885007
11
49.3288887
21
122.7885007
0
LINE
8
DEFAULT_255_2_778
10
49.3288887
20
122.7885007
11
49.3288887
21
122.7885007
0
LINE
8
DEFAULT_255_2_778
10
44.7023615
20
117.7079767
11
47.6222615
21
117.7079767
0
LINE
8
DEFAULT_255_2_778
10
47.6222615
20
117.7079767
11
47.9686615
21
117.3615767
0
LINE
8
DEFAULT_255_2_778
10
47.9686615
20
117.3615767
11
47.9686615
21
119.9243767
0
LINE
8
DEFAULT_255_2_778
10
47.9686615
20
119.9243767
11
47.6222615
21
119.5780767
0
LINE
8
DEFAULT_255_2_778
10
47.6222615
20
119.5780767
11
47.6222615
21
117.7079767
0
LINE
8
DEFAULT_255_2_778
10
47.9686615
20
117.3615767
11
44.3557615
21
117.3615767
0
LINE
8
DEFAULT_255_2_778
10
44.3557615
20
119.9243767
11
47.9686615
21
119.9243767
0
LINE
8
DEFAULT_255_2_778
10
47.6222615
20
119.5780767
11
44.7023615
21
119.5780767
0
LINE
8
DEFAULT_255_2_778
10
44.7023615
20
119.5780767
11
44.3560615
21
119.9243767
0
LINE
8
DEFAULT_255_2_778
10
44.3560615
20
119.9243767
11
44.3560615
21
117.3615767
0
LINE
8
DEFAULT_255_2_778
10
44.3560615
20
117.3615767
11
44.7023615
21
117.7079767
0
LINE
8
DEFAULT_255_2_778
10
44.7023615
20
117.7079767
11
44.7023615
21
119.5780767
0
LINE
8
DEFAULT_255_2_778
10
44.7023615
20
113.207913
11
47.6222615
21
113.207913
0
LINE
8
DEFAULT_255_2_778
10
47.6222615
20
113.207913
11
47.9686615
21
112.861613
0
LINE
8
DEFAULT_255_2_778
10
47.9686615
20
112.861613
11
47.9686615
21
115.424313
0
LINE
8
DEFAULT_255_2_778
10
47.9686615
20
115.424313
11
47.6222615
21
115.078013
0
LINE
8
DEFAULT_255_2_778
10
47.6222615
20
115.078013
11
47.6222615
21
113.207913
0
LINE
8
DEFAULT_255_2_778
10
47.9686615
20
112.861613
11
44.3557615
21
112.861613
0
LINE
8
DEFAULT_255_2_778
10
45.9331615
20
115.432013
11
47.9686615
21
115.424313
0
LINE
8
DEFAULT_255_2_778
10
47.6222615
20
115.078013
11
44.7023615
21
115.078013
0
LINE
8
DEFAULT_255_2_778
10
44.7023615
20
115.078013
11
44.3560615
21
115.424313
0
LINE
8
DEFAULT_255_2_778
10
44.3560615
20
115.424313
11
44.3560615
21
112.861613
0
LINE
8
DEFAULT_255_2_778
10
44.3560615
20
112.861613
11
44.7023615
21
113.207913
0
LINE
8
DEFAULT_255_2_778
10
44.7023615
20
113.207913
11
44.7023615
21
115.078013
0
LINE
8
DEFAULT_255_2_778
10
44.3560615
20
115.424313
11
45.9435615
21
115.432013
0
LINE
8
DEFAULT_255_2_778
10
44.7023615
20
108.7078777
11
47.6222615
21
108.7078777
0
LINE
8
DEFAULT_255_2_778
10
47.6222615
20
108.7078777
11
47.9686615
21
108.3614777
0
LINE
8
DEFAULT_255_2_778
10
47.9686615
20
108.3614777
11
47.9686615
21
110.9242777
0
LINE
8
DEFAULT_255_2_778
10
47.9686615
20
110.9242777
11
47.6222615
21
110.5779777
0
LINE
8
DEFAULT_255_2_778
10
47.6222615
20
110.5779777
11
47.6222615
21
108.7078777
0
LINE
8
DEFAULT_255_2_778
10
47.9686615
20
108.3614777
11
44.3557615
21
108.3614777
0
LINE
8
DEFAULT_255_2_778
10
44.3557615
20
110.9242777
11
47.9686615
21
110.9242777
0
LINE
8
DEFAULT_255_2_778
10
47.6222615
20
110.5779777
11
44.7023615
21
110.5779777
0
LINE
8
DEFAULT_255_2_778
10
44.7023615
20
110.5779777
11
44.3560615
21
110.9242777
0
LINE
8
DEFAULT_255_2_778
10
44.3560615
20
110.9242777
11
44.3560615
21
108.3614777
0
LINE
8
DEFAULT_255_2_778
10
44.3560615
20
108.3614777
11
44.7023615
21
108.7078777
0
LINE
8
DEFAULT_255_2_778
10
44.7023615
20
108.7078777
11
44.7023615
21
110.5779777
0
LINE
8
DEFAULT_255_2_778
10
44.7023615
20
104.2078777
11
47.6222615
21
104.2078777
0
LINE
8
DEFAULT_255_2_778
10
47.6222615
20
104.2078777
11
47.9686615
21
103.8614777
0
LINE
8
DEFAULT_255_2_778
10
47.9686615
20
103.8614777
11
47.9686615
21
106.4242777
0
LINE
8
DEFAULT_255_2_778
10
47.9686615
20
106.4242777
11
47.6222615
21
106.0779777
0
LINE
8
DEFAULT_255_2_778
10
47.6222615
20
106.0779777
11
47.6222615
21
104.2078777
0
LINE
8
DEFAULT_255_2_778
10
47.9686615
20
103.8614777
11
44.3557615
21
103.8614777
0
LINE
8
DEFAULT_255_2_778
10
44.3557615
20
106.4242777
11
47.9686615
21
106.4242777
0
LINE
8
DEFAULT_255_2_778
10
47.6222615
20
106.0779777
11
44.7023615
21
106.0779777
0
LINE
8
DEFAULT_255_2_778
10
44.7023615
20
106.0779777
11
44.3560615
21
106.4242777
0
LINE
8
DEFAULT_255_2_778
10
44.3560615
20
106.4242777
11
44.3560615
21
103.8614777
0
LINE
8
DEFAULT_255_2_778
10
44.3560615
20
103.8614777
11
44.7023615
21
104.2078777
0
LINE
8
DEFAULT_255_2_778
10
44.7023615
20
104.2078777
11
44.7023615
21
106.0779777
0
LINE
8
DEFAULT_255_2_778
10
50.6806535
20
117.6856767
11
53.6005535
21
117.6856767
0
LINE
8
DEFAULT_255_2_778
10
53.6005535
20
117.6856767
11
53.9469535
21
117.3392767
0
LINE
8
DEFAULT_255_2_778
10
53.9469535
20
117.3392767
11
53.9469535
21
119.9020767
0
LINE
8
DEFAULT_255_2_778
10
53.9469535
20
119.9020767
11
53.6005535
21
119.5557767
0
LINE
8
DEFAULT_255_2_778
10
53.6005535
20
119.5557767
11
53.6005535
21
117.6856767
0
LINE
8
DEFAULT_255_2_778
10
53.9469535
20
117.3392767
11
50.3340535
21
117.3392767
0
LINE
8
DEFAULT_255_2_778
10
50.3340535
20
119.9020767
11
53.9469535
21
119.9020767
0
LINE
8
DEFAULT_255_2_778
10
53.6005535
20
119.5557767
11
50.6806535
21
119.5557767
0
LINE
8
DEFAULT_255_2_778
10
50.6806535
20
119.5557767
11
50.3343535
21
119.9020767
0
LINE
8
DEFAULT_255_2_778
10
50.3343535
20
119.9020767
11
50.3343535
21
117.3392767
0
LINE
8
DEFAULT_255_2_778
10
50.3343535
20
117.3392767
11
50.6806535
21
117.6856767
0
LINE
8
DEFAULT_255_2_778
10
50.6806535
20
117.6856767
11
50.6806535
21
119.5557767
0
LINE
8
DEFAULT_255_2_778
10
50.6806535
20
113.185615
11
53.6005535
21
113.185615
0
LINE
8
DEFAULT_255_2_778
10
53.6005535
20
113.185615
11
53.9469535
21
112.839315
0
LINE
8
DEFAULT_255_2_778
10
53.9469535
20
112.839315
11
53.9469535
21
115.402015
0
LINE
8
DEFAULT_255_2_778
10
53.9469535
20
115.402015
11
53.6005535
21
115.055715
0
LINE
8
DEFAULT_255_2_778
10
53.6005535
20
115.055715
11
53.6005535
21
113.185615
0
LINE
8
DEFAULT_255_2_778
10
53.9469535
20
112.839315
11
50.3340535
21
112.839315
0
LINE
8
DEFAULT_255_2_778
10
51.9115535
20
115.409715
11
53.9469535
21
115.402015
0
LINE
8
DEFAULT_255_2_778
10
53.6005535
20
115.055715
11
50.6806535
21
115.055715
0
LINE
8
DEFAULT_255_2_778
10
50.6806535
20
115.055715
11
50.3343535
21
115.402015
0
LINE
8
DEFAULT_255_2_778
10
50.3343535
20
115.402015
11
50.3343535
21
112.839315
0
LINE
8
DEFAULT_255_2_778
10
50.3343535
20
112.839315
11
50.6806535
21
113.185615
0
LINE
8
DEFAULT_255_2_778
10
50.6806535
20
113.185615
11
50.6806535
21
115.055715
0
LINE
8
DEFAULT_255_2_778
10
50.3343535
20
115.402015
11
51.9218535
21
115.409715
0
LINE
8
DEFAULT_255_2_778
10
50.6806535
20
108.6856777
11
53.6005535
21
108.6856777
0
LINE
8
DEFAULT_255_2_778
10
53.6005535
20
108.6856777
11
53.9469535
21
108.3392777
0
LINE
8
DEFAULT_255_2_778
10
53.9469535
20
108.3392777
11
53.9469535
21
110.9020777
0
LINE
8
DEFAULT_255_2_778
10
53.9469535
20
110.9020777
11
53.6005535
21
110.5557777
0
LINE
8
DEFAULT_255_2_778
10
53.6005535
20
110.5557777
11
53.6005535
21
108.6856777
0
LINE
8
DEFAULT_255_2_778
10
53.9469535
20
108.3392777
11
50.3340535
21
108.3392777
0
LINE
8
DEFAULT_255_2_778
10
50.3340535
20
110.9020777
11
53.9469535
21
110.9020777
0
LINE
8
DEFAULT_255_2_778
10
53.6005535
20
110.5557777
11
50.6806535
21
110.5557777
0
LINE
8
DEFAULT_255_2_778
10
50.6806535
20
110.5557777
11
50.3343535
21
110.9020777
0
LINE
8
DEFAULT_255_2_778
10
50.3343535
20
110.9020777
11
50.3343535
21
108.3392777
0
LINE
8
DEFAULT_255_2_778
10
50.3343535
20
108.3392777
11
50.6806535
21
108.6856777
0
LINE
8
DEFAULT_255_2_778
10
50.6806535
20
108.6856777
11
50.6806535
21
110.5557777
0
LINE
8
DEFAULT_255_2_778
10
50.6806535
20
104.1855777
11
53.6005535
21
104.1855777
0
LINE
8
DEFAULT_255_2_778
10
53.6005535
20
104.1855777
11
53.9469535
21
103.8391777
0
LINE
8
DEFAULT_255_2_778
10
53.9469535
20
103.8391777
11
53.9469535
21
106.4019777
0
LINE
8
DEFAULT_255_2_778
10
53.9469535
20
106.4019777
11
53.6005535
21
106.0556777
0
LINE
8
DEFAULT_255_2_778
10
53.6005535
20
106.0556777
11
53.6005535
21
104.1855777
0
LINE
8
DEFAULT_255_2_778
10
53.9469535
20
103.8391777
11
50.3340535
21
103.8391777
0
LINE
8
DEFAULT_255_2_778
10
50.3340535
20
106.4019777
11
53.9469535
21
106.4019777
0
LINE
8
DEFAULT_255_2_778
10
53.6005535
20
106.0556777
11
50.6806535
21
106.0556777
0
LINE
8
DEFAULT_255_2_778
10
50.6806535
20
106.0556777
11
50.3343535
21
106.4019777
0
LINE
8
DEFAULT_255_2_778
10
50.3343535
20
106.4019777
11
50.3343535
21
103.8391777
0
LINE
8
DEFAULT_255_2_778
10
50.3343535
20
103.8391777
11
50.6806535
21
104.1855777
0
LINE
8
DEFAULT_255_2_778
10
50.6806535
20
104.1855777
11
50.6806535
21
106.0556777
0
LINE
8
DEFAULT_255_2_778
10
56.6806535
20
117.6856767
11
59.6005535
21
117.6856767
0
LINE
8
DEFAULT_255_2_778
10
59.6005535
20
117.6856767
11
59.9469535
21
117.3392767
0
LINE
8
DEFAULT_255_2_778
10
59.9469535
20
117.3392767
11
59.9469535
21
119.9020767
0
LINE
8
DEFAULT_255_2_778
10
59.9469535
20
119.9020767
11
59.6005535
21
119.5557767
0
LINE
8
DEFAULT_255_2_778
10
59.6005535
20
119.5557767
11
59.6005535
21
117.6856767
0
LINE
8
DEFAULT_255_2_778
10
59.9469535
20
117.3392767
11
56.3340535
21
117.3392767
0
LINE
8
DEFAULT_255_2_778
10
56.3340535
20
119.9020767
11
59.9469535
21
119.9020767
0
LINE
8
DEFAULT_255_2_778
10
59.6005535
20
119.5557767
11
56.6806535
21
119.5557767
0
LINE
8
DEFAULT_255_2_778
10
56.6806535
20
119.5557767
11
56.3343535
21
119.9020767
0
LINE
8
DEFAULT_255_2_778
10
56.3343535
20
119.9020767
11
56.3343535
21
117.3392767
0
LINE
8
DEFAULT_255_2_778
10
56.3343535
20
117.3392767
11
56.6806535
21
117.6856767
0
LINE
8
DEFAULT_255_2_778
10
56.6806535
20
117.6856767
11
56.6806535
21
119.5557767
0
LINE
8
DEFAULT_255_2_778
10
56.6806535
20
113.185615
11
59.6005535
21
113.185615
0
LINE
8
DEFAULT_255_2_778
10
59.6005535
20
113.185615
11
59.9469535
21
112.839315
0
LINE
8
DEFAULT_255_2_778
10
59.9469535
20
112.839315
11
59.9469535
21
115.402015
0
LINE
8
DEFAULT_255_2_778
10
59.9469535
20
115.402015
11
59.6005535
21
115.055715
0
LINE
8
DEFAULT_255_2_778
10
59.6005535
20
115.055715
11
59.6005535
21
113.185615
0
LINE
8
DEFAULT_255_2_778
10
59.9469535
20
112.839315
11
56.3340535
21
112.839315
0
LINE
8
DEFAULT_255_2_778
10
57.9115535
20
115.409715
11
59.9469535
21
115.402015
0
LINE
8
DEFAULT_255_2_778
10
59.6005535
20
115.055715
11
56.6806535
21
115.055715
0
LINE
8
DEFAULT_255_2_778
10
56.6806535
20
115.055715
11
56.3343535
21
115.402015
0
LINE
8
DEFAULT_255_2_778
10
56.3343535
20
115.402015
11
56.3343535
21
112.839315
0
LINE
8
DEFAULT_255_2_778
10
56.3343535
20
112.839315
11
56.6806535
21
113.185615
0
LINE
8
DEFAULT_255_2_778
10
56.6806535
20
113.185615
11
56.6806535
21
115.055715
0
LINE
8
DEFAULT_255_2_778
10
56.3343535
20
115.402015
11
57.9218535
21
115.409715
0
LINE
8
DEFAULT_255_2_778
10
56.6806535
20
108.6856777
11
59.6005535
21
108.6856777
0
LINE
8
DEFAULT_255_2_778
10
59.6005535
20
108.6856777
11
59.9469535
21
108.3392777
0
LINE
8
DEFAULT_255_2_778
10
59.9469535
20
108.3392777
11
59.9469535
21
110.9020777
0
LINE
8
DEFAULT_255_2_778
10
59.9469535
20
110.9020777
11
59.6005535
21
110.5557777
0
LINE
8
DEFAULT_255_2_778
10
59.6005535
20
110.5557777
11
59.6005535
21
108.6856777
0
LINE
8
DEFAULT_255_2_778
10
59.9469535
20
108.3392777
11
56.3340535
21
108.3392777
0
LINE
8
DEFAULT_255_2_778
10
56.3340535
20
110.9020777
11
59.9469535
21
110.9020777
0
LINE
8
DEFAULT_255_2_778
10
59.6005535
20
110.5557777
11
56.6806535
21
110.5557777
0
LINE
8
DEFAULT_255_2_778
10
56.6806535
20
110.5557777
11
56.3343535
21
110.9020777
0
LINE
8
DEFAULT_255_2_778
10
56.3343535
20
110.9020777
11
56.3343535
21
108.3392777
0
LINE
8
DEFAULT_255_2_778
10
56.3343535
20
108.3392777
11
56.6806535
21
108.6856777
0
LINE
8
DEFAULT_255_2_778
10
56.6806535
20
108.6856777
11
56.6806535
21
110.5557777
0
LINE
8
DEFAULT_255_2_778
10
56.6806535
20
104.1855777
11
59.6005535
21
104.1855777
0
LINE
8
DEFAULT_255_2_778
10
59.6005535
20
104.1855777
11
59.9469535
21
103.8391777
0
LINE
8
DEFAULT_255_2_778
10
59.9469535
20
103.8391777
11
59.9469535
21
106.4019777
0
LINE
8
DEFAULT_255_2_778
10
59.9469535
20
106.4019777
11
59.6005535
21
106.0556777
0
LINE
8
DEFAULT_255_2_778
10
59.6005535
20
106.0556777
11
59.6005535
21
104.1855777
0
LINE
8
DEFAULT_255_2_778
10
59.9469535
20
103.8391777
11
56.3340535
21
103.8391777
0
LINE
8
DEFAULT_255_2_778
10
56.3340535
20
106.4019777
11
59.9469535
21
106.4019777
0
LINE
8
DEFAULT_255_2_778
10
59.6005535
20
106.0556777
11
56.6806535
21
106.0556777
0
LINE
8
DEFAULT_255_2_778
10
56.6806535
20
106.0556777
11
56.3343535
21
106.4019777
0
LINE
8
DEFAULT_255_2_778
10
56.3343535
20
106.4019777
11
56.3343535
21
103.8391777
0
LINE
8
DEFAULT_255_2_778
10
56.3343535
20
103.8391777
11
56.6806535
21
104.1855777
0
LINE
8
DEFAULT_255_2_778
10
56.6806535
20
104.1855777
11
56.6806535
21
106.0556777
0
LINE
8
DEFAULT_255_2_778
10
62.6588615
20
117.6634767
11
65.5787615
21
117.6634767
0
LINE
8
DEFAULT_255_2_778
10
65.5787615
20
117.6634767
11
65.9251615
21
117.3170767
0
LINE
8
DEFAULT_255_2_778
10
65.9251615
20
117.3170767
11
65.9251615
21
119.8798767
0
LINE
8
DEFAULT_255_2_778
10
65.9251615
20
119.8798767
11
65.5787615
21
119.5335767
0
LINE
8
DEFAULT_255_2_778
10
65.5787615
20
119.5335767
11
65.5787615
21
117.6634767
0
LINE
8
DEFAULT_255_2_778
10
65.9251615
20
117.3170767
11
62.3122615
21
117.3170767
0
LINE
8
DEFAULT_255_2_778
10
62.3122615
20
119.8798767
11
65.9251615
21
119.8798767
0
LINE
8
DEFAULT_255_2_778
10
65.5787615
20
119.5335767
11
62.6588615
21
119.5335767
0
LINE
8
DEFAULT_255_2_778
10
62.6588615
20
119.5335767
11
62.3125615
21
119.8798767
0
LINE
8
DEFAULT_255_2_778
10
62.3125615
20
119.8798767
11
62.3125615
21
117.3170767
0
LINE
8
DEFAULT_255_2_778
10
62.3125615
20
117.3170767
11
62.6588615
21
117.6634767
0
LINE
8
DEFAULT_255_2_778
10
62.6588615
20
117.6634767
11
62.6588615
21
119.5335767
0
LINE
8
DEFAULT_255_2_778
10
62.6588535
20
113.163413
11
65.5787535
21
113.163413
0
LINE
8
DEFAULT_255_2_778
10
65.5787535
20
113.163413
11
65.9251535
21
112.817113
0
LINE
8
DEFAULT_255_2_778
10
65.9251535
20
112.817113
11
65.9251535
21
115.379813
0
LINE
8
DEFAULT_255_2_778
10
65.9251535
20
115.379813
11
65.5787535
21
115.033513
0
LINE
8
DEFAULT_255_2_778
10
65.5787535
20
115.033513
11
65.5787535
21
113.163413
0
LINE
8
DEFAULT_255_2_778
10
65.9251535
20
112.817113
11
62.3122535
21
112.817113
0
LINE
8
DEFAULT_255_2_778
10
63.8896535
20
115.387513
11
65.9251535
21
115.379813
0
LINE
8
DEFAULT_255_2_778
10
65.5787535
20
115.033513
11
62.6588535
21
115.033513
0
LINE
8
DEFAULT_255_2_778
10
62.6588535
20
115.033513
11
62.3125535
21
115.379813
0
LINE
8
DEFAULT_255_2_778
10
62.3125535
20
115.379813
11
62.3125535
21
112.817113
0
LINE
8
DEFAULT_255_2_778
10
62.3125535
20
112.817113
11
62.6588535
21
113.163413
0
LINE
8
DEFAULT_255_2_778
10
62.6588535
20
113.163413
11
62.6588535
21
115.033513
0
LINE
8
DEFAULT_255_2_778
10
62.3125535
20
115.379813
11
63.9000535
21
115.387513
0
LINE
8
DEFAULT_255_2_778
10
62.6588615
20
108.6633777
11
65.5787615
21
108.6633777
0
LINE
8
DEFAULT_255_2_778
10
65.5787615
20
108.6633777
11
65.9251615
21
108.3169777
0
LINE
8
DEFAULT_255_2_778
10
65.9251615
20
108.3169777
11
65.9251615
21
110.8797777
0
LINE
8
DEFAULT_255_2_778
10
65.9251615
20
110.8797777
11
65.5787615
21
110.5334777
0
LINE
8
DEFAULT_255_2_778
10
65.5787615
20
110.5334777
11
65.5787615
21
108.6633777
0
LINE
8
DEFAULT_255_2_778
10
65.9251615
20
108.3169777
11
62.3122615
21
108.3169777
0
LINE
8
DEFAULT_255_2_778
10
62.3122615
20
110.8797777
11
65.9251615
21
110.8797777
0
LINE
8
DEFAULT_255_2_778
10
65.5787615
20
110.5334777
11
62.6588615
21
110.5334777
0
LINE
8
DEFAULT_255_2_778
10
62.6588615
20
110.5334777
11
62.3125615
21
110.8797777
0
LINE
8
DEFAULT_255_2_778
10
62.3125615
20
110.8797777
11
62.3125615
21
108.3169777
0
LINE
8
DEFAULT_255_2_778
10
62.3125615
20
108.3169777
11
62.6588615
21
108.6633777
0
LINE
8
DEFAULT_255_2_778
10
62.6588615
20
108.6633777
11
62.6588615
21
110.5334777
0
LINE
8
DEFAULT_255_2_778
10
62.6588615
20
104.1633756
11
65.5787615
21
104.1633756
0
LINE
8
DEFAULT_255_2_778
10
65.5787615
20
104.1633756
11
65.9251615
21
103.8169756
0
LINE
8
DEFAULT_255_2_778
10
65.9251615
20
103.8169756
11
65.9251615
21
106.3797756
0
LINE
8
DEFAULT_255_2_778
10
65.9251615
20
106.3797756
11
65.5787615
21
106.0334756
0
LINE
8
DEFAULT_255_2_778
10
65.5787615
20
106.0334756
11
65.5787615
21
104.1633756
0
LINE
8
DEFAULT_255_2_778
10
65.9251615
20
103.8169756
11
62.3122615
21
103.8169756
0
LINE
8
DEFAULT_255_2_778
10
62.3122615
20
106.3797756
11
65.9251615
21
106.3797756
0
LINE
8
DEFAULT_255_2_778
10
65.5787615
20
106.0334756
11
62.6588615
21
106.0334756
0
LINE
8
DEFAULT_255_2_778
10
62.6588615
20
106.0334756
11
62.3125615
21
106.3797756
0
LINE
8
DEFAULT_255_2_778
10
62.3125615
20
106.3797756
11
62.3125615
21
103.8169756
0
LINE
8
DEFAULT_255_2_778
10
62.3125615
20
103.8169756
11
62.6588615
21
104.1633756
0
LINE
8
DEFAULT_255_2_778
10
62.6588615
20
104.1633756
11
62.6588615
21
106.0334756
0
LINE
8
DEFAULT_255_2_778
10
68.6805535
20
117.6856767
11
71.6004535
21
117.6856767
0
LINE
8
DEFAULT_255_2_778
10
71.6004535
20
117.6856767
11
71.9468535
21
117.3392767
0
LINE
8
DEFAULT_255_2_778
10
71.9468535
20
117.3392767
11
71.9468535
21
119.9020767
0
LINE
8
DEFAULT_255_2_778
10
71.9468535
20
119.9020767
11
71.6004535
21
119.5557767
0
LINE
8
DEFAULT_255_2_778
10
71.6004535
20
119.5557767
11
71.6004535
21
117.6856767
0
LINE
8
DEFAULT_255_2_778
10
71.9468535
20
117.3392767
11
68.3339535
21
117.3392767
0
LINE
8
DEFAULT_255_2_778
10
68.3339535
20
119.9020767
11
71.9468535
21
119.9020767
0
LINE
8
DEFAULT_255_2_778
10
71.6004535
20
119.5557767
11
68.6805535
21
119.5557767
0
LINE
8
DEFAULT_255_2_778
10
68.6805535
20
119.5557767
11
68.3342535
21
119.9020767
0
LINE
8
DEFAULT_255_2_778
10
68.3342535
20
119.9020767
11
68.3342535
21
117.3392767
0
LINE
8
DEFAULT_255_2_778
10
68.3342535
20
117.3392767
11
68.6805535
21
117.6856767
0
LINE
8
DEFAULT_255_2_778
10
68.6805535
20
117.6856767
11
68.6805535
21
119.5557767
0
LINE
8
DEFAULT_255_2_778
10
68.6805535
20
113.185615
11
71.6004535
21
113.185615
0
LINE
8
DEFAULT_255_2_778
10
71.6004535
20
113.185615
11
71.9468535
21
112.839315
0
LINE
8
DEFAULT_255_2_778
10
71.9468535
20
112.839315
11
71.9468535
21
115.402015
0
LINE
8
DEFAULT_255_2_778
10
71.9468535
20
115.402015
11
71.6004535
21
115.055715
0
LINE
8
DEFAULT_255_2_778
10
71.6004535
20
115.055715
11
71.6004535
21
113.185615
0
LINE
8
DEFAULT_255_2_778
10
71.9468535
20
112.839315
11
68.3339535
21
112.839315
0
LINE
8
DEFAULT_255_2_778
10
69.9114535
20
115.409715
11
71.9468535
21
115.402015
0
LINE
8
DEFAULT_255_2_778
10
71.6004535
20
115.055715
11
68.6805535
21
115.055715
0
LINE
8
DEFAULT_255_2_778
10
68.6805535
20
115.055715
11
68.3342535
21
115.402015
0
LINE
8
DEFAULT_255_2_778
10
68.3342535
20
115.402015
11
68.3342535
21
112.839315
0
LINE
8
DEFAULT_255_2_778
10
68.3342535
20
112.839315
11
68.6805535
21
113.185615
0
LINE
8
DEFAULT_255_2_778
10
68.6805535
20
113.185615
11
68.6805535
21
115.055715
0
LINE
8
DEFAULT_255_2_778
10
68.3342535
20
115.402015
11
69.9217535
21
115.409715
0
LINE
8
DEFAULT_255_2_778
10
68.6805535
20
108.6856777
11
71.6004535
21
108.6856777
0
LINE
8
DEFAULT_255_2_778
10
71.6004535
20
108.6856777
11
71.9468535
21
108.3392777
0
LINE
8
DEFAULT_255_2_778
10
71.9468535
20
108.3392777
11
71.9468535
21
110.9020777
0
LINE
8
DEFAULT_255_2_778
10
71.9468535
20
110.9020777
11
71.6004535
21
110.5557777
0
LINE
8
DEFAULT_255_2_778
10
71.6004535
20
110.5557777
11
71.6004535
21
108.6856777
0
LINE
8
DEFAULT_255_2_778
10
71.9468535
20
108.3392777
11
68.3339535
21
108.3392777
0
LINE
8
DEFAULT_255_2_778
10
68.3339535
20
110.9020777
11
71.9468535
21
110.9020777
0
LINE
8
DEFAULT_255_2_778
10
71.6004535
20
110.5557777
11
68.6805535
21
110.5557777
0
LINE
8
DEFAULT_255_2_778
10
68.6805535
20
110.5557777
11
68.3342535
21
110.9020777
0
LINE
8
DEFAULT_255_2_778
10
68.3342535
20
110.9020777
11
68.3342535
21
108.3392777
0
LINE
8
DEFAULT_255_2_778
10
68.3342535
20
108.3392777
11
68.6805535
21
108.6856777
0
LINE
8
DEFAULT_255_2_778
10
68.6805535
20
108.6856777
11
68.6805535
21
110.5557777
0
LINE
8
DEFAULT_255_2_778
10
68.6805535
20
104.1855777
11
71.6004535
21
104.1855777
0
LINE
8
DEFAULT_255_2_778
10
71.6004535
20
104.1855777
11
71.9468535
21
103.8391777
0
LINE
8
DEFAULT_255_2_778
10
71.9468535
20
103.8391777
11
71.9468535
21
106.4019777
0
LINE
8
DEFAULT_255_2_778
10
71.9468535
20
106.4019777
11
71.6004535
21
106.0556777
0
LINE
8
DEFAULT_255_2_778
10
71.6004535
20
106.0556777
11
71.6004535
21
104.1855777
0
LINE
8
DEFAULT_255_2_778
10
71.9468535
20
103.8391777
11
68.3339535
21
103.8391777
0
LINE
8
DEFAULT_255_2_778
10
68.3339535
20
106.4019777
11
71.9468535
21
106.4019777
0
LINE
8
DEFAULT_255_2_778
10
71.6004535
20
106.0556777
11
68.6805535
21
106.0556777
0
LINE
8
DEFAULT_255_2_778
10
68.6805535
20
106.0556777
11
68.3342535
21
106.4019777
0
LINE
8
DEFAULT_255_2_778
10
68.3342535
20
106.4019777
11
68.3342535
21
103.8391777
0
LINE
8
DEFAULT_255_2_778
10
68.3342535
20
103.8391777
11
68.6805535
21
104.1855777
0
LINE
8
DEFAULT_255_2_778
10
68.6805535
20
104.1855777
11
68.6805535
21
106.0556777
0
LINE
8
DEFAULT_255_2_778
10
74.6587615
20
117.6634767
11
77.5786615
21
117.6634767
0
LINE
8
DEFAULT_255_2_778
10
77.5786615
20
117.6634767
11
77.9250615
21
117.3170767
0
LINE
8
DEFAULT_255_2_778
10
77.9250615
20
117.3170767
11
77.9250615
21
119.8798767
0
LINE
8
DEFAULT_255_2_778
10
77.9250615
20
119.8798767
11
77.5786615
21
119.5335767
0
LINE
8
DEFAULT_255_2_778
10
77.5786615
20
119.5335767
11
77.5786615
21
117.6634767
0
LINE
8
DEFAULT_255_2_778
10
77.9250615
20
117.3170767
11
74.3121615
21
117.3170767
0
LINE
8
DEFAULT_255_2_778
10
74.3121615
20
119.8798767
11
77.9250615
21
119.8798767
0
LINE
8
DEFAULT_255_2_778
10
77.5786615
20
119.5335767
11
74.6587615
21
119.5335767
0
LINE
8
DEFAULT_255_2_778
10
74.6587615
20
119.5335767
11
74.3124615
21
119.8798767
0
LINE
8
DEFAULT_255_2_778
10
74.3124615
20
119.8798767
11
74.3124615
21
117.3170767
0
LINE
8
DEFAULT_255_2_778
10
74.3124615
20
117.3170767
11
74.6587615
21
117.6634767
0
LINE
8
DEFAULT_255_2_778
10
74.6587615
20
117.6634767
11
74.6587615
21
119.5335767
0
LINE
8
DEFAULT_255_2_778
10
74.6587615
20
113.163413
11
77.5786615
21
113.163413
0
LINE
8
DEFAULT_255_2_778
10
77.5786615
20
113.163413
11
77.9250615
21
112.817113
0
LINE
8
DEFAULT_255_2_778
10
77.9250615
20
112.817113
11
77.9250615
21
115.379813
0
LINE
8
DEFAULT_255_2_778
10
77.9250615
20
115.379813
11
77.5786615
21
115.033513
0
LINE
8
DEFAULT_255_2_778
10
77.5786615
20
115.033513
11
77.5786615
21
113.163413
0
LINE
8
DEFAULT_255_2_778
10
77.9250615
20
112.817113
11
74.3121615
21
112.817113
0
LINE
8
DEFAULT_255_2_778
10
75.8895615
20
115.387513
11
77.9250615
21
115.379813
0
LINE
8
DEFAULT_255_2_778
10
77.5786615
20
115.033513
11
74.6587615
21
115.033513
0
LINE
8
DEFAULT_255_2_778
10
74.6587615
20
115.033513
11
74.3124615
21
115.379813
0
LINE
8
DEFAULT_255_2_778
10
74.3124615
20
115.379813
11
74.3124615
21
112.817113
0
LINE
8
DEFAULT_255_2_778
10
74.3124615
20
112.817113
11
74.6587615
21
113.163413
0
LINE
8
DEFAULT_255_2_778
10
74.6587615
20
113.163413
11
74.6587615
21
115.033513
0
LINE
8
DEFAULT_255_2_778
10
74.3124615
20
115.379813
11
75.8999615
21
115.387513
0
LINE
8
DEFAULT_255_2_778
10
74.6587615
20
108.6633777
11
77.5786615
21
108.6633777
0
LINE
8
DEFAULT_255_2_778
10
77.5786615
20
108.6633777
11
77.9250615
21
108.3169777
0
LINE
8
DEFAULT_255_2_778
10
77.9250615
20
108.3169777
11
77.9250615
21
110.8797777
0
LINE
8
DEFAULT_255_2_778
10
77.9250615
20
110.8797777
11
77.5786615
21
110.5334777
0
LINE
8
DEFAULT_255_2_778
10
77.5786615
20
110.5334777
11
77.5786615
21
108.6633777
0
LINE
8
DEFAULT_255_2_778
10
77.9250615
20
108.3169777
11
74.3121615
21
108.3169777
0
LINE
8
DEFAULT_255_2_778
10
74.3121615
20
110.8797777
11
77.9250615
21
110.8797777
0
LINE
8
DEFAULT_255_2_778
10
77.5786615
20
110.5334777
11
74.6587615
21
110.5334777
0
LINE
8
DEFAULT_255_2_778
10
74.6587615
20
110.5334777
11
74.3124615
21
110.8797777
0
LINE
8
DEFAULT_255_2_778
10
74.3124615
20
110.8797777
11
74.3124615
21
108.3169777
0
LINE
8
DEFAULT_255_2_778
10
74.3124615
20
108.3169777
11
74.6587615
21
108.6633777
0
LINE
8
DEFAULT_255_2_778
10
74.6587615
20
108.6633777
11
74.6587615
21
110.5334777
0
LINE
8
DEFAULT_255_2_778
10
74.6587615
20
104.1633756
11
77.5786615
21
104.1633756
0
LINE
8
DEFAULT_255_2_778
10
77.5786615
20
104.1633756
11
77.9250615
21
103.8169756
0
LINE
8
DEFAULT_255_2_778
10
77.9250615
20
103.8169756
11
77.9250615
21
106.3797756
0
LINE
8
DEFAULT_255_2_778
10
77.9250615
20
106.3797756
11
77.5786615
21
106.0334756
0
LINE
8
DEFAULT_255_2_778
10
77.5786615
20
106.0334756
11
77.5786615
21
104.1633756
0
LINE
8
DEFAULT_255_2_778
10
77.9250615
20
103.8169756
11
74.3121615
21
103.8169756
0
LINE
8
DEFAULT_255_2_778
10
74.3121615
20
106.3797756
11
77.9250615
21
106.3797756
0
LINE
8
DEFAULT_255_2_778
10
77.5786615
20
106.0334756
11
74.6587615
21
106.0334756
0
LINE
8
DEFAULT_255_2_778
10
74.6587615
20
106.0334756
11
74.3124615
21
106.3797756
0
LINE
8
DEFAULT_255_2_778
10
74.3124615
20
106.3797756
11
74.3124615
21
103.8169756
0
LINE
8
DEFAULT_255_2_778
10
74.3124615
20
103.8169756
11
74.6587615
21
104.1633756
0
LINE
8
DEFAULT_255_2_778
10
74.6587615
20
104.1633756
11
74.6587615
21
106.0334756
0
LINE
8
DEFAULT_255_2_778
10
80.6590535
20
117.6634767
11
83.5789535
21
117.6634767
0
LINE
8
DEFAULT_255_2_778
10
83.5789535
20
117.6634767
11
83.9253535
21
117.3170767
0
LINE
8
DEFAULT_255_2_778
10
83.9253535
20
117.3170767
11
83.9253535
21
119.8798767
0
LINE
8
DEFAULT_255_2_778
10
83.9253535
20
119.8798767
11
83.5789535
21
119.5335767
0
LINE
8
DEFAULT_255_2_778
10
83.5789535
20
119.5335767
11
83.5789535
21
117.6634767
0
LINE
8
DEFAULT_255_2_778
10
83.9253535
20
117.3170767
11
80.3124535
21
117.3170767
0
LINE
8
DEFAULT_255_2_778
10
80.3124535
20
119.8798767
11
83.9253535
21
119.8798767
0
LINE
8
DEFAULT_255_2_778
10
83.5789535
20
119.5335767
11
80.6590535
21
119.5335767
0
LINE
8
DEFAULT_255_2_778
10
80.6590535
20
119.5335767
11
80.3127535
21
119.8798767
0
LINE
8
DEFAULT_255_2_778
10
80.3127535
20
119.8798767
11
80.3127535
21
117.3170767
0
LINE
8
DEFAULT_255_2_778
10
80.3127535
20
117.3170767
11
80.6590535
21
117.6634767
0
LINE
8
DEFAULT_255_2_778
10
80.6590535
20
117.6634767
11
80.6590535
21
119.5335767
0
LINE
8
DEFAULT_255_2_778
10
80.6590535
20
113.163413
11
83.5789535
21
113.163413
0
LINE
8
DEFAULT_255_2_778
10
83.5789535
20
113.163413
11
83.9253535
21
112.817113
0
LINE
8
DEFAULT_255_2_778
10
83.9253535
20
112.817113
11
83.9253535
21
115.379813
0
LINE
8
DEFAULT_255_2_778
10
83.9253535
20
115.379813
11
83.5789535
21
115.033513
0
LINE
8
DEFAULT_255_2_778
10
83.5789535
20
115.033513
11
83.5789535
21
113.163413
0
LINE
8
DEFAULT_255_2_778
10
83.9253535
20
112.817113
11
80.3124535
21
112.817113
0
LINE
8
DEFAULT_255_2_778
10
81.8899535
20
115.387513
11
83.9253535
21
115.379813
0
LINE
8
DEFAULT_255_2_778
10
83.5789535
20
115.033513
11
80.6590535
21
115.033513
0
LINE
8
DEFAULT_255_2_778
10
80.6590535
20
115.033513
11
80.3127535
21
115.379813
0
LINE
8
DEFAULT_255_2_778
10
80.3127535
20
115.379813
11
80.3127535
21
112.817113
0
LINE
8
DEFAULT_255_2_778
10
80.3127535
20
112.817113
11
80.6590535
21
113.163413
0
LINE
8
DEFAULT_255_2_778
10
80.6590535
20
113.163413
11
80.6590535
21
115.033513
0
LINE
8
DEFAULT_255_2_778
10
80.3127535
20
115.379813
11
81.9002535
21
115.387513
0
LINE
8
DEFAULT_255_2_778
10
80.6590535
20
108.6633777
11
83.5789535
21
108.6633777
0
LINE
8
DEFAULT_255_2_778
10
83.5789535
20
108.6633777
11
83.9253535
21
108.3169777
0
LINE
8
DEFAULT_255_2_778
10
83.9253535
20
108.3169777
11
83.9253535
21
110.8797777
0
LINE
8
DEFAULT_255_2_778
10
83.9253535
20
110.8797777
11
83.5789535
21
110.5334777
0
LINE
8
DEFAULT_255_2_778
10
83.5789535
20
110.5334777
11
83.5789535
21
108.6633777
0
LINE
8
DEFAULT_255_2_778
10
83.9253535
20
108.3169777
11
80.3124535
21
108.3169777
0
LINE
8
DEFAULT_255_2_778
10
80.3124535
20
110.8797777
11
83.9253535
21
110.8797777
0
LINE
8
DEFAULT_255_2_778
10
83.5789535
20
110.5334777
11
80.6590535
21
110.5334777
0
LINE
8
DEFAULT_255_2_778
10
80.6590535
20
110.5334777
11
80.3127535
21
110.8797777
0
LINE
8
DEFAULT_255_2_778
10
80.3127535
20
110.8797777
11
80.3127535
21
108.3169777
0
LINE
8
DEFAULT_255_2_778
10
80.3127535
20
108.3169777
11
80.6590535
21
108.6633777
0
LINE
8
DEFAULT_255_2_778
10
80.6590535
20
108.6633777
11
80.6590535
21
110.5334777
0
LINE
8
DEFAULT_255_2_778
10
80.6590535
20
104.1633777
11
83.5789535
21
104.1633777
0
LINE
8
DEFAULT_255_2_778
10
83.5789535
20
104.1633777
11
83.9253535
21
103.8169777
0
LINE
8
DEFAULT_255_2_778
10
83.9253535
20
103.8169777
11
83.9253535
21
106.3797777
0
LINE
8
DEFAULT_255_2_778
10
83.9253535
20
106.3797777
11
83.5789535
21
106.0334777
0
LINE
8
DEFAULT_255_2_778
10
83.5789535
20
106.0334777
11
83.5789535
21
104.1633777
0
LINE
8
DEFAULT_255_2_778
10
83.9253535
20
103.8169777
11
80.3124535
21
103.8169777
0
LINE
8
DEFAULT_255_2_778
10
80.3124535
20
106.3797777
11
83.9253535
21
106.3797777
0
LINE
8
DEFAULT_255_2_778
10
83.5789535
20
106.0334777
11
80.6590535
21
106.0334777
0
LINE
8
DEFAULT_255_2_778
10
80.6590535
20
106.0334777
11
80.3127535
21
106.3797777
0
LINE
8
DEFAULT_255_2_778
10
80.3127535
20
106.3797777
11
80.3127535
21
103.8169777
0
LINE
8
DEFAULT_255_2_778
10
80.3127535
20
103.8169777
11
80.6590535
21
104.1633777
0
LINE
8
DEFAULT_255_2_778
10
80.6590535
20
104.1633777
11
80.6590535
21
106.0334777
0
LINE
8
DEFAULT_255_2_778
10
86.6372615
20
117.6412767
11
89.5571615
21
117.6412767
0
LINE
8
DEFAULT_255_2_778
10
89.5571615
20
117.6412767
11
89.9035615
21
117.2948767
0
LINE
8
DEFAULT_255_2_778
10
89.9035615
20
117.2948767
11
89.9035615
21
119.8576767
0
LINE
8
DEFAULT_255_2_778
10
89.9035615
20
119.8576767
11
89.5571615
21
119.5113767
0
LINE
8
DEFAULT_255_2_778
10
89.5571615
20
119.5113767
11
89.5571615
21
117.6412767
0
LINE
8
DEFAULT_255_2_778
10
89.9035615
20
117.2948767
11
86.2906615
21
117.2948767
0
LINE
8
DEFAULT_255_2_778
10
86.2906615
20
119.8576767
11
89.9035615
21
119.8576767
0
LINE
8
DEFAULT_255_2_778
10
89.5571615
20
119.5113767
11
86.6372615
21
119.5113767
0
LINE
8
DEFAULT_255_2_778
10
86.6372615
20
119.5113767
11
86.2909615
21
119.8576767
0
LINE
8
DEFAULT_255_2_778
10
86.2909615
20
119.8576767
11
86.2909615
21
117.2948767
0
LINE
8
DEFAULT_255_2_778
10
86.2909615
20
117.2948767
11
86.6372615
21
117.6412767
0
LINE
8
DEFAULT_255_2_778
10
86.6372615
20
117.6412767
11
86.6372615
21
119.5113767
0
LINE
8
DEFAULT_255_2_778
10
86.6372615
20
113.141215
11
89.5571615
21
113.141215
0
LINE
8
DEFAULT_255_2_778
10
89.5571615
20
113.141215
11
89.9035615
21
112.794915
0
LINE
8
DEFAULT_255_2_778
10
89.9035615
20
112.794915
11
89.9035615
21
115.357615
0
LINE
8
DEFAULT_255_2_778
10
89.9035615
20
115.357615
11
89.5571615
21
115.011315
0
LINE
8
DEFAULT_255_2_778
10
89.5571615
20
115.011315
11
89.5571615
21
113.141215
0
LINE
8
DEFAULT_255_2_778
10
89.9035615
20
112.794915
11
86.2906615
21
112.794915
0
LINE
8
DEFAULT_255_2_778
10
87.8680615
20
115.365315
11
89.9035615
21
115.357615
0
LINE
8
DEFAULT_255_2_778
10
89.5571615
20
115.011315
11
86.6372615
21
115.011315
0
LINE
8
DEFAULT_255_2_778
10
86.6372615
20
115.011315
11
86.2909615
21
115.357615
0
LINE
8
DEFAULT_255_2_778
10
86.2909615
20
115.357615
11
86.2909615
21
112.794915
0
LINE
8
DEFAULT_255_2_778
10
86.2909615
20
112.794915
11
86.6372615
21
113.141215
0
LINE
8
DEFAULT_255_2_778
10
86.6372615
20
113.141215
11
86.6372615
21
115.011315
0
LINE
8
DEFAULT_255_2_778
10
86.2909615
20
115.357615
11
87.8784615
21
115.365315
0
LINE
8
DEFAULT_255_2_778
10
86.6372615
20
108.6411777
11
89.5571615
21
108.6411777
0
LINE
8
DEFAULT_255_2_778
10
89.5571615
20
108.6411777
11
89.9035615
21
108.2947777
0
LINE
8
DEFAULT_255_2_778
10
89.9035615
20
108.2947777
11
89.9035615
21
110.8575777
0
LINE
8
DEFAULT_255_2_778
10
89.9035615
20
110.8575777
11
89.5571615
21
110.5112777
0
LINE
8
DEFAULT_255_2_778
10
89.5571615
20
110.5112777
11
89.5571615
21
108.6411777
0
LINE
8
DEFAULT_255_2_778
10
89.9035615
20
108.2947777
11
86.2906615
21
108.2947777
0
LINE
8
DEFAULT_255_2_778
10
86.2906615
20
110.8575777
11
89.9035615
21
110.8575777
0
LINE
8
DEFAULT_255_2_778
10
89.5571615
20
110.5112777
11
86.6372615
21
110.5112777
0
LINE
8
DEFAULT_255_2_778
10
86.6372615
20
110.5112777
11
86.2909615
21
110.8575777
0
LINE
8
DEFAULT_255_2_778
10
86.2909615
20
110.8575777
11
86.2909615
21
108.2947777
0
LINE
8
DEFAULT_255_2_778
10
86.2909615
20
108.2947777
11
86.6372615
21
108.6411777
0
LINE
8
DEFAULT_255_2_778
10
86.6372615
20
108.6411777
11
86.6372615
21
110.5112777
0
LINE
8
DEFAULT_255_2_778
10
86.637338
20
104.1411024
11
89.557238
21
104.1411024
0
LINE
8
DEFAULT_255_2_778
10
89.557238
20
104.1411024
11
89.903538
21
103.7948024
0
LINE
8
DEFAULT_255_2_778
10
89.903538
20
103.7948024
11
89.903538
21
106.3576024
0
LINE
8
DEFAULT_255_2_778
10
89.903538
20
106.3576024
11
89.557238
21
106.0112024
0
LINE
8
DEFAULT_255_2_778
10
89.557238
20
106.0112024
11
89.557238
21
104.1411024
0
LINE
8
DEFAULT_255_2_778
10
89.903538
20
103.7948024
11
86.290638
21
103.7948024
0
LINE
8
DEFAULT_255_2_778
10
86.290638
20
106.3576024
11
89.903538
21
106.3576024
0
LINE
8
DEFAULT_255_2_778
10
89.557238
20
106.0112024
11
86.637338
21
106.0112024
0
LINE
8
DEFAULT_255_2_778
10
86.637338
20
106.0112024
11
86.290938
21
106.3576024
0
LINE
8
DEFAULT_255_2_778
10
86.290938
20
106.3576024
11
86.290938
21
103.7948024
0
LINE
8
DEFAULT_255_2_778
10
86.290938
20
103.7948024
11
86.637338
21
104.1411024
0
LINE
8
DEFAULT_255_2_778
10
86.637338
20
104.1411024
11
86.637338
21
106.0112024
0
LINE
8
DEFAULT_255_2_778
10
8.065338
20
124.0886024
11
7.866638
21
124.0886024
0
LINE
8
DEFAULT_255_2_778
10
7.866638
20
124.0886024
11
7.370238
21
122.8387024
0
LINE
8
DEFAULT_255_2_778
10
7.370238
20
122.8387024
11
7.557338
21
122.8387024
0
LINE
8
DEFAULT_255_2_778
10
7.557338
20
122.8387024
11
7.699638
21
123.2234024
0
LINE
8
DEFAULT_255_2_778
10
7.699638
20
123.2234024
11
8.232538
21
123.2234024
0
LINE
8
DEFAULT_255_2_778
10
8.232538
20
123.2234024
11
8.374838
21
122.8387024
0
LINE
8
DEFAULT_255_2_778
10
8.374838
20
122.8387024
11
8.561938
21
122.8387024
0
LINE
8
DEFAULT_255_2_778
10
8.561938
20
122.8387024
11
8.065338
21
124.0886024
0
LINE
8
DEFAULT_255_2_778
10
7.965838
20
123.9444024
11
8.057638
21
123.6960024
0
LINE
8
DEFAULT_255_2_778
10
8.057638
20
123.6960024
11
8.179038
21
123.3673024
0
LINE
8
DEFAULT_255_2_778
10
8.179038
20
123.3673024
11
7.752338
21
123.3673024
0
LINE
8
DEFAULT_255_2_778
10
7.752338
20
123.3673024
11
7.880338
21
123.7134024
0
LINE
8
DEFAULT_255_2_778
10
7.880338
20
123.7134024
11
7.907638
21
123.7698024
0
LINE
8
DEFAULT_255_2_778
10
7.907638
20
123.7698024
11
7.930838
21
123.8272024
0
LINE
8
DEFAULT_255_2_778
10
7.930838
20
123.8272024
11
7.950438
21
123.8854024
0
LINE
8
DEFAULT_255_2_778
10
7.950438
20
123.8854024
11
7.965838
21
123.9444024
0
ARC
8
DEFAULT_255_2_778
10
9.1124772
20
123.3323645
40
0.7563992
50
75.8067487
51
90.9420726
0
ARC
8
DEFAULT_255_2_778
10
9.2073149
20
123.7070543
40
0.3698934
50
53.5953369
51
75.8177889
0
ARC
8
DEFAULT_255_2_778
10
9.2468898
20
123.7779089
40
0.289559
50
357.7929277
51
51.5767332
0
ARC
8
DEFAULT_255_2_778
10
9.0532743
20
123.7565907
40
0.4830666
50
359.9965197
51
1.2059747
0
ARC
8
DEFAULT_255_2_778
10
9.2944097
20
123.7534578
40
0.2419511
50
321.2641105
51
0.734972
0
ARC
8
DEFAULT_255_2_778
10
9.217506
20
123.8189875
40
0.342956
50
290.6479538
51
320.7637972
0
ARC
8
DEFAULT_255_2_778
10
9.2672489
20
123.1951052
40
0.3112085
50
38.9304586
51
76.7759375
0
ARC
8
DEFAULT_255_2_778
10
9.2777514
20
123.2089473
40
0.29437
50
358.6596207
51
38.1191142
0
ARC
8
DEFAULT_255_2_778
10
9.2497787
20
123.1869597
40
0.3226158
50
309.6505224
51
2.6829977
0
ARC
8
DEFAULT_255_2_778
10
9.1922852
20
123.2763427
40
0.4283134
50
276.9812182
51
307.942235
0
ARC
8
DEFAULT_255_2_778
10
9.1303589
20
123.6155333
40
0.7727812
50
269.7169196
51
278.4820729
0
ARC
8
DEFAULT_255_2_778
10
9.1435938
20
123.2861749
40
0.3090021
50
267.523302
51
301.573435
0
ARC
8
DEFAULT_255_2_778
10
9.182769
20
123.2061838
40
0.2205045
50
303.7843162
51
309.8760733
0
ARC
8
DEFAULT_255_2_778
10
9.1929152
20
123.1910061
40
0.202361
50
310.426602
51
2.7631395
0
ARC
8
DEFAULT_255_2_778
10
9.1782328
20
123.2147745
40
0.2172604
50
356.3019152
51
41.7691882
0
ARC
8
DEFAULT_255_2_778
10
9.178865
20
123.1853197
40
0.2374677
50
47.1793234
51
86.0244302
0
ARC
8
DEFAULT_255_2_778
10
9.1347866
20
122.9218186
40
0.5040465
50
83.1013985
51
90.2211682
0
ARC
8
DEFAULT_255_2_778
10
9.1189775
20
123.8579752
40
0.3009095
50
267.4597657
51
302.166308
0
ARC
8
DEFAULT_255_2_778
10
9.1565874
20
123.7821665
40
0.2168816
50
304.4181989
51
308.0428614
0
ARC
8
DEFAULT_255_2_778
10
9.1841979
20
123.7512753
40
0.1755591
50
307.1590591
51
2.0846334
0
ARC
8
DEFAULT_255_2_778
10
9.1884744
20
123.7724935
40
0.1718079
50
355.0475026
51
51.4516034
0
ARC
8
DEFAULT_255_2_778
10
9.1479428
20
123.680458
40
0.270266
50
56.8986473
51
86.3427414
0
ARC
8
DEFAULT_255_2_778
10
9.1025131
20
123.3552953
40
0.5981701
50
83.9861744
51
90.2080654
0
LINE
8
DEFAULT_255_2_778
10
9.1267409
20
122.8429614
11
8.6637409
21
122.8429614
0
LINE
8
DEFAULT_255_2_778
10
8.6637409
20
122.8429614
11
8.6637409
21
124.0886614
0
LINE
8
DEFAULT_255_2_778
10
8.6637409
20
124.0886614
11
9.1000409
21
124.0886614
0
LINE
8
DEFAULT_255_2_778
10
9.1265409
20
122.8427614
11
9.1267409
21
122.8429614
0
LINE
8
DEFAULT_255_2_778
10
9.1331409
20
123.4256614
11
8.8397409
21
123.4256614
0
LINE
8
DEFAULT_255_2_778
10
8.8397409
20
123.4256614
11
8.8397409
21
122.9774614
0
LINE
8
DEFAULT_255_2_778
10
8.8397409
20
122.9774614
11
9.1302409
21
122.9774614
0
LINE
8
DEFAULT_255_2_778
10
9.1328409
20
123.4258614
11
9.1331409
21
123.4256614
0
LINE
8
DEFAULT_255_2_778
10
8.8397409
20
123.9534614
11
8.8397409
21
123.5573614
0
LINE
8
DEFAULT_255_2_778
10
8.8397409
20
123.5573614
11
9.1056409
21
123.5573614
0
LINE
8
DEFAULT_255_2_778
10
9.1003409
20
123.9534614
11
8.8399409
21
123.9534614
0
LINE
8
DEFAULT_255_2_778
10
8.8399409
20
123.9534614
11
8.8397409
21
123.9534614
0
LINE
8
DEFAULT_255_2_778
10
8.9994543
20
124.672581
11
7.9139543
21
124.672581
0
LINE
8
DEFAULT_255_2_778
10
7.9139543
20
124.672581
11
7.1463543
21
123.904981
0
LINE
8
DEFAULT_255_2_778
10
7.1463543
20
123.904981
11
7.1463543
21
122.819481
0
LINE
8
DEFAULT_255_2_778
10
7.1463543
20
122.819481
11
7.3394543
21
122.626281
0
LINE
8
DEFAULT_255_2_778
10
7.3394543
20
122.626281
11
9.5738543
21
122.626281
0
LINE
8
DEFAULT_255_2_778
10
9.5738543
20
122.626281
11
9.7670543
21
122.819481
0
LINE
8
DEFAULT_255_2_778
10
9.7670543
20
122.819481
11
9.7670543
21
123.904981
0
LINE
8
DEFAULT_255_2_778
10
9.7670543
20
123.904981
11
8.9994543
21
124.672581
0
LINE
8
DEFAULT_255_2_778
10
9.4955543
20
122.547681
11
7.4175543
21
122.547681
0
LINE
8
DEFAULT_255_2_778
10
7.4175543
20
122.547681
11
7.9136543
21
122.051581
0
LINE
8
DEFAULT_255_2_778
10
7.9136543
20
122.051581
11
8.9992543
21
122.051581
0
LINE
8
DEFAULT_255_2_778
10
8.9992543
20
122.051581
11
9.4955543
21
122.547681
0
LINE
8
DEFAULT_255_2_778
10
16.5242543
20
123.088781
11
15.9474543
21
123.088781
0
LINE
8
DEFAULT_255_2_778
10
15.9474543
20
123.088781
11
15.9090543
21
122.915781
0
LINE
8
DEFAULT_255_2_778
10
15.9090543
20
122.915781
11
16.4858543
21
122.915781
0
LINE
8
DEFAULT_255_2_778
10
16.4858543
20
122.915781
11
16.5242543
21
123.088781
0
LINE
8
DEFAULT_255_2_778
10
21.4505993
20
123.9732623
11
21.2743993
21
123.9732623
0
LINE
8
DEFAULT_255_2_778
10
21.2743993
20
123.9732623
11
20.9679993
21
122.4733623
0
LINE
8
DEFAULT_255_2_778
10
20.9679993
20
122.4733623
11
21.1441993
21
122.4733623
0
LINE
8
DEFAULT_255_2_778
10
21.1441993
20
122.4733623
11
21.4505993
21
123.9732623
0
LINE
8
DEFAULT_255_2_778
10
13.6042993
20
123.9732623
11
13.4280993
21
123.9732623
0
LINE
8
DEFAULT_255_2_778
10
13.4280993
20
123.9732623
11
13.1216993
21
122.4733623
0
LINE
8
DEFAULT_255_2_778
10
13.1216993
20
122.4733623
11
13.2978993
21
122.4733623
0
LINE
8
DEFAULT_255_2_778
10
13.2978993
20
122.4733623
11
13.6042993
21
123.9732623
0
LINE
8
DEFAULT_255_2_778
10
13.1428993
20
123.9732623
11
12.9666993
21
123.9732623
0
LINE
8
DEFAULT_255_2_778
10
12.9666993
20
123.9732623
11
12.6602993
21
122.4733623
0
LINE
8
DEFAULT_255_2_778
10
12.6602993
20
122.4733623
11
12.8364993
21
122.4733623
0
LINE
8
DEFAULT_255_2_778
10
12.8364993
20
122.4733623
11
13.1428993
21
123.9732623
0
LINE
8
DEFAULT_255_2_778
10
13.8342171
20
123.1274613
11
14.4592171
21
123.1274613
0
ARC
8
DEFAULT_255_2_778
10
13.857041
20
123.0930202
40
0.6031602
50
3.2734311
51
19.770907
0
ARC
8
DEFAULT_255_2_778
10
14.2167726
20
123.2357834
40
0.2167131
50
16.4205899
51
92.0244299
0
ARC
8
DEFAULT_255_2_778
10
14.2104593
20
123.1074198
40
0.344944
50
90.2229372
51
148.9322933
0
ARC
8
DEFAULT_255_2_778
10
14.5442422
20
122.8640217
40
0.7573215
50
146.1898049
51
159.6437137
0
LINE
8
DEFAULT_255_2_778
10
13.8342171
20
122.9773613
11
14.6092171
21
122.9773613
0
ARC
8
DEFAULT_255_2_778
10
13.4383375
20
123.1830556
40
1.18881
50
350.0362292
51
354.5203736
0
ARC
8
DEFAULT_255_2_778
10
13.7190218
20
123.1563791
40
0.9068611
50
354.5046779
51
359.8760669
0
ARC
8
DEFAULT_255_2_778
10
14.067813
20
123.1651544
40
0.5581713
50
358.8977969
51
19.2674236
0
ARC
8
DEFAULT_255_2_778
10
14.2511463
20
123.2217906
40
0.3664855
50
20.3668717
51
76.1345947
0
ARC
8
DEFAULT_255_2_778
10
14.1451229
20
122.9139558
40
0.6913734
50
73.7169922
51
84.6890467
0
ARC
8
DEFAULT_255_2_778
10
14.2708455
20
122.8522655
40
0.7526314
50
94.7044961
51
115.5029446
0
ARC
8
DEFAULT_255_2_778
10
14.1937014
20
123.0411428
40
0.5490673
50
116.7234385
51
165.3013806
0
ARC
8
DEFAULT_255_2_778
10
14.5274891
20
122.9217152
40
0.9027608
50
163.3445734
51
171.685443
0
ARC
8
DEFAULT_255_2_778
10
14.9598832
20
122.8775115
40
1.3371343
50
172.4905476
51
175.905777
0
ARC
8
DEFAULT_255_2_778
10
14.6705847
20
122.8980186
40
1.0471098
50
175.8948175
51
179.9147859
0
ARC
8
DEFAULT_255_2_778
10
14.2614447
20
122.8888026
40
0.6380594
50
179.0325456
51
195.7044668
0
ARC
8
DEFAULT_255_2_778
10
13.948849
20
122.7942766
40
0.3116122
50
194.5303112
51
263.9260547
0
ARC
8
DEFAULT_255_2_778
10
14.0062407
20
123.0592113
40
0.5818573
50
261.0656514
51
270.2832434
0
ARC
8
DEFAULT_255_2_778
10
14.0913707
20
123.0833314
40
0.6115272
50
262.2699862
51
269.8680831
0
ARC
8
DEFAULT_255_2_778
10
14.0943594
20
122.9301753
40
0.4583907
50
269.4504437
51
329.3485959
0
ARC
8
DEFAULT_255_2_778
10
13.7740961
20
123.1659104
40
0.8550034
50
326.6990007
51
336.6739908
0
LINE
8
DEFAULT_255_2_778
10
14.5592171
20
122.8273613
11
14.3843171
21
122.8273613
0
ARC
8
DEFAULT_255_2_778
10
14.0914354
20
122.907255
40
0.3035831
50
270.7788285
51
344.7418011
0
ARC
8
DEFAULT_255_2_778
10
14.0598718
20
123.1170344
40
0.5145735
50
269.9493734
51
273.9771564
0
ARC
8
DEFAULT_255_2_778
10
14.0758157
20
122.9235832
40
0.3215404
50
241.2091555
51
267.0766442
0
ARC
8
DEFAULT_255_2_778
10
14.0313998
20
122.8212856
40
0.2107511
50
180.6764257
51
238.3962532
0
ARC
8
DEFAULT_255_2_778
10
14.2120333
20
122.8496566
40
0.3925847
50
179.9275942
51
184.5083706
0
ARC
8
DEFAULT_255_2_778
10
14.3531593
20
122.8474354
40
0.5337171
50
171.6910356
51
179.7082906
0
ARC
8
DEFAULT_255_2_778
10
14.5700526
20
122.8181453
40
0.7525703
50
167.7860433
51
171.8707733
0
ARC
8
DEFAULT_255_2_778
10
-38.4705059
20
134.466864
40
55.1978718
50
347.4548132
51
347.5976343
0
ARC
8
DEFAULT_255_2_778
10
-99.7284641
20
147.9526921
40
117.9227066
50
347.5906392
51
347.655054
0
ARC
8
DEFAULT_255_2_778
10
-199.4284025
20
169.7687139
40
219.9815941
50
347.6560775
51
347.7179449
0
ARC
8
DEFAULT_255_2_778
10
-378.0577823
20
208.6669442
40
402.7971504
50
347.7166483
51
347.7579096
0
ARC
8
DEFAULT_255_2_778
10
-1129.6009386
20
371.7541778
40
1171.8319749
50
347.7569608
51
347.7579984
0
ARC
8
DEFAULT_255_2_778
10
15.3302004
20
123.2893091
40
0.2544926
50
357.3316386
51
24.2674394
0
ARC
8
DEFAULT_255_2_778
10
15.4670709
20
123.3461956
40
0.1064271
50
26.6333672
51
94.0161152
0
ARC
8
DEFAULT_255_2_778
10
15.4263921
20
123.1245699
40
0.3294709
50
84.2122447
51
89.9453028
0
ARC
8
DEFAULT_255_2_778
10
15.4300475
20
123.1586601
40
0.2953997
50
90.6480186
51
146.5139852
0
ARC
8
DEFAULT_255_2_778
10
15.746597
20
122.9147426
40
0.6945825
50
144.1391535
51
159.6357903
0
ARC
8
DEFAULT_255_2_778
10
16.0955481
20
122.7669905
40
1.0732757
50
158.7235637
51
160.3751323
0
ARC
8
DEFAULT_255_2_778
10
16.632563
20
122.6257205
40
1.6272308
50
162.0407659
51
165.5946874
0
ARC
8
DEFAULT_255_2_778
10
19.2310542
20
121.9393565
40
4.3148182
50
165.3512464
51
166.7385919
0
ARC
8
DEFAULT_255_2_778
10
24.0512969
20
120.8057903
40
9.266556
50
166.7534162
51
167.9649137
0
ARC
8
DEFAULT_255_2_778
10
33.4432011
20
118.7931436
40
18.8716882
50
167.9342588
51
168.6863904
0
ARC
8
DEFAULT_255_2_778
10
40.1896826
20
117.4265743
40
25.75517
50
168.6496932
51
168.6905608
0
LINE
8
DEFAULT_255_2_778
10
14.9346171
20
122.4773613
11
14.7597171
21
122.4773613
0
ARC
8
DEFAULT_255_2_778
10
35.4580128
20
119.2012673
40
20.9559595
50
169.960023
51
171.0059248
0
ARC
8
DEFAULT_255_2_778
10
42.7115968
20
117.923488
40
28.3212273
50
169.2599467
51
169.9728568
0
ARC
8
DEFAULT_255_2_778
10
50.6133431
20
116.4263188
40
36.3635595
50
168.6589546
51
169.2624282
0
LINE
8
DEFAULT_255_2_778
10
14.9598171
20
123.5771613
11
15.1598171
21
123.5771613
0
ARC
8
DEFAULT_255_2_778
10
12.7189027
20
124.1808123
40
2.5144497
50
341.9654158
51
346.1091622
0
ARC
8
DEFAULT_255_2_778
10
15.4677179
20
123.1785768
40
0.4221048
50
91.1033458
51
147.9835204
0
ARC
8
DEFAULT_255_2_778
10
15.5091911
20
122.9017774
40
0.7005841
50
89.9488042
51
94.0599214
0
ARC
8
DEFAULT_255_2_778
10
15.5208101
20
123.3060617
40
0.2965034
50
62.814694
51
92.1247506
0
ARC
8
DEFAULT_255_2_778
10
15.5459483
20
123.3844776
40
0.2156856
50
6.7610541
51
59.2355586
0
ARC
8
DEFAULT_255_2_778
10
15.3057711
20
123.3301786
40
0.4612985
50
359.5925582
51
9.9480158
0
ARC
8
DEFAULT_255_2_778
10
15.0673211
20
123.3288508
40
0.6997395
50
354.3679118
51
359.8401254
0
ARC
8
DEFAULT_255_2_778
10
14.875407
20
123.3458401
40
0.8923967
50
352.3770902
51
354.4916468
0
ARC
8
DEFAULT_255_2_778
10
7.271756
20
124.8043216
40
8.6333868
50
345.5877135
51
349.4760343
0
ARC
8
DEFAULT_255_2_778
10
8.5696723
20
124.4803777
40
7.2956931
50
344.0649325
51
345.5146856
0
LINE
8
DEFAULT_255_2_778
10
15.5850171
20
122.4773613
11
15.4101171
21
122.4773613
0
ARC
8
DEFAULT_255_2_778
10
10.85884
20
124.1528476
40
7.3214764
50
346.7194383
51
347.669922
0
ARC
8
DEFAULT_255_2_778
10
0.4541791
20
126.4362969
40
17.9737566
50
347.6414457
51
348.2068281
0
ARC
8
DEFAULT_255_2_778
10
-15.1855585
20
129.7153335
40
33.9535369
50
348.1842467
51
348.4614642
0
ARC
8
DEFAULT_255_2_778
10
-38.8201023
20
134.5368369
40
58.0748665
50
348.4649008
51
348.7375508
0
ARC
8
DEFAULT_255_2_778
10
-78.1827848
20
142.3827195
40
98.2118646
50
348.7333931
51
348.9238077
0
ARC
8
DEFAULT_255_2_778
10
-109.5028776
20
148.5295839
40
130.1294455
50
348.9170581
51
348.9394617
0
LINE
8
DEFAULT_255_2_778
10
18.2094171
20
123.5647613
11
18.3906171
21
123.5647613
0
ARC
8
DEFAULT_255_2_778
10
75.0766002
20
107.8181634
40
58.8324403
50
164.4754278
51
164.6210015
0
ARC
8
DEFAULT_255_2_778
10
44.8715679
20
116.1320724
40
27.5040986
50
164.6329872
51
164.7131771
0
ARC
8
DEFAULT_255_2_778
10
18.8448996
20
123.0287464
40
0.6165991
50
127.4268067
51
144.8696496
0
ARC
8
DEFAULT_255_2_778
10
18.6861221
20
123.2393476
40
0.3528628
50
90.3709181
51
127.7357039
0
ARC
8
DEFAULT_255_2_778
10
18.6809156
20
123.1911421
40
0.4010714
50
72.5278402
51
89.582538
0
ARC
8
DEFAULT_255_2_778
10
18.65927
20
123.1089453
40
0.4859916
50
72.0040274
51
73.0031967
0
ARC
8
DEFAULT_255_2_778
10
10.4724514
20
126.9047116
40
8.9787279
50
336.9543647
51
338.2059135
0
ARC
8
DEFAULT_255_2_778
10
18.6163307
20
123.3263041
40
0.1342803
50
28.2498574
51
70.1645234
0
ARC
8
DEFAULT_255_2_778
10
18.6348903
20
123.3613387
40
0.0951897
50
73.5193861
51
90.1644273
0
ARC
8
DEFAULT_255_2_778
10
18.6385972
20
123.3160815
40
0.1405028
50
91.6232481
51
118.2394986
0
ARC
8
DEFAULT_255_2_778
10
18.7350086
20
123.0712586
40
0.4029908
50
113.8414083
51
149.9284758
0
ARC
8
DEFAULT_255_2_778
10
19.1116001
20
122.8336347
40
0.8481312
50
148.7842109
51
163.5224423
0
ARC
8
DEFAULT_255_2_778
10
19.6226833
20
122.664143
40
1.3864107
50
162.7964244
51
166.9430034
0
ARC
8
DEFAULT_255_2_778
10
51.9299106
20
115.3142318
40
34.519134
50
167.1736715
51
167.8390352
0
ARC
8
DEFAULT_255_2_778
10
45.0747795
20
116.7995839
40
27.5049331
50
167.8555467
51
168.1135284
0
LINE
8
DEFAULT_255_2_778
10
18.1596171
20
122.4648613
11
17.9847171
21
122.4648613
0
ARC
8
DEFAULT_255_2_778
10
20.7206581
20
122.5571943
40
1.1454641
50
172.7242566
51
176.522372
0
ARC
8
DEFAULT_255_2_778
10
20.2474043
20
122.5871361
40
0.6712666
50
176.6230552
51
179.8757839
0
ARC
8
DEFAULT_255_2_778
10
19.8532628
20
122.5810514
40
0.277226
50
178.441492
51
193.7404584
0
ARC
8
DEFAULT_255_2_778
10
19.6394844
20
122.5251359
40
0.0563956
50
190.1438474
51
237.9014549
0
LINE
8
DEFAULT_255_2_778
10
19.6095171
20
122.4773613
11
19.4095171
21
122.4773613
0
LINE
8
DEFAULT_255_2_778
10
19.4095171
20
122.4773613
11
19.4095171
21
122.6273613
0
ARC
8
DEFAULT_255_2_778
10
19.0989269
20
122.8452137
40
0.3793757
50
284.1258887
51
324.9536283
0
ARC
8
DEFAULT_255_2_778
10
18.9934692
20
123.1663332
40
0.7169209
50
275.2859967
51
286.036204
0
ARC
8
DEFAULT_255_2_778
10
19.014193
20
122.9407171
40
0.490355
50
270.0877411
51
275.3034908
0
ARC
8
DEFAULT_255_2_778
10
18.9991927
20
122.7344982
40
0.2845719
50
199.7706171
51
273.1729785
0
ARC
8
DEFAULT_255_2_778
10
19.2048052
20
122.8361225
40
0.5131029
50
195.0994932
51
202.6845983
0
ARC
8
DEFAULT_255_2_778
10
19.1649706
20
122.7740285
40
0.4611408
50
181.0786885
51
188.9281695
0
ARC
8
DEFAULT_255_2_778
10
19.1015808
20
122.7715775
40
0.397718
50
180.0019626
51
180.8975672
0
ARC
8
DEFAULT_255_2_778
10
18.9973839
20
122.7779941
40
0.2935915
50
109.63225
51
181.2549984
0
ARC
8
DEFAULT_255_2_778
10
19.1831199
20
122.395884
40
0.7174052
50
99.9210765
51
113.3531442
0
ARC
8
DEFAULT_255_2_778
10
19.0461635
20
125.03733
40
1.9348149
50
270.3954428
51
282.2413272
0
ARC
8
DEFAULT_255_2_778
10
18.960781
20
125.5075713
40
2.4125229
50
281.8550667
51
282.5357747
0
LINE
8
DEFAULT_255_2_778
10
19.4844171
20
123.1525613
11
19.5093171
21
123.2525613
0
ARC
8
DEFAULT_255_2_778
10
19.2920432
20
123.2654185
40
0.217654
50
356.6134638
51
34.685798
0
ARC
8
DEFAULT_255_2_778
10
19.3337326
20
123.2705333
40
0.1815151
50
40.8588363
51
91.2524971
0
ARC
8
DEFAULT_255_2_778
10
19.3094878
20
123.0827326
40
0.3698287
50
86.8569874
51
90.0419404
0
ARC
8
DEFAULT_255_2_778
10
19.2961721
20
123.0501994
40
0.4025733
50
88.143055
51
116.1725644
0
ARC
8
DEFAULT_255_2_778
10
19.2541415
20
123.160779
40
0.2850073
50
118.395107
51
161.2139772
0
LINE
8
DEFAULT_255_2_778
10
18.9843171
20
123.2525613
11
18.8094171
21
123.2525613
0
ARC
8
DEFAULT_255_2_778
10
19.1559301
20
123.2184239
40
0.3481905
50
130.276895
51
174.3735643
0
ARC
8
DEFAULT_255_2_778
10
19.1880408
20
123.1494197
40
0.4220743
50
98.9782515
51
127.5457119
0
ARC
8
DEFAULT_255_2_778
10
19.2663409
20
122.7635999
40
0.8155663
50
89.549711
51
100.1817623
0
ARC
8
DEFAULT_255_2_778
10
19.271885
20
122.4168828
40
1.1622584
50
87.1116319
51
89.9573394
0
ARC
8
DEFAULT_255_2_778
10
19.2695532
20
122.351599
40
1.2275771
50
86.9711396
51
87.1564763
0
ARC
8
DEFAULT_255_2_778
10
19.26831
20
122.9298639
40
0.6509627
50
69.4514137
51
84.1714043
0
ARC
8
DEFAULT_255_2_778
10
19.4018116
20
123.2677352
40
0.2878006
50
34.6833721
51
70.7284713
0
ARC
8
DEFAULT_255_2_778
10
19.4123491
20
123.2911787
40
0.2661269
50
358.3714143
51
31.8227349
0
ARC
8
DEFAULT_255_2_778
10
19.2274571
20
123.286162
40
0.4509184
50
349.8322676
51
359.6763948
0
ARC
8
DEFAULT_255_2_778
10
19.0559881
20
123.3147034
40
0.6247367
50
344.9574283
51
350.0318732
0
ARC
8
DEFAULT_255_2_778
10
-401.4394143
20
193.0679484
40
426.8633305
50
350.5549461
51
350.5731256
0
ARC
8
DEFAULT_255_2_778
10
-878.6908489
20
272.4481532
40
910.6712973
50
350.546649
51
350.5558072
0
ARC
8
DEFAULT_255_2_778
10
-1549.3623457
20
384.1139635
40
1590.5753418
50
350.540507
51
350.5468212
0
ARC
8
DEFAULT_255_2_778
10
19.1452218
20
124.0126528
40
1.034396
50
272.1621848
51
287.6886472
0
ARC
8
DEFAULT_255_2_778
10
19.1103962
20
124.4665818
40
1.4894208
50
269.9661834
51
272.8421259
0
ARC
8
DEFAULT_255_2_778
10
19.1313523
20
122.643518
40
0.334357
50
93.7443732
51
118.6459604
0
ARC
8
DEFAULT_255_2_778
10
19.0650895
20
122.779667
40
0.1832448
50
120.8718405
51
184.0857197
0
ARC
8
DEFAULT_255_2_778
10
19.2382678
20
122.7675289
40
0.3559586
50
180.1477459
51
186.5278632
0
ARC
8
DEFAULT_255_2_778
10
19.0598737
20
122.7713336
40
0.180762
50
194.177144
51
274.8841898
0
ARC
8
DEFAULT_255_2_778
10
19.0832719
20
122.9563467
40
0.3652066
50
268.7435899
51
270.0046059
0
ARC
8
DEFAULT_255_2_778
10
19.0802733
20
123.0686064
40
0.4774758
50
270.363349
51
279.098189
0
ARC
8
DEFAULT_255_2_778
10
19.0548135
20
123.2492419
40
0.6598734
50
278.8009024
51
281.3446254
0
ARC
8
DEFAULT_255_2_778
10
19.0309057
20
122.9930757
40
0.4199561
50
291.4702353
51
351.5163498
0
ARC
8
DEFAULT_255_2_778
10
18.7031054
20
123.0825881
40
0.7584398
50
348.4800493
51
355.8090835
0
ARC
8
DEFAULT_255_2_778
10
20.4131045
20
123.1358589
40
0.3165238
50
90.667491
51
146.6691516
0
ARC
8
DEFAULT_255_2_778
10
20.75855
20
122.8712714
40
0.7511815
50
144.2846627
51
159.900819
0
ARC
8
DEFAULT_255_2_778
10
21.1801909
20
122.6966028
40
1.20732
50
158.9926531
51
161.6115519
0
ARC
8
DEFAULT_255_2_778
10
21.1365499
20
122.8797988
40
1.119619
50
169.8314534
51
174.5865881
0
ARC
8
DEFAULT_255_2_778
10
20.8160049
20
122.9102673
40
0.7976293
50
174.5931979
51
179.8530541
0
ARC
8
DEFAULT_255_2_778
10
20.4662506
20
122.9024179
40
0.4479816
50
178.7343346
51
198.4813884
0
ARC
8
DEFAULT_255_2_778
10
20.2639278
20
122.8354914
40
0.2348788
50
198.642571
51
262.806735
0
ARC
8
DEFAULT_255_2_778
10
20.2687262
20
122.973437
40
0.3725497
50
264.7314313
51
269.9501731
0
ARC
8
DEFAULT_255_2_778
10
20.2667173
20
122.9201976
40
0.3193146
50
270.3023364
51
328.2860668
0
ARC
8
DEFAULT_255_2_778
10
19.9244346
20
123.1685659
40
0.7417136
50
325.8634611
51
341.2589853
0
ARC
8
DEFAULT_255_2_778
10
19.5702341
20
123.3072714
40
1.1218367
50
340.3626163
51
341.5675178
0
ARC
8
DEFAULT_255_2_778
10
19.3376997
20
123.1594956
40
1.3132239
50
350.9336954
51
354.9105066
0
ARC
8
DEFAULT_255_2_778
10
19.7088553
20
123.1268627
40
0.9406369
50
354.8848266
51
359.8528563
0
ARC
8
DEFAULT_255_2_778
10
20.1242548
20
123.1344116
40
0.5253288
50
358.9131305
51
15.9155685
0
ARC
8
DEFAULT_255_2_778
10
20.4053336
20
123.2213159
40
0.231285
50
14.3062679
51
88.9387935
0
ARC
8
DEFAULT_255_2_778
10
20.4274606
20
123.3289427
40
0.2671434
50
15.9517833
51
82.3746157
0
ARC
8
DEFAULT_255_2_778
10
20.3509545
20
123.0703514
40
0.5352126
50
77.9258024
51
83.7289225
0
ARC
8
DEFAULT_255_2_778
10
20.3952147
20
123.0705724
40
0.5319785
50
88.4701785
51
118.4885613
0
ARC
8
DEFAULT_255_2_778
10
20.3939433
20
123.1143767
40
0.4932686
50
120.7863183
51
156.8878226
0
ARC
8
DEFAULT_255_2_778
10
20.8090216
20
122.9199862
40
0.9514686
50
155.9329235
51
170.7403924
0
ARC
8
DEFAULT_255_2_778
10
21.2777784
20
122.8254895
40
1.4294336
50
170.0253511
51
172.896298
0
ARC
8
DEFAULT_255_2_778
10
21.2720411
20
122.9900324
40
1.4127769
50
179.5040478
51
188.3994241
0
ARC
8
DEFAULT_255_2_778
10
20.5092101
20
122.871934
40
0.6409
50
187.9164327
51
204.092289
0
ARC
8
DEFAULT_255_2_778
10
20.1569074
20
122.7009032
40
0.2497747
50
201.2651651
51
264.7878884
0
ARC
8
DEFAULT_255_2_778
10
20.1838098
20
122.8996835
40
0.4502617
50
263.6765008
51
269.9735069
0
ARC
8
DEFAULT_255_2_778
10
20.1760678
20
122.9287667
40
0.4794042
50
270.9004391
51
308.0864176
0
ARC
8
DEFAULT_255_2_778
10
20.0104989
20
123.1723525
40
0.7735143
50
306.6092871
51
315.174255
0
ARC
8
DEFAULT_255_2_778
10
-6.2515436
20
131.4806148
40
28.2346762
50
341.4046231
51
341.7254793
0
LINE
8
DEFAULT_255_2_778
10
20.5091171
20
122.4770613
11
20.6840171
21
122.4770613
0
ARC
8
DEFAULT_255_2_778
10
-50.8070406
20
137.6441423
40
73.0822255
50
348.022095
51
348.5006508
0
ARC
8
DEFAULT_255_2_778
10
-37.4822656
20
134.9315072
40
59.4841368
50
348.5023843
51
348.9598565
0
ARC
8
DEFAULT_255_2_778
10
-26.8970566
20
132.8673416
40
48.6995448
50
348.9585998
51
349.4813413
0
LINE
8
DEFAULT_255_2_778
10
20.9841171
20
123.9769613
11
20.8092171
21
123.9769613
0
ARC
8
DEFAULT_255_2_778
10
-124.6267892
20
155.2131605
40
148.7525868
50
347.7671344
51
347.8783742
0
ARC
8
DEFAULT_255_2_778
10
-63.4657167
20
141.9497785
40
86.1698889
50
347.6147927
51
347.7691897
0
ARC
8
DEFAULT_255_2_778
10
-34.3618362
20
135.5654842
40
56.3739997
50
347.5397057
51
347.6081098
0
LINE
8
DEFAULT_255_2_778
10
21.6699171
20
123.1274613
11
22.2948171
21
123.1274613
0
ARC
8
DEFAULT_255_2_778
10
21.6927511
20
123.0932173
40
0.6030391
50
3.2553274
51
19.7551411
0
ARC
8
DEFAULT_255_2_778
10
22.0524855
20
123.2358652
40
0.2166318
50
16.4043852
51
92.028587
0
ARC
8
DEFAULT_255_2_778
10
22.0461576
20
123.1072819
40
0.345082
50
90.2225641
51
149.0075506
0
ARC
8
DEFAULT_255_2_778
10
22.380256
20
122.8640561
40
0.757604
50
146.2486483
51
159.6544056
0
LINE
8
DEFAULT_255_2_778
10
21.6699171
20
122.9773613
11
22.4448171
21
122.9773613
0
ARC
8
DEFAULT_255_2_778
10
21.2736514
20
123.1831045
40
1.1891002
50
350.0362963
51
354.5200653
0
ARC
8
DEFAULT_255_2_778
10
21.554529
20
123.1564069
40
0.9069569
50
354.5044353
51
359.8760386
0
ARC
8
DEFAULT_255_2_778
10
21.9033648
20
123.1651813
40
0.5582223
50
358.8979201
51
19.2642851
0
ARC
8
DEFAULT_255_2_778
10
22.0868029
20
123.2218593
40
0.3664231
50
20.3614984
51
76.1300609
0
ARC
8
DEFAULT_255_2_778
10
21.9808341
20
122.9142204
40
0.6911089
50
73.7141722
51
84.6879419
0
ARC
8
DEFAULT_255_2_778
10
22.1065509
20
122.8520116
40
0.7528849
50
94.7033271
51
115.4985128
0
ARC
8
DEFAULT_255_2_778
10
22.0292971
20
123.0411148
40
0.5490684
50
116.7171651
51
165.2983853
0
ARC
8
DEFAULT_255_2_778
10
22.3629399
20
122.9217347
40
0.9026104
50
163.3430119
51
171.6852999
0
ARC
8
DEFAULT_255_2_778
10
22.7967507
20
122.8780506
40
1.3383206
50
172.5205195
51
175.9231922
0
ARC
8
DEFAULT_255_2_778
10
22.5080325
20
122.8984303
40
1.0488841
50
175.9123831
51
179.9154344
0
ARC
8
DEFAULT_255_2_778
10
22.0984176
20
122.8891937
40
0.6393588
50
179.0334923
51
195.6869477
0
ARC
8
DEFAULT_255_2_778
10
21.7846188
20
122.7943188
40
0.3116634
50
194.4926565
51
263.8989425
0
ARC
8
DEFAULT_255_2_778
10
21.8418405
20
123.0584438
40
0.5810897
50
261.055544
51
270.2836373
0
ARC
8
DEFAULT_255_2_778
10
21.9269916
20
123.0836389
40
0.6118347
50
262.2719275
51
269.8680497
0
ARC
8
DEFAULT_255_2_778
10
21.930024
20
122.9301135
40
0.4583293
50
269.4447586
51
329.3530248
0
ARC
8
DEFAULT_255_2_778
10
21.6100279
20
123.1655689
40
0.8545635
50
326.7070149
51
336.6862018
0
LINE
8
DEFAULT_255_2_778
10
22.3948171
20
122.8273613
11
22.2199171
21
122.8273613
0
ARC
8
DEFAULT_255_2_778
10
21.9270354
20
122.907255
40
0.3035831
50
270.7788285
51
344.7418011
0
ARC
8
DEFAULT_255_2_778
10
21.8954718
20
123.1170344
40
0.5145735
50
269.9493734
51
273.9771564
0
ARC
8
DEFAULT_255_2_778
10
21.9117734
20
122.9238107
40
0.321786
50
241.1642538
51
267.0150973
0
ARC
8
DEFAULT_255_2_778
10
21.8672345
20
122.821525
40
0.2109544
50
180.6882123
51
238.3612603
0
ARC
8
DEFAULT_255_2_778
10
22.0476422
20
122.8498468
40
0.3925615
50
179.928053
51
184.508141
0
ARC
8
DEFAULT_255_2_778
10
22.1883727
20
122.8476321
40
0.5332985
50
171.6967279
51
179.7090949
0
ARC
8
DEFAULT_255_2_778
10
22.4047329
20
122.8184264
40
0.751612
50
167.7921565
51
171.8755374
0
ARC
8
DEFAULT_255_2_778
10
22.6501425
20
122.3689399
40
0.3173907
50
269.6838481
51
322.8488193
0
ARC
8
DEFAULT_255_2_778
10
22.6520877
20
122.4927439
40
0.4412055
50
255.2140536
51
269.519955
0
ARC
8
DEFAULT_255_2_778
10
22.6796936
20
122.6157897
40
0.5672415
50
253.83985
51
255.6898674
0
ARC
8
DEFAULT_255_2_778
10
20.7601952
20
122.3526078
40
1.7839945
50
350.9164776
51
356.3733362
0
ARC
8
DEFAULT_255_2_778
10
22.6410794
20
122.5883918
40
0.3628166
50
253.9249893
51
269.4496801
0
ARC
8
DEFAULT_255_2_778
10
22.6396803
20
122.4845858
40
0.2590024
50
269.5386181
51
292.9366989
0
ARC
8
DEFAULT_255_2_778
10
22.6040002
20
122.4981638
40
0.2867401
50
298.4537192
51
358.3207828
0
ARC
8
DEFAULT_255_2_778
10
-60.3259873
20
109.7486339
40
84.1863385
50
8.7048421
51
8.9108353
0
ARC
8
DEFAULT_255_2_778
10
-27.7226878
20
114.8656165
40
51.1839354
50
8.9051675
51
9.2162564
0
ARC
8
DEFAULT_255_2_778
10
-6.7706898
20
118.263921
40
29.9581331
50
9.218672
51
9.5520546
0
ARC
8
DEFAULT_255_2_778
10
7.3389764
20
120.6457365
40
15.6488486
50
9.5250215
51
10.2002687
0
ARC
8
DEFAULT_255_2_778
10
16.719468
20
122.3385332
40
6.1168436
50
10.1547787
51
11.3740952
0
ARC
8
DEFAULT_255_2_778
10
20.0645161
20
123.0065609
40
2.7057506
50
11.4753731
51
12.1741795
0
LINE
8
DEFAULT_255_2_778
10
22.7094171
20
123.5771613
11
22.8843171
21
123.5771613
0
ARC
8
DEFAULT_255_2_778
10
20.0810072
20
122.9694844
40
2.8684173
50
9.4042229
51
12.2308432
0
ARC
8
DEFAULT_255_2_778
10
16.2590172
20
122.3169336
40
6.7456937
50
8.3715921
51
9.5679173
0
ARC
8
DEFAULT_255_2_778
10
10.0607051
20
121.4055369
40
13.0106532
50
7.3548084
51
8.3683228
0
ARC
8
DEFAULT_255_2_778
10
-0.4755516
20
120.03676
40
23.6354454
50
6.7198275
51
7.3759793
0
ARC
8
DEFAULT_255_2_778
10
-9.8932708
20
118.9127177
40
33.1199992
50
6.5700912
51
6.7445853
0
ARC
8
DEFAULT_255_2_778
10
83.0766634
20
88.9159707
40
68.9174254
50
150.2432473
51
150.6434406
0
ARC
8
DEFAULT_255_2_778
10
101.4848229
20
78.3949362
40
90.1200787
50
149.9102596
51
150.2448887
0
LINE
8
DEFAULT_255_2_778
10
23.5092171
20
123.5771613
11
23.7093171
21
123.5771613
0
ARC
8
DEFAULT_255_2_778
10
-9.891684
20
141.7199973
40
38.1862511
50
330.5943819
51
331.6332041
0
ARC
8
DEFAULT_255_2_778
10
-5.0111602
20
138.9682611
40
32.5834336
50
329.4412937
51
330.5960239
0
ARC
8
DEFAULT_255_2_778
10
11.2669882
20
129.7679443
40
13.8930477
50
327.0336727
51
327.9825428
0
ARC
8
DEFAULT_255_2_778
10
6.7325498
20
132.6905301
40
19.2877181
50
326.9701547
51
327.0793456
0
LINE
8
DEFAULT_255_2_778
10
16.9505171
20
123.1271613
11
17.4220171
21
123.1271613
0
ARC
8
DEFAULT_255_2_778
10
17.4020401
20
122.8341738
40
0.2936678
50
63.2378515
51
86.099385
0
ARC
8
DEFAULT_255_2_778
10
17.4688957
20
122.9718833
40
0.1406239
50
356.4805371
51
62.2947556
0
ARC
8
DEFAULT_255_2_778
10
17.3098793
20
122.9666004
40
0.2993941
50
346.5935549
51
359.3589507
0
ARC
8
DEFAULT_255_2_778
10
17.1356877
20
123.0044859
40
0.4776361
50
341.4154223
51
347.0175432
0
ARC
8
DEFAULT_255_2_778
10
17.3416283
20
122.9054812
40
0.2524621
50
269.2175757
51
347.8305538
0
ARC
8
DEFAULT_255_2_778
10
17.3114242
20
123.1106861
40
0.4584251
50
269.9616124
51
273.3460386
0
LINE
8
DEFAULT_255_2_778
10
17.3111171
20
122.6522613
11
16.8396171
21
122.6522613
0
ARC
8
DEFAULT_255_2_778
10
11.6030388
20
124.0980166
40
5.4324912
50
344.5658207
51
346.946027
0
ARC
8
DEFAULT_255_2_778
10
8.6020152
20
124.7977079
40
8.5140008
50
346.9206428
51
348.684483
0
LINE
8
DEFAULT_255_2_778
10
17.0592171
20
123.8020613
11
17.4841171
21
123.8020613
0
ARC
8
DEFAULT_255_2_778
10
17.4679073
20
123.56935
40
0.2332751
50
57.4585123
51
86.0154111
0
ARC
8
DEFAULT_255_2_778
10
17.5076242
20
123.6483056
40
0.145629
50
355.9295288
51
53.9194626
0
ARC
8
DEFAULT_255_2_778
10
17.3214254
20
123.6412265
40
0.3314766
50
347.9460236
51
359.4368159
0
ARC
8
DEFAULT_255_2_778
10
17.1368416
20
123.6772071
40
0.5195154
50
343.2127451
51
348.3165851
0
ARC
8
DEFAULT_255_2_778
10
17.3787832
20
123.5764537
40
0.2601466
50
307.0897301
51
349.0775961
0
ARC
8
DEFAULT_255_2_778
10
17.3942002
20
123.5863667
40
0.2594013
50
267.7723262
51
303.0495912
0
LINE
8
DEFAULT_255_2_778
10
17.3841171
20
123.3271613
11
16.9592171
21
123.3271613
0
ARC
8
DEFAULT_255_2_778
10
11.114277
20
124.7783777
40
6.0224044
50
346.0562249
51
348.1909264
0
ARC
8
DEFAULT_255_2_778
10
7.7261042
20
125.4907227
40
9.4846494
50
348.1675181
51
349.7442953
0
ARC
8
DEFAULT_255_2_778
10
17.0877543
20
122.9599834
40
0.7385994
50
347.6699832
51
354.6920158
0
ARC
8
DEFAULT_255_2_778
10
17.269546
20
122.9418457
40
0.5559107
50
354.8200742
51
359.9102586
0
ARC
8
DEFAULT_255_2_778
10
17.4869873
20
122.9520502
40
0.3386497
50
358.1258618
51
30.737349
0
ARC
8
DEFAULT_255_2_778
10
17.5145351
20
122.9501221
40
0.3163491
50
33.5887466
51
71.2082499
0
ARC
8
DEFAULT_255_2_778
10
17.4463258
20
122.8037005
40
0.4772557
50
69.1180632
51
70.0306281
0
ARC
8
DEFAULT_255_2_778
10
17.5313501
20
123.5629519
40
0.3203241
50
284.0873153
51
346.0956957
0
ARC
8
DEFAULT_255_2_778
10
17.2617331
20
123.6702783
40
0.6091067
50
342.3876598
51
348.8376299
0
ARC
8
DEFAULT_255_2_778
10
17.0062262
20
123.6542163
40
0.8591499
50
353.1913831
51
357.6061001
0
ARC
8
DEFAULT_255_2_778
10
17.1612486
20
123.6467686
40
0.7039523
50
357.6847295
51
359.9763073
0
ARC
8
DEFAULT_255_2_778
10
17.4347457
20
123.6576811
40
0.4306009
50
358.5090762
51
21.1172534
0
ARC
8
DEFAULT_255_2_778
10
17.5962217
20
123.711182
40
0.2608247
50
22.9338312
51
84.934979
0
ARC
8
DEFAULT_255_2_778
10
17.5372309
20
123.4385731
40
0.5386954
50
81.2424871
51
90.2992783
0
ARC
8
DEFAULT_255_2_778
10
17.3305424
20
123.0693086
40
0.5926463
50
272.7829715
51
296.4597978
0
ARC
8
DEFAULT_255_2_778
10
17.3874934
20
122.9267264
40
0.4398033
50
298.0943417
51
343.5605443
0
LINE
8
DEFAULT_255_2_778
10
13.8342171
20
123.1274613
11
13.8342171
21
123.1274613
0
LINE
8
DEFAULT_255_2_778
10
13.8345171
20
122.9773613
11
13.8342171
21
122.9773613
0
LINE
8
DEFAULT_255_2_778
10
15.4101171
20
122.4773613
11
15.4095171
21
122.4773613
0
LINE
8
DEFAULT_255_2_778
10
12.2385171
20
123.9732613
11
12.0321171
21
123.9732613
0
LINE
8
DEFAULT_255_2_778
10
12.0321171
20
123.9732613
11
11.1995171
21
122.4733613
0
LINE
8
DEFAULT_255_2_778
10
11.1995171
20
122.4733613
11
11.3934171
21
122.4733613
0
LINE
8
DEFAULT_255_2_778
10
11.3934171
20
122.4733613
11
11.6220171
21
122.8964613
0
LINE
8
DEFAULT_255_2_778
10
11.6220171
20
122.8964613
11
12.2549171
21
122.8964613
0
LINE
8
DEFAULT_255_2_778
10
12.2549171
20
122.8964613
11
12.3227171
21
122.4733613
0
LINE
8
DEFAULT_255_2_778
10
12.3227171
20
122.4733613
11
12.4975171
21
122.4733613
0
LINE
8
DEFAULT_255_2_778
10
12.4975171
20
122.4733613
11
12.2385171
21
123.9732613
0
LINE
8
DEFAULT_255_2_778
10
12.1107171
20
123.8002613
11
12.1139171
21
123.7621613
0
LINE
8
DEFAULT_255_2_778
10
12.1139171
20
123.7621613
11
12.1187171
21
123.7219613
0
LINE
8
DEFAULT_255_2_778
10
12.1187171
20
123.7219613
11
12.1240171
21
123.6790613
0
LINE
8
DEFAULT_255_2_778
10
12.1240171
20
123.6790613
11
12.1308171
21
123.6343613
0
LINE
8
DEFAULT_255_2_778
10
12.1308171
20
123.6343613
11
12.1388171
21
123.5869613
0
LINE
8
DEFAULT_255_2_778
10
12.1388171
20
123.5869613
11
12.1480171
21
123.5375613
0
LINE
8
DEFAULT_255_2_778
10
12.1480171
20
123.5375613
11
12.1578171
21
123.4856613
0
LINE
8
DEFAULT_255_2_778
10
12.1578171
20
123.4856613
11
12.1692171
21
123.4311613
0
LINE
8
DEFAULT_255_2_778
10
12.1692171
20
123.4311613
11
12.2269171
21
123.0699613
0
LINE
8
DEFAULT_255_2_778
10
12.2269171
20
123.0699613
11
11.7202171
21
123.0699613
0
LINE
8
DEFAULT_255_2_778
10
11.7202171
20
123.0699613
11
11.9483171
21
123.5015613
0
LINE
8
DEFAULT_255_2_778
10
11.9483171
20
123.5015613
11
11.9983171
21
123.5851613
0
LINE
8
DEFAULT_255_2_778
10
11.9983171
20
123.5851613
11
12.0422171
21
123.6629613
0
LINE
8
DEFAULT_255_2_778
10
12.0422171
20
123.6629613
11
12.0795171
21
123.7346613
0
LINE
8
DEFAULT_255_2_778
10
12.0795171
20
123.7346613
11
12.1107171
21
123.8002613
0
LINE
8
DEFAULT_255_2_778
10
19.5844171
20
122.7024613
11
19.5844171
21
122.7022613
0
LINE
8
DEFAULT_255_2_778
10
19.4595171
20
123.0271613
11
19.4595171
21
123.0271613
0
LINE
8
DEFAULT_255_2_778
10
20.4096171
20
123.4525613
11
20.4094171
21
123.4523613
0
LINE
8
DEFAULT_255_2_778
10
20.6843171
20
123.4020613
11
20.6843171
21
123.4023613
0
LINE
8
DEFAULT_255_2_778
10
21.6699171
20
123.1274613
11
21.6699171
21
123.1274613
0
LINE
8
DEFAULT_255_2_778
10
21.6701171
20
122.9773613
11
21.6699171
21
122.9773613
0
LINE
8
DEFAULT_255_2_778
10
22.9031171
20
122.1772613
11
22.9031171
21
122.1772613
0
LINE
8
DEFAULT_255_2_778
10
16.9505171
20
123.1271613
11
16.9505171
21
123.1271613
0
LINE
8
DEFAULT_255_2_778
10
17.0592171
20
123.8020613
11
17.0592171
21
123.8020613
0
LINE
8
DEFAULT_255_2_778
10
17.5344171
20
123.9772613
11
16.9343171
21
123.9772613
0
LINE
8
DEFAULT_255_2_778
10
16.9343171
20
123.9772613
11
16.6343171
21
122.4773613
0
LINE
8
DEFAULT_255_2_778
10
16.6343171
20
122.4773613
11
17.3593171
21
122.4773613
0
LINE
8
DEFAULT_255_2_778
10
17.8093171
20
122.8022613
11
17.8093171
21
122.8022613
0
LINE
8
DEFAULT_255_2_778
10
14.1245044
20
119.5754229
11
11.2006044
21
119.5754229
0
LINE
8
DEFAULT_255_2_778
10
11.2006044
20
119.5754229
11
10.8543044
21
119.9217229
0
LINE
8
DEFAULT_255_2_778
10
10.8543044
20
119.9217229
11
10.8543044
21
117.4045229
0
LINE
8
DEFAULT_255_2_778
10
10.8543044
20
117.4045229
11
11.2006044
21
117.7508229
0
LINE
8
DEFAULT_255_2_778
10
11.2006044
20
117.7508229
11
11.2006044
21
119.5754229
0
LINE
8
DEFAULT_255_2_778
10
11.2006044
20
117.7508229
11
14.1243044
21
117.7508229
0
LINE
8
DEFAULT_255_2_778
10
14.1243044
20
117.7508229
11
14.4706044
21
117.4045229
0
LINE
8
DEFAULT_255_2_778
10
14.4706044
20
117.4045229
11
14.4706044
21
119.9217229
0
LINE
8
DEFAULT_255_2_778
10
14.4706044
20
119.9217229
11
14.1243044
21
119.5754229
0
LINE
8
DEFAULT_255_2_778
10
14.1243044
20
119.5754229
11
14.1243044
21
117.7508229
0
LINE
8
DEFAULT_255_2_778
10
14.4706044
20
117.4045229
11
10.8543044
21
117.4045229
0
LINE
8
DEFAULT_255_2_778
10
10.8543044
20
119.9217229
11
14.4709044
21
119.9217229
0
LINE
8
DEFAULT_255_2_778
10
14.1245044
20
115.0753239
11
11.2006044
21
115.0753239
0
LINE
8
DEFAULT_255_2_778
10
11.2006044
20
115.0753239
11
10.8543044
21
115.4216239
0
LINE
8
DEFAULT_255_2_778
10
10.8543044
20
115.4216239
11
10.8543044
21
112.9044239
0
LINE
8
DEFAULT_255_2_778
10
10.8543044
20
112.9044239
11
11.2006044
21
113.2507239
0
LINE
8
DEFAULT_255_2_778
10
11.2006044
20
113.2507239
11
11.2006044
21
115.0753239
0
LINE
8
DEFAULT_255_2_778
10
11.2006044
20
113.2507239
11
14.1243044
21
113.2507239
0
LINE
8
DEFAULT_255_2_778
10
14.1243044
20
113.2507239
11
14.4706044
21
112.9044239
0
LINE
8
DEFAULT_255_2_778
10
14.4706044
20
112.9044239
11
14.4706044
21
115.4216239
0
LINE
8
DEFAULT_255_2_778
10
14.4706044
20
115.4216239
11
14.1243044
21
115.0753239
0
LINE
8
DEFAULT_255_2_778
10
14.1243044
20
115.0753239
11
14.1243044
21
113.2507239
0
LINE
8
DEFAULT_255_2_778
10
14.4706044
20
112.9044239
11
10.8543044
21
112.9044239
0
LINE
8
DEFAULT_255_2_778
10
10.8543044
20
115.4216239
11
14.4709044
21
115.4216239
0
LINE
8
DEFAULT_255_2_778
10
14.1245044
20
110.5753239
11
11.2006044
21
110.5753239
0
LINE
8
DEFAULT_255_2_778
10
11.2006044
20
110.5753239
11
10.8543044
21
110.9216239
0
LINE
8
DEFAULT_255_2_778
10
10.8543044
20
110.9216239
11
10.8543044
21
108.4044239
0
LINE
8
DEFAULT_255_2_778
10
10.8543044
20
108.4044239
11
11.2006044
21
108.7507239
0
LINE
8
DEFAULT_255_2_778
10
11.2006044
20
108.7507239
11
11.2006044
21
110.5753239
0
LINE
8
DEFAULT_255_2_778
10
11.2006044
20
108.7507239
11
14.1243044
21
108.7507239
0
LINE
8
DEFAULT_255_2_778
10
14.1243044
20
108.7507239
11
14.4706044
21
108.4044239
0
LINE
8
DEFAULT_255_2_778
10
14.4706044
20
108.4044239
11
14.4706044
21
110.9216239
0
LINE
8
DEFAULT_255_2_778
10
14.4706044
20
110.9216239
11
14.1243044
21
110.5753239
0
LINE
8
DEFAULT_255_2_778
10
14.1243044
20
110.5753239
11
14.1243044
21
108.7507239
0
LINE
8
DEFAULT_255_2_778
10
14.4706044
20
108.4044239
11
10.8543044
21
108.4044239
0
LINE
8
DEFAULT_255_2_778
10
10.8543044
20
110.9216239
11
14.4709044
21
110.9216239
0
LINE
8
DEFAULT_255_2_778
10
14.1245044
20
106.0753219
11
11.2006044
21
106.0753219
0
LINE
8
DEFAULT_255_2_778
10
11.2006044
20
106.0753219
11
10.8543044
21
106.4216219
0
LINE
8
DEFAULT_255_2_778
10
10.8543044
20
106.4216219
11
10.8543044
21
103.9044219
0
LINE
8
DEFAULT_255_2_778
10
10.8543044
20
103.9044219
11
11.2006044
21
104.2507219
0
LINE
8
DEFAULT_255_2_778
10
11.2006044
20
104.2507219
11
11.2006044
21
106.0753219
0
LINE
8
DEFAULT_255_2_778
10
11.2006044
20
104.2507219
11
14.1243044
21
104.2507219
0
LINE
8
DEFAULT_255_2_778
10
14.1243044
20
104.2507219
11
14.4706044
21
103.9044219
0
LINE
8
DEFAULT_255_2_778
10
14.4706044
20
103.9044219
11
14.4706044
21
106.4216219
0
LINE
8
DEFAULT_255_2_778
10
14.4706044
20
106.4216219
11
14.1243044
21
106.0753219
0
LINE
8
DEFAULT_255_2_778
10
14.1243044
20
106.0753219
11
14.1243044
21
104.2507219
0
LINE
8
DEFAULT_255_2_778
10
14.4706044
20
103.9044219
11
10.8543044
21
103.9044219
0
LINE
8
DEFAULT_255_2_778
10
10.8543044
20
106.4216219
11
14.4709044
21
106.4216219
0
LINE
8
DEFAULT_255_2_778
10
23.6246085
20
106.0753219
11
20.7010085
21
106.0753219
0
LINE
8
DEFAULT_255_2_778
10
20.7010085
20
106.0753219
11
20.3547085
21
106.4216219
0
LINE
8
DEFAULT_255_2_778
10
20.3547085
20
106.4216219
11
20.3547085
21
103.9044219
0
LINE
8
DEFAULT_255_2_778
10
20.3547085
20
103.9044219
11
20.7010085
21
104.2507219
0
LINE
8
DEFAULT_255_2_778
10
20.7010085
20
104.2507219
11
20.7010085
21
106.0753219
0
LINE
8
DEFAULT_255_2_778
10
20.7010085
20
104.2507219
11
23.6246085
21
104.2507219
0
LINE
8
DEFAULT_255_2_778
10
23.6246085
20
104.2507219
11
23.9710085
21
103.9044219
0
LINE
8
DEFAULT_255_2_778
10
23.9710085
20
103.9044219
11
23.9710085
21
106.4216219
0
LINE
8
DEFAULT_255_2_778
10
23.9710085
20
106.4216219
11
23.6246085
21
106.0753219
0
LINE
8
DEFAULT_255_2_778
10
23.6246085
20
106.0753219
11
23.6246085
21
104.2507219
0
LINE
8
DEFAULT_255_2_778
10
23.9710085
20
103.9044219
11
20.3544085
21
103.9044219
0
LINE
8
DEFAULT_255_2_778
10
20.3544085
20
106.4216219
11
23.9710085
21
106.4216219
0
LINE
8
DEFAULT_255_2_778
10
23.6246085
20
110.5753239
11
20.7010085
21
110.5753239
0
LINE
8
DEFAULT_255_2_778
10
20.7010085
20
110.5753239
11
20.3547085
21
110.9216239
0
LINE
8
DEFAULT_255_2_778
10
20.3547085
20
110.9216239
11
20.3547085
21
108.4044239
0
LINE
8
DEFAULT_255_2_778
10
20.3547085
20
108.4044239
11
20.7010085
21
108.7507239
0
LINE
8
DEFAULT_255_2_778
10
20.7010085
20
108.7507239
11
20.7010085
21
110.5753239
0
LINE
8
DEFAULT_255_2_778
10
20.7010085
20
108.7507239
11
23.6246085
21
108.7507239
0
LINE
8
DEFAULT_255_2_778
10
23.6246085
20
108.7507239
11
23.9710085
21
108.4044239
0
LINE
8
DEFAULT_255_2_778
10
23.9710085
20
108.4044239
11
23.9710085
21
110.9216239
0
LINE
8
DEFAULT_255_2_778
10
23.9710085
20
110.9216239
11
23.6246085
21
110.5753239
0
LINE
8
DEFAULT_255_2_778
10
23.6246085
20
110.5753239
11
23.6246085
21
108.7507239
0
LINE
8
DEFAULT_255_2_778
10
23.9710085
20
108.4044239
11
20.3544085
21
108.4044239
0
LINE
8
DEFAULT_255_2_778
10
20.3544085
20
110.9216239
11
23.9710085
21
110.9216239
0
LINE
8
DEFAULT_255_2_778
10
23.6246085
20
115.0753239
11
20.7010085
21
115.0753239
0
LINE
8
DEFAULT_255_2_778
10
20.7010085
20
115.0753239
11
20.3547085
21
115.4216239
0
LINE
8
DEFAULT_255_2_778
10
20.3547085
20
115.4216239
11
20.3547085
21
112.9044239
0
LINE
8
DEFAULT_255_2_778
10
20.3547085
20
112.9044239
11
20.7010085
21
113.2507239
0
LINE
8
DEFAULT_255_2_778
10
20.7010085
20
113.2507239
11
20.7010085
21
115.0753239
0
LINE
8
DEFAULT_255_2_778
10
20.7010085
20
113.2507239
11
23.6246085
21
113.2507239
0
LINE
8
DEFAULT_255_2_778
10
23.6246085
20
113.2507239
11
23.9710085
21
112.9044239
0
LINE
8
DEFAULT_255_2_778
10
23.9710085
20
112.9044239
11
23.9710085
21
115.4216239
0
LINE
8
DEFAULT_255_2_778
10
23.9710085
20
115.4216239
11
23.6246085
21
115.0753239
0
LINE
8
DEFAULT_255_2_778
10
23.6246085
20
115.0753239
11
23.6246085
21
113.2507239
0
LINE
8
DEFAULT_255_2_778
10
23.9710085
20
112.9044239
11
20.3544085
21
112.9044239
0
LINE
8
DEFAULT_255_2_778
10
20.3544085
20
115.4216239
11
23.9710085
21
115.4216239
0
LINE
8
DEFAULT_255_2_778
10
23.6246085
20
119.5754239
11
20.7010085
21
119.5754239
0
LINE
8
DEFAULT_255_2_778
10
20.7010085
20
119.5754239
11
20.3547085
21
119.9217239
0
LINE
8
DEFAULT_255_2_778
10
20.3547085
20
119.9217239
11
20.3547085
21
117.4045239
0
LINE
8
DEFAULT_255_2_778
10
20.3547085
20
117.4045239
11
20.7010085
21
117.7508239
0
LINE
8
DEFAULT_255_2_778
10
20.7010085
20
117.7508239
11
20.7010085
21
119.5754239
0
LINE
8
DEFAULT_255_2_778
10
20.7010085
20
117.7508239
11
23.6246085
21
117.7508239
0
LINE
8
DEFAULT_255_2_778
10
23.6246085
20
117.7508239
11
23.9710085
21
117.4045239
0
LINE
8
DEFAULT_255_2_778
10
23.9710085
20
117.4045239
11
23.9710085
21
119.9217239
0
LINE
8
DEFAULT_255_2_778
10
23.9710085
20
119.9217239
11
23.6246085
21
119.5754239
0
LINE
8
DEFAULT_255_2_778
10
23.6246085
20
119.5754239
11
23.6246085
21
117.7508239
0
LINE
8
DEFAULT_255_2_778
10
23.9710085
20
117.4045239
11
20.3544085
21
117.4045239
0
LINE
8
DEFAULT_255_2_778
10
20.3544085
20
119.9217239
11
23.9710085
21
119.9217239
0
ARC
8
DEFAULT_255_2_778
10
1.2111371
20
128.5416511
40
0.9963226
50
89.9183951
51
131.6458612
0
ARC
8
DEFAULT_255_2_778
10
1.2101176
20
128.538989
40
0.9976376
50
131.5005114
51
178.267068
0
ARC
8
DEFAULT_255_2_778
10
1.2312153
20
128.5378823
40
1.0187592
50
178.2407388
51
180.0005446
0
ARC
8
DEFAULT_255_2_778
10
1.2087742
20
0.7863123
40
0.9963191
50
179.916016
51
221.6459452
0
ARC
8
DEFAULT_255_2_778
10
1.2114017
20
0.7853314
40
0.9976339
50
221.5035703
51
268.2692494
0
ARC
8
DEFAULT_255_2_778
10
1.2125464
20
0.8064318
40
1.0187593
50
268.2407389
51
270.0005447
0
ARC
8
DEFAULT_255_2_778
10
93.2313899
20
63.678812
40
0.9507394
50
270.003989
51
272.7134757
0
ARC
8
DEFAULT_255_2_778
10
93.2290894
20
63.710065
40
0.9820665
50
272.7612206
51
292.7304403
0
ARC
8
DEFAULT_255_2_778
10
93.223238
20
63.7165902
40
0.9903501
50
292.8968087
51
315.3804805
0
ARC
8
DEFAULT_255_2_778
10
93.2131643
20
63.7241093
40
1.0028033
50
315.4789636
51
337.8039038
0
ARC
8
DEFAULT_255_2_778
10
93.1973252
20
63.728836
40
1.0192555
50
337.8942537
51
357.3539332
0
ARC
8
DEFAULT_255_2_778
10
93.2140717
20
63.7279172
40
1.0024844
50
357.3622034
51
359.9974537
0
ARC
8
DEFAULT_255_2_778
10
93.2216392
20
128.5377841
40
0.9949169
50
0.0051002
51
3.0272847
0
ARC
8
DEFAULT_255_2_778
10
93.191065
20
128.5355536
40
1.0255664
50
3.0615167
51
22.0443067
0
ARC
8
DEFAULT_255_2_778
10
93.2131662
20
128.5416375
40
1.0028008
50
22.1960556
51
44.5210501
0
ARC
8
DEFAULT_255_2_778
10
93.2277991
20
128.5558822
40
0.9823798
50
44.5271055
51
67.195602
0
ARC
8
DEFAULT_255_2_778
10
93.2290968
20
128.5594211
40
0.9786145
50
67.1853321
51
87.9290646
0
ARC
8
DEFAULT_255_2_778
10
93.2314301
20
128.5909462
40
0.9470265
50
88.0012173
51
89.998428
0
ARC
8
DEFAULT_255_2_778
10
97.2007541
20
63.7497441
40
1.0219765
50
269.8207054
51
306.2020829
0
ARC
8
DEFAULT_255_2_778
10
97.21975
20
63.7274921
40
0.9928032
50
306.0759441
51
358.6885683
0
ARC
8
DEFAULT_255_2_778
10
97.198141
20
63.7278592
40
1.014415
50
358.6957744
51
0.0007616
0
ARC
8
DEFAULT_255_2_778
10
26.4215581
20
62.1354833
40
0.4836632
50
20.8807786
51
28.3390745
0
ARC
8
DEFAULT_255_2_778
10
26.4084574
20
62.1289312
40
0.4982407
50
13.5862879
51
21.0477996
0
ARC
8
DEFAULT_255_2_778
10
26.4678469
20
62.1406959
40
0.4377568
50
5.1213749
51
13.9155444
0
ARC
8
DEFAULT_255_2_778
10
24.3338006
20
0.7843486
40
0.996477
50
269.9169422
51
311.6424919
0
ARC
8
DEFAULT_255_2_778
10
24.3349361
20
0.7868512
40
0.9975959
50
311.4982452
51
358.2672879
0
ARC
8
DEFAULT_255_2_778
10
24.3137969
20
0.787963
40
1.0187592
50
358.2407388
51
0.0005446
0
ARC
8
DEFAULT_255_2_778
10
97.2138751
20
128.5416511
40
0.9963226
50
48.3541388
51
90.0816049
0
ARC
8
DEFAULT_255_2_778
10
97.2148946
20
128.538989
40
0.9976376
50
1.732932
51
48.4994886
0
ARC
8
DEFAULT_255_2_778
10
97.1937969
20
128.5378823
40
1.0187592
50
359.9994554
51
1.7592612
0
ARC
8
DEFAULT_255_2_778
10
97.216238
20
0.7863123
40
0.9963191
50
318.3540548
51
0.083984
0
ARC
8
DEFAULT_255_2_778
10
97.2136105
20
0.7853314
40
0.9976339
50
271.7307506
51
318.4964297
0
ARC
8
DEFAULT_255_2_778
10
97.2124658
20
0.8064318
40
1.0187593
50
269.9994553
51
271.7592611
0
LINE
8
DEFAULT_255_2_778
10
2.2124561
20
46.2156727
11
2.2124561
21
45.6031727
0
LINE
8
DEFAULT_255_2_778
10
4.2124561
20
46.2156727
11
4.2124561
21
45.6031727
0
LINE
8
DEFAULT_255_2_778
10
1.1326561
20
46.2156727
11
1.1326561
21
99.1156727
0
LINE
8
DEFAULT_255_2_778
10
1.2125561
20
46.2156727
11
1.2125561
21
99.1156727
0
LINE
8
DEFAULT_255_2_778
10
24.9232561
20
63.1370727
11
25.3322561
21
62.7280727
0
LINE
8
DEFAULT_255_2_778
10
94.2165561
20
63.7278727
11
94.2165561
21
128.5378727
0
LINE
8
DEFAULT_255_2_778
10
93.2314561
20
129.5379727
11
93.2314561
21
62.7280727
0
LINE
8
DEFAULT_255_2_778
10
24.6075561
20
46.2156727
11
24.8009561
21
46.2156727
0
LINE
8
DEFAULT_255_2_778
10
24.8009561
20
46.2156727
11
24.7964561
21
45.6031727
0
LINE
8
DEFAULT_255_2_778
10
24.7964561
20
45.6031727
11
0.2124561
21
45.6031727
0
LINE
8
DEFAULT_255_2_778
10
25.3325561
20
62.6250727
11
25.3325561
21
62.7277727
0
LINE
8
DEFAULT_255_2_778
10
25.3325561
20
62.7277727
11
97.1975561
21
62.7277727
0
LINE
8
DEFAULT_255_2_778
10
98.2125561
20
63.7278727
11
98.2125561
21
63.7278727
0
LINE
8
DEFAULT_255_2_778
10
98.2125561
20
63.7278727
11
24.9274561
21
63.7278727
0
LINE
8
DEFAULT_255_2_778
10
26.8906561
20
46.1222727
11
26.8901561
21
46.0873727
0
LINE
8
DEFAULT_255_2_778
10
26.8901561
20
46.0873727
11
26.8869561
21
46.0497727
0
LINE
8
DEFAULT_255_2_778
10
26.8869561
20
46.0497727
11
26.8803561
21
46.0100727
0
LINE
8
DEFAULT_255_2_778
10
26.8803561
20
46.0100727
11
26.8700561
21
45.9685727
0
LINE
8
DEFAULT_255_2_778
10
26.8700561
20
45.9685727
11
26.8551561
21
45.9256727
0
LINE
8
DEFAULT_255_2_778
10
26.8551561
20
45.9256727
11
26.8356561
21
45.8817727
0
LINE
8
DEFAULT_255_2_778
10
26.8356561
20
45.8817727
11
26.8104561
21
45.8378727
0
LINE
8
DEFAULT_255_2_778
10
26.8104561
20
45.8378727
11
26.7795561
21
45.7944727
0
LINE
8
DEFAULT_255_2_778
10
26.7795561
20
45.7944727
11
26.7422561
21
45.7526727
0
LINE
8
DEFAULT_255_2_778
10
26.7422561
20
45.7526727
11
26.6985561
21
45.7134727
0
LINE
8
DEFAULT_255_2_778
10
26.6985561
20
45.7134727
11
26.6485561
21
45.6782727
0
LINE
8
DEFAULT_255_2_778
10
26.6485561
20
45.6782727
11
26.5922561
21
45.6483727
0
LINE
8
DEFAULT_255_2_778
10
26.5922561
20
45.6483727
11
26.5300561
21
45.6248727
0
LINE
8
DEFAULT_255_2_778
10
26.5300561
20
45.6248727
11
26.4628561
21
45.6092727
0
LINE
8
DEFAULT_255_2_778
10
26.4628561
20
45.6092727
11
26.3913561
21
45.6028727
0
LINE
8
DEFAULT_255_2_778
10
26.3913561
20
45.6028727
11
25.2867561
21
45.6028727
0
LINE
8
DEFAULT_255_2_778
10
25.2867561
20
45.6028727
11
25.2867561
21
62.6248727
0
LINE
8
DEFAULT_255_2_778
10
25.2867561
20
62.6248727
11
26.4321561
21
62.6248727
0
LINE
8
DEFAULT_255_2_778
10
26.4321561
20
62.6248727
11
26.4736561
21
62.6213727
0
LINE
8
DEFAULT_255_2_778
10
26.4736561
20
62.6213727
11
26.5167561
21
62.6139727
0
LINE
8
DEFAULT_255_2_778
10
26.5167561
20
62.6139727
11
26.5612561
21
62.6020727
0
LINE
8
DEFAULT_255_2_778
10
26.5612561
20
62.6020727
11
26.6062561
21
62.5854727
0
LINE
8
DEFAULT_255_2_778
10
26.6062561
20
62.5854727
11
26.6512561
21
62.5634727
0
LINE
8
DEFAULT_255_2_778
10
26.6512561
20
62.5634727
11
26.6956561
21
62.5356727
0
LINE
8
DEFAULT_255_2_778
10
26.6956561
20
62.5356727
11
26.7385561
21
62.5020727
0
LINE
8
DEFAULT_255_2_778
10
26.7385561
20
62.5020727
11
26.7787561
21
62.4623727
0
LINE
8
DEFAULT_255_2_778
10
26.7787561
20
62.4623727
11
26.8152561
21
62.4165727
0
LINE
8
DEFAULT_255_2_778
10
26.8152561
20
62.4165727
11
26.8472561
21
62.3650727
0
LINE
8
DEFAULT_255_2_778
10
26.9038561
20
62.1797727
11
26.9059561
21
62.1107727
0
LINE
8
DEFAULT_255_2_778
10
26.9059561
20
62.1107727
11
26.8906561
21
46.1222727
0
LINE
8
DEFAULT_255_2_778
10
24.9811561
20
71.1560727
11
24.9811561
21
99.1156727
0
LINE
8
DEFAULT_255_2_778
10
24.9811561
20
99.1156727
11
0.2124561
21
99.1156727
0
LINE
8
DEFAULT_255_2_778
10
0.2124561
20
99.1156727
11
0.2124561
21
46.2156727
0
LINE
8
DEFAULT_255_2_778
10
0.2124561
20
46.2156727
11
24.6075561
21
46.2156727
0
LINE
8
DEFAULT_255_2_778
10
24.6075561
20
46.2156727
11
24.6075561
21
99.1156727
0
LINE
8
DEFAULT_255_2_778
10
24.8935561
20
59.0415727
11
24.8935561
21
99.1156727
0
LINE
8
DEFAULT_255_2_778
10
24.8168561
20
46.2156727
11
24.8168561
21
48.4156727
0
LINE
8
DEFAULT_255_2_778
10
24.8168561
20
48.4156727
11
25.1830561
21
99.1455727
0
LINE
8
DEFAULT_255_2_778
10
25.1830561
20
99.1455727
11
0.2124561
21
99.1455727
0
LINE
8
DEFAULT_255_2_778
10
0.2124561
20
99.1455727
11
0.2124561
21
128.5378727
0
LINE
8
DEFAULT_255_2_778
10
0.2124561
20
128.5378727
11
98.2125561
21
128.5378727
0
LINE
8
DEFAULT_255_2_778
10
98.2125561
20
128.5378727
11
98.2125561
21
0.7877727
0
LINE
8
DEFAULT_255_2_778
10
98.2125561
20
0.7877727
11
0.2124561
21
0.7877727
0
LINE
8
DEFAULT_255_2_778
10
0.2124561
20
0.7877727
11
0.2124561
21
46.2156727
0
LINE
8
DEFAULT_255_2_778
10
24.3323561
20
45.6031727
11
24.3323561
21
-0.2121273
0
LINE
8
DEFAULT_255_2_778
10
25.3325561
20
0.7879727
11
25.3325561
21
45.6031727
0
LINE
8
DEFAULT_255_2_778
10
23.3325561
20
46.2156727
11
23.3325561
21
45.6031727
0
LINE
8
DEFAULT_255_2_778
10
1.2123561
20
99.1457727
11
1.2123561
21
129.5379727
0
LINE
8
DEFAULT_255_2_778
10
1.2123561
20
129.5379727
11
97.2124561
21
129.5379727
0
LINE
8
DEFAULT_255_2_778
10
97.2124561
20
-0.2123273
11
1.2123561
21
-0.2123273
0
LINE
8
DEFAULT_255_2_778
10
1.2123561
20
-0.2123273
11
1.2123561
21
45.6028727
0
ENDSEC
0
EOF