0
SECTION
2
HEADER
9
$MEASUREMENT
70
1
0
ENDSEC
0
SECTION
2
TABLES
0
TABLE
2
LTYPE
0
LTYPE
72
65
70
64
2
CONTINUOUS
3
______
73
0
40
0
0
ENDTAB
0
TABLE
2
LAYER
0
LAYER
2
DEFAULT_255_2_778
70
0
62
255
6
CONTINUOUS
0
LAYER
2
DEFAULT_255_1_388
70
0
62
255
6
CONTINUOUS
0
ENDTAB
0
ENDSEC
0
SECTION
2
ENTITIES
0
ARC
8
DEFAULT_255_2_778
10
3.5700693
20
155.1802019
40
0.7914215
50
129.1312896
51
180.1450914
0
ARC
8
DEFAULT_255_2_778
10
3.5703345
20
155.180689
40
0.7912112
50
89.854026
51
129.1684493
0
ARC
8
DEFAULT_255_2_778
10
25.7993937
20
155.1803756
40
0.7915249
50
39.4792447
51
90.147911
0
ARC
8
DEFAULT_255_2_778
10
25.7999935
20
155.1802222
40
0.7911595
50
359.8533901
51
39.5154338
0
ARC
8
DEFAULT_255_2_778
10
25.7996693
20
-1.9863503
40
0.7914836
50
309.4761667
51
0.1482649
0
ARC
8
DEFAULT_255_2_778
10
25.799398
20
-1.9867814
40
0.7913235
50
269.8517415
51
309.511178
0
ARC
8
DEFAULT_255_2_778
10
3.570342
20
-1.9867233
40
0.7913815
50
219.1282118
51
270.1454017
0
ARC
8
DEFAULT_255_2_778
10
3.5700247
20
-1.9863408
40
0.7913769
50
179.8524075
51
219.1641908
0
LINE
8
DEFAULT_255_2_778
10
3.5723503
20
155.9718978
11
25.7973503
21
155.9718978
0
LINE
8
DEFAULT_255_2_778
10
26.5911503
20
155.1781978
11
26.5911503
21
-1.9843022
0
LINE
8
DEFAULT_255_2_778
10
25.7973503
20
-2.7781022
11
3.5723503
21
-2.7781022
0
LINE
8
DEFAULT_255_2_778
10
2.7786503
20
-1.9843022
11
2.7786503
21
155.1781978
0
LINE
8
DEFAULT_255_1_388
10
9.8534985
20
0.6821148
11
9.8534985
21
-0.6398
0
LINE
8
DEFAULT_255_1_388
10
9.8534985
20
-0.6398
11
9.6854355
21
-0.6398
0
LINE
8
DEFAULT_255_1_388
10
9.6854355
20
-0.6398
11
9.6854355
21
0.474295
0
LINE
8
DEFAULT_255_1_388
10
9.6854355
20
0.474295
11
9.348406
21
0.3505066
0
LINE
8
DEFAULT_255_1_388
10
9.348406
20
0.3505066
11
9.348406
21
0.5023055
0
LINE
8
DEFAULT_255_1_388
10
9.348406
20
0.5023055
11
9.8272951
21
0.6821148
0
LINE
8
DEFAULT_255_1_388
10
9.8272951
20
0.6821148
11
9.8534985
21
0.6821148
0
LINE
8
DEFAULT_255_1_388
10
11.192581
20
0.6757898
11
11.192581
21
0.5818191
0
LINE
8
DEFAULT_255_1_388
10
11.192581
20
0.5818191
11
10.6477316
21
-0.6398
0
LINE
8
DEFAULT_255_1_388
10
10.6477316
20
-0.6398
11
10.4724401
21
-0.6398
0
LINE
8
DEFAULT_255_1_388
10
10.4724401
20
-0.6398
11
11.0154824
21
0.538448
0
LINE
8
DEFAULT_255_1_388
10
11.0154824
20
0.538448
11
10.3034736
21
0.538448
0
LINE
8
DEFAULT_255_1_388
10
10.3034736
20
0.538448
11
10.3034736
21
0.6757898
0
LINE
8
DEFAULT_255_1_388
10
10.3034736
20
0.6757898
11
11.192581
21
0.6757898
0
LINE
8
DEFAULT_255_1_388
10
12.0084997
20
0.6766934
11
12.0383173
21
0.6766934
0
LINE
8
DEFAULT_255_1_388
10
12.0383173
20
0.6766934
11
12.0383173
21
0.5348338
0
LINE
8
DEFAULT_255_1_388
10
12.0383173
20
0.5348338
11
12.0075961
21
0.5348338
0
LINE
8
DEFAULT_255_1_388
10
11.3922688
20
-0.1392253
11
11.3922688
21
-0.0750722
0
LINE
8
DEFAULT_255_1_388
10
11.5603317
20
-0.0967578
11
11.5603317
21
-0.1582001
0
ARC
8
DEFAULT_255_1_388
10
12.0134853
20
-0.0274174
40
0.562282
50
90.6001079
51
104.5146616
0
ARC
8
DEFAULT_255_1_388
10
11.9697812
20
0.13511
40
0.3939917
50
104.2855758
51
133.8630124
0
ARC
8
DEFAULT_255_1_388
10
11.9882065
20
0.1229243
40
0.4155734
50
134.5304124
51
161.6210222
0
ARC
8
DEFAULT_255_1_388
10
12.1741997
20
0.0573421
40
0.6127682
50
161.2850533
51
174.2074364
0
ARC
8
DEFAULT_255_1_388
10
12.3331564
20
0.0354437
40
0.7731446
50
173.7817938
51
174.9251711
0
ARC
8
DEFAULT_255_1_388
10
11.8205758
20
-0.120073
40
0.3412588
50
95.8332067
51
138.995412
0
ARC
8
DEFAULT_255_1_388
10
11.8457038
20
-0.2639305
40
0.4870358
50
89.8755506
51
97.0540979
0
ARC
8
DEFAULT_255_1_388
10
11.8510427
20
-0.1699159
40
0.3930432
50
71.6407016
51
90.6240821
0
ARC
8
DEFAULT_255_1_388
10
11.8679821
20
-0.1075567
40
0.3285421
50
39.6368051
51
71.0190743
0
ARC
8
DEFAULT_255_1_388
10
11.7963728
20
-0.1694414
40
0.4231706
50
10.6588054
51
39.9044509
0
ARC
8
DEFAULT_255_1_388
10
11.6222274
20
-0.2072777
40
0.60133
50
359.6827842
51
11.1326896
0
ARC
8
DEFAULT_255_1_388
10
11.617761
20
-0.2152285
40
0.6058047
50
347.2485908
51
0.4371098
0
ARC
8
DEFAULT_255_1_388
10
11.8053395
20
-0.2603621
40
0.4128987
50
318.1408565
51
347.6118497
0
ARC
8
DEFAULT_255_1_388
10
11.8418992
20
-0.2904097
40
0.3656244
50
275.6342406
51
317.824739
0
ARC
8
DEFAULT_255_1_388
10
11.8170513
20
-0.1442173
40
0.513655
50
269.8872513
51
276.7916069
0
ARC
8
DEFAULT_255_1_388
10
11.8108705
20
-0.2595819
40
0.398323
50
246.9139443
51
270.7436787
0
ARC
8
DEFAULT_255_1_388
10
11.8115901
20
-0.2755956
40
0.3839368
50
218.1665534
51
245.8780431
0
ARC
8
DEFAULT_255_1_388
10
11.9105273
20
-0.1928097
40
0.5128958
50
191.4115343
51
218.6077624
0
ARC
8
DEFAULT_255_1_388
10
12.128559
20
-0.1439223
40
0.7363054
50
179.6344971
51
191.7836758
0
ARC
8
DEFAULT_255_1_388
10
12.7565464
20
-0.0675505
40
1.3642984
50
171.4523743
51
180.3158856
0
ARC
8
DEFAULT_255_1_388
10
12.2621191
20
0.0093895
40
0.8639311
50
157.9802296
51
171.6246761
0
ARC
8
DEFAULT_255_1_388
10
12.0130542
20
0.1087038
40
0.5958004
50
141.4299236
51
157.8541251
0
ARC
8
DEFAULT_255_1_388
10
11.9408625
20
0.1597746
40
0.5075416
50
102.871586
51
140.8564533
0
ARC
8
DEFAULT_255_1_388
10
12.0137178
20
-0.1147057
40
0.7914163
50
90.377773
51
103.5868422
0
ARC
8
DEFAULT_255_1_388
10
11.8181699
20
-0.1827457
40
0.2667015
50
89.8751238
51
126.2072139
0
ARC
8
DEFAULT_255_1_388
10
11.823317
20
-0.2001153
40
0.2838229
50
124.9742447
51
144.8960197
0
ARC
8
DEFAULT_255_1_388
10
11.8035415
20
-0.1840019
40
0.2583845
50
145.2974778
51
160.2660922
0
ARC
8
DEFAULT_255_1_388
10
12.1491903
20
-0.1617849
40
0.5888695
50
179.6512124
51
190.285571
0
ARC
8
DEFAULT_255_1_388
10
11.9586383
20
-0.1977032
40
0.3949683
50
190.0944895
51
207.5099647
0
ARC
8
DEFAULT_255_1_388
10
11.8949965
20
-0.2279823
40
0.3245464
50
207.9585471
51
216.325377
0
ARC
8
DEFAULT_255_1_388
10
11.8567602
20
-0.2594288
40
0.2751259
50
215.7661336
51
232.5457193
0
ARC
8
DEFAULT_255_1_388
10
11.8136718
20
-0.3141727
40
0.2054668
50
232.8005815
51
270.6605497
0
ARC
8
DEFAULT_255_1_388
10
11.8188142
20
-0.2732147
40
0.2464268
50
269.3550767
51
288.474612
0
ARC
8
DEFAULT_255_1_388
10
11.8292649
20
-0.3125279
40
0.2058436
50
289.1831976
51
322.9685307
0
ARC
8
DEFAULT_255_1_388
10
11.7604751
20
-0.2582721
40
0.2934408
50
322.6007085
51
346.5183319
0
ARC
8
DEFAULT_255_1_388
10
11.6302507
20
-0.2250566
40
0.4278249
50
346.2584622
51
358.7739592
0
ARC
8
DEFAULT_255_1_388
10
11.5151082
20
-0.2188171
40
0.5430876
50
358.3757628
51
0.0082477
0
ARC
8
DEFAULT_255_1_388
10
11.60079
20
-0.2157144
40
0.4574157
50
359.6211417
51
11.28403
0
ARC
8
DEFAULT_255_1_388
10
11.7444507
20
-0.1857465
40
0.3106708
50
11.0483152
51
31.8145585
0
ARC
8
DEFAULT_255_1_388
10
11.7792212
20
-0.1668955
40
0.2711963
50
32.3028554
51
38.0820598
0
ARC
8
DEFAULT_255_1_388
10
11.8265445
20
-0.1240283
40
0.2075566
50
36.8249851
51
85.741667
0
ARC
8
DEFAULT_255_1_388
10
11.8189857
20
-0.1803935
40
0.2643487
50
85.0150021
51
90.050843
0
LINE
8
DEFAULT_255_1_388
10
13.2301188
20
0.1499153
11
13.2301188
21
0.1011229
0
LINE
8
DEFAULT_255_1_388
10
12.6202128
20
-0.6407036
11
12.5876845
21
-0.6407036
0
LINE
8
DEFAULT_255_1_388
10
12.5876845
20
-0.6407036
11
12.5876845
21
-0.4997475
0
LINE
8
DEFAULT_255_1_388
10
12.5876845
20
-0.4997475
11
12.6229235
21
-0.4997475
0
LINE
8
DEFAULT_255_1_388
10
13.0629594
20
0.117387
11
13.0629594
21
0.1842508
0
ARC
8
DEFAULT_255_1_388
10
12.7486686
20
0.2012877
40
0.4089973
50
297.4036461
51
320.0168133
0
ARC
8
DEFAULT_255_1_388
10
12.7812866
20
0.1386072
40
0.3383378
50
270.2631886
51
297.3852322
0
ARC
8
DEFAULT_255_1_388
10
12.7774542
20
0.1923343
40
0.3920983
50
269.9969069
51
270.7871389
0
ARC
8
DEFAULT_255_1_388
10
12.7745866
20
0.1905737
40
0.3903482
50
254.5997295
51
270.4178147
0
ARC
8
DEFAULT_255_1_388
10
12.7585397
20
0.1270693
40
0.3248657
50
236.4717231
51
254.3539376
0
ARC
8
DEFAULT_255_1_388
10
12.7761129
20
0.1506999
40
0.3542746
50
208.4727261
51
236.2134628
0
ARC
8
DEFAULT_255_1_388
10
12.8479892
20
0.1946676
40
0.4384402
50
204.3450776
51
209.0455365
0
ARC
8
DEFAULT_255_1_388
10
12.9244268
20
0.22708
40
0.5214459
50
183.9375459
51
204.1275509
0
ARC
8
DEFAULT_255_1_388
10
13.0266574
20
0.2380863
40
0.6242037
50
179.9652726
51
184.3010611
0
ARC
8
DEFAULT_255_1_388
10
12.999612
20
0.2418004
40
0.5971675
50
166.7585952
51
180.3200491
0
ARC
8
DEFAULT_255_1_388
10
12.9043928
20
0.2624979
40
0.4997418
50
154.6954866
51
166.5679151
0
ARC
8
DEFAULT_255_1_388
10
12.8084168
20
0.3108411
40
0.3923208
50
136.3325251
51
155.0871367
0
ARC
8
DEFAULT_255_1_388
10
12.7768087
20
0.3379271
40
0.3507618
50
121.2365985
51
135.9680081
0
ARC
8
DEFAULT_255_1_388
10
12.7926152
20
0.3086541
40
0.3839917
50
96.8454764
51
120.9881329
0
ARC
8
DEFAULT_255_1_388
10
12.8089958
20
0.2033942
40
0.4904679
50
89.887204
51
97.2797758
0
ARC
8
DEFAULT_255_1_388
10
12.8148931
20
0.2751652
40
0.418725
50
70.6505767
51
90.6748382
0
ARC
8
DEFAULT_255_1_388
10
12.8296628
20
0.3329091
40
0.3593866
50
36.7493297
51
69.8220487
0
ARC
8
DEFAULT_255_1_388
10
12.7172975
20
0.2453446
40
0.5018201
50
15.3958155
51
37.0841102
0
ARC
8
DEFAULT_255_1_388
10
12.477726
20
0.1755111
40
0.7513436
50
3.9487796
51
15.6798517
0
ARC
8
DEFAULT_255_1_388
10
12.2075902
20
0.151181
40
1.0225293
50
359.9290791
51
4.266464
0
ARC
8
DEFAULT_255_1_388
10
11.6894819
20
0.0936372
40
1.5406551
50
352.8365702
51
0.2783851
0
ARC
8
DEFAULT_255_1_388
10
12.284305
20
0.0163664
40
0.9408425
50
341.8359339
51
352.9884057
0
ARC
8
DEFAULT_255_1_388
10
12.6464037
20
-0.1056856
40
0.5587481
50
322.8579243
51
342.1527461
0
ARC
8
DEFAULT_255_1_388
10
12.7435729
20
-0.171965
40
0.4413099
50
319.3348471
51
322.100194
0
ARC
8
DEFAULT_255_1_388
10
12.708766
20
-0.1370186
40
0.4904992
50
285.954114
51
318.8878716
0
ARC
8
DEFAULT_255_1_388
10
12.6270098
20
0.1228865
40
0.7628991
50
272.9280841
51
286.4924389
0
ARC
8
DEFAULT_255_1_388
10
12.6056402
20
0.376324
40
1.017132
50
270.8209173
51
273.4010121
0
ARC
8
DEFAULT_255_1_388
10
12.6156425
20
0.1715073
40
0.6712943
50
270.6214576
51
281.4062333
0
ARC
8
DEFAULT_255_1_388
10
12.6640149
20
-0.059775
40
0.4350167
50
281.1852583
51
299.0622058
0
ARC
8
DEFAULT_255_1_388
10
12.7060394
20
-0.1408862
40
0.3437146
50
299.5068171
51
313.1200142
0
ARC
8
DEFAULT_255_1_388
10
12.7085132
20
-0.1498041
40
0.3355418
50
313.8525725
51
338.5989631
0
ARC
8
DEFAULT_255_1_388
10
12.525826
20
-0.0747424
40
0.5330317
50
338.2523315
51
351.2431701
0
ARC
8
DEFAULT_255_1_388
10
12.2546011
20
-0.0286506
40
0.8081235
50
350.940933
51
357.6690137
0
ARC
8
DEFAULT_255_1_388
10
12.8047891
20
0.1966048
40
0.2581236
50
269.9447107
51
306.8249644
0
ARC
8
DEFAULT_255_1_388
10
12.7781193
20
0.244206
40
0.3122948
50
305.5071046
51
327.0773808
0
ARC
8
DEFAULT_255_1_388
10
12.7914244
20
0.2335445
40
0.2953369
50
327.4106457
51
336.8396801
0
ARC
8
DEFAULT_255_1_388
10
12.4433958
20
0.1878932
40
0.6195743
50
359.663158
51
10.1176387
0
ARC
8
DEFAULT_255_1_388
10
12.6406721
20
0.2243922
40
0.4189561
50
9.9431549
51
26.7699242
0
ARC
8
DEFAULT_255_1_388
10
12.7078707
20
0.2553796
40
0.3450125
50
27.2018067
51
34.6833639
0
ARC
8
DEFAULT_255_1_388
10
12.762932
20
0.296756
40
0.2762035
50
34.124913
51
50.30709
0
ARC
8
DEFAULT_255_1_388
10
12.8131803
20
0.3568741
40
0.1978518
50
50.3850304
51
90.6705051
0
ARC
8
DEFAULT_255_1_388
10
12.8079196
20
0.3226074
40
0.2321235
50
89.2729817
51
111.9140267
0
ARC
8
DEFAULT_255_1_388
10
12.8057284
20
0.3384308
40
0.2166604
50
112.9381864
51
142.5320936
0
ARC
8
DEFAULT_255_1_388
10
12.8671773
20
0.2885392
40
0.2957902
50
142.1024021
51
166.3835244
0
ARC
8
DEFAULT_255_1_388
10
13.0000743
20
0.2542213
40
0.4330361
50
166.1100968
51
178.6653563
0
ARC
8
DEFAULT_255_1_388
10
13.1182668
20
0.2476061
40
0.5513642
50
178.2641888
51
180.010994
0
ARC
8
DEFAULT_255_1_388
10
13.027717
20
0.2444136
40
0.4608248
50
179.6162225
51
191.8786013
0
ARC
8
DEFAULT_255_1_388
10
12.890448
20
0.214059
40
0.3202502
50
191.6192934
51
215.2970746
0
ARC
8
DEFAULT_255_1_388
10
12.8665135
20
0.1997963
40
0.2924827
50
215.7258926
51
216.5355437
0
ARC
8
DEFAULT_255_1_388
10
12.8076755
20
0.1524919
40
0.2170661
50
215.7486606
51
239.9728403
0
ARC
8
DEFAULT_255_1_388
10
12.7997921
20
0.1467838
40
0.208217
50
241.065081
51
269.280972
0
ARC
8
DEFAULT_255_1_388
10
12.8045079
20
0.2023327
40
0.2638514
50
268.4083352
51
270.0069622
0
LINE
8
DEFAULT_255_1_388
10
13.8255678
20
-0.0127263
11
13.8255678
21
-0.1491645
0
LINE
8
DEFAULT_255_1_388
10
13.8255678
20
-0.1491645
11
13.3846284
21
-0.1491645
0
LINE
8
DEFAULT_255_1_388
10
13.3846284
20
-0.1491645
11
13.3846284
21
-0.0127263
0
LINE
8
DEFAULT_255_1_388
10
13.3846284
20
-0.0127263
11
13.8255678
21
-0.0127263
0
LINE
8
DEFAULT_255_1_388
10
14.1888007
20
0.6757898
11
14.1888007
21
-0.4979404
0
LINE
8
DEFAULT_255_1_388
10
14.1888007
20
-0.4979404
11
14.8122602
21
-0.4979404
0
LINE
8
DEFAULT_255_1_388
10
14.8122602
20
-0.4979404
11
14.8122602
21
-0.6398
0
LINE
8
DEFAULT_255_1_388
10
14.8122602
20
-0.6398
11
14.0144128
21
-0.6398
0
LINE
8
DEFAULT_255_1_388
10
14.0144128
20
-0.6398
11
14.0144128
21
0.6757898
0
LINE
8
DEFAULT_255_1_388
10
14.0144128
20
0.6757898
11
14.1888007
21
0.6757898
0
LINE
8
DEFAULT_255_1_388
10
15.2098286
20
-0.0371225
11
15.2098286
21
0.0993157
0
LINE
8
DEFAULT_255_1_388
10
15.2098286
20
0.0993157
11
15.335424
21
0.0993157
0
LINE
8
DEFAULT_255_1_388
10
15.1212792
20
0.3306282
11
14.9541198
21
0.3306282
0
LINE
8
DEFAULT_255_1_388
10
14.9423735
20
-0.2928313
11
15.1104365
21
-0.2928313
0
LINE
8
DEFAULT_255_1_388
10
15.335424
20
-0.0371225
11
15.2098286
21
-0.0371225
0
ARC
8
DEFAULT_255_1_388
10
15.3321467
20
0.4809922
40
0.3816905
50
270.491971
51
281.8953028
0
ARC
8
DEFAULT_255_1_388
10
15.3592894
20
0.3570199
40
0.2547877
50
281.6690378
51
301.2943765
0
ARC
8
DEFAULT_255_1_388
10
15.3784345
20
0.3219926
40
0.2149197
50
301.7834992
51
311.754567
0
ARC
8
DEFAULT_255_1_388
10
15.3887386
20
0.310565
40
0.1995326
50
311.7325027
51
354.2803031
0
ARC
8
DEFAULT_255_1_388
10
15.3069802
20
0.324628
40
0.2823461
50
353.0941646
51
0.1174696
0
ARC
8
DEFAULT_255_1_388
10
15.255136
20
0.3299874
40
0.3342238
50
359.1804452
51
15.0452323
0
ARC
8
DEFAULT_255_1_388
10
15.4065419
20
0.3741546
40
0.1765747
50
13.957816
51
77.6713812
0
ARC
8
DEFAULT_255_1_388
10
15.3630654
20
0.2183464
40
0.3381982
50
76.111571
51
90.7028736
0
ARC
8
DEFAULT_255_1_388
10
15.3564066
20
0.249125
40
0.3074046
50
89.5321574
51
103.5319393
0
ARC
8
DEFAULT_255_1_388
10
15.333845
20
0.3390443
40
0.2147041
50
103.2930114
51
133.5619756
0
ARC
8
DEFAULT_255_1_388
10
15.3288392
20
0.3457351
40
0.2064084
50
133.8349761
51
173.5343225
0
ARC
8
DEFAULT_255_1_388
10
15.4102049
20
0.3313144
40
0.2889266
50
172.5097183
51
180.1360699
0
ARC
8
DEFAULT_255_1_388
10
15.3031813
20
0.335188
40
0.3490913
50
155.3483706
51
180.7484035
0
ARC
8
DEFAULT_255_1_388
10
15.2976789
20
0.3319519
40
0.3454798
50
131.5745177
51
154.4799474
0
ARC
8
DEFAULT_255_1_388
10
15.3329071
20
0.2963422
40
0.3955058
50
96.9874487
51
131.9690874
0
ARC
8
DEFAULT_255_1_388
10
15.3575964
20
0.1562407
40
0.537622
50
89.8592909
51
97.7827481
0
ARC
8
DEFAULT_255_1_388
10
15.3630073
20
0.126736
40
0.5671399
50
78.3654493
51
90.4132586
0
ARC
8
DEFAULT_255_1_388
10
15.4032714
20
0.3133918
40
0.3762034
50
56.6229818
51
78.6387103
0
ARC
8
DEFAULT_255_1_388
10
15.4274543
20
0.3556846
40
0.3275964
50
47.0254604
51
56.085558
0
ARC
8
DEFAULT_255_1_388
10
15.4296794
20
0.3601189
40
0.3228382
50
10.9207523
51
46.777927
0
ARC
8
DEFAULT_255_1_388
10
15.2762388
20
0.3246401
40
0.4802559
50
359.6364235
51
11.6087615
0
ARC
8
DEFAULT_255_1_388
10
15.4826554
20
0.3229404
40
0.273833
50
332.3549969
51
359.7179765
0
ARC
8
DEFAULT_255_1_388
10
15.4094955
20
0.3576285
40
0.3547505
50
325.2332381
51
332.8746682
0
ARC
8
DEFAULT_255_1_388
10
15.4266537
20
0.3456763
40
0.3338396
50
292.9803892
51
325.2391113
0
ARC
8
DEFAULT_255_1_388
10
15.3955733
20
0.4061679
40
0.4016959
50
292.542178
51
293.6931461
0
ARC
8
DEFAULT_255_1_388
10
15.4399305
20
-0.3203964
40
0.372079
50
57.643292
51
72.8626085
0
ARC
8
DEFAULT_255_1_388
10
15.479814
20
-0.2557727
40
0.2961455
50
36.7246661
51
57.4701329
0
ARC
8
DEFAULT_255_1_388
10
15.4785296
20
-0.254353
40
0.2963321
50
8.054535
51
36.3561529
0
ARC
8
DEFAULT_255_1_388
10
15.3814969
20
-0.2717927
40
0.3948682
50
359.8316595
51
8.5873361
0
ARC
8
DEFAULT_255_1_388
10
15.3392443
20
-0.277203
40
0.4371398
50
343.9831631
51
0.557075
0
ARC
8
DEFAULT_255_1_388
10
15.4389493
20
-0.3045037
40
0.3337749
50
311.6358204
51
343.7652116
0
ARC
8
DEFAULT_255_1_388
10
15.3963746
20
-0.2565045
40
0.3979351
50
279.7829743
51
311.625622
0
ARC
8
DEFAULT_255_1_388
10
15.3624882
20
-0.0948358
40
0.5630417
50
269.7285092
51
280.3857694
0
ARC
8
DEFAULT_255_1_388
10
15.3555195
20
-0.0994759
40
0.5584119
50
256.6827433
51
270.4412869
0
ARC
8
DEFAULT_255_1_388
10
15.3174181
20
-0.2552302
40
0.3980715
50
229.4223821
51
256.8554507
0
ARC
8
DEFAULT_255_1_388
10
15.2707735
20
-0.3077317
40
0.3278564
50
181.8183354
51
229.6455015
0
ARC
8
DEFAULT_255_1_388
10
15.3877344
20
-0.2930175
40
0.4453611
50
179.9760419
51
183.2330638
0
ARC
8
DEFAULT_255_1_388
10
15.3683897
20
-0.2953219
40
0.2579652
50
179.4467996
51
196.2871626
0
ARC
8
DEFAULT_255_1_388
10
15.313535
20
-0.3103291
40
0.2011057
50
196.5661293
51
227.7059371
0
ARC
8
DEFAULT_255_1_388
10
15.3319957
20
-0.2896845
40
0.2287994
50
227.7653015
51
257.8763321
0
ARC
8
DEFAULT_255_1_388
10
15.3573041
20
-0.1836039
40
0.3378385
50
257.4583525
51
270.4267406
0
ARC
8
DEFAULT_255_1_388
10
15.362429
20
-0.150977
40
0.3704652
50
269.5965319
51
280.8788143
0
ARC
8
DEFAULT_255_1_388
10
15.3882518
20
-0.2799471
40
0.2389415
50
280.6347277
51
299.8594068
0
ARC
8
DEFAULT_255_1_388
10
15.4097288
20
-0.3207264
40
0.19289
50
300.3575552
51
314.5515667
0
ARC
8
DEFAULT_255_1_388
10
15.4003964
20
-0.3138975
40
0.204312
50
315.0730962
51
345.0429362
0
ARC
8
DEFAULT_255_1_388
10
15.2965471
20
-0.2836461
40
0.31246
50
344.598526
51
357.9270698
0
ARC
8
DEFAULT_255_1_388
10
15.1955776
20
-0.2767295
40
0.4136265
50
357.4755098
51
0.0224936
0
ARC
8
DEFAULT_255_1_388
10
15.3108653
20
-0.2739901
40
0.2983498
50
359.5051035
51
13.4236939
0
ARC
8
DEFAULT_255_1_388
10
15.4083743
20
-0.2490363
40
0.1977186
50
12.9497905
51
48.7550905
0
ARC
8
DEFAULT_255_1_388
10
15.3878665
20
-0.2770627
40
0.2323321
50
49.509109
51
72.1832965
0
ARC
8
DEFAULT_255_1_388
10
15.3476134
20
-0.3965368
40
0.358397
50
71.9008458
51
84.3555134
0
ARC
8
DEFAULT_255_1_388
10
15.3294528
20
-0.5497288
40
0.512641
50
84.019632
51
89.3326067
0
LINE
8
DEFAULT_255_1_388
10
16.2489277
20
-0.0371225
11
16.2489277
21
0.0993157
0
LINE
8
DEFAULT_255_1_388
10
16.2489277
20
0.0993157
11
16.3745231
21
0.0993157
0
LINE
8
DEFAULT_255_1_388
10
16.1603784
20
0.3306282
11
15.9932189
21
0.3306282
0
LINE
8
DEFAULT_255_1_388
10
15.9814726
20
-0.2928313
11
16.1495356
21
-0.2928313
0
LINE
8
DEFAULT_255_1_388
10
16.3745231
20
-0.0371225
11
16.2489277
21
-0.0371225
0
ARC
8
DEFAULT_255_1_388
10
16.3712458
20
0.4809922
40
0.3816905
50
270.491971
51
281.8953028
0
ARC
8
DEFAULT_255_1_388
10
16.3983885
20
0.3570199
40
0.2547877
50
281.6690378
51
301.2943765
0
ARC
8
DEFAULT_255_1_388
10
16.4175336
20
0.3219926
40
0.2149197
50
301.7834992
51
311.754567
0
ARC
8
DEFAULT_255_1_388
10
16.4278378
20
0.310565
40
0.1995326
50
311.7325027
51
354.2803031
0
ARC
8
DEFAULT_255_1_388
10
16.3460794
20
0.324628
40
0.2823461
50
353.0941646
51
0.1174696
0
ARC
8
DEFAULT_255_1_388
10
16.2942351
20
0.3299874
40
0.3342238
50
359.1804452
51
15.0452323
0
ARC
8
DEFAULT_255_1_388
10
16.445641
20
0.3741546
40
0.1765747
50
13.957816
51
77.6713812
0
ARC
8
DEFAULT_255_1_388
10
16.4021646
20
0.2183464
40
0.3381982
50
76.111571
51
90.7028736
0
ARC
8
DEFAULT_255_1_388
10
16.3955058
20
0.249125
40
0.3074046
50
89.5321574
51
103.5319393
0
ARC
8
DEFAULT_255_1_388
10
16.3729441
20
0.3390443
40
0.2147041
50
103.2930114
51
133.5619756
0
ARC
8
DEFAULT_255_1_388
10
16.3679383
20
0.3457351
40
0.2064084
50
133.8349761
51
173.5343225
0
ARC
8
DEFAULT_255_1_388
10
16.449304
20
0.3313144
40
0.2889266
50
172.5097183
51
180.1360699
0
ARC
8
DEFAULT_255_1_388
10
16.3422804
20
0.335188
40
0.3490913
50
155.3483706
51
180.7484035
0
ARC
8
DEFAULT_255_1_388
10
16.336778
20
0.3319519
40
0.3454798
50
131.5745177
51
154.4799474
0
ARC
8
DEFAULT_255_1_388
10
16.3720062
20
0.2963422
40
0.3955058
50
96.9874487
51
131.9690874
0
ARC
8
DEFAULT_255_1_388
10
16.3966955
20
0.1562407
40
0.537622
50
89.8592909
51
97.7827481
0
ARC
8
DEFAULT_255_1_388
10
16.4021064
20
0.126736
40
0.5671399
50
78.3654493
51
90.4132586
0
ARC
8
DEFAULT_255_1_388
10
16.4423705
20
0.3133918
40
0.3762034
50
56.6229818
51
78.6387103
0
ARC
8
DEFAULT_255_1_388
10
16.4665535
20
0.3556846
40
0.3275964
50
47.0254604
51
56.085558
0
ARC
8
DEFAULT_255_1_388
10
16.4687786
20
0.3601189
40
0.3228382
50
10.9207523
51
46.777927
0
ARC
8
DEFAULT_255_1_388
10
16.3153379
20
0.3246401
40
0.4802559
50
359.6364235
51
11.6087615
0
ARC
8
DEFAULT_255_1_388
10
16.5217545
20
0.3229404
40
0.273833
50
332.3549969
51
359.7179765
0
ARC
8
DEFAULT_255_1_388
10
16.4485946
20
0.3576285
40
0.3547505
50
325.2332381
51
332.8746682
0
ARC
8
DEFAULT_255_1_388
10
16.4657529
20
0.3456763
40
0.3338396
50
292.9803892
51
325.2391113
0
ARC
8
DEFAULT_255_1_388
10
16.4346724
20
0.4061679
40
0.4016959
50
292.542178
51
293.6931461
0
ARC
8
DEFAULT_255_1_388
10
16.4790296
20
-0.3203964
40
0.372079
50
57.643292
51
72.8626085
0
ARC
8
DEFAULT_255_1_388
10
16.5189131
20
-0.2557727
40
0.2961455
50
36.7246661
51
57.4701329
0
ARC
8
DEFAULT_255_1_388
10
16.5176288
20
-0.254353
40
0.2963321
50
8.054535
51
36.3561529
0
ARC
8
DEFAULT_255_1_388
10
16.420596
20
-0.2717927
40
0.3948682
50
359.8316595
51
8.5873361
0
ARC
8
DEFAULT_255_1_388
10
16.3783434
20
-0.277203
40
0.4371398
50
343.9831631
51
0.557075
0
ARC
8
DEFAULT_255_1_388
10
16.4780484
20
-0.3045037
40
0.3337749
50
311.6358204
51
343.7652116
0
ARC
8
DEFAULT_255_1_388
10
16.4354738
20
-0.2565045
40
0.3979351
50
279.7829743
51
311.625622
0
ARC
8
DEFAULT_255_1_388
10
16.4015873
20
-0.0948358
40
0.5630417
50
269.7285092
51
280.3857694
0
ARC
8
DEFAULT_255_1_388
10
16.3946186
20
-0.0994759
40
0.5584119
50
256.6827433
51
270.4412869
0
ARC
8
DEFAULT_255_1_388
10
16.3565172
20
-0.2552302
40
0.3980715
50
229.4223821
51
256.8554507
0
ARC
8
DEFAULT_255_1_388
10
16.3098726
20
-0.3077317
40
0.3278564
50
181.8183354
51
229.6455015
0
ARC
8
DEFAULT_255_1_388
10
16.4268335
20
-0.2930175
40
0.4453611
50
179.9760419
51
183.2330638
0
ARC
8
DEFAULT_255_1_388
10
16.4074888
20
-0.2953219
40
0.2579652
50
179.4467996
51
196.2871626
0
ARC
8
DEFAULT_255_1_388
10
16.3526341
20
-0.3103291
40
0.2011057
50
196.5661293
51
227.7059371
0
ARC
8
DEFAULT_255_1_388
10
16.3710948
20
-0.2896845
40
0.2287994
50
227.7653015
51
257.8763321
0
ARC
8
DEFAULT_255_1_388
10
16.3964032
20
-0.1836039
40
0.3378385
50
257.4583525
51
270.4267406
0
ARC
8
DEFAULT_255_1_388
10
16.4015281
20
-0.150977
40
0.3704652
50
269.5965319
51
280.8788143
0
ARC
8
DEFAULT_255_1_388
10
16.4273509
20
-0.2799471
40
0.2389415
50
280.6347277
51
299.8594068
0
ARC
8
DEFAULT_255_1_388
10
16.4488279
20
-0.3207264
40
0.19289
50
300.3575552
51
314.5515667
0
ARC
8
DEFAULT_255_1_388
10
16.4394955
20
-0.3138975
40
0.204312
50
315.0730962
51
345.0429362
0
ARC
8
DEFAULT_255_1_388
10
16.3356462
20
-0.2836461
40
0.31246
50
344.598526
51
357.9270698
0
ARC
8
DEFAULT_255_1_388
10
16.2346767
20
-0.2767295
40
0.4136265
50
357.4755098
51
0.0224936
0
ARC
8
DEFAULT_255_1_388
10
16.3499645
20
-0.2739901
40
0.2983498
50
359.5051035
51
13.4236939
0
ARC
8
DEFAULT_255_1_388
10
16.4474734
20
-0.2490363
40
0.1977186
50
12.9497905
51
48.7550905
0
ARC
8
DEFAULT_255_1_388
10
16.4269656
20
-0.2770627
40
0.2323321
50
49.509109
51
72.1832965
0
ARC
8
DEFAULT_255_1_388
10
16.3867125
20
-0.3965368
40
0.358397
50
71.9008458
51
84.3555134
0
ARC
8
DEFAULT_255_1_388
10
16.3685519
20
-0.5497288
40
0.512641
50
84.019632
51
89.3326067
0
LINE
8
DEFAULT_255_1_388
10
17.8319726
20
0.1101585
11
17.8319726
21
-0.0317011
0
LINE
8
DEFAULT_255_1_388
10
17.8319726
20
-0.0317011
11
17.2618234
21
-0.0317011
0
LINE
8
DEFAULT_255_1_388
10
17.2618234
20
-0.0317011
11
17.2618234
21
-0.4979404
0
LINE
8
DEFAULT_255_1_388
10
17.2618234
20
-0.4979404
11
17.9241362
21
-0.4979404
0
LINE
8
DEFAULT_255_1_388
10
17.9241362
20
-0.4979404
11
17.9241362
21
-0.6398
0
LINE
8
DEFAULT_255_1_388
10
17.9241362
20
-0.6398
11
17.0883391
21
-0.6398
0
LINE
8
DEFAULT_255_1_388
10
17.0883391
20
-0.6398
11
17.0883391
21
0.6757898
0
LINE
8
DEFAULT_255_1_388
10
17.0883391
20
0.6757898
11
17.9151005
21
0.6757898
0
LINE
8
DEFAULT_255_1_388
10
17.9151005
20
0.6757898
11
17.9151005
21
0.5330267
0
LINE
8
DEFAULT_255_1_388
10
17.9151005
20
0.5330267
11
17.2618234
21
0.5330267
0
LINE
8
DEFAULT_255_1_388
10
17.2618234
20
0.5330267
11
17.2618234
21
0.1101585
0
LINE
8
DEFAULT_255_1_388
10
17.2618234
20
0.1101585
11
17.8319726
21
0.1101585
0
LINE
8
DEFAULT_255_1_388
10
18.9081179
20
-0.6398
11
18.6225915
21
-0.1076005
0
LINE
8
DEFAULT_255_1_388
10
18.6225915
20
-0.1076005
11
18.3135725
21
-0.1076005
0
LINE
8
DEFAULT_255_1_388
10
18.3135725
20
-0.1076005
11
18.3135725
21
-0.6398
0
LINE
8
DEFAULT_255_1_388
10
18.3135725
20
-0.6398
11
18.1391845
21
-0.6398
0
LINE
8
DEFAULT_255_1_388
10
18.1391845
20
-0.6398
11
18.1391845
21
0.6757898
0
LINE
8
DEFAULT_255_1_388
10
18.1391845
20
0.6757898
11
18.5747026
21
0.6757898
0
LINE
8
DEFAULT_255_1_388
10
18.7852331
20
-0.0705544
11
19.0942521
21
-0.6289572
0
LINE
8
DEFAULT_255_1_388
10
19.0942521
20
-0.6289572
11
19.0942521
21
-0.6398
0
LINE
8
DEFAULT_255_1_388
10
19.0942521
20
-0.6398
11
18.9081179
21
-0.6398
0
LINE
8
DEFAULT_255_1_388
10
18.3135725
20
0.5330267
11
18.3135725
21
0.0342591
0
LINE
8
DEFAULT_255_1_388
10
18.3135725
20
0.0342591
11
18.580124
21
0.0342591
0
LINE
8
DEFAULT_255_1_388
10
18.5792204
20
0.5330267
11
18.3135725
21
0.5330267
0
ARC
8
DEFAULT_255_1_388
10
18.5793872
20
-0.1073654
40
0.7831693
50
80.6535681
51
90.3427203
0
ARC
8
DEFAULT_255_1_388
10
18.6265782
20
0.1696722
40
0.5021479
50
65.6987674
51
80.8330164
0
ARC
8
DEFAULT_255_1_388
10
18.6803076
20
0.2928479
40
0.3677787
50
50.0019152
51
65.4304412
0
ARC
8
DEFAULT_255_1_388
10
18.7048892
20
0.3260603
40
0.3265454
50
11.6284215
51
49.5603681
0
ARC
8
DEFAULT_255_1_388
10
18.5321378
20
0.2838524
40
0.5043009
50
359.5655533
51
12.3693319
0
ARC
8
DEFAULT_255_1_388
10
18.6532715
20
0.2768038
40
0.3831661
50
341.998418
51
0.4822212
0
ARC
8
DEFAULT_255_1_388
10
18.6976901
20
0.2647479
40
0.3372036
50
323.8610842
51
341.6141514
0
ARC
8
DEFAULT_255_1_388
10
18.6637447
20
0.2909615
40
0.3800784
50
296.7019299
51
323.6876213
0
ARC
8
DEFAULT_255_1_388
10
18.6141405
20
0.3796532
40
0.4816219
50
290.808313
51
297.2325929
0
ARC
8
DEFAULT_255_1_388
10
18.5830199
20
0.4385377
40
0.404289
50
269.5895908
51
281.8058892
0
ARC
8
DEFAULT_255_1_388
10
18.6112465
20
0.309436
40
0.2721459
50
281.5499321
51
303.9358954
0
ARC
8
DEFAULT_255_1_388
10
18.6267
20
0.2826588
40
0.2413121
50
304.4410786
51
311.211123
0
ARC
8
DEFAULT_255_1_388
10
18.6415405
20
0.2670152
40
0.2197678
50
310.9874923
51
356.2715203
0
ARC
8
DEFAULT_255_1_388
10
18.5565151
20
0.2796992
40
0.3055212
50
354.9346315
51
0.0617816
0
ARC
8
DEFAULT_255_1_388
10
18.5353992
20
0.2827427
40
0.3266482
50
359.5239293
51
12.8808621
0
ARC
8
DEFAULT_255_1_388
10
18.6453755
20
0.3096638
40
0.2134449
50
12.417206
51
43.1023141
0
ARC
8
DEFAULT_255_1_388
10
18.6523085
20
0.3138253
40
0.2055463
50
43.575886
51
48.2047245
0
ARC
8
DEFAULT_255_1_388
10
18.6332346
20
0.2889151
40
0.2368418
50
48.7809155
51
72.6968768
0
ARC
8
DEFAULT_255_1_388
10
18.593371
20
0.1679385
40
0.364206
50
72.3699892
51
84.8793749
0
ARC
8
DEFAULT_255_1_388
10
18.5767715
20
0.0169651
40
0.5160674
50
84.5398226
51
89.7281165
0
LINE
8
DEFAULT_255_1_388
10
6.826632
20
149.9287468
11
7.0010199
21
149.9287468
0
LINE
8
DEFAULT_255_1_388
10
5.9881242
20
150.1076525
11
5.9881242
21
150.2341516
0
LINE
8
DEFAULT_255_1_388
10
7.0010199
20
150.4040217
11
6.826632
21
150.4040217
0
LINE
8
DEFAULT_255_1_388
10
6.1625121
20
150.2296337
11
6.1625121
21
150.1022312
0
ARC
8
DEFAULT_255_1_388
10
6.3844433
20
149.9959329
40
0.6202263
50
340.1774904
51
353.7812217
0
ARC
8
DEFAULT_255_1_388
10
6.5612286
20
149.9300893
40
0.4315926
50
311.4560052
51
340.4420756
0
ARC
8
DEFAULT_255_1_388
10
6.5574826
20
149.9425665
40
0.4434573
50
282.4332229
51
310.7514507
0
ARC
8
DEFAULT_255_1_388
10
6.5080644
20
150.1467703
40
0.6535262
50
269.9358869
51
282.8096729
0
ARC
8
DEFAULT_255_1_388
10
6.5022583
20
150.2980329
40
0.8048043
50
269.9995752
51
270.3612856
0
ARC
8
DEFAULT_255_1_388
10
6.4963073
20
150.0181781
40
0.5249831
50
250.7885263
51
270.6488451
0
ARC
8
DEFAULT_255_1_388
10
6.4773898
20
149.9464853
40
0.4510942
50
219.3628377
51
250.0611024
0
ARC
8
DEFAULT_255_1_388
10
6.5706772
20
150.0257653
40
0.5735046
50
193.5480293
51
219.5755675
0
ARC
8
DEFAULT_255_1_388
10
6.8374981
20
150.095052
40
0.849146
50
181.1220183
51
193.8754971
0
ARC
8
DEFAULT_255_1_388
10
7.0698214
20
150.1074914
40
1.0816971
50
179.9914644
51
181.5398227
0
ARC
8
DEFAULT_255_1_388
10
6.8621525
20
150.2383586
40
0.8740384
50
169.5837606
51
180.275782
0
ARC
8
DEFAULT_255_1_388
10
6.6554873
20
150.2765439
40
0.6638751
50
155.0367033
51
169.6002779
0
ARC
8
DEFAULT_255_1_388
10
6.5277331
20
150.3381336
40
0.5220662
50
136.7831557
51
155.2472983
0
ARC
8
DEFAULT_255_1_388
10
6.4839122
20
150.3753577
40
0.4646502
50
121.7633063
51
136.4281161
0
ARC
8
DEFAULT_255_1_388
10
6.4990962
20
150.3473049
40
0.4964979
50
95.6460018
51
121.5489589
0
ARC
8
DEFAULT_255_1_388
10
6.5167936
20
150.2225704
40
0.6223912
50
89.9245727
51
96.1375919
0
ARC
8
DEFAULT_255_1_388
10
6.5224641
20
150.2359721
40
0.6090084
50
76.6779212
51
90.456405
0
ARC
8
DEFAULT_255_1_388
10
6.5667454
20
150.414906
40
0.42469
50
47.4858803
51
76.9287069
0
ARC
8
DEFAULT_255_1_388
10
6.5502068
20
150.4036623
40
0.4441778
50
16.5424081
51
46.8934505
0
ARC
8
DEFAULT_255_1_388
10
6.3693118
20
150.3442265
40
0.6345318
50
5.4072971
51
17.0363711
0
ARC
8
DEFAULT_255_1_388
10
6.2074843
20
150.3182304
40
0.6250632
50
7.8888693
51
15.9242022
0
ARC
8
DEFAULT_255_1_388
10
6.4309828
20
150.3831309
40
0.3923364
50
15.7650676
51
27.9410069
0
ARC
8
DEFAULT_255_1_388
10
6.5551997
20
150.4496317
40
0.2514401
50
27.8167196
51
46.4007942
0
ARC
8
DEFAULT_255_1_388
10
6.5607839
20
150.4489882
40
0.2480958
50
47.4372362
51
75.0695672
0
ARC
8
DEFAULT_255_1_388
10
6.5260675
20
150.3281277
40
0.3738281
50
74.7009379
51
87.8124314
0
ARC
8
DEFAULT_255_1_388
10
6.5178292
20
150.2097659
40
0.4924321
50
87.3802571
51
90.0251599
0
ARC
8
DEFAULT_255_1_388
10
6.5134939
20
150.3417997
40
0.3604218
50
89.3451886
51
108.5744412
0
ARC
8
DEFAULT_255_1_388
10
6.4980931
20
150.3995836
40
0.3007661
50
109.2998307
51
143.3037387
0
ARC
8
DEFAULT_255_1_388
10
6.5838221
20
150.3336584
40
0.4089031
50
143.075267
51
163.1918576
0
ARC
8
DEFAULT_255_1_388
10
6.8034055
20
150.2643652
40
0.6391492
50
162.9375929
51
174.6208776
0
ARC
8
DEFAULT_255_1_388
10
7.0988437
20
150.2319711
40
0.9363344
50
174.342123
51
180.1430283
0
ARC
8
DEFAULT_255_1_388
10
6.9940978
20
150.0976117
40
0.8315986
50
179.6817261
51
189.150555
0
ARC
8
DEFAULT_255_1_388
10
6.7127727
20
150.0507559
40
0.5464044
50
188.9911061
51
203.5772363
0
ARC
8
DEFAULT_255_1_388
10
6.5913019
20
150.0003539
40
0.4149206
50
203.9075402
51
215.1312435
0
ARC
8
DEFAULT_255_1_388
10
6.4874817
20
149.9198907
40
0.2837747
50
213.9071511
51
263.8848919
0
ARC
8
DEFAULT_255_1_388
10
6.501581
20
150.0081519
40
0.3730641
50
263.1757928
51
270.1031044
0
ARC
8
DEFAULT_255_1_388
10
6.505189
20
150.1484511
40
0.5133712
50
269.6722503
51
279.0606936
0
ARC
8
DEFAULT_255_1_388
10
6.5352045
20
149.967015
40
0.3294739
50
278.8749101
51
293.6349581
0
ARC
8
DEFAULT_255_1_388
10
6.5712249
20
149.8824251
40
0.2375405
50
293.8553806
51
310.0518171
0
ARC
8
DEFAULT_255_1_388
10
6.5717758
20
149.8754021
40
0.2318463
50
311.0644687
51
332.0111037
0
ARC
8
DEFAULT_255_1_388
10
6.4376431
20
149.9493702
40
0.3850112
50
331.6586806
51
343.2877423
0
ARC
8
DEFAULT_255_1_388
10
6.2055896
20
150.0206806
40
0.6277712
50
343.1446576
51
351.0103568
0
ARC
8
DEFAULT_255_1_388
10
6.042322
20
150.0506873
40
0.7937327
50
350.71248
51
351.1626997
0
LINE
8
DEFAULT_255_1_388
10
7.1672758
20
149.9974177
11
7.1672758
21
150.009164
0
LINE
8
DEFAULT_255_1_388
10
8.0572868
20
150.0010319
11
8.0572868
21
149.9892856
0
ARC
8
DEFAULT_255_1_388
10
7.7957202
20
150.012804
40
0.628455
50
166.3005265
51
180.3318609
0
ARC
8
DEFAULT_255_1_388
10
7.6986552
20
150.0345267
40
0.52901
50
153.8608648
51
166.0965672
0
ARC
8
DEFAULT_255_1_388
10
7.6237718
20
150.0746652
40
0.4441126
50
135.1317053
51
154.2534962
0
ARC
8
DEFAULT_255_1_388
10
7.5924369
20
150.1023431
40
0.4023863
50
121.7042632
51
134.7771455
0
ARC
8
DEFAULT_255_1_388
10
7.5999801
20
150.0878469
40
0.4186852
50
93.4001111
51
121.5399523
0
ARC
8
DEFAULT_255_1_388
10
7.6106635
20
149.9948759
40
0.5121521
50
89.9706387
51
93.9763381
0
ARC
8
DEFAULT_255_1_388
10
7.6159619
20
150.0388563
40
0.4681988
50
71.3321659
51
90.6162917
0
ARC
8
DEFAULT_255_1_388
10
7.6342653
20
150.1066003
40
0.3981841
50
41.1813875
51
70.7072086
0
ARC
8
DEFAULT_255_1_388
10
7.5805369
20
150.057813
40
0.4707474
50
12.1971434
51
41.3446641
0
ARC
8
DEFAULT_255_1_388
10
7.3638633
20
150.0062328
40
0.6934429
50
359.5702713
51
12.5803533
0
ARC
8
DEFAULT_255_1_388
10
7.4170949
20
149.9857207
40
0.6402018
50
347.0196754
51
0.3190452
0
ARC
8
DEFAULT_255_1_388
10
7.5249002
20
149.9625189
40
0.5299421
50
334.350439
51
346.8460534
0
ARC
8
DEFAULT_255_1_388
10
7.6200249
20
149.9131244
40
0.4228234
50
310.4228125
51
334.8045131
0
ARC
8
DEFAULT_255_1_388
10
7.6292227
20
149.9059301
40
0.4113892
50
301.8488154
51
310.0972985
0
ARC
8
DEFAULT_255_1_388
10
7.6255967
20
149.9144573
40
0.4205483
50
274.3078723
51
301.6554173
0
ARC
8
DEFAULT_255_1_388
10
7.6131423
20
150.0131943
40
0.5199658
50
269.954904
51
274.859116
0
ARC
8
DEFAULT_255_1_388
10
7.6076247
20
149.9568239
40
0.4636233
50
250.8887647
51
270.6313164
0
ARC
8
DEFAULT_255_1_388
10
7.5907407
20
149.8939405
40
0.398705
50
221.1701369
51
250.2227012
0
ARC
8
DEFAULT_255_1_388
10
7.6452073
20
149.9435716
40
0.4723796
50
191.6263861
51
221.3526879
0
ARC
8
DEFAULT_255_1_388
10
7.8575918
20
149.9927203
40
0.6903321
50
179.6101251
51
192.0694841
0
ARC
8
DEFAULT_255_1_388
10
7.9052266
20
149.9856681
40
0.5698993
50
179.636304
51
190.6161344
0
ARC
8
DEFAULT_255_1_388
10
7.7204598
20
149.9496635
40
0.3816643
50
190.4136062
51
208.7168709
0
ARC
8
DEFAULT_255_1_388
10
7.6630632
20
149.9211905
40
0.3176572
50
209.187109
51
217.4221816
0
ARC
8
DEFAULT_255_1_388
10
7.6035102
20
149.8687729
40
0.2385702
50
216.1156863
51
265.2575395
0
ARC
8
DEFAULT_255_1_388
10
7.6124139
20
149.9332608
40
0.3035941
50
264.5891546
51
270.0602378
0
ARC
8
DEFAULT_255_1_388
10
7.6161335
20
149.8905539
40
0.2609091
50
269.2532353
51
291.8793864
0
ARC
8
DEFAULT_255_1_388
10
7.6194214
20
149.8705359
40
0.241148
50
292.9269367
51
323.1777736
0
ARC
8
DEFAULT_255_1_388
10
7.57235
20
149.9118762
40
0.3036446
50
322.25666
51
323.087958
0
ARC
8
DEFAULT_255_1_388
10
7.5420757
20
149.9301332
40
0.3388345
50
323.6941379
51
343.8493587
0
ARC
8
DEFAULT_255_1_388
10
7.3645193
20
149.9841698
40
0.5244204
50
343.5746655
51
355.008149
0
ARC
8
DEFAULT_255_1_388
10
7.1386885
20
150.0075797
40
0.7514406
50
354.728272
51
0.1208026
0
ARC
8
DEFAULT_255_1_388
10
7.3375911
20
150.0127947
40
0.5525482
50
359.6235211
51
11.2016685
0
ARC
8
DEFAULT_255_1_388
10
7.5101738
20
150.0483284
40
0.3763527
50
10.9991302
51
30.8317616
0
ARC
8
DEFAULT_255_1_388
10
7.5547042
20
150.0717988
40
0.3260975
50
31.3007463
51
37.395541
0
ARC
8
DEFAULT_255_1_388
10
7.6105761
20
150.1189773
40
0.253082
50
36.5918894
51
62.2439906
0
ARC
8
DEFAULT_255_1_388
10
7.6158052
20
150.1186378
40
0.2509927
50
63.3364883
51
89.7193846
0
ARC
8
DEFAULT_255_1_388
10
7.6109506
20
150.0538375
40
0.3158485
50
88.8962924
51
90.004475
0
ARC
8
DEFAULT_255_1_388
10
7.6073933
20
150.1191071
40
0.250604
50
89.1923115
51
114.7099029
0
ARC
8
DEFAULT_255_1_388
10
7.6106275
20
150.1233675
40
0.2481307
50
115.7996284
51
142.2901353
0
ARC
8
DEFAULT_255_1_388
10
7.6574546
20
150.0814752
40
0.310833
50
141.4607507
51
142.383894
0
ARC
8
DEFAULT_255_1_388
10
7.6722397
20
150.0746449
40
0.3267335
50
143.0176473
51
163.2340089
0
ARC
8
DEFAULT_255_1_388
10
7.8497686
20
150.0184553
40
0.5129308
50
162.9446504
51
174.3733893
0
ARC
8
DEFAULT_255_1_388
10
8.0911659
20
149.9913483
40
0.75583
50
174.1225809
51
180.1563667
0
LINE
8
DEFAULT_255_1_388
10
8.2660102
20
150.4889567
11
8.4241339
21
150.4889567
0
LINE
8
DEFAULT_255_1_388
10
8.4241339
20
150.4889567
11
8.4286518
21
150.380529
0
LINE
8
DEFAULT_255_1_388
10
9.6367174
20
150.1663842
11
9.6367174
21
149.5113
0
LINE
8
DEFAULT_255_1_388
10
9.6367174
20
149.5113
11
9.469558
21
149.5113
0
LINE
8
DEFAULT_255_1_388
10
9.469558
20
149.5113
11
9.469558
21
150.156445
0
LINE
8
DEFAULT_255_1_388
10
9.0349435
20
150.1600593
11
9.0349435
21
149.5113
0
LINE
8
DEFAULT_255_1_388
10
9.0349435
20
149.5113
11
8.8668805
21
149.5113
0
LINE
8
DEFAULT_255_1_388
10
8.8668805
20
149.5113
11
8.8668805
21
150.1519272
0
LINE
8
DEFAULT_255_1_388
10
8.4331696
20
150.2251159
11
8.4331696
21
149.5113
0
LINE
8
DEFAULT_255_1_388
10
8.4331696
20
149.5113
11
8.2660102
21
149.5113
0
LINE
8
DEFAULT_255_1_388
10
8.2660102
20
149.5113
11
8.2660102
21
150.4889567
0
ARC
8
DEFAULT_255_1_388
10
8.6982714
20
150.1535947
40
0.3524116
50
93.0261693
51
139.913241
0
ARC
8
DEFAULT_255_1_388
10
8.7182789
20
150.0137673
40
0.493261
50
89.9515559
51
94.4896559
0
ARC
8
DEFAULT_255_1_388
10
8.7230267
20
150.0940293
40
0.4130214
50
75.8912256
51
90.6007843
0
ARC
8
DEFAULT_255_1_388
10
8.7641563
20
150.2457686
40
0.2558497
50
23.9940553
51
76.5407673
0
ARC
8
DEFAULT_255_1_388
10
9.3019998
20
150.1384138
40
0.3703589
50
118.5760068
51
145.1952627
0
ARC
8
DEFAULT_255_1_388
10
9.2876051
20
150.1659672
40
0.3392772
50
99.1481537
51
118.6669021
0
ARC
8
DEFAULT_255_1_388
10
9.3078764
20
150.0527244
40
0.454307
50
89.7792127
51
99.4015557
0
ARC
8
DEFAULT_255_1_388
10
9.3165877
20
150.0713109
40
0.4357727
50
73.2646335
51
90.9152299
0
ARC
8
DEFAULT_255_1_388
10
9.3659954
20
150.2391955
40
0.2607739
50
10.756495
51
73.0388383
0
ARC
8
DEFAULT_255_1_388
10
9.0970521
20
150.1634448
40
0.5396733
50
0.3120729
51
13.3293082
0
ARC
8
DEFAULT_255_1_388
10
9.1033
20
150.1585363
40
0.366264
50
359.6728567
51
8.7129231
0
ARC
8
DEFAULT_255_1_388
10
9.2379914
20
150.1799524
40
0.2298841
50
8.5221448
51
22.6803231
0
ARC
8
DEFAULT_255_1_388
10
9.3063614
20
150.2083786
40
0.1558403
50
22.7298708
51
42.2763259
0
ARC
8
DEFAULT_255_1_388
10
9.3202315
20
150.2171235
40
0.1397242
50
43.4492352
51
69.272112
0
ARC
8
DEFAULT_255_1_388
10
9.2856545
20
150.1307568
40
0.2327451
50
68.836098
51
81.9786568
0
ARC
8
DEFAULT_255_1_388
10
9.2630981
20
149.9797247
40
0.385449
50
81.7913044
51
90.3003404
0
LINE
8
DEFAULT_255_1_388
10
9.2610777
20
150.3651683
11
9.2608346
21
150.3651684
0
ARC
8
DEFAULT_255_1_388
10
9.2585155
20
150.1091083
40
0.2560706
50
89.4810922
51
106.5055613
0
ARC
8
DEFAULT_255_1_388
10
9.2457064
20
150.1562872
40
0.2071998
50
106.8160071
51
132.2750747
0
ARC
8
DEFAULT_255_1_388
10
9.2505587
20
150.1511017
40
0.2143007
50
132.3023562
51
166.9931148
0
ARC
8
DEFAULT_255_1_388
10
9.3233825
20
150.1302518
40
0.2899752
50
166.2176327
51
174.0999541
0
ARC
8
DEFAULT_255_1_388
10
8.5518954
20
150.156209
40
0.3150142
50
359.2211859
51
14.4876062
0
ARC
8
DEFAULT_255_1_388
10
8.6997177
20
150.1987235
40
0.1613108
50
13.0021013
51
76.7082612
0
ARC
8
DEFAULT_255_1_388
10
8.6620377
20
150.0656286
40
0.299565
50
75.5470628
51
90.7422407
0
ARC
8
DEFAULT_255_1_388
10
8.6544003
20
150.0690964
40
0.2960958
50
89.2730201
51
106.8379289
0
ARC
8
DEFAULT_255_1_388
10
8.6321408
20
150.1498973
40
0.2123216
50
107.4046439
51
156.621812
0
ARC
8
DEFAULT_255_1_388
10
8.7086222
20
150.1060952
40
0.3000669
50
154.7390611
51
156.6312403
0
LINE
8
DEFAULT_255_1_388
10
10.7146698
20
150.0046462
11
10.7146698
21
149.9892856
0
LINE
8
DEFAULT_255_1_388
10
10.0559713
20
149.6061743
11
10.0559713
21
149.1354172
0
LINE
8
DEFAULT_255_1_388
10
10.0559713
20
149.1354172
11
9.8888119
21
149.1354172
0
LINE
8
DEFAULT_255_1_388
10
9.8888119
20
149.1354172
11
9.8888119
21
150.4889567
0
LINE
8
DEFAULT_255_1_388
10
9.8888119
20
150.4889567
11
10.0415143
21
150.4889567
0
LINE
8
DEFAULT_255_1_388
10
10.0415143
20
150.4889567
11
10.0496464
21
150.380529
0
LINE
8
DEFAULT_255_1_388
10
10.0559713
20
150.2305373
11
10.0559713
21
149.7633945
0
ARC
8
DEFAULT_255_1_388
10
9.9193935
20
149.9843831
40
0.7952914
50
349.5457689
51
0.3531959
0
ARC
8
DEFAULT_255_1_388
10
10.1752713
20
149.9352711
40
0.5347531
50
331.7801944
51
349.7458841
0
ARC
8
DEFAULT_255_1_388
10
10.2569032
20
149.8955052
40
0.4440347
50
323.2239993
51
331.320727
0
ARC
8
DEFAULT_255_1_388
10
10.3495519
20
149.8169189
40
0.3228626
50
275.1519108
51
324.5512858
0
ARC
8
DEFAULT_255_1_388
10
10.3365891
20
149.9070763
40
0.4138479
50
269.929002
51
275.8184771
0
ARC
8
DEFAULT_255_1_388
10
10.3319254
20
149.9446586
40
0.451449
50
255.0666642
51
270.5268285
0
ARC
8
DEFAULT_255_1_388
10
10.3001746
20
149.8258476
40
0.3284686
50
221.9730059
51
255.0773797
0
ARC
8
DEFAULT_255_1_388
10
10.3095905
20
150.1727287
40
0.3327941
50
94.4346057
51
141.3610235
0
ARC
8
DEFAULT_255_1_388
10
10.3326435
20
150.0301867
40
0.4768419
50
89.913234
51
95.8721355
0
ARC
8
DEFAULT_255_1_388
10
10.3377973
20
150.1310946
40
0.3759596
50
70.3260364
51
90.6753935
0
ARC
8
DEFAULT_255_1_388
10
10.3491416
20
150.1777349
40
0.328261
50
36.7636238
51
69.44976
0
ARC
8
DEFAULT_255_1_388
10
10.2530025
20
150.1027455
40
0.4501685
50
16.0027939
51
37.086172
0
ARC
8
DEFAULT_255_1_388
10
10.0235792
20
150.0335013
40
0.6897988
50
4.5018317
51
16.2779312
0
ARC
8
DEFAULT_255_1_388
10
9.7453939
20
150.006276
40
0.9692771
50
359.9036593
51
4.8154966
0
ARC
8
DEFAULT_255_1_388
10
9.918923
20
150.0117646
40
0.6285971
50
359.6805954
51
9.1297647
0
ARC
8
DEFAULT_255_1_388
10
10.1336326
20
150.0475143
40
0.4109369
50
8.9584658
51
23.6939885
0
ARC
8
DEFAULT_255_1_388
10
10.2276084
20
150.0868721
40
0.3090717
50
24.0136272
51
36.1951724
0
ARC
8
DEFAULT_255_1_388
10
10.294168
20
150.1411253
40
0.2233637
50
35.0467028
51
84.5489768
0
ARC
8
DEFAULT_255_1_388
10
10.2840874
20
150.0744397
40
0.2907289
50
83.8197232
51
90.0823413
0
ARC
8
DEFAULT_255_1_388
10
10.2797005
20
150.0966874
40
0.2685104
50
89.1530367
51
112.3459134
0
ARC
8
DEFAULT_255_1_388
10
10.2746093
20
150.1225252
40
0.2427311
50
113.5532703
51
146.2373945
0
ARC
8
DEFAULT_255_1_388
10
10.346872
20
150.0670111
40
0.3337124
50
145.2086902
51
150.6580233
0
ARC
8
DEFAULT_255_1_388
10
10.2966197
20
149.8938753
40
0.273746
50
208.46678
51
230.7447697
0
ARC
8
DEFAULT_255_1_388
10
10.2726737
20
149.8723351
40
0.2419641
50
231.9080157
51
266.0622442
0
ARC
8
DEFAULT_255_1_388
10
10.2851249
20
149.9615434
40
0.3318765
50
264.9752933
51
270.060741
0
ARC
8
DEFAULT_255_1_388
10
10.2886849
20
149.8730683
40
0.2434225
50
269.2448363
51
292.3382162
0
ARC
8
DEFAULT_255_1_388
10
10.2906163
20
149.8572065
40
0.2280566
50
293.4040635
51
323.0231773
0
ARC
8
DEFAULT_255_1_388
10
10.2448412
20
149.8974037
40
0.2888399
50
322.1147526
51
323.3512864
0
ARC
8
DEFAULT_255_1_388
10
10.2267824
20
149.9062269
40
0.3086176
50
324.0383098
51
342.5340044
0
ARC
8
DEFAULT_255_1_388
10
10.039582
20
149.9675984
40
0.5056129
50
342.2670619
51
353.2817647
0
ARC
8
DEFAULT_255_1_388
10
9.7436477
20
150.004797
40
0.8038702
50
353.1162085
51
0.2468587
0
LINE
8
DEFAULT_255_1_388
10
11.70588
20
149.5113
11
11.5305885
21
149.5113
0
LINE
8
DEFAULT_255_1_388
10
11.3417436
20
150.1040383
11
11.5043852
21
150.1040383
0
LINE
8
DEFAULT_255_1_388
10
11.5043852
20
150.1040383
11
11.5043852
21
150.1808413
0
LINE
8
DEFAULT_255_1_388
10
11.0869384
20
150.2178874
11
10.9188754
21
150.2178874
0
LINE
8
DEFAULT_255_1_388
10
11.6715446
20
150.1898769
11
11.6715446
21
149.7399018
0
LINE
8
DEFAULT_255_1_388
10
11.70588
20
149.525757
11
11.70588
21
149.5113
0
LINE
8
DEFAULT_255_1_388
10
11.5043852
20
149.78508
11
11.5043852
21
149.9856713
0
LINE
8
DEFAULT_255_1_388
10
11.5043852
20
149.9856713
11
11.3733683
21
149.9856713
0
ARC
8
DEFAULT_255_1_388
10
11.6475035
20
149.56801
40
0.1299428
50
197.0784902
51
205.8758668
0
ARC
8
DEFAULT_255_1_388
10
11.7869621
20
149.6121959
40
0.2762313
50
192.2927663
51
197.3441989
0
ARC
8
DEFAULT_255_1_388
10
12.0065126
20
149.660976
40
0.5011345
50
189.1573793
51
192.3977084
0
ARC
8
DEFAULT_255_1_388
10
12.3229973
20
149.7125878
40
0.8217995
50
186.8686098
51
189.1982636
0
ARC
8
DEFAULT_255_1_388
10
11.2175064
20
149.886626
40
0.3975173
50
294.0079259
51
316.7603918
0
ARC
8
DEFAULT_255_1_388
10
11.2320246
20
149.8661902
40
0.3729755
50
269.5043226
51
293.2478373
0
ARC
8
DEFAULT_255_1_388
10
11.2253298
20
149.9112915
40
0.4180772
50
255.4034155
51
270.4753052
0
ARC
8
DEFAULT_255_1_388
10
11.1994512
20
149.8108652
40
0.3143705
50
228.6141063
51
255.3550831
0
ARC
8
DEFAULT_255_1_388
10
11.1620493
20
149.775054
40
0.2628114
50
181.8954381
51
229.5703134
0
ARC
8
DEFAULT_255_1_388
10
11.2285429
20
149.7822824
40
0.329546
50
179.9848815
51
182.7691528
0
ARC
8
DEFAULT_255_1_388
10
11.2192496
20
149.7861827
40
0.3202753
50
161.0342928
51
180.6822077
0
ARC
8
DEFAULT_255_1_388
10
11.1698111
20
149.7990422
40
0.2693695
50
125.0525065
51
160.2034058
0
ARC
8
DEFAULT_255_1_388
10
11.2442832
20
149.6974275
40
0.3953338
50
106.2670809
51
125.4300189
0
ARC
8
DEFAULT_255_1_388
10
11.3086874
20
149.4869795
40
0.6154041
50
95.4857579
51
106.5348562
0
ARC
8
DEFAULT_255_1_388
10
11.3394161
20
149.2057993
40
0.8982419
50
89.8515405
51
95.7222579
0
ARC
8
DEFAULT_255_1_388
10
11.2674742
20
150.1828925
40
0.2369198
50
359.5039339
51
14.3181205
0
ARC
8
DEFAULT_255_1_388
10
11.3320747
20
150.1996862
40
0.170173
50
14.2184556
51
45.2028524
0
ARC
8
DEFAULT_255_1_388
10
11.3361443
20
150.2012862
40
0.1661795
50
45.8098216
51
73.0032926
0
ARC
8
DEFAULT_255_1_388
10
11.3081269
20
150.115626
40
0.2562942
50
72.6112517
51
85.7231489
0
ARC
8
DEFAULT_255_1_388
10
11.2980054
20
150.0129339
40
0.3594635
50
85.335019
51
90.0855069
0
ARC
8
DEFAULT_255_1_388
10
11.2953487
20
150.0793472
40
0.2930574
50
89.5854741
51
103.459124
0
ARC
8
DEFAULT_255_1_388
10
11.2782026
20
150.1508134
40
0.2195632
50
103.448332
51
126.5403399
0
ARC
8
DEFAULT_255_1_388
10
11.2513002
20
150.1852224
40
0.1759039
50
126.1730306
51
141.5008224
0
ARC
8
DEFAULT_255_1_388
10
11.2087317
20
150.2186266
40
0.1217955
50
141.3332087
51
180.3477313
0
ARC
8
DEFAULT_255_1_388
10
11.1328741
20
150.2166904
40
0.214002
50
151.6373605
51
179.6795088
0
ARC
8
DEFAULT_255_1_388
10
11.2005976
20
150.1829768
40
0.2896224
50
142.4981529
51
152.1330509
0
ARC
8
DEFAULT_255_1_388
10
11.2363981
20
150.1548781
40
0.3351307
50
120.8284906
51
142.4132156
0
ARC
8
DEFAULT_255_1_388
10
11.2831956
20
150.0816185
40
0.4220297
50
113.9634885
51
121.1871733
0
ARC
8
DEFAULT_255_1_388
10
11.2985265
20
150.0442705
40
0.4623867
50
93.3784336
51
113.8197902
0
ARC
8
DEFAULT_255_1_388
10
11.3071648
20
149.9581549
40
0.5488732
50
89.9745993
51
93.7488475
0
ARC
8
DEFAULT_255_1_388
10
11.3110894
20
149.9622587
40
0.5447818
50
79.1327128
51
90.3871707
0
ARC
8
DEFAULT_255_1_388
10
11.3476658
20
150.1450597
40
0.3583662
50
60.1434453
51
79.365517
0
ARC
8
DEFAULT_255_1_388
10
11.3765424
20
150.2005195
40
0.2959028
50
48.6191018
51
59.6466565
0
ARC
8
DEFAULT_255_1_388
10
11.3819136
20
150.2076356
40
0.2870136
50
9.0349502
51
48.4845487
0
ARC
8
DEFAULT_255_1_388
10
11.2608434
20
150.1812084
40
0.4107927
50
1.2091359
51
10.0234369
0
ARC
8
DEFAULT_255_1_388
10
12.5305882
20
149.7371422
40
0.8590481
50
179.8159449
51
185.3205667
0
ARC
8
DEFAULT_255_1_388
10
12.2273728
20
149.7081945
40
0.5544553
50
185.2475628
51
192.7952551
0
ARC
8
DEFAULT_255_1_388
10
12.0291552
20
149.6627024
40
0.3510853
50
192.7195981
51
202.9584216
0
ARC
8
DEFAULT_255_1_388
10
11.2531588
20
149.9324895
40
0.2937869
50
270.006916
51
300.503478
0
ARC
8
DEFAULT_255_1_388
10
11.2669523
20
149.9180888
40
0.2744162
50
299.5482616
51
315.609538
0
ARC
8
DEFAULT_255_1_388
10
11.2995819
20
149.8847072
40
0.2277499
50
315.8682065
51
334.0592465
0
ARC
8
DEFAULT_255_1_388
10
11.3684792
20
149.20109
40
0.7845965
50
89.64297
51
97.2867877
0
ARC
8
DEFAULT_255_1_388
10
11.318839
20
149.5727936
40
0.4096042
50
96.9938706
51
109.7783917
0
ARC
8
DEFAULT_255_1_388
10
11.2439852
20
149.7731851
40
0.1957225
50
109.0087985
51
135.3265591
0
ARC
8
DEFAULT_255_1_388
10
11.2132272
20
149.8112764
40
0.1471704
50
137.4537784
51
182.1083946
0
ARC
8
DEFAULT_255_1_388
10
11.2552971
20
149.8040101
40
0.1891498
50
179.4390335
51
195.7201623
0
ARC
8
DEFAULT_255_1_388
10
11.2090006
20
149.7913585
40
0.1411576
50
195.8683556
51
230.157074
0
ARC
8
DEFAULT_255_1_388
10
11.2362729
20
149.8240228
40
0.1837102
50
230.1532486
51
259.7486257
0
ARC
8
DEFAULT_255_1_388
10
11.2518772
20
149.8975472
40
0.258848
50
259.2461118
51
270.2915316
0
LINE
8
DEFAULT_255_1_388
10
12.5561342
20
149.8194155
11
12.714258
21
149.8194155
0
LINE
8
DEFAULT_255_1_388
10
11.8902072
20
149.9910927
11
11.8902072
21
150.0191032
0
LINE
8
DEFAULT_255_1_388
10
12.714258
20
150.1528308
11
12.5561342
21
150.1528308
0
LINE
8
DEFAULT_255_1_388
10
12.0573666
20
150.0127783
11
12.0573666
21
149.9811535
0
ARC
8
DEFAULT_255_1_388
10
12.3297899
20
149.8704109
40
0.2407783
50
269.0327343
51
309.2224588
0
ARC
8
DEFAULT_255_1_388
10
12.3533902
20
149.846219
40
0.207135
50
308.3965377
51
329.6987678
0
ARC
8
DEFAULT_255_1_388
10
12.3688961
20
149.8344899
40
0.1878439
50
330.4013397
51
355.3970937
0
ARC
8
DEFAULT_255_1_388
10
12.4202945
20
149.8364312
40
0.2944555
50
329.2357424
51
356.6872018
0
ARC
8
DEFAULT_255_1_388
10
12.358484
20
149.8691153
40
0.3643032
50
324.8702872
51
329.7911998
0
ARC
8
DEFAULT_255_1_388
10
12.3496122
20
149.8767113
40
0.3759315
50
298.8769973
51
324.7015261
0
ARC
8
DEFAULT_255_1_388
10
12.3122666
20
149.936229
40
0.4461015
50
296.902888
51
299.3854973
0
ARC
8
DEFAULT_255_1_388
10
12.3268663
20
149.9038595
40
0.4106323
50
269.8407861
51
297.1298875
0
ARC
8
DEFAULT_255_1_388
10
12.3208659
20
149.9756354
40
0.4824312
50
253.3156606
51
270.5771301
0
ARC
8
DEFAULT_255_1_388
10
12.2930837
20
149.8750943
40
0.3781531
50
221.1002518
51
252.9743523
0
ARC
8
DEFAULT_255_1_388
10
12.3448307
20
149.9195131
40
0.4463481
50
194.5394284
51
221.0302764
0
ARC
8
DEFAULT_255_1_388
10
12.5528128
20
149.9774897
40
0.6622359
50
182.0498004
51
194.8774376
0
ARC
8
DEFAULT_255_1_388
10
12.7521218
20
149.9907778
40
0.8619146
50
179.9790673
51
182.4586753
0
ARC
8
DEFAULT_255_1_388
10
12.5564531
20
150.0224412
40
0.6662543
50
168.615001
51
180.2870547
0
ARC
8
DEFAULT_255_1_388
10
12.421244
20
150.0489636
40
0.5284705
50
154.9162417
51
168.5402053
0
ARC
8
DEFAULT_255_1_388
10
12.3175716
20
150.1001942
40
0.4128641
50
133.5745308
51
155.2559538
0
ARC
8
DEFAULT_255_1_388
10
12.2992559
20
150.1158116
40
0.3889328
50
122.0165845
51
133.2056002
0
ARC
8
DEFAULT_255_1_388
10
12.3032883
20
150.1058977
40
0.3994808
50
97.8732516
51
121.753124
0
ARC
8
DEFAULT_255_1_388
10
12.3234341
20
149.986959
40
0.5200708
50
89.8471322
51
98.2768545
0
ARC
8
DEFAULT_255_1_388
10
12.3289189
20
150.0555809
40
0.4514657
50
73.3760755
51
90.5199878
0
ARC
8
DEFAULT_255_1_388
10
12.3510105
20
150.136855
40
0.3672743
50
47.7085939
51
73.0510707
0
ARC
8
DEFAULT_255_1_388
10
12.3656208
20
150.1495231
40
0.3480795
50
3.7442743
51
48.0844373
0
ARC
8
DEFAULT_255_1_388
10
12.2544202
20
150.1317946
40
0.4603187
50
2.6192831
51
5.0424684
0
ARC
8
DEFAULT_255_1_388
10
12.3059673
20
150.1362986
40
0.2507126
50
3.78087
51
23.9354314
0
ARC
8
DEFAULT_255_1_388
10
12.3316932
20
150.1453644
40
0.2235311
50
24.4867863
51
46.9439952
0
ARC
8
DEFAULT_255_1_388
10
12.3317878
20
150.1479874
40
0.2215567
50
46.4987715
51
89.3298168
0
ARC
8
DEFAULT_255_1_388
10
12.3248537
20
150.0813742
40
0.2883121
50
88.1066411
51
90.0063536
0
ARC
8
DEFAULT_255_1_388
10
12.3217512
20
150.0871548
40
0.2825481
50
89.3773571
51
107.2070287
0
ARC
8
DEFAULT_255_1_388
10
12.3056781
20
150.1453667
40
0.2221946
50
107.688418
51
143.3582986
0
ARC
8
DEFAULT_255_1_388
10
12.3695075
20
150.0974064
40
0.3020337
50
143.2845866
51
162.9352432
0
ARC
8
DEFAULT_255_1_388
10
12.5389091
20
150.0430401
40
0.4799362
50
162.6652705
51
174.0802646
0
ARC
8
DEFAULT_255_1_388
10
12.7799572
20
150.0150287
40
0.7225942
50
173.8422673
51
180.1784414
0
ARC
8
DEFAULT_255_1_388
10
12.7183242
20
149.9777276
40
0.6609665
50
179.7030218
51
188.2277356
0
ARC
8
DEFAULT_255_1_388
10
12.481885
20
149.9423143
40
0.4218948
50
188.0630838
51
201.115837
0
ARC
8
DEFAULT_255_1_388
10
12.3583735
20
149.895173
40
0.2896941
50
201.2186162
51
216.9761863
0
ARC
8
DEFAULT_255_1_388
10
12.3075892
20
149.8571225
40
0.2262366
50
217.0136373
51
265.2055518
0
ARC
8
DEFAULT_255_1_388
10
12.3251229
20
149.9608503
40
0.3311837
50
263.6824874
51
270.1042034
0
LINE
8
DEFAULT_255_1_388
10
12.9618346
20
150.7256906
11
13.128994
21
150.7256906
0
LINE
8
DEFAULT_255_1_388
10
13.128994
20
150.7256906
11
13.128994
21
150.4889567
0
LINE
8
DEFAULT_255_1_388
10
13.128994
20
150.4889567
11
13.3115141
21
150.4889567
0
LINE
8
DEFAULT_255_1_388
10
13.3115141
20
150.4889567
11
13.3115141
21
150.359747
0
LINE
8
DEFAULT_255_1_388
10
13.3115141
20
150.359747
11
13.128994
21
150.359747
0
LINE
8
DEFAULT_255_1_388
10
13.128994
20
150.359747
11
13.128994
21
149.7534553
0
LINE
8
DEFAULT_255_1_388
10
13.3160319
20
149.6468347
11
13.3160319
21
149.5113
0
LINE
8
DEFAULT_255_1_388
10
12.9618346
20
149.7534553
11
12.9618346
21
150.359747
0
LINE
8
DEFAULT_255_1_388
10
12.9618346
20
150.359747
11
12.7838324
21
150.359747
0
LINE
8
DEFAULT_255_1_388
10
12.7838324
20
150.359747
11
12.7838324
21
150.4889567
0
LINE
8
DEFAULT_255_1_388
10
12.7838324
20
150.4889567
11
12.9618346
21
150.4889567
0
LINE
8
DEFAULT_255_1_388
10
12.9618346
20
150.4889567
11
12.9618346
21
150.7256906
0
ARC
8
DEFAULT_255_1_388
10
13.3548448
20
149.7522842
40
0.2258538
50
179.7029045
51
187.9180047
0
ARC
8
DEFAULT_255_1_388
10
13.2709022
20
149.7402019
40
0.1410477
50
187.7540838
51
200.2454047
0
ARC
8
DEFAULT_255_1_388
10
13.2235928
20
149.7225591
40
0.0905561
50
200.1304287
51
219.1733455
0
ARC
8
DEFAULT_255_1_388
10
13.2083094
20
149.7121695
40
0.0721626
50
220.4434631
51
249.6169985
0
ARC
8
DEFAULT_255_1_388
10
13.2257321
20
149.7559919
40
0.1193141
50
249.1038184
51
262.7745376
0
ARC
8
DEFAULT_255_1_388
10
13.2356502
20
149.8267481
40
0.1907583
50
262.4921618
51
270.2607019
0
ARC
8
DEFAULT_255_1_388
10
13.2353584
20
149.8509817
40
0.2149929
50
270.309081
51
275.6615459
0
ARC
8
DEFAULT_255_1_388
10
13.2192992
20
150.0198342
40
0.3846066
50
275.5607354
51
279.087751
0
ARC
8
DEFAULT_255_1_388
10
13.1820924
20
150.2559428
40
0.6236283
50
279.0369545
51
281.5000133
0
ARC
8
DEFAULT_255_1_388
10
13.1430192
20
150.4536499
40
0.825157
50
281.4217093
51
282.1031556
0
ARC
8
DEFAULT_255_1_388
10
13.1806167
20
149.9993229
40
0.5064619
50
275.2597791
51
285.5081125
0
ARC
8
DEFAULT_255_1_388
10
13.1875181
20
149.9367452
40
0.4435166
50
270.0268175
51
275.1130565
0
ARC
8
DEFAULT_255_1_388
10
13.1852633
20
149.7874367
40
0.2942182
50
257.3572424
51
270.4795428
0
ARC
8
DEFAULT_255_1_388
10
13.1612903
20
149.6863952
40
0.1903838
50
230.8036715
51
257.7414447
0
ARC
8
DEFAULT_255_1_388
10
13.1536399
20
149.6740723
40
0.1760087
50
219.9745381
51
230.1985446
0
ARC
8
DEFAULT_255_1_388
10
13.1909687
20
149.7026116
40
0.2229598
50
196.5081334
51
219.4319996
0
ARC
8
DEFAULT_255_1_388
10
13.3052298
20
149.7384617
40
0.3427033
50
184.6408645
51
196.8266009
0
ARC
8
DEFAULT_255_1_388
10
13.4453203
20
149.752601
40
0.4834863
50
179.8987586
51
184.9677262
0
LINE
8
DEFAULT_255_1_388
10
13.7072753
20
150.8268898
11
13.7072753
21
149.6531596
0
LINE
8
DEFAULT_255_1_388
10
13.7072753
20
149.6531596
11
14.3307348
21
149.6531596
0
LINE
8
DEFAULT_255_1_388
10
14.3307348
20
149.6531596
11
14.3307348
21
149.5113
0
LINE
8
DEFAULT_255_1_388
10
14.3307348
20
149.5113
11
13.5328874
21
149.5113
0
LINE
8
DEFAULT_255_1_388
10
13.5328874
20
149.5113
11
13.5328874
21
150.8268898
0
LINE
8
DEFAULT_255_1_388
10
13.5328874
20
150.8268898
11
13.7072753
21
150.8268898
0
LINE
8
DEFAULT_255_1_388
10
14.4581374
20
149.9974177
11
14.4581374
21
150.009164
0
LINE
8
DEFAULT_255_1_388
10
15.3481483
20
150.0010319
11
15.3481483
21
149.9892856
0
ARC
8
DEFAULT_255_1_388
10
15.0865818
20
150.012804
40
0.628455
50
166.3005265
51
180.3318609
0
ARC
8
DEFAULT_255_1_388
10
14.9895168
20
150.0345267
40
0.52901
50
153.8608648
51
166.0965672
0
ARC
8
DEFAULT_255_1_388
10
14.9146334
20
150.0746652
40
0.4441126
50
135.1317053
51
154.2534962
0
ARC
8
DEFAULT_255_1_388
10
14.8832984
20
150.1023431
40
0.4023863
50
121.7042632
51
134.7771455
0
ARC
8
DEFAULT_255_1_388
10
14.8908416
20
150.0878469
40
0.4186852
50
93.4001111
51
121.5399523
0
ARC
8
DEFAULT_255_1_388
10
14.901525
20
149.9948759
40
0.5121521
50
89.9706387
51
93.9763381
0
ARC
8
DEFAULT_255_1_388
10
14.9068235
20
150.0388563
40
0.4681988
50
71.3321659
51
90.6162917
0
ARC
8
DEFAULT_255_1_388
10
14.9251269
20
150.1066003
40
0.3981841
50
41.1813875
51
70.7072086
0
ARC
8
DEFAULT_255_1_388
10
14.8713985
20
150.057813
40
0.4707474
50
12.1971434
51
41.3446641
0
ARC
8
DEFAULT_255_1_388
10
14.6547249
20
150.0062328
40
0.6934429
50
359.5702713
51
12.5803533
0
ARC
8
DEFAULT_255_1_388
10
14.7079565
20
149.9857207
40
0.6402018
50
347.0196754
51
0.3190452
0
ARC
8
DEFAULT_255_1_388
10
14.8157618
20
149.9625189
40
0.5299421
50
334.350439
51
346.8460534
0
ARC
8
DEFAULT_255_1_388
10
14.9108864
20
149.9131244
40
0.4228234
50
310.4228125
51
334.8045131
0
ARC
8
DEFAULT_255_1_388
10
14.9200843
20
149.9059301
40
0.4113892
50
301.8488154
51
310.0972985
0
ARC
8
DEFAULT_255_1_388
10
14.9164583
20
149.9144573
40
0.4205483
50
274.3078723
51
301.6554173
0
ARC
8
DEFAULT_255_1_388
10
14.9040039
20
150.0131943
40
0.5199658
50
269.954904
51
274.859116
0
ARC
8
DEFAULT_255_1_388
10
14.8984863
20
149.9568239
40
0.4636233
50
250.8887647
51
270.6313164
0
ARC
8
DEFAULT_255_1_388
10
14.8816023
20
149.8939405
40
0.398705
50
221.1701369
51
250.2227012
0
ARC
8
DEFAULT_255_1_388
10
14.9360689
20
149.9435716
40
0.4723796
50
191.6263861
51
221.3526879
0
ARC
8
DEFAULT_255_1_388
10
15.1484534
20
149.9927203
40
0.6903321
50
179.6101251
51
192.0694841
0
ARC
8
DEFAULT_255_1_388
10
15.1960882
20
149.9856681
40
0.5698993
50
179.636304
51
190.6161344
0
ARC
8
DEFAULT_255_1_388
10
15.0113213
20
149.9496635
40
0.3816643
50
190.4136062
51
208.7168709
0
ARC
8
DEFAULT_255_1_388
10
14.9539248
20
149.9211905
40
0.3176572
50
209.187109
51
217.4221816
0
ARC
8
DEFAULT_255_1_388
10
14.8943718
20
149.8687729
40
0.2385702
50
216.1156863
51
265.2575395
0
ARC
8
DEFAULT_255_1_388
10
14.9032754
20
149.9332608
40
0.3035941
50
264.5891546
51
270.0602378
0
ARC
8
DEFAULT_255_1_388
10
14.9069951
20
149.8905539
40
0.2609091
50
269.2532353
51
291.8793864
0
ARC
8
DEFAULT_255_1_388
10
14.910283
20
149.8705359
40
0.241148
50
292.9269367
51
323.1777736
0
ARC
8
DEFAULT_255_1_388
10
14.8632115
20
149.9118762
40
0.3036446
50
322.25666
51
323.087958
0
ARC
8
DEFAULT_255_1_388
10
14.8329373
20
149.9301332
40
0.3388345
50
323.6941379
51
343.8493587
0
ARC
8
DEFAULT_255_1_388
10
14.6553809
20
149.9841698
40
0.5244204
50
343.5746655
51
355.008149
0
ARC
8
DEFAULT_255_1_388
10
14.4295501
20
150.0075797
40
0.7514406
50
354.728272
51
0.1208026
0
ARC
8
DEFAULT_255_1_388
10
14.6284527
20
150.0127947
40
0.5525482
50
359.6235211
51
11.2016685
0
ARC
8
DEFAULT_255_1_388
10
14.8010354
20
150.0483284
40
0.3763527
50
10.9991302
51
30.8317616
0
ARC
8
DEFAULT_255_1_388
10
14.8455657
20
150.0717988
40
0.3260975
50
31.3007463
51
37.395541
0
ARC
8
DEFAULT_255_1_388
10
14.9014377
20
150.1189773
40
0.253082
50
36.5918894
51
62.2439906
0
ARC
8
DEFAULT_255_1_388
10
14.9066668
20
150.1186378
40
0.2509927
50
63.3364883
51
89.7193846
0
ARC
8
DEFAULT_255_1_388
10
14.9018122
20
150.0538375
40
0.3158485
50
88.8962924
51
90.004475
0
ARC
8
DEFAULT_255_1_388
10
14.8982549
20
150.1191071
40
0.250604
50
89.1923115
51
114.7099029
0
ARC
8
DEFAULT_255_1_388
10
14.9014891
20
150.1233675
40
0.2481307
50
115.7996284
51
142.2901353
0
ARC
8
DEFAULT_255_1_388
10
14.9483162
20
150.0814752
40
0.310833
50
141.4607507
51
142.383894
0
ARC
8
DEFAULT_255_1_388
10
14.9631013
20
150.0746449
40
0.3267335
50
143.0176473
51
163.2340089
0
ARC
8
DEFAULT_255_1_388
10
15.1406302
20
150.0184553
40
0.5129308
50
162.9446504
51
174.3733893
0
ARC
8
DEFAULT_255_1_388
10
15.3820275
20
149.9913483
40
0.75583
50
174.1225809
51
180.1563667
0
LINE
8
DEFAULT_255_1_388
10
16.1830419
20
150.380529
11
16.191174
21
150.4889567
0
LINE
8
DEFAULT_255_1_388
10
16.191174
20
150.4889567
11
16.3438764
21
150.4889567
0
LINE
8
DEFAULT_255_1_388
10
16.3438764
20
150.4889567
11
16.3438764
21
149.5347927
0
LINE
8
DEFAULT_255_1_388
10
15.5677145
20
149.2953481
11
15.6544567
21
149.3956438
0
LINE
8
DEFAULT_255_1_388
10
16.1758134
20
149.5248535
11
16.1758134
21
149.608885
0
LINE
8
DEFAULT_255_1_388
10
16.1758134
20
149.7787551
11
16.1758134
21
150.2251159
0
ARC
8
DEFAULT_255_1_388
10
16.3219112
20
150.013122
40
0.8039074
50
169.8802333
51
180.3464902
0
ARC
8
DEFAULT_255_1_388
10
16.0571918
20
150.062287
40
0.5346711
50
152.8534324
51
170.0824729
0
ARC
8
DEFAULT_255_1_388
10
15.9634312
20
150.1066868
40
0.4309932
50
142.0147746
51
152.418569
0
ARC
8
DEFAULT_255_1_388
10
15.8917761
20
150.1719169
40
0.3344504
50
94.3317494
51
143.2674518
0
ARC
8
DEFAULT_255_1_388
10
15.903462
20
150.0838903
40
0.423138
50
89.9487512
51
95.0093077
0
ARC
8
DEFAULT_255_1_388
10
15.9081418
20
150.1018021
40
0.4052487
50
72.9496911
51
90.6081488
0
ARC
8
DEFAULT_255_1_388
10
15.9312141
20
150.1853718
40
0.3185963
50
37.7743532
51
72.5099202
0
ARC
8
DEFAULT_255_1_388
10
15.8277007
20
149.5304774
40
0.5161937
50
346.3655403
51
0.4789834
0
ARC
8
DEFAULT_255_1_388
10
15.9815841
20
149.4913644
40
0.3574311
50
314.3365584
51
346.6438898
0
ARC
8
DEFAULT_255_1_388
10
15.9700985
20
149.50749
40
0.3770042
50
280.7144
51
313.872307
0
ARC
8
DEFAULT_255_1_388
10
15.932372
20
149.6756099
40
0.5492378
50
269.6628653
51
281.3208129
0
ARC
8
DEFAULT_255_1_388
10
15.930538
20
149.6292105
40
0.5028309
50
245.5258654
51
269.8407328
0
ARC
8
DEFAULT_255_1_388
10
15.8876226
20
149.5487065
40
0.4118207
50
232.6664457
51
246.3200328
0
ARC
8
DEFAULT_255_1_388
10
15.833147
20
149.4764386
40
0.3213227
50
214.3036526
51
232.5750527
0
ARC
8
DEFAULT_255_1_388
10
15.9589502
20
149.6368259
40
0.3884393
50
218.381912
51
236.3657409
0
ARC
8
DEFAULT_255_1_388
10
15.9139272
20
149.5740326
40
0.3112322
50
236.8637655
51
270.6382272
0
ARC
8
DEFAULT_255_1_388
10
15.9200954
20
149.6112587
40
0.3484494
50
269.5557858
51
282.3972101
0
ARC
8
DEFAULT_255_1_388
10
15.946654
20
149.4970767
40
0.2312324
50
282.043923
51
308.3079272
0
ARC
8
DEFAULT_255_1_388
10
15.9562654
20
149.481747
40
0.2132542
50
308.8347234
51
315.2037678
0
ARC
8
DEFAULT_255_1_388
10
15.9474364
20
149.4882123
40
0.2240808
50
315.6213011
51
345.6795376
0
ARC
8
DEFAULT_255_1_388
10
15.8372789
20
149.5188736
40
0.3384084
50
345.2627538
51
358.6311244
0
ARC
8
DEFAULT_255_1_388
10
15.7374294
20
149.5247581
40
0.4383839
50
358.1739988
51
0.0124651
0
ARC
8
DEFAULT_255_1_388
10
15.926847
20
149.8241381
40
0.3291173
50
275.6950404
51
319.1537182
0
ARC
8
DEFAULT_255_1_388
10
15.9030101
20
149.9619049
40
0.4686772
50
269.8805882
51
276.9235205
0
ARC
8
DEFAULT_255_1_388
10
15.8970402
20
149.83699
40
0.3437976
50
244.0748846
51
270.8321697
0
ARC
8
DEFAULT_255_1_388
10
15.905491
20
149.8392423
40
0.3495805
50
217.781776
51
242.9905232
0
ARC
8
DEFAULT_255_1_388
10
15.9730341
20
149.8993567
40
0.4398355
50
217.5209891
51
218.58043
0
ARC
8
DEFAULT_255_1_388
10
16.004618
20
149.917913
40
0.4762087
50
195.3497149
51
216.9773048
0
ARC
8
DEFAULT_255_1_388
10
16.2322069
20
149.9840667
40
0.7131994
50
183.9387193
51
195.6348167
0
ARC
8
DEFAULT_255_1_388
10
16.4882263
20
150.0070646
40
0.9702086
50
179.929381
51
184.2551265
0
ARC
8
DEFAULT_255_1_388
10
16.339593
20
149.9858515
40
0.6535206
50
179.6989243
51
188.5749266
0
ARC
8
DEFAULT_255_1_388
10
16.113112
20
149.9504789
40
0.4242988
50
188.4117627
51
202.0559679
0
ARC
8
DEFAULT_255_1_388
10
16.0041381
20
149.9076952
40
0.3072368
50
202.2924994
51
215.4475859
0
ARC
8
DEFAULT_255_1_388
10
15.9316451
20
149.8515576
40
0.2156547
50
214.4673097
51
264.3362727
0
ARC
8
DEFAULT_255_1_388
10
15.943112
20
149.9231673
40
0.2880794
50
263.4723224
51
270.0965288
0
ARC
8
DEFAULT_255_1_388
10
15.9476355
20
149.9063896
40
0.2713313
50
269.1472473
51
291.7978484
0
ARC
8
DEFAULT_255_1_388
10
15.9546615
20
149.8750081
40
0.2396396
50
293.0243185
51
327.6232391
0
ARC
8
DEFAULT_255_1_388
10
15.8750049
20
149.9332435
40
0.3381603
50
326.5171836
51
332.8160011
0
ARC
8
DEFAULT_255_1_388
10
15.914523
20
150.0862272
40
0.29591
50
27.9928465
51
47.6314088
0
ARC
8
DEFAULT_255_1_388
10
15.9551935
20
150.1249256
40
0.2399437
50
48.5793547
51
88.6245273
0
ARC
8
DEFAULT_255_1_388
10
15.9455053
20
150.0409448
40
0.3242237
50
87.2690754
51
90.0178312
0
ARC
8
DEFAULT_255_1_388
10
15.9422753
20
150.1147957
40
0.2503923
50
89.2839515
51
110.1847982
0
ARC
8
DEFAULT_255_1_388
10
15.9353553
20
150.1447002
40
0.2199699
50
111.180781
51
145.0423499
0
ARC
8
DEFAULT_255_1_388
10
15.9714414
20
150.1134759
40
0.2674811
50
143.9895932
51
144.106678
0
ARC
8
DEFAULT_255_1_388
10
16.0084485
20
150.091319
40
0.3104736
50
144.7981654
51
162.8715843
0
ARC
8
DEFAULT_255_1_388
10
16.1991084
20
150.0300138
40
0.5107383
50
162.598526
51
173.3417416
0
ARC
8
DEFAULT_255_1_388
10
16.4992457
20
149.9927767
40
0.8131718
50
173.1877249
51
180.2459848
0
LINE
8
DEFAULT_255_1_388
10
16.7775873
20
150.4889567
11
16.7775873
21
149.5113
0
LINE
8
DEFAULT_255_1_388
10
16.7775873
20
149.5113
11
16.6104279
21
149.5113
0
LINE
8
DEFAULT_255_1_388
10
16.6104279
20
149.5113
11
16.6104279
21
150.4889567
0
LINE
8
DEFAULT_255_1_388
10
16.6104279
20
150.4889567
11
16.7775873
21
150.4889567
0
ARC
8
DEFAULT_255_1_388
10
16.7069641
20
150.7493428
40
0.1100948
50
161.4148232
51
180.5532607
0
ARC
8
DEFAULT_255_1_388
10
16.6929951
20
150.7531875
40
0.0956324
50
138.1830164
51
160.9307633
0
ARC
8
DEFAULT_255_1_388
10
16.6806138
20
150.7639313
40
0.0792417
50
104.6371663
51
138.0036136
0
ARC
8
DEFAULT_255_1_388
10
16.6926677
20
150.7226963
40
0.1221906
50
92.0601206
51
105.2198859
0
ARC
8
DEFAULT_255_1_388
10
16.6953041
20
150.6838583
40
0.161103
50
89.9790681
51
92.5006086
0
ARC
8
DEFAULT_255_1_388
10
16.6964217
20
150.7094998
40
0.1354654
50
78.0234649
51
90.4478111
0
ARC
8
DEFAULT_255_1_388
10
16.7067801
20
150.7560203
40
0.0878096
50
55.0521508
51
78.336297
0
ARC
8
DEFAULT_255_1_388
10
16.7124336
20
150.7655168
40
0.0767913
50
42.0506198
51
54.4508489
0
ARC
8
DEFAULT_255_1_388
10
16.6972369
20
150.7515821
40
0.0974091
50
1.7493657
51
42.1498724
0
ARC
8
DEFAULT_255_1_388
10
16.6686274
20
150.7483166
40
0.1261276
50
359.9832635
51
2.8353994
0
ARC
8
DEFAULT_255_1_388
10
16.6872684
20
150.7472412
40
0.1074916
50
342.1062453
51
0.5535864
0
ARC
8
DEFAULT_255_1_388
10
16.7033108
20
150.7428197
40
0.0908695
50
316.7110111
51
341.6513114
0
ARC
8
DEFAULT_255_1_388
10
16.710854
20
150.7360607
40
0.0807447
50
285.4398289
51
316.5320129
0
ARC
8
DEFAULT_255_1_388
10
16.6984711
20
150.7772023
40
0.1237022
50
272.3543902
51
285.8951677
0
ARC
8
DEFAULT_255_1_388
10
16.6954421
20
150.8187742
40
0.1653687
50
269.9725761
51
272.8112722
0
ARC
8
DEFAULT_255_1_388
10
16.6943473
20
150.7936727
40
0.1402709
50
258.8433431
51
270.4148607
0
ARC
8
DEFAULT_255_1_388
10
16.6842253
20
150.7446739
40
0.0902407
50
238.54281
51
259.1289544
0
ARC
8
DEFAULT_255_1_388
10
16.6765574
20
150.7307694
40
0.0743817
50
222.5056676
51
237.9918132
0
ARC
8
DEFAULT_255_1_388
10
16.6909168
20
150.7438295
40
0.0937918
50
184.1070774
51
222.4604165
0
ARC
8
DEFAULT_255_1_388
10
16.7211581
20
150.7481538
40
0.1242838
50
179.9419581
51
185.0970785
0
LINE
8
DEFAULT_255_1_388
10
17.1588915
20
150.4889567
11
17.3730363
21
150.1320488
0
LINE
8
DEFAULT_255_1_388
10
17.3730363
20
150.1320488
11
17.5898917
21
150.4889567
0
LINE
8
DEFAULT_255_1_388
10
17.5898917
20
150.4889567
11
17.7850617
21
150.4889567
0
LINE
8
DEFAULT_255_1_388
10
17.7850617
20
150.4889567
11
17.4651999
21
150.0055498
0
LINE
8
DEFAULT_255_1_388
10
17.4651999
20
150.0055498
11
17.7950009
21
149.5113
0
LINE
8
DEFAULT_255_1_388
10
17.7950009
20
149.5113
11
17.6016381
21
149.5113
0
LINE
8
DEFAULT_255_1_388
10
17.6016381
20
149.5113
11
17.375747
21
149.8772436
0
LINE
8
DEFAULT_255_1_388
10
17.375747
20
149.8772436
11
17.1498559
21
149.5113
0
LINE
8
DEFAULT_255_1_388
10
17.1498559
20
149.5113
11
16.9555895
21
149.5113
0
LINE
8
DEFAULT_255_1_388
10
16.9555895
20
149.5113
11
17.2853905
21
150.0055498
0
LINE
8
DEFAULT_255_1_388
10
17.2853905
20
150.0055498
11
16.9655287
21
150.4889567
0
LINE
8
DEFAULT_255_1_388
10
16.9655287
20
150.4889567
11
17.1588915
21
150.4889567
0
LINE
8
DEFAULT_255_1_388
10
18.6136303
20
150.1365666
11
18.4799027
21
150.1709021
0
LINE
8
DEFAULT_255_1_388
10
18.4799027
20
150.1709021
11
18.5467665
21
150.8268898
0
LINE
8
DEFAULT_255_1_388
10
18.5467665
20
150.8268898
11
19.2208256
21
150.8268898
0
LINE
8
DEFAULT_255_1_388
10
19.2208256
20
150.8268898
11
19.2208256
21
150.6723803
0
LINE
8
DEFAULT_255_1_388
10
19.2208256
20
150.6723803
11
18.6886261
21
150.6723803
0
LINE
8
DEFAULT_255_1_388
10
18.6886261
20
150.6723803
11
18.6488693
21
150.3136652
0
LINE
8
DEFAULT_255_1_388
10
18.4329174
20
149.8573652
11
18.5910412
21
149.8573652
0
LINE
8
DEFAULT_255_1_388
10
18.6579049
20
150.1727092
11
18.6136303
21
150.1365666
0
ARC
8
DEFAULT_255_1_388
10
18.8575306
20
149.9559241
40
0.4141476
50
93.7181681
51
120.253934
0
ARC
8
DEFAULT_255_1_388
10
18.8681359
20
149.8650284
40
0.5055616
50
89.9660471
51
94.2495185
0
ARC
8
DEFAULT_255_1_388
10
18.872718
20
149.9313154
40
0.4392953
50
73.8045384
51
90.5585736
0
ARC
8
DEFAULT_255_1_388
10
18.8991438
20
150.027852
40
0.3392225
50
41.3071072
51
73.543002
0
ARC
8
DEFAULT_255_1_388
10
18.8523258
20
149.9875461
40
0.4009977
50
13.5075837
51
41.2174839
0
ARC
8
DEFAULT_255_1_388
10
18.6676356
20
149.9391907
40
0.5918864
50
1.1330171
51
13.8830737
0
ARC
8
DEFAULT_255_1_388
10
18.5080001
20
149.9306522
40
0.7516787
50
359.9925091
51
1.5431298
0
ARC
8
DEFAULT_255_1_388
10
18.6524616
20
149.9260027
40
0.6072343
50
347.8572712
51
0.4294349
0
ARC
8
DEFAULT_255_1_388
10
18.8493751
20
149.8813898
40
0.4053482
50
323.6727442
51
348.1674594
0
ARC
8
DEFAULT_255_1_388
10
18.8824716
20
149.8612175
40
0.3667495
50
316.8171818
51
323.1486802
0
ARC
8
DEFAULT_255_1_388
10
18.8893839
20
149.8570612
40
0.358869
50
281.839603
51
316.5458142
0
ARC
8
DEFAULT_255_1_388
10
18.8471127
20
150.0320363
40
0.5388223
50
269.5770964
51
282.4214641
0
ARC
8
DEFAULT_255_1_388
10
18.8391048
20
150.007993
40
0.5147801
50
256.2425863
51
270.4486481
0
ARC
8
DEFAULT_255_1_388
10
18.8054575
20
149.8730124
40
0.3756708
50
228.9024379
51
256.33135
0
ARC
8
DEFAULT_255_1_388
10
18.7971556
20
149.8599054
40
0.360344
50
193.7536029
51
228.5272638
0
ARC
8
DEFAULT_255_1_388
10
18.9364121
20
149.9007463
40
0.5053599
50
184.9244437
51
194.4976052
0
ARC
8
DEFAULT_255_1_388
10
18.9580762
20
149.9047722
40
0.3700839
50
187.3596909
51
198.6733728
0
ARC
8
DEFAULT_255_1_388
10
18.8400005
20
149.8638373
40
0.2451195
50
198.4453795
51
217.7945479
0
ARC
8
DEFAULT_255_1_388
10
18.8067178
20
149.8402563
40
0.2043754
50
218.2887146
51
228.5613203
0
ARC
8
DEFAULT_255_1_388
10
18.8177185
20
149.8550902
40
0.2227819
50
228.9652423
51
258.1237049
0
ARC
8
DEFAULT_255_1_388
10
18.8408622
20
149.9541964
40
0.3245374
50
257.7260585
51
270.4013717
0
ARC
8
DEFAULT_255_1_388
10
18.845912
20
149.9041255
40
0.2744726
50
269.4204315
51
286.420998
0
ARC
8
DEFAULT_255_1_388
10
18.8626176
20
149.8434705
40
0.2115721
50
286.7250065
51
320.6004665
0
ARC
8
DEFAULT_255_1_388
10
18.8195091
20
149.8784527
40
0.2670878
50
320.6712228
51
344.5440474
0
ARC
8
DEFAULT_255_1_388
10
18.6893805
20
149.9166394
40
0.4026927
50
344.241448
51
356.735803
0
ARC
8
DEFAULT_255_1_388
10
18.5490112
20
149.9282656
40
0.5435085
50
356.3547471
51
0.0507222
0
ARC
8
DEFAULT_255_1_388
10
18.6992377
20
149.9317812
40
0.3932934
50
359.5579289
51
12.9534322
0
ARC
8
DEFAULT_255_1_388
10
18.8179217
20
149.9605586
40
0.2711827
50
12.6489751
51
41.608121
0
ARC
8
DEFAULT_255_1_388
10
18.8438377
20
149.9825946
40
0.2371737
50
41.7851122
51
85.9892156
0
ARC
8
DEFAULT_255_1_388
10
18.8299687
20
149.8910738
40
0.3295244
50
84.6965848
51
90.0672125
0
ARC
8
DEFAULT_255_1_388
10
18.8273255
20
149.8159118
40
0.4046926
50
89.6804991
51
99.161352
0
ARC
8
DEFAULT_255_1_388
10
18.8042264
20
149.9539848
40
0.2647044
50
98.9836248
51
113.8905702
0
ARC
8
DEFAULT_255_1_388
10
18.7783939
20
150.0149118
40
0.1985386
50
114.195234
51
127.3641866
0
LINE
8
DEFAULT_255_1_388
10
19.6852577
20
150.1139775
11
19.6852577
21
150.2504157
0
LINE
8
DEFAULT_255_1_388
10
19.6852577
20
150.2504157
11
19.8108532
21
150.2504157
0
LINE
8
DEFAULT_255_1_388
10
19.5967084
20
150.4817282
11
19.429549
21
150.4817282
0
LINE
8
DEFAULT_255_1_388
10
19.4178026
20
149.8582688
11
19.5858656
21
149.8582688
0
LINE
8
DEFAULT_255_1_388
10
19.8108532
20
150.1139775
11
19.6852577
21
150.1139775
0
ARC
8
DEFAULT_255_1_388
10
19.8075758
20
150.6320922
40
0.3816905
50
270.491971
51
281.8953028
0
ARC
8
DEFAULT_255_1_388
10
19.8347185
20
150.5081199
40
0.2547877
50
281.6690378
51
301.2943765
0
ARC
8
DEFAULT_255_1_388
10
19.8538636
20
150.4730926
40
0.2149197
50
301.7834992
51
311.754567
0
ARC
8
DEFAULT_255_1_388
10
19.8641678
20
150.461665
40
0.1995326
50
311.7325027
51
354.2803031
0
ARC
8
DEFAULT_255_1_388
10
19.7824094
20
150.475728
40
0.2823461
50
353.0941646
51
0.1174696
0
ARC
8
DEFAULT_255_1_388
10
19.7305652
20
150.4810874
40
0.3342238
50
359.1804452
51
15.0452323
0
ARC
8
DEFAULT_255_1_388
10
19.881971
20
150.5252546
40
0.1765747
50
13.957816
51
77.6713812
0
ARC
8
DEFAULT_255_1_388
10
19.8384946
20
150.3694464
40
0.3381982
50
76.111571
51
90.7028736
0
ARC
8
DEFAULT_255_1_388
10
19.8318358
20
150.400225
40
0.3074046
50
89.5321574
51
103.5319393
0
ARC
8
DEFAULT_255_1_388
10
19.8092742
20
150.4901443
40
0.2147041
50
103.2930114
51
133.5619756
0
ARC
8
DEFAULT_255_1_388
10
19.8042683
20
150.4968351
40
0.2064084
50
133.8349761
51
173.5343225
0
ARC
8
DEFAULT_255_1_388
10
19.8856341
20
150.4824144
40
0.2889266
50
172.5097183
51
180.1360699
0
ARC
8
DEFAULT_255_1_388
10
19.7786105
20
150.486288
40
0.3490913
50
155.3483706
51
180.7484035
0
ARC
8
DEFAULT_255_1_388
10
19.773108
20
150.4830519
40
0.3454798
50
131.5745177
51
154.4799474
0
ARC
8
DEFAULT_255_1_388
10
19.8083363
20
150.4474422
40
0.3955058
50
96.9874487
51
131.9690874
0
ARC
8
DEFAULT_255_1_388
10
19.8330255
20
150.3073407
40
0.537622
50
89.8592909
51
97.7827481
0
ARC
8
DEFAULT_255_1_388
10
19.8384364
20
150.277836
40
0.5671399
50
78.3654493
51
90.4132586
0
ARC
8
DEFAULT_255_1_388
10
19.8787006
20
150.4644918
40
0.3762034
50
56.6229818
51
78.6387103
0
ARC
8
DEFAULT_255_1_388
10
19.9028835
20
150.5067846
40
0.3275964
50
47.0254604
51
56.085558
0
ARC
8
DEFAULT_255_1_388
10
19.9051086
20
150.5112189
40
0.3228382
50
10.9207523
51
46.777927
0
ARC
8
DEFAULT_255_1_388
10
19.751668
20
150.4757401
40
0.4802559
50
359.6364235
51
11.6087615
0
ARC
8
DEFAULT_255_1_388
10
19.9580845
20
150.4740404
40
0.273833
50
332.3549969
51
359.7179765
0
ARC
8
DEFAULT_255_1_388
10
19.8849246
20
150.5087285
40
0.3547505
50
325.2332381
51
332.8746682
0
ARC
8
DEFAULT_255_1_388
10
19.9020829
20
150.4967763
40
0.3338396
50
292.9803892
51
325.2391113
0
ARC
8
DEFAULT_255_1_388
10
19.8710025
20
150.5572679
40
0.4016959
50
292.542178
51
293.6931461
0
ARC
8
DEFAULT_255_1_388
10
19.9153597
20
149.8307036
40
0.372079
50
57.643292
51
72.8626085
0
ARC
8
DEFAULT_255_1_388
10
19.9552431
20
149.8953273
40
0.2961455
50
36.7246661
51
57.4701329
0
ARC
8
DEFAULT_255_1_388
10
19.9539588
20
149.896747
40
0.2963321
50
8.054535
51
36.3561529
0
ARC
8
DEFAULT_255_1_388
10
19.8569261
20
149.8793073
40
0.3948682
50
359.8316595
51
8.5873361
0
ARC
8
DEFAULT_255_1_388
10
19.8146735
20
149.873897
40
0.4371398
50
343.9831631
51
0.557075
0
ARC
8
DEFAULT_255_1_388
10
19.9143784
20
149.8465963
40
0.3337749
50
311.6358204
51
343.7652116
0
ARC
8
DEFAULT_255_1_388
10
19.8718038
20
149.8945955
40
0.3979351
50
279.7829743
51
311.625622
0
ARC
8
DEFAULT_255_1_388
10
19.8379173
20
150.0562642
40
0.5630417
50
269.7285092
51
280.3857694
0
ARC
8
DEFAULT_255_1_388
10
19.8309486
20
150.0516241
40
0.5584119
50
256.6827433
51
270.4412869
0
ARC
8
DEFAULT_255_1_388
10
19.7928473
20
149.8958698
40
0.3980715
50
229.4223821
51
256.8554507
0
ARC
8
DEFAULT_255_1_388
10
19.7462026
20
149.8433683
40
0.3278564
50
181.8183354
51
229.6455015
0
ARC
8
DEFAULT_255_1_388
10
19.8631636
20
149.8580825
40
0.4453611
50
179.9760419
51
183.2330638
0
ARC
8
DEFAULT_255_1_388
10
19.8438188
20
149.8557781
40
0.2579652
50
179.4467996
51
196.2871626
0
ARC
8
DEFAULT_255_1_388
10
19.7889642
20
149.8407709
40
0.2011057
50
196.5661293
51
227.7059371
0
ARC
8
DEFAULT_255_1_388
10
19.8074249
20
149.8614155
40
0.2287994
50
227.7653015
51
257.8763321
0
ARC
8
DEFAULT_255_1_388
10
19.8327332
20
149.9674961
40
0.3378385
50
257.4583525
51
270.4267406
0
ARC
8
DEFAULT_255_1_388
10
19.8378582
20
150.000123
40
0.3704652
50
269.5965319
51
280.8788143
0
ARC
8
DEFAULT_255_1_388
10
19.863681
20
149.8711529
40
0.2389415
50
280.6347277
51
299.8594068
0
ARC
8
DEFAULT_255_1_388
10
19.8851579
20
149.8303736
40
0.19289
50
300.3575552
51
314.5515667
0
ARC
8
DEFAULT_255_1_388
10
19.8758255
20
149.8372025
40
0.204312
50
315.0730962
51
345.0429362
0
ARC
8
DEFAULT_255_1_388
10
19.7719762
20
149.8674539
40
0.31246
50
344.598526
51
357.9270698
0
ARC
8
DEFAULT_255_1_388
10
19.6710067
20
149.8743705
40
0.4136265
50
357.4755098
51
0.0224936
0
ARC
8
DEFAULT_255_1_388
10
19.7862945
20
149.8771099
40
0.2983498
50
359.5051035
51
13.4236939
0
ARC
8
DEFAULT_255_1_388
10
19.8838035
20
149.9020637
40
0.1977186
50
12.9497905
51
48.7550905
0
ARC
8
DEFAULT_255_1_388
10
19.8632957
20
149.8740373
40
0.2323321
50
49.509109
51
72.1832965
0
ARC
8
DEFAULT_255_1_388
10
19.8230425
20
149.7545632
40
0.358397
50
71.9008458
51
84.3555134
0
ARC
8
DEFAULT_255_1_388
10
19.804882
20
149.6013712
40
0.512641
50
84.019632
51
89.3326067
0
LINE
8
DEFAULT_255_1_388
10
21.3306486
20
150.8268898
11
21.3306486
21
150.7329191
0
LINE
8
DEFAULT_255_1_388
10
21.3306486
20
150.7329191
11
20.7857992
21
149.5113
0
LINE
8
DEFAULT_255_1_388
10
20.7857992
20
149.5113
11
20.6105077
21
149.5113
0
LINE
8
DEFAULT_255_1_388
10
20.6105077
20
149.5113
11
21.15355
21
150.689548
0
LINE
8
DEFAULT_255_1_388
10
21.15355
20
150.689548
11
20.4415412
21
150.689548
0
LINE
8
DEFAULT_255_1_388
10
20.4415412
20
150.689548
11
20.4415412
21
150.8268898
0
LINE
8
DEFAULT_255_1_388
10
20.4415412
20
150.8268898
11
21.3306486
21
150.8268898
0
LINE
8
DEFAULT_255_1_388
10
22.3453515
20
150.289269
11
22.3453515
21
150.0724135
0
LINE
8
DEFAULT_255_1_388
10
21.5149757
20
150.0498244
11
21.5149757
21
150.2730048
0
LINE
8
DEFAULT_255_1_388
10
22.178192
20
150.0272353
11
22.178192
21
150.3010153
0
LINE
8
DEFAULT_255_1_388
10
21.6821352
20
150.3136652
11
21.6821352
21
150.0462102
0
ARC
8
DEFAULT_255_1_388
10
20.9675849
20
150.0669118
40
1.3777776
50
353.8440855
51
0.2287917
0
ARC
8
DEFAULT_255_1_388
10
21.4894866
20
150.0086414
40
0.852639
50
344.4934746
51
353.9763743
0
ARC
8
DEFAULT_255_1_388
10
21.8261673
20
149.9129191
40
0.5026273
50
329.2803599
51
344.7473406
0
ARC
8
DEFAULT_255_1_388
10
21.9377169
20
149.8517038
40
0.3754848
50
324.9361395
51
328.6153007
0
ARC
8
DEFAULT_255_1_388
10
21.9802819
20
149.8219586
40
0.3235566
50
280.5801797
51
324.9173226
0
ARC
8
DEFAULT_255_1_388
10
21.9351447
20
150.0099236
40
0.5167077
50
269.5979457
51
281.6732777
0
ARC
8
DEFAULT_255_1_388
10
21.9270351
20
149.9964113
40
0.5032026
50
256.6228565
51
270.5105488
0
ARC
8
DEFAULT_255_1_388
10
21.8818094
20
149.8222345
40
0.3233092
50
215.8618351
51
257.2787793
0
ARC
8
DEFAULT_255_1_388
10
21.9966801
20
149.8993106
40
0.4615831
50
197.9695203
51
215.2622745
0
ARC
8
DEFAULT_255_1_388
10
22.2762476
20
149.9936641
40
0.7566307
50
187.8816486
51
198.2346584
0
ARC
8
DEFAULT_255_1_388
10
22.7215715
20
150.0579453
40
1.2065653
50
180.8977266
51
188.0054894
0
ARC
8
DEFAULT_255_1_388
10
23.0265928
20
150.06944
40
1.5117443
50
180.7434591
51
181.152202
0
ARC
8
DEFAULT_255_1_388
10
22.8590924
20
150.2784371
40
1.3441277
50
173.7674302
51
180.2315596
0
ARC
8
DEFAULT_255_1_388
10
22.3508793
20
150.3358779
40
0.8326847
50
164.3058537
51
173.9000553
0
ARC
8
DEFAULT_255_1_388
10
22.0232793
20
150.4302652
40
0.4917711
50
148.7922028
51
164.5682288
0
ARC
8
DEFAULT_255_1_388
10
21.916353
20
150.4899457
40
0.3694204
50
144.5883979
51
148.1161588
0
ARC
8
DEFAULT_255_1_388
10
21.8776276
20
150.5169667
40
0.322202
50
101.6440149
51
144.5142619
0
ARC
8
DEFAULT_255_1_388
10
21.9254468
20
150.3269337
40
0.5180451
50
89.528284
51
102.5820197
0
ARC
8
DEFAULT_255_1_388
10
21.934346
20
150.3225376
40
0.5224441
50
77.0437914
51
90.508231
0
ARC
8
DEFAULT_255_1_388
10
21.9795714
20
150.5073272
40
0.3322297
50
48.2777708
51
77.4996087
0
ARC
8
DEFAULT_255_1_388
10
21.9877454
20
150.5218557
40
0.315966
50
36.3141586
51
47.6307332
0
ARC
8
DEFAULT_255_1_388
10
21.8900176
20
150.4560159
40
0.4337313
50
18.2931065
51
35.6770203
0
ARC
8
DEFAULT_255_1_388
10
21.6039017
20
150.3578107
40
0.7362203
50
8.0246996
51
18.5605636
0
ARC
8
DEFAULT_255_1_388
10
21.1355372
20
150.2886432
40
1.2096583
50
1.127539
51
8.1718423
0
ARC
8
DEFAULT_255_1_388
10
20.7706506
20
150.2743374
40
1.5747719
50
0.5432713
51
1.38669
0
ARC
8
DEFAULT_255_1_388
10
20.9763884
20
150.3050163
40
1.2018103
50
359.8092569
51
4.9408001
0
ARC
8
DEFAULT_255_1_388
10
21.4500466
20
150.34729
40
0.7262727
50
4.8364937
51
12.2906017
0
ARC
8
DEFAULT_255_1_388
10
21.759993
20
150.4163485
40
0.4087324
50
12.0806994
51
23.8171225
0
ARC
8
DEFAULT_255_1_388
10
21.8920326
20
150.4722508
40
0.2653719
50
24.2874621
51
31.3934353
0
ARC
8
DEFAULT_255_1_388
10
21.9510762
20
150.5108822
40
0.1948607
50
30.7407708
51
82.4658033
0
ARC
8
DEFAULT_255_1_388
10
21.9308423
20
150.4115017
40
0.2961198
50
81.1057101
51
90.2187368
0
ARC
8
DEFAULT_255_1_388
10
21.9268235
20
150.4405421
40
0.2670929
50
89.380395
51
105.6763916
0
ARC
8
DEFAULT_255_1_388
10
21.9061957
20
150.515532
40
0.1893189
50
105.7980655
51
149.7387869
0
ARC
8
DEFAULT_255_1_388
10
22.0259097
20
150.4435719
40
0.3289892
50
149.4208441
51
163.628295
0
ARC
8
DEFAULT_255_1_388
10
22.2611327
20
150.3718345
40
0.5749004
50
163.3764549
51
172.141138
0
ARC
8
DEFAULT_255_1_388
10
22.6324048
20
150.3186582
40
0.9499585
50
172.0258462
51
178.0705453
0
ARC
8
DEFAULT_255_1_388
10
22.9745601
20
150.3024682
40
1.2924734
50
177.8639301
51
179.5036263
0
ARC
8
DEFAULT_255_1_388
10
22.852662
20
150.0421151
40
1.170534
50
179.7995545
51
185.246089
0
ARC
8
DEFAULT_255_1_388
10
22.3978213
20
149.9990404
40
0.7136613
50
185.1411911
51
193.0082205
0
ARC
8
DEFAULT_255_1_388
10
22.1004473
20
149.9287441
40
0.4080987
50
192.7897338
51
205.2507384
0
ARC
8
DEFAULT_255_1_388
10
21.9826683
20
149.8761538
40
0.2791522
50
205.8001921
51
211.2545876
0
ARC
8
DEFAULT_255_1_388
10
21.9238222
20
149.8367132
40
0.2084074
50
210.3789935
51
238.4007996
0
ARC
8
DEFAULT_255_1_388
10
21.9216308
20
149.8419786
40
0.2117943
50
239.6521916
51
265.9793852
0
ARC
8
DEFAULT_255_1_388
10
21.9312157
20
149.9176358
40
0.2879689
50
265.1324455
51
270.0603288
0
ARC
8
DEFAULT_255_1_388
10
21.9344534
20
149.8811418
40
0.2514919
50
269.3314378
51
287.2180039
0
ARC
8
DEFAULT_255_1_388
10
21.9499617
20
149.8245291
40
0.1928357
50
287.7957942
51
329.0808983
0
ARC
8
DEFAULT_255_1_388
10
21.8422374
20
149.8917651
40
0.319808
50
328.6635261
51
343.3325043
0
ARC
8
DEFAULT_255_1_388
10
21.5977832
20
149.9679195
40
0.5758408
50
343.0498092
51
351.9392499
0
ARC
8
DEFAULT_255_1_388
10
21.2077154
20
150.0254205
40
0.9701202
50
351.8071632
51
357.7957897
0
ARC
8
DEFAULT_255_1_388
10
20.8442631
20
150.0442724
40
1.3340376
50
357.5870923
51
359.2682493
0
LINE
8
DEFAULT_255_2_778
10
11.0359959
20
152.4981531
11
10.9838959
21
152.8354531
0
LINE
8
DEFAULT_255_2_778
10
10.9838959
20
152.8354531
11
10.4068959
21
152.8354531
0
LINE
8
DEFAULT_255_2_778
10
10.4068959
20
152.8354531
11
10.2364959
21
152.4981531
0
LINE
8
DEFAULT_255_2_778
10
10.2364959
20
152.4981531
11
9.8694959
21
152.4981531
0
LINE
8
DEFAULT_255_2_778
10
9.8694959
20
152.4981531
11
10.7531959
21
154.1356531
0
LINE
8
DEFAULT_255_2_778
10
10.7531959
20
154.1356531
11
11.0608959
21
154.1356531
0
LINE
8
DEFAULT_255_2_778
10
11.0608959
20
154.1356531
11
11.3754959
21
152.4981531
0
LINE
8
DEFAULT_255_2_778
10
11.3754959
20
152.4981531
11
11.0357959
21
152.4981531
0
LINE
8
DEFAULT_255_2_778
10
11.0357959
20
152.4981531
11
11.0359959
21
152.4981531
0
LINE
8
DEFAULT_255_2_778
10
10.8486959
20
153.7184531
11
10.5430959
21
153.1088531
0
LINE
8
DEFAULT_255_2_778
10
10.5430959
20
153.1088531
11
10.9418959
21
153.1088531
0
LINE
8
DEFAULT_255_2_778
10
10.9418959
20
153.1088531
11
10.8486959
21
153.7184531
0
LINE
8
DEFAULT_255_2_778
10
10.8486959
20
153.7184531
11
10.8486959
21
153.7184531
0
LINE
8
DEFAULT_255_2_778
10
12.1615594
20
154.2256646
11
11.8593594
21
152.4979646
0
LINE
8
DEFAULT_255_2_778
10
11.8593594
20
152.4979646
11
11.5368594
21
152.4979646
0
LINE
8
DEFAULT_255_2_778
10
11.5368594
20
152.4979646
11
11.8400594
21
154.2256646
0
LINE
8
DEFAULT_255_2_778
10
11.8400594
20
154.2256646
11
12.1615594
21
154.2256646
0
LINE
8
DEFAULT_255_2_778
10
12.1615594
20
154.2256646
11
12.1615594
21
154.2256646
0
LINE
8
DEFAULT_255_2_778
10
12.7717594
20
154.2256646
11
12.4695594
21
152.4979646
0
LINE
8
DEFAULT_255_2_778
10
12.4695594
20
152.4979646
11
12.1470594
21
152.4979646
0
LINE
8
DEFAULT_255_2_778
10
12.1470594
20
152.4979646
11
12.4502594
21
154.2256646
0
LINE
8
DEFAULT_255_2_778
10
12.4502594
20
154.2256646
11
12.7717594
21
154.2256646
0
LINE
8
DEFAULT_255_2_778
10
12.7717594
20
154.2256646
11
12.7717594
21
154.2256646
0
ARC
8
DEFAULT_255_2_778
10
13.3180767
20
153.0137764
40
0.5383522
50
238.763891
51
270.7055166
0
ARC
8
DEFAULT_255_2_778
10
13.2867625
20
152.958452
40
0.4748131
50
204.061185
51
238.5328679
0
ARC
8
DEFAULT_255_2_778
10
13.3693681
20
152.9980331
40
0.5663841
50
179.4896096
51
204.3103027
0
ARC
8
DEFAULT_255_2_778
10
13.4933843
20
153.0025727
40
0.6903781
50
175.123126
51
179.9580366
0
ARC
8
DEFAULT_255_2_778
10
13.5850479
20
153.0375152
40
0.7790728
50
149.5392097
51
174.9446897
0
ARC
8
DEFAULT_255_2_778
10
13.459184
20
153.1210212
40
0.628301
50
120.7003982
51
150.2846053
0
ARC
8
DEFAULT_255_2_778
10
13.4196851
20
153.1807024
40
0.556829
50
89.4236852
51
120.3409826
0
ARC
8
DEFAULT_255_2_778
10
13.4252352
20
153.0819671
40
0.6555361
50
88.4553682
51
89.9955718
0
ARC
8
DEFAULT_255_2_778
10
13.4481363
20
153.2661369
40
0.4711572
50
58.4514404
51
90.636095
0
ARC
8
DEFAULT_255_2_778
10
13.4744403
20
153.3295423
40
0.403504
50
35.6058989
51
56.9235594
0
ARC
8
DEFAULT_255_2_778
10
13.3641882
20
153.2557058
40
0.5361477
50
0.6851965
51
35.1616077
0
ARC
8
DEFAULT_255_2_778
10
13.1616313
20
153.2353229
40
0.7391521
50
359.9888194
51
2.0774415
0
ARC
8
DEFAULT_255_2_778
10
13.0480025
20
153.2370249
40
0.852783
50
353.383538
51
359.8759623
0
ARC
8
DEFAULT_255_2_778
10
13.534221
20
152.9846119
40
0.4107176
50
177.8018731
51
179.9839782
0
ARC
8
DEFAULT_255_2_778
10
13.3756217
20
152.973124
40
0.2523852
50
177.3650374
51
219.8309448
0
ARC
8
DEFAULT_255_2_778
10
13.3462068
20
152.9598401
40
0.2214564
50
222.0668323
51
271.55222
0
ARC
8
DEFAULT_255_2_778
10
13.3632002
20
153.1646289
40
0.4263057
50
268.5221572
51
269.9980687
0
ARC
8
DEFAULT_255_2_778
10
13.3616001
20
153.1350217
40
0.3967017
50
270.2290309
51
318.5203973
0
ARC
8
DEFAULT_255_2_778
10
13.4310056
20
152.9517979
40
0.4555006
50
292.4982989
51
325.2807674
0
ARC
8
DEFAULT_255_2_778
10
13.3411907
20
153.1303545
40
0.6549996
50
269.6158853
51
293.7802026
0
ARC
8
DEFAULT_255_2_778
10
13.3368026
20
153.217233
40
0.7418635
50
269.0811303
51
269.9997673
0
ARC
8
DEFAULT_255_2_778
10
13.4205249
20
153.2101977
40
0.2651417
50
88.6426435
51
89.9971979
0
ARC
8
DEFAULT_255_2_778
10
13.4187009
20
153.2454788
40
0.2298681
50
89.5421073
51
130.5025885
0
ARC
8
DEFAULT_255_2_778
10
13.5174398
20
153.1453327
40
0.370282
50
132.0556576
51
154.4346079
0
ARC
8
DEFAULT_255_2_778
10
13.9187288
20
152.9277869
40
0.8264843
50
152.8348001
51
159.2008974
0
ARC
8
DEFAULT_255_2_778
10
13.283715
20
153.2987268
40
0.3137404
50
351.1327381
51
359.8552777
0
ARC
8
DEFAULT_255_2_778
10
13.3301744
20
153.2983274
40
0.2672803
50
359.9157472
51
8.073482
0
ARC
8
DEFAULT_255_2_778
10
13.4328726
20
153.3136276
40
0.1634528
50
7.8192239
51
49.4174523
0
ARC
8
DEFAULT_255_2_778
10
13.4309336
20
153.3004377
40
0.174876
50
51.746929
51
91.3525911
0
LINE
8
DEFAULT_255_2_778
10
12.8055056
20
153.061265
11
12.8090056
21
153.106165
0
LINE
8
DEFAULT_255_2_778
10
13.8951056
20
153.138765
11
13.8768056
21
153.000365
0
LINE
8
DEFAULT_255_2_778
10
13.8768056
20
153.000365
11
13.1238056
21
153.000365
0
LINE
8
DEFAULT_255_2_778
10
13.6588056
20
152.872265
11
13.8054056
21
152.692365
0
LINE
8
DEFAULT_255_2_778
10
13.3249056
20
152.475465
11
13.3247056
21
152.475465
0
LINE
8
DEFAULT_255_2_778
10
13.1461056
20
153.221265
11
13.5868056
21
153.221265
0
LINE
8
DEFAULT_255_2_778
10
13.5868056
20
153.221265
11
13.5937056
21
153.250365
0
LINE
8
DEFAULT_255_2_778
10
13.4268056
20
153.475265
11
13.4268056
21
153.475265
0
ARC
8
DEFAULT_255_2_778
10
14.7973588
20
153.2938783
40
0.4439397
50
89.8554796
51
141.1589213
0
ARC
8
DEFAULT_255_2_778
10
14.7984572
20
153.232943
40
0.5048737
50
88.7717605
51
89.9975792
0
ARC
8
DEFAULT_255_2_778
10
14.8178417
20
153.4218406
40
0.315976
50
50.4893295
51
91.5528058
0
ARC
8
DEFAULT_255_2_778
10
14.8339359
20
153.4562178
40
0.2793745
50
33.8414583
51
48.5499238
0
ARC
8
DEFAULT_255_2_778
10
14.731985
20
153.3973286
40
0.3969262
50
4.3932888
51
32.7062485
0
ARC
8
DEFAULT_255_2_778
10
14.4819065
20
153.3619301
40
0.6491822
50
359.8769204
51
5.8177478
0
ARC
8
DEFAULT_255_2_778
10
14.2701804
20
153.3628881
40
0.8609097
50
353.9399056
51
359.8434284
0
ARC
8
DEFAULT_255_2_778
10
14.4164047
20
153.3285967
40
0.3954956
50
352.2407688
51
359.7520116
0
ARC
8
DEFAULT_255_2_778
10
14.5201997
20
153.3274041
40
0.2916973
50
359.8980094
51
5.448398
0
ARC
8
DEFAULT_255_2_778
10
14.6814536
20
153.3445865
40
0.129553
50
4.6550554
51
97.2610773
0
ARC
8
DEFAULT_255_2_778
10
14.655996
20
153.2188531
40
0.2544097
50
87.9539208
51
89.9945997
0
ARC
8
DEFAULT_255_2_778
10
14.6629447
20
153.2032668
40
0.2700847
50
91.4691634
51
141.078713
0
ARC
8
DEFAULT_255_2_778
10
14.7966376
20
153.0614301
40
0.4639576
50
137.8219849
51
140.394746
0
ARC
8
DEFAULT_255_2_778
10
16.9661161
20
153.108211
40
1.026426
50
77.5141066
51
90.4821212
0
ARC
8
DEFAULT_255_2_778
10
17.0845798
20
153.6174611
40
0.5036389
50
52.814306
51
78.1469212
0
ARC
8
DEFAULT_255_2_778
10
17.1732245
20
153.7457438
40
0.3479303
50
357.5432245
51
51.6759047
0
ARC
8
DEFAULT_255_2_778
10
16.9814613
20
153.7311938
40
0.5393738
50
356.248244
51
359.9613012
0
ARC
8
DEFAULT_255_2_778
10
17.128092
20
153.7185882
40
0.3922439
50
295.0867564
51
356.6841236
0
ARC
8
DEFAULT_255_2_778
10
16.9599154
20
153.9813279
40
0.7026958
50
292.6018649
51
298.4245718
0
ARC
8
DEFAULT_255_2_778
10
17.1412835
20
153.068675
40
0.2784307
50
29.5992916
51
71.4243751
0
ARC
8
DEFAULT_255_2_778
10
17.0686219
20
153.0264727
40
0.3624559
50
358.8250622
51
29.7265593
0
ARC
8
DEFAULT_255_2_778
10
16.932071
20
153.0193262
40
0.4989307
50
356.3312443
51
359.9671937
0
ARC
8
DEFAULT_255_2_778
10
16.9581925
20
153.0005387
40
0.4719696
50
307.6792206
51
358.4048608
0
ARC
8
DEFAULT_255_2_778
10
16.8807048
20
153.1213643
40
0.6150877
50
279.1080464
51
306.5123219
0
ARC
8
DEFAULT_255_2_778
10
16.7961448
20
153.5434116
40
1.0453321
50
269.63465
51
280.0226117
0
ARC
8
DEFAULT_255_2_778
10
16.8094212
20
153.1085308
40
0.3407431
50
267.9747348
51
304.6141501
0
ARC
8
DEFAULT_255_2_778
10
16.8661516
20
153.0223067
40
0.2375665
50
305.166569
51
352.3059676
0
ARC
8
DEFAULT_255_2_778
10
16.775822
20
153.0433166
40
0.3300111
50
350.7906063
51
359.6837465
0
ARC
8
DEFAULT_255_2_778
10
16.9356152
20
153.0489465
40
0.170376
50
357.4933304
51
35.754963
0
ARC
8
DEFAULT_255_2_778
10
16.9423472
20
153.0346963
40
0.1739313
50
40.8670445
51
88.9145542
0
ARC
8
DEFAULT_255_2_778
10
16.9113357
20
152.8494792
40
0.360752
50
84.5431107
51
87.5464559
0
ARC
8
DEFAULT_255_2_778
10
16.8864523
20
153.8215688
40
0.3741259
50
268.9933192
51
299.9063201
0
ARC
8
DEFAULT_255_2_778
10
16.9296435
20
153.7287438
40
0.2722705
50
301.7671328
51
305.0688299
0
ARC
8
DEFAULT_255_2_778
10
16.9572403
20
153.6926463
40
0.2268776
50
304.6024496
51
352.3134516
0
ARC
8
DEFAULT_255_2_778
10
16.9035208
20
153.7033322
40
0.2815642
50
351.6205962
51
359.745937
0
ARC
8
DEFAULT_255_2_778
10
17.0391775
20
153.7094083
40
0.1460884
50
357.1260689
51
87.9509322
0
ARC
8
DEFAULT_255_2_778
10
16.9733166
20
153.4300677
40
0.4312349
50
80.5121161
51
90.1776895
0
ARC
8
DEFAULT_255_2_778
10
18.304359
20
152.7582308
40
0.6634375
50
79.3314563
51
88.7113465
0
ARC
8
DEFAULT_255_2_778
10
18.3079683
20
152.9916839
40
0.4299655
50
88.4925657
51
89.9946723
0
ARC
8
DEFAULT_255_2_778
10
18.2982438
20
153.1117608
40
0.3100425
50
88.1952228
51
143.885382
0
ARC
8
DEFAULT_255_2_778
10
18.4077805
20
153.3567129
40
0.3980768
50
117.0828142
51
147.9763761
0
ARC
8
DEFAULT_255_2_778
10
18.3544747
20
153.4400295
40
0.2997784
50
89.5977622
51
115.2613452
0
ARC
8
DEFAULT_255_2_778
10
18.3464621
20
153.2678482
40
0.4720608
50
75.0830674
51
88.7719532
0
ARC
8
DEFAULT_255_2_778
10
19.3883565
20
152.5850588
40
0.303463
50
178.9513385
51
196.6911244
0
ARC
8
DEFAULT_255_2_778
10
19.5567182
20
152.5904238
40
0.4717738
50
177.8405456
51
179.9770623
0
ARC
8
DEFAULT_255_2_778
10
18.7787325
20
152.8950947
40
0.4198561
50
270.5473861
51
316.8967404
0
ARC
8
DEFAULT_255_2_778
10
18.7827705
20
152.9054581
40
0.4302003
50
268.5226571
51
269.9964175
0
ARC
8
DEFAULT_255_2_778
10
18.7647216
20
152.8535252
40
0.3781887
50
226.455184
51
271.0541416
0
ARC
8
DEFAULT_255_2_778
10
18.7161161
20
152.8081869
40
0.311866
50
179.0506747
51
227.1894377
0
ARC
8
DEFAULT_255_2_778
10
18.7977006
20
152.8132683
40
0.3934079
50
177.4603384
51
179.9875271
0
ARC
8
DEFAULT_255_2_778
10
18.7677222
20
152.8292892
40
0.3630457
50
122.3464314
51
179.7772632
0
ARC
8
DEFAULT_255_2_778
10
18.9127921
20
152.6021577
40
0.6325515
50
98.6956815
51
122.4402135
0
ARC
8
DEFAULT_255_2_778
10
18.9977072
20
152.1471789
40
1.0952432
50
89.6404969
51
99.4883828
0
ARC
8
DEFAULT_255_2_778
10
18.91142
20
153.362456
40
0.2635833
50
349.2520325
51
359.7979352
0
ARC
8
DEFAULT_255_2_778
10
18.9485896
20
153.3616836
40
0.2264121
50
359.9602232
51
5.7075699
0
ARC
8
DEFAULT_255_2_778
10
19.0517084
20
153.3758244
40
0.1224577
50
3.9221136
51
47.9806675
0
ARC
8
DEFAULT_255_2_778
10
19.0461009
20
153.3584028
40
0.1393558
50
51.0640414
51
91.6537281
0
ARC
8
DEFAULT_255_2_778
10
19.0343864
20
153.2242856
40
0.2735232
50
88.3883484
51
89.9950272
0
ARC
8
DEFAULT_255_2_778
10
19.0289472
20
153.3021996
40
0.1956856
50
88.4002709
51
125.6558116
0
ARC
8
DEFAULT_255_2_778
10
19.0229477
20
153.3204867
40
0.1774238
50
127.5242925
51
170.6536699
0
ARC
8
DEFAULT_255_2_778
10
18.8789596
20
153.3342573
40
0.3527561
50
122.7014157
51
177.7346919
0
ARC
8
DEFAULT_255_2_778
10
19.030198
20
153.1292043
40
0.6072396
50
91.7146868
51
124.2570002
0
ARC
8
DEFAULT_255_2_778
10
19.05893
20
152.8723064
40
0.865138
50
89.9735854
51
93.1077226
0
ARC
8
DEFAULT_255_2_778
10
19.0592938
20
152.815756
40
0.9216883
50
89.4414218
51
89.9978259
0
ARC
8
DEFAULT_255_2_778
10
19.0704714
20
153.2172068
40
0.5201984
50
63.6868659
51
90.2414521
0
ARC
8
DEFAULT_255_2_778
10
19.1244671
20
153.3451249
40
0.3816898
50
44.805062
51
62.4405121
0
ARC
8
DEFAULT_255_2_778
10
19.1511934
20
153.3693957
40
0.3456276
50
358.4368244
51
45.0725574
0
ARC
8
DEFAULT_255_2_778
10
18.9988451
20
153.3607092
40
0.4978477
50
354.0151208
51
359.9146153
0
ARC
8
DEFAULT_255_2_778
10
19.916384
20
152.6384006
40
0.5223437
50
178.2666392
51
179.9853875
0
ARC
8
DEFAULT_255_2_778
10
19.7189724
20
152.6305635
40
0.3250299
50
178.5948625
51
200.018038
0
ARC
8
DEFAULT_255_2_778
10
18.8607749
20
153.0194835
40
0.2979407
50
268.1351457
51
269.9967975
0
ARC
8
DEFAULT_255_2_778
10
18.8555143
20
153.0169809
40
0.2954847
50
271.0168715
51
323.4470831
0
ARC
8
DEFAULT_255_2_778
10
19.0185177
20
152.6574003
40
0.3950093
50
89.6139406
51
115.9632081
0
ARC
8
DEFAULT_255_2_778
10
18.9568146
20
152.7985476
40
0.2411766
50
117.4642621
51
142.4598629
0
ARC
8
DEFAULT_255_2_778
10
18.9147894
20
152.8354762
40
0.1853888
50
143.595728
51
174.110017
0
ARC
8
DEFAULT_255_2_778
10
18.8922711
20
152.8299244
40
0.1637466
50
171.368069
51
179.7835889
0
ARC
8
DEFAULT_255_2_778
10
18.8267207
20
152.8268088
40
0.098266
50
177.8221965
51
224.0379617
0
ARC
8
DEFAULT_255_2_778
10
18.8464576
20
152.8518517
40
0.1299333
50
225.9269812
51
272.0384171
0
ARC
8
DEFAULT_255_2_778
10
20.216987
20
153.3869976
40
0.3515032
50
37.8132465
51
89.9360651
0
ARC
8
DEFAULT_255_2_778
10
20.0346749
20
152.8967418
40
0.4267183
50
285.291584
51
321.0175046
0
ARC
8
DEFAULT_255_2_778
10
20.0570669
20
152.8505225
40
0.3763475
50
269.8450062
51
283.8588709
0
ARC
8
DEFAULT_255_2_778
10
20.0560587
20
152.8832286
40
0.4090522
50
268.5880369
51
269.9986183
0
ARC
8
DEFAULT_255_2_778
10
20.0420305
20
152.8300487
40
0.3557701
50
236.3475668
51
270.6359501
0
ARC
8
DEFAULT_255_2_778
10
20.0598141
20
152.8415321
40
0.3752788
50
201.8435891
51
235.058908
0
ARC
8
DEFAULT_255_2_778
10
20.3322211
20
152.9605871
40
0.6724873
50
181.1917384
51
202.6233367
0
ARC
8
DEFAULT_255_2_778
10
20.6351677
20
152.9936339
40
0.9764219
50
180.0156472
51
182.7609519
0
ARC
8
DEFAULT_255_2_778
10
20.5470549
20
152.9942658
40
0.8883095
50
174.2087211
51
180.0579587
0
ARC
8
DEFAULT_255_2_778
10
20.6346038
20
153.0071468
40
0.9727968
50
152.6606942
51
172.4775279
0
ARC
8
DEFAULT_255_2_778
10
20.4685375
20
153.0816269
40
0.7911386
50
151.1967159
51
151.9287309
0
ARC
8
DEFAULT_255_2_778
10
20.2724416
20
153.2056657
40
0.559722
50
125.8155177
51
152.6517649
0
ARC
8
DEFAULT_255_2_778
10
20.1926864
20
153.3001789
40
0.4365104
50
121.2895022
51
124.5859333
0
ARC
8
DEFAULT_255_2_778
10
20.2005174
20
153.2858255
40
0.4528439
50
89.3885498
51
121.1930117
0
ARC
8
DEFAULT_255_2_778
10
20.205315
20
153.2040492
40
0.5345942
50
88.6747242
51
89.9962477
0
ARC
8
DEFAULT_255_2_778
10
21.0229427
20
152.9666181
40
1.044966
50
173.5557888
51
179.5636493
0
ARC
8
DEFAULT_255_2_778
10
20.5582157
20
152.973589
40
0.5802095
50
179.9025124
51
183.3187157
0
ARC
8
DEFAULT_255_2_778
10
20.270534
20
152.944649
40
0.2915917
50
180.9134286
51
207.6247443
0
ARC
8
DEFAULT_255_2_778
10
20.135005
20
152.8802881
40
0.1417894
50
209.9763709
51
272.172214
0
ARC
8
DEFAULT_255_2_778
10
20.1512082
20
153.0040383
40
0.2656585
50
267.6638236
51
269.9934853
0
ARC
8
DEFAULT_255_2_778
10
20.1452669
20
153.0078962
40
0.2695812
50
271.2564257
51
323.4819236
0
ARC
8
DEFAULT_255_2_778
10
20.0042443
20
153.1467425
40
0.4663623
50
320.0808185
51
322.7722781
0
ARC
8
DEFAULT_255_2_778
10
20.2905955
20
153.2930938
40
0.1811681
50
17.7085133
51
91.4917236
0
ARC
8
DEFAULT_255_2_778
10
20.2776466
20
153.1923302
40
0.2819906
50
88.3270304
51
89.9962875
0
ARC
8
DEFAULT_255_2_778
10
20.2751839
20
153.2404886
40
0.2338453
50
89.3920923
51
141.8934507
0
ARC
8
DEFAULT_255_2_778
10
20.4150372
20
153.1308724
40
0.411538
50
141.9009784
51
164.0634131
0
ARC
8
DEFAULT_255_2_778
10
20.9401614
20
152.9631385
40
0.9626867
50
163.0454941
51
172.7936709
0
LINE
8
DEFAULT_255_2_778
10
14.1790793
20
153.7152006
11
14.4788793
21
153.7163006
0
LINE
8
DEFAULT_255_2_778
10
14.4788793
20
153.7163006
11
14.4515793
21
153.5723006
0
LINE
8
DEFAULT_255_2_778
10
15.1262793
20
153.2720006
11
14.9968793
21
152.4981006
0
LINE
8
DEFAULT_255_2_778
10
14.9968793
20
152.4981006
11
14.6764793
21
152.4981006
0
LINE
8
DEFAULT_255_2_778
10
14.6764793
20
152.4981006
11
14.8082793
21
153.2752006
0
LINE
8
DEFAULT_255_2_778
10
14.4391793
20
153.3572006
11
14.2856793
21
152.4979006
0
LINE
8
DEFAULT_255_2_778
10
14.2856793
20
152.4979006
11
13.9652793
21
152.4979006
0
LINE
8
DEFAULT_255_2_778
10
13.9652793
20
152.4979006
11
14.1787793
21
153.7150006
0
LINE
8
DEFAULT_255_2_778
10
14.1787793
20
153.7150006
11
14.1790793
21
153.7152006
0
LINE
8
DEFAULT_255_2_778
10
16.0157793
20
153.3303006
11
15.9692793
21
153.0683006
0
LINE
8
DEFAULT_255_2_778
10
15.9692793
20
153.0683006
11
15.3466793
21
153.0683006
0
LINE
8
DEFAULT_255_2_778
10
15.3466793
20
153.0683006
11
15.3921793
21
153.3303006
0
LINE
8
DEFAULT_255_2_778
10
15.3921793
20
153.3303006
11
16.0157793
21
153.3303006
0
LINE
8
DEFAULT_255_2_778
10
16.0157793
20
153.3303006
11
16.0157793
21
153.3303006
0
LINE
8
DEFAULT_255_2_778
10
16.7894793
20
152.4981006
11
16.1544793
21
152.4981006
0
LINE
8
DEFAULT_255_2_778
10
16.1544793
20
152.4981006
11
16.4417793
21
154.1356006
0
LINE
8
DEFAULT_255_2_778
10
16.4417793
20
154.1356006
11
16.9574793
21
154.1346006
0
LINE
8
DEFAULT_255_2_778
10
16.7894793
20
152.4981006
11
16.7894793
21
152.4981006
0
LINE
8
DEFAULT_255_2_778
10
16.9267793
20
153.2101006
11
16.6131793
21
153.2112006
0
LINE
8
DEFAULT_255_2_778
10
16.6131793
20
153.2112006
11
16.5348793
21
152.7691006
0
LINE
8
DEFAULT_255_2_778
10
16.5348793
20
152.7691006
11
16.7973793
21
152.7680006
0
LINE
8
DEFAULT_255_2_778
10
16.9267793
20
153.2099006
11
16.9267793
21
153.2101006
0
LINE
8
DEFAULT_255_2_778
10
16.7267793
20
153.8626006
11
16.6539793
21
153.4498006
0
LINE
8
DEFAULT_255_2_778
10
16.6539793
20
153.4498006
11
16.8798793
21
153.4475006
0
LINE
8
DEFAULT_255_2_778
10
16.9719793
20
153.8613006
11
16.7267793
21
153.8623006
0
LINE
8
DEFAULT_255_2_778
10
16.7267793
20
153.8623006
11
16.7267793
21
153.8626006
0
LINE
8
DEFAULT_255_2_778
10
18.4681793
20
153.7240006
11
18.4271793
21
153.4102006
0
LINE
8
DEFAULT_255_2_778
10
18.0477793
20
153.2945006
11
17.9056793
21
152.4981006
0
LINE
8
DEFAULT_255_2_778
10
17.9056793
20
152.4981006
11
17.5852793
21
152.4981006
0
LINE
8
DEFAULT_255_2_778
10
17.5852793
20
152.4981006
11
17.7987793
21
153.7152006
0
LINE
8
DEFAULT_255_2_778
10
17.7987793
20
153.7152006
11
18.0998793
21
153.7163006
0
LINE
8
DEFAULT_255_2_778
10
18.0998793
20
153.7163006
11
18.0702793
21
153.5678006
0
LINE
8
DEFAULT_255_2_778
10
18.4679793
20
153.7240006
11
18.4681793
21
153.7240006
0
LINE
8
DEFAULT_255_2_778
10
19.4122793
20
152.4979006
11
19.0976793
21
152.4979006
0
LINE
8
DEFAULT_255_2_778
10
19.0045793
20
153.2424006
11
19.1545793
21
153.2403006
0
LINE
8
DEFAULT_255_2_778
10
19.1545793
20
153.2403006
11
19.1703793
21
153.3133006
0
LINE
8
DEFAULT_255_2_778
10
18.8478793
20
153.3493006
11
18.5264793
21
153.3482006
0
LINE
8
DEFAULT_255_2_778
10
19.4939793
20
153.3088006
11
19.3997793
21
152.7262006
0
LINE
8
DEFAULT_255_2_778
10
19.3997793
20
152.7262006
11
19.3942793
21
152.6542006
0
LINE
8
DEFAULT_255_2_778
10
19.4135793
20
152.5193006
11
19.4124793
21
152.4979006
0
LINE
8
DEFAULT_255_2_778
10
19.4124793
20
152.4979006
11
19.4122793
21
152.4979006
0
LINE
8
DEFAULT_255_2_778
10
19.0928793
20
152.8410006
11
19.1325793
21
153.0514006
0
LINE
8
DEFAULT_255_2_778
10
19.1325793
20
153.0514006
11
19.0211793
21
153.0524006
0
LINE
8
DEFAULT_255_2_778
10
18.8510793
20
152.7220006
11
18.8510793
21
152.7217006
0
LINE
8
DEFAULT_255_2_778
10
20.4946793
20
153.6025006
11
20.6150793
21
154.2256006
0
LINE
8
DEFAULT_255_2_778
10
20.6150793
20
154.2256006
11
20.9364793
21
154.2256006
0
LINE
8
DEFAULT_255_2_778
10
20.9364793
20
154.2256006
11
20.6343793
21
152.4979006
0
LINE
8
DEFAULT_255_2_778
10
20.6343793
20
152.4979006
11
20.3480793
21
152.4979006
0
LINE
8
DEFAULT_255_2_778
10
20.3480793
20
152.4979006
11
20.3663793
21
152.6283006
0
LINE
8
DEFAULT_255_2_778
10
19.6632793
20
153.0839006
11
19.6701793
21
153.1345006
0
LINE
8
DEFAULT_255_2_778
10
20.2176793
20
153.7385006
11
20.2173793
21
153.7385006
0
LINE
8
DEFAULT_255_2_778
10
20.3755793
20
152.8646006
11
20.4631793
21
153.3482006
0
LINE
8
DEFAULT_255_2_778
10
19.9850793
20
153.0839006
11
19.9845793
21
153.0839006
0
LINE
8
DEFAULT_255_2_778
10
21.5304594
20
154.2256646
11
21.2282594
21
152.4979646
0
LINE
8
DEFAULT_255_2_778
10
21.2282594
20
152.4979646
11
20.9057594
21
152.4979646
0
LINE
8
DEFAULT_255_2_778
10
20.9057594
20
152.4979646
11
21.2089594
21
154.2256646
0
LINE
8
DEFAULT_255_2_778
10
21.2089594
20
154.2256646
11
21.5304594
21
154.2256646
0
LINE
8
DEFAULT_255_2_778
10
21.5304594
20
154.2256646
11
21.5304594
21
154.2256646
0
ARC
8
DEFAULT_255_2_778
10
22.0768767
20
153.0137764
40
0.5383522
50
238.763891
51
270.7055166
0
ARC
8
DEFAULT_255_2_778
10
22.0455625
20
152.958452
40
0.4748131
50
204.061185
51
238.5328679
0
ARC
8
DEFAULT_255_2_778
10
22.1281681
20
152.9980331
40
0.5663841
50
179.4896096
51
204.3103027
0
ARC
8
DEFAULT_255_2_778
10
22.2521843
20
153.0025727
40
0.6903781
50
175.123126
51
179.9580366
0
ARC
8
DEFAULT_255_2_778
10
22.3438479
20
153.0375152
40
0.7790728
50
149.5392097
51
174.9446897
0
ARC
8
DEFAULT_255_2_778
10
22.217984
20
153.1210212
40
0.628301
50
120.7003982
51
150.2846053
0
ARC
8
DEFAULT_255_2_778
10
22.1784851
20
153.1807024
40
0.556829
50
89.4236852
51
120.3409826
0
ARC
8
DEFAULT_255_2_778
10
22.1840352
20
153.0819671
40
0.6555361
50
88.4553682
51
89.9955718
0
ARC
8
DEFAULT_255_2_778
10
22.2069363
20
153.2661369
40
0.4711572
50
58.4514404
51
90.636095
0
ARC
8
DEFAULT_255_2_778
10
22.2332403
20
153.3295423
40
0.403504
50
35.6058989
51
56.9235594
0
ARC
8
DEFAULT_255_2_778
10
22.1229882
20
153.2557058
40
0.5361477
50
0.6851965
51
35.1616077
0
ARC
8
DEFAULT_255_2_778
10
21.9204313
20
153.2353229
40
0.7391521
50
359.9888194
51
2.0774415
0
ARC
8
DEFAULT_255_2_778
10
21.8068025
20
153.2370249
40
0.852783
50
353.383538
51
359.8759623
0
ARC
8
DEFAULT_255_2_778
10
22.293021
20
152.9846119
40
0.4107176
50
177.8018731
51
179.9839782
0
ARC
8
DEFAULT_255_2_778
10
22.1344217
20
152.973124
40
0.2523852
50
177.3650374
51
219.8309448
0
ARC
8
DEFAULT_255_2_778
10
22.1050068
20
152.9598401
40
0.2214564
50
222.0668323
51
271.55222
0
ARC
8
DEFAULT_255_2_778
10
22.1220002
20
153.1646289
40
0.4263057
50
268.5221572
51
269.9980687
0
ARC
8
DEFAULT_255_2_778
10
22.1204001
20
153.1350217
40
0.3967017
50
270.2290309
51
318.5203973
0
ARC
8
DEFAULT_255_2_778
10
22.1898056
20
152.9517979
40
0.4555006
50
292.4982989
51
325.2807674
0
ARC
8
DEFAULT_255_2_778
10
22.0999907
20
153.1303545
40
0.6549996
50
269.6158853
51
293.7802026
0
ARC
8
DEFAULT_255_2_778
10
22.0956026
20
153.217233
40
0.7418635
50
269.0811303
51
269.9997673
0
ARC
8
DEFAULT_255_2_778
10
22.1793249
20
153.2101977
40
0.2651417
50
88.6426435
51
89.9971979
0
ARC
8
DEFAULT_255_2_778
10
22.1775009
20
153.2454788
40
0.2298681
50
89.5421073
51
130.5025885
0
ARC
8
DEFAULT_255_2_778
10
22.2762398
20
153.1453327
40
0.370282
50
132.0556576
51
154.4346079
0
ARC
8
DEFAULT_255_2_778
10
22.6775288
20
152.9277869
40
0.8264843
50
152.8348001
51
159.2008974
0
ARC
8
DEFAULT_255_2_778
10
22.042515
20
153.2987268
40
0.3137404
50
351.1327381
51
359.8552777
0
ARC
8
DEFAULT_255_2_778
10
22.0889744
20
153.2983274
40
0.2672803
50
359.9157472
51
8.073482
0
ARC
8
DEFAULT_255_2_778
10
22.1916726
20
153.3136276
40
0.1634528
50
7.8192239
51
49.4174523
0
ARC
8
DEFAULT_255_2_778
10
22.1897336
20
153.3004377
40
0.174876
50
51.746929
51
91.3525911
0
LINE
8
DEFAULT_255_2_778
10
21.5643056
20
153.061265
11
21.5678056
21
153.106165
0
LINE
8
DEFAULT_255_2_778
10
22.6539056
20
153.138765
11
22.6356056
21
153.000365
0
LINE
8
DEFAULT_255_2_778
10
22.6356056
20
153.000365
11
21.8826056
21
153.000365
0
LINE
8
DEFAULT_255_2_778
10
22.4176056
20
152.872265
11
22.5642056
21
152.692365
0
LINE
8
DEFAULT_255_2_778
10
22.0837056
20
152.475465
11
22.0835056
21
152.475465
0
LINE
8
DEFAULT_255_2_778
10
21.9049056
20
153.221265
11
22.3456056
21
153.221265
0
LINE
8
DEFAULT_255_2_778
10
22.3456056
20
153.221265
11
22.3525056
21
153.250365
0
LINE
8
DEFAULT_255_2_778
10
22.1856056
20
153.475265
11
22.1856056
21
153.475265
0
ARC
8
DEFAULT_255_2_778
10
22.5732251
20
152.6143848
40
0.7187609
50
318.1171527
51
335.3457065
0
ARC
8
DEFAULT_255_2_778
10
22.7861338
20
152.4322586
40
0.4387075
50
306.2044829
51
317.2623563
0
ARC
8
DEFAULT_255_2_778
10
22.8118587
20
152.4015063
40
0.3987066
50
269.0092455
51
305.8318035
0
ARC
8
DEFAULT_255_2_778
10
22.8209703
20
152.5661254
40
0.5634934
50
257.9736769
51
268.3723286
0
ARC
8
DEFAULT_255_2_778
10
22.976467
20
153.4203273
40
1.431581
50
256.8370098
51
259.0102636
0
ARC
8
DEFAULT_255_2_778
10
22.7299218
20
152.668381
40
0.396887
50
268.3457775
51
269.9906226
0
ARC
8
DEFAULT_255_2_778
10
22.744688
20
152.5089479
40
0.2379166
50
266.425992
51
328.6474802
0
LINE
8
DEFAULT_255_2_778
10
23.1491646
20
153.7149594
11
23.2378646
21
152.9614594
0
LINE
8
DEFAULT_255_2_778
10
23.2378646
20
152.9614594
11
23.5889646
21
153.7149594
0
LINE
8
DEFAULT_255_2_778
10
23.5889646
20
153.7149594
11
23.9453646
21
153.7149594
0
LINE
8
DEFAULT_255_2_778
10
23.9453646
20
153.7149594
11
23.2264646
21
152.3145594
0
LINE
8
DEFAULT_255_2_778
10
22.6504646
20
152.0263594
11
22.6742646
21
152.2737594
0
LINE
8
DEFAULT_255_2_778
10
22.6742646
20
152.2737594
11
22.7184646
21
152.2716594
0
LINE
8
DEFAULT_255_2_778
10
22.9478646
20
152.3851594
11
23.0182646
21
152.5145594
0
LINE
8
DEFAULT_255_2_778
10
23.0182646
20
152.5145594
11
22.8171646
21
153.7146594
0
LINE
8
DEFAULT_255_2_778
10
22.8171646
20
153.7146594
11
23.1489646
21
153.7146594
0
LINE
8
DEFAULT_255_2_778
10
23.1489646
20
153.7146594
11
23.1491646
21
153.7149594
0
LINE
8
DEFAULT_255_2_778
10
5.4244542
20
154.1144666
11
5.4244542
21
152.9291666
0
LINE
8
DEFAULT_255_2_778
10
5.4244542
20
152.9291666
11
8.3507542
21
152.8921666
0
LINE
8
DEFAULT_255_2_778
10
8.3507542
20
152.8921666
11
8.3507542
21
154.1144666
0
LINE
8
DEFAULT_255_2_778
10
8.3507542
20
154.1144666
11
7.4246542
21
154.9664666
0
LINE
8
DEFAULT_255_2_778
10
7.4246542
20
154.9664666
11
6.2764542
21
154.9664666
0
LINE
8
DEFAULT_255_2_778
10
6.2764542
20
154.9664666
11
5.4244542
21
154.1144666
0
LINE
8
DEFAULT_255_2_778
10
5.5726542
20
152.7069666
11
8.2025542
21
152.7069666
0
LINE
8
DEFAULT_255_2_778
10
8.2025542
20
152.7069666
11
7.4617542
21
152.0031666
0
LINE
8
DEFAULT_255_2_778
10
7.4617542
20
152.0031666
11
6.3504542
21
152.0031666
0
LINE
8
DEFAULT_255_2_778
10
6.3504542
20
152.0031666
11
5.5726542
21
152.7069666
0
ARC
8
DEFAULT_255_2_778
10
7.8458226
20
153.2560768
40
0.1423419
50
264.5115721
51
318.4176283
0
ARC
8
DEFAULT_255_2_778
10
7.8189879
20
153.2531225
40
0.1616977
50
325.5297452
51
3.3557414
0
ARC
8
DEFAULT_255_2_778
10
7.8389795
20
153.6096157
40
0.142084
50
354.4959081
51
48.5537602
0
ARC
8
DEFAULT_255_2_778
10
7.8416444
20
153.5824068
40
0.1619557
50
55.6500697
51
93.3401169
0
ARC
8
DEFAULT_255_2_778
10
7.8414709
20
153.808925
40
0.0654958
50
261.8698976
51
8.1301024
0
ARC
8
DEFAULT_255_2_778
10
7.7988672
20
154.1916455
40
0.1074847
50
358.3696885
51
95.9524071
0
ARC
8
DEFAULT_255_2_778
10
7.7588839
20
153.9632916
40
0.3364968
50
85.0838783
51
90.1320543
0
LINE
8
DEFAULT_255_2_778
10
5.6838084
20
153.1143875
11
6.1283084
21
154.3367875
0
LINE
8
DEFAULT_255_2_778
10
6.1283084
20
154.3367875
11
6.3876084
21
154.3367875
0
LINE
8
DEFAULT_255_2_778
10
6.3876084
20
154.3367875
11
6.8691084
21
153.1514875
0
LINE
8
DEFAULT_255_2_778
10
6.8691084
20
153.1514875
11
6.5358084
21
153.1514875
0
LINE
8
DEFAULT_255_2_778
10
6.5358084
20
153.1514875
11
6.4246084
21
153.4107875
0
LINE
8
DEFAULT_255_2_778
10
6.4246084
20
153.4107875
11
6.0913084
21
153.4107875
0
LINE
8
DEFAULT_255_2_778
10
6.0913084
20
153.4107875
11
6.0913084
21
153.5588875
0
LINE
8
DEFAULT_255_2_778
10
6.0913084
20
153.5588875
11
6.3876084
21
153.5588875
0
LINE
8
DEFAULT_255_2_778
10
6.3876084
20
153.5588875
11
6.2024084
21
154.0033875
0
LINE
8
DEFAULT_255_2_778
10
6.2024084
20
154.0033875
11
5.8690084
21
153.1143875
0
LINE
8
DEFAULT_255_2_778
10
5.8690084
20
153.1143875
11
5.6838084
21
153.1143875
0
LINE
8
DEFAULT_255_2_778
10
5.6838084
20
153.1143875
11
5.6838084
21
153.1143875
0
LINE
8
DEFAULT_255_2_778
10
6.7580084
20
153.7811875
11
6.9062084
21
153.7811875
0
LINE
8
DEFAULT_255_2_778
10
6.9062084
20
153.7811875
11
6.9062084
21
153.6329875
0
LINE
8
DEFAULT_255_2_778
10
6.9062084
20
153.6329875
11
6.7580084
21
153.6329875
0
LINE
8
DEFAULT_255_2_778
10
6.7580084
20
153.6329875
11
6.7580084
21
153.7811875
0
LINE
8
DEFAULT_255_2_778
10
7.2766084
20
154.1145875
11
7.6100084
21
154.1145875
0
LINE
8
DEFAULT_255_2_778
10
7.6100084
20
154.1145875
11
7.6100084
21
153.7440875
0
LINE
8
DEFAULT_255_2_778
10
7.6100084
20
153.7440875
11
7.3507084
21
153.7440875
0
LINE
8
DEFAULT_255_2_778
10
7.3507084
20
153.7440875
11
7.3507084
21
153.5959875
0
LINE
8
DEFAULT_255_2_778
10
7.3507084
20
153.5959875
11
7.6840084
21
153.5959875
0
LINE
8
DEFAULT_255_2_778
10
7.6840084
20
153.5959875
11
7.6840084
21
153.2625875
0
LINE
8
DEFAULT_255_2_778
10
7.6840084
20
153.2625875
11
7.2766084
21
153.2625875
0
LINE
8
DEFAULT_255_2_778
10
7.2766084
20
153.2625875
11
7.2766084
21
154.1145875
0
LINE
8
DEFAULT_255_2_778
10
7.2766084
20
154.1145875
11
7.2766084
21
154.1145875
0
LINE
8
DEFAULT_255_2_778
10
6.9803084
20
154.2997875
11
6.9803084
21
153.1143875
0
LINE
8
DEFAULT_255_2_778
10
6.9803084
20
153.1143875
11
7.8322084
21
153.1143875
0
LINE
8
DEFAULT_255_2_778
10
7.9804084
20
153.2625875
11
7.9804084
21
153.5959875
0
LINE
8
DEFAULT_255_2_778
10
7.9063084
20
153.8181875
11
7.9063084
21
154.1885875
0
LINE
8
DEFAULT_255_2_778
10
7.7581084
20
154.2997875
11
6.9803084
21
154.2997875
0
LINE
8
DEFAULT_255_2_778
10
6.9803084
20
154.2997875
11
6.9803084
21
154.2997875
0
LINE
8
DEFAULT_255_2_778
10
6.3394427
20
152.3240198
11
6.3367427
21
152.3240198
0
ARC
8
DEFAULT_255_2_778
10
6.3340483
20
152.4490854
40
0.1250946
50
247.1356448
51
271.2341787
0
ARC
8
DEFAULT_255_2_778
10
6.3160916
20
152.4067164
40
0.0790776
50
215.0349981
51
247.1960091
0
ARC
8
DEFAULT_255_2_778
10
6.3109464
20
152.4013964
40
0.0718243
50
178.625123
51
213.9163394
0
ARC
8
DEFAULT_255_2_778
10
6.3131693
20
152.5184391
40
0.0740421
50
147.0420611
51
181.175799
0
ARC
8
DEFAULT_255_2_778
10
6.3147919
20
152.5145628
40
0.0775487
50
112.4780918
51
145.2909011
0
ARC
8
DEFAULT_255_2_778
10
6.333917
20
152.4701534
40
0.1258981
50
88.7138988
51
112.7934617
0
ARC
8
DEFAULT_255_2_778
10
6.339481
20
152.4706878
40
0.1253619
50
67.159311
51
91.2516049
0
ARC
8
DEFAULT_255_2_778
10
6.3569794
20
152.5126852
40
0.0798654
50
35.1978461
51
67.0331611
0
ARC
8
DEFAULT_255_2_778
10
6.3626391
20
152.5186431
40
0.0718243
50
358.625123
51
33.9163394
0
ARC
8
DEFAULT_255_2_778
10
6.3604162
20
152.4016004
40
0.0740421
50
327.0420611
51
1.175799
0
ARC
8
DEFAULT_255_2_778
10
6.361381
20
152.4028218
40
0.0739133
50
291.6436853
51
325.8406333
0
ARC
8
DEFAULT_255_2_778
10
6.3401809
20
152.411874
40
0.0482768
50
265.9160158
51
308.3617549
0
ARC
8
DEFAULT_255_2_778
10
6.3451719
20
152.4008207
40
0.036631
50
312.9754563
51
3.2850623
0
ARC
8
DEFAULT_255_2_778
10
6.3448152
20
152.518502
40
0.0369754
50
357.082104
51
47.4006092
0
ARC
8
DEFAULT_255_2_778
10
6.339634
20
152.5083686
40
0.0480383
50
51.0349629
51
93.4505724
0
ARC
8
DEFAULT_255_2_778
10
6.3340455
20
152.508049
40
0.0483461
50
86.8017862
51
128.8135095
0
ARC
8
DEFAULT_255_2_778
10
6.3287702
20
152.518502
40
0.0369754
50
132.5993908
51
182.917896
0
ARC
8
DEFAULT_255_2_778
10
6.3284135
20
152.4008207
40
0.036631
50
176.7149377
51
227.0245437
0
ARC
8
DEFAULT_255_2_778
10
6.3334908
20
152.412186
40
0.0485752
50
231.7867693
51
273.8385805
0
ARC
8
DEFAULT_255_2_778
10
6.5570034
20
152.4005567
40
0.0766655
50
226.2029837
51
273.3195937
0
ARC
8
DEFAULT_255_2_778
10
6.5622798
20
152.3985746
40
0.0790566
50
176.8492311
51
222.4458356
0
ARC
8
DEFAULT_255_2_778
10
6.5699928
20
152.4004647
40
0.043631
50
176.5112098
51
217.639275
0
ARC
8
DEFAULT_255_2_778
10
6.5593879
20
152.3953664
40
0.0322122
50
221.9818643
51
273.6574471
0
ARC
8
DEFAULT_255_2_778
10
6.5632217
20
152.3958151
40
0.0326438
50
266.8760675
51
317.6392064
0
ARC
8
DEFAULT_255_2_778
10
6.5527926
20
152.4004647
40
0.043631
50
322.360725
51
3.4887902
0
ARC
8
DEFAULT_255_2_778
10
6.5605056
20
152.3985746
40
0.0790566
50
317.5541644
51
3.1507689
0
ARC
8
DEFAULT_255_2_778
10
6.5656687
20
152.4008223
40
0.0769357
50
266.6274163
51
313.7210327
0
LINE
8
DEFAULT_255_2_778
10
6.4394427
20
152.2624198
11
6.3828427
21
152.2624198
0
LINE
8
DEFAULT_255_2_778
10
6.3828427
20
152.2624198
11
6.3394427
21
152.3240198
0
LINE
8
DEFAULT_255_2_778
10
6.2391427
20
152.4031198
11
6.2391427
21
152.5169198
0
LINE
8
DEFAULT_255_2_778
10
6.4344427
20
152.5169198
11
6.4344427
21
152.4031198
0
LINE
8
DEFAULT_255_2_778
10
6.3886427
20
152.3341198
11
6.4394427
21
152.2626198
0
LINE
8
DEFAULT_255_2_778
10
6.4394427
20
152.2626198
11
6.4394427
21
152.2624198
0
LINE
8
DEFAULT_255_2_778
10
6.3817427
20
152.4029198
11
6.3817427
21
152.5166198
0
LINE
8
DEFAULT_255_2_778
10
6.2918427
20
152.5166198
11
6.2918427
21
152.4029198
0
LINE
8
DEFAULT_255_2_778
10
6.3367427
20
152.3637198
11
6.3367427
21
152.3637198
0
LINE
8
DEFAULT_255_2_778
10
6.4833427
20
152.4029198
11
6.4833427
21
152.5920198
0
LINE
8
DEFAULT_255_2_778
10
6.4833427
20
152.5920198
11
6.5264427
21
152.5920198
0
LINE
8
DEFAULT_255_2_778
10
6.5264427
20
152.5920198
11
6.5264427
21
152.4031198
0
LINE
8
DEFAULT_255_2_778
10
6.5963427
20
152.4031198
11
6.5963427
21
152.5920198
0
LINE
8
DEFAULT_255_2_778
10
6.5963427
20
152.5920198
11
6.6394427
21
152.5920198
0
LINE
8
DEFAULT_255_2_778
10
6.6394427
20
152.5920198
11
6.6394427
21
152.4029198
0
LINE
8
DEFAULT_255_2_778
10
6.5611427
20
152.3240198
11
6.5614427
21
152.3240198
0
ARC
8
DEFAULT_255_2_778
10
12.1641553
20
153.6271635
40
5.5033955
50
191.4837585
51
191.8239227
0
ARC
8
DEFAULT_255_2_778
10
8.3589245
20
152.8233972
40
1.6145995
50
189.6626565
51
190.4158531
0
ARC
8
DEFAULT_255_2_778
10
6.1197449
20
152.6562409
40
0.6557616
50
349.0334606
51
350.8880298
0
ARC
8
DEFAULT_255_2_778
10
6.0674183
20
152.6598866
40
0.7078549
50
346.9283592
51
349.5494987
0
ARC
8
DEFAULT_255_2_778
10
7.2958769
20
152.4290243
40
0.1856762
50
15.5793022
51
22.5708948
0
ARC
8
DEFAULT_255_2_778
10
7.3328007
20
152.4338058
40
0.1489195
50
11.1061152
51
17.6230497
0
ARC
8
DEFAULT_255_2_778
10
8.063214
20
152.3180593
40
0.6018696
50
164.5010167
51
166.1150622
0
ARC
8
DEFAULT_255_2_778
10
7.6620856
20
152.4290243
40
0.1856762
50
157.4291052
51
164.4206978
0
LINE
8
DEFAULT_255_2_778
10
6.7201313
20
152.3274917
11
6.6762313
21
152.3274917
0
LINE
8
DEFAULT_255_2_778
10
6.6762313
20
152.3274917
11
6.7392313
21
152.5920917
0
LINE
8
DEFAULT_255_2_778
10
6.7392313
20
152.5920917
11
6.7942313
21
152.5920917
0
LINE
8
DEFAULT_255_2_778
10
6.7942313
20
152.5920917
11
6.8577313
21
152.3274917
0
LINE
8
DEFAULT_255_2_778
10
6.8577313
20
152.3274917
11
6.8138313
21
152.3274917
0
LINE
8
DEFAULT_255_2_778
10
6.8138313
20
152.3274917
11
6.8000313
21
152.3914917
0
LINE
8
DEFAULT_255_2_778
10
6.8000313
20
152.3914917
11
6.7336313
21
152.3914917
0
LINE
8
DEFAULT_255_2_778
10
6.7336313
20
152.3914917
11
6.7199313
21
152.3274917
0
LINE
8
DEFAULT_255_2_778
10
6.7199313
20
152.3274917
11
6.7201313
21
152.3274917
0
LINE
8
DEFAULT_255_2_778
10
6.7569313
20
152.4999917
11
6.7418313
21
152.4285917
0
LINE
8
DEFAULT_255_2_778
10
6.7418313
20
152.4285917
11
6.7926313
21
152.4285917
0
LINE
8
DEFAULT_255_2_778
10
6.7926313
20
152.4285917
11
6.7775313
21
152.4994917
0
LINE
8
DEFAULT_255_2_778
10
6.7569313
20
152.4997917
11
6.7569313
21
152.4999917
0
LINE
8
DEFAULT_255_2_778
10
7.0231313
20
152.3274917
11
6.8741313
21
152.3274917
0
LINE
8
DEFAULT_255_2_778
10
6.8741313
20
152.3274917
11
6.8741313
21
152.5920917
0
LINE
8
DEFAULT_255_2_778
10
6.8741313
20
152.5920917
11
6.9170313
21
152.5920917
0
LINE
8
DEFAULT_255_2_778
10
6.9170313
20
152.5920917
11
6.9170313
21
152.3684917
0
LINE
8
DEFAULT_255_2_778
10
6.9170313
20
152.3684917
11
7.0231313
21
152.3684917
0
LINE
8
DEFAULT_255_2_778
10
7.0231313
20
152.3684917
11
7.0231313
21
152.3274917
0
LINE
8
DEFAULT_255_2_778
10
7.0231313
20
152.3274917
11
7.0231313
21
152.3274917
0
LINE
8
DEFAULT_255_2_778
10
7.1760313
20
152.3274917
11
7.0321313
21
152.3274917
0
LINE
8
DEFAULT_255_2_778
10
7.0321313
20
152.3274917
11
7.0321313
21
152.3684917
0
LINE
8
DEFAULT_255_2_778
10
7.0321313
20
152.3684917
11
7.0823313
21
152.3684917
0
LINE
8
DEFAULT_255_2_778
10
7.0823313
20
152.3684917
11
7.0823313
21
152.5510917
0
LINE
8
DEFAULT_255_2_778
10
7.0823313
20
152.5510917
11
7.0321313
21
152.5510917
0
LINE
8
DEFAULT_255_2_778
10
7.0321313
20
152.5510917
11
7.0321313
21
152.5920917
0
LINE
8
DEFAULT_255_2_778
10
7.0321313
20
152.5920917
11
7.1760313
21
152.5920917
0
LINE
8
DEFAULT_255_2_778
10
7.1760313
20
152.5920917
11
7.1760313
21
152.5510917
0
LINE
8
DEFAULT_255_2_778
10
7.1760313
20
152.5510917
11
7.1257313
21
152.5510917
0
LINE
8
DEFAULT_255_2_778
10
7.1257313
20
152.5510917
11
7.1257313
21
152.3684917
0
LINE
8
DEFAULT_255_2_778
10
7.1257313
20
152.3684917
11
7.1760313
21
152.3684917
0
LINE
8
DEFAULT_255_2_778
10
7.1760313
20
152.3684917
11
7.1760313
21
152.3274917
0
LINE
8
DEFAULT_255_2_778
10
7.1760313
20
152.3274917
11
7.1760313
21
152.3274917
0
LINE
8
DEFAULT_255_2_778
10
7.2940313
20
152.3274917
11
7.2509313
21
152.3274917
0
LINE
8
DEFAULT_255_2_778
10
7.2509313
20
152.3274917
11
7.2509313
21
152.5510917
0
LINE
8
DEFAULT_255_2_778
10
7.2509313
20
152.5510917
11
7.1855313
21
152.5510917
0
LINE
8
DEFAULT_255_2_778
10
7.1855313
20
152.5510917
11
7.1855313
21
152.5920917
0
LINE
8
DEFAULT_255_2_778
10
7.1855313
20
152.5920917
11
7.3596313
21
152.5920917
0
LINE
8
DEFAULT_255_2_778
10
7.3596313
20
152.5920917
11
7.3596313
21
152.5510917
0
LINE
8
DEFAULT_255_2_778
10
7.3596313
20
152.5510917
11
7.2943313
21
152.5510917
0
LINE
8
DEFAULT_255_2_778
10
7.2943313
20
152.5510917
11
7.2943313
21
152.3274917
0
LINE
8
DEFAULT_255_2_778
10
7.2943313
20
152.3274917
11
7.2940313
21
152.3274917
0
LINE
8
DEFAULT_255_2_778
10
7.4996313
20
152.3274917
11
7.4565313
21
152.3274917
0
LINE
8
DEFAULT_255_2_778
10
7.4565313
20
152.3274917
11
7.4565313
21
152.4235917
0
LINE
8
DEFAULT_255_2_778
10
7.4565313
20
152.4235917
11
7.3832313
21
152.5920917
0
LINE
8
DEFAULT_255_2_778
10
7.3832313
20
152.5920917
11
7.4281313
21
152.5920917
0
LINE
8
DEFAULT_255_2_778
10
7.4281313
20
152.5920917
11
7.4673313
21
152.5002917
0
LINE
8
DEFAULT_255_2_778
10
7.4906313
20
152.5002917
11
7.5287313
21
152.5920917
0
LINE
8
DEFAULT_255_2_778
10
7.5287313
20
152.5920917
11
7.5731313
21
152.5920917
0
LINE
8
DEFAULT_255_2_778
10
7.5731313
20
152.5920917
11
7.4998313
21
152.4235917
0
LINE
8
DEFAULT_255_2_778
10
7.4998313
20
152.4235917
11
7.4998313
21
152.3274917
0
LINE
8
DEFAULT_255_2_778
10
7.4998313
20
152.3274917
11
7.4996313
21
152.3274917
0
LINE
8
DEFAULT_255_2_778
10
9.3932417
20
140.0968481
11
10.7161417
21
140.0968481
0
LINE
8
DEFAULT_255_2_778
10
10.7161417
20
140.0968481
11
10.7161417
21
75.2739481
0
LINE
8
DEFAULT_255_2_778
10
10.7161417
20
69.9822481
11
10.7161417
21
5.1593481
0
LINE
8
DEFAULT_255_2_778
10
10.7161417
20
5.1593481
11
9.3932417
21
5.1593481
0
LINE
8
DEFAULT_255_2_778
10
9.3932834
20
75.2739333
11
12.0390834
21
75.2739333
0
LINE
8
DEFAULT_255_2_778
10
12.0390834
20
75.2739333
11
12.0390834
21
69.9822333
0
LINE
8
DEFAULT_255_2_778
10
12.0390834
20
69.9822333
11
9.3932834
21
69.9822333
0
LINE
8
DEFAULT_255_2_778
10
9.3932834
20
69.9822333
11
9.3932834
21
75.2739333
0
LINE
8
DEFAULT_255_2_778
10
10.187
20
70.5114666
11
10.187
21
74.7447666
0
LINE
8
DEFAULT_255_2_778
10
9.9224167
20
73.951075
11
10.1870167
21
74.744775
0
LINE
8
DEFAULT_255_2_778
10
10.1870167
20
74.744775
11
10.4516167
21
73.951075
0
LINE
8
DEFAULT_255_2_778
10
10.4516167
20
73.951075
11
9.9224167
21
73.951075
0
LINE
8
DEFAULT_255_2_778
10
11.2453
20
74.7447666
11
11.2453
21
70.5114666
0
LINE
8
DEFAULT_255_2_778
10
10.9807167
20
71.305175
11
11.2453167
21
70.511475
0
LINE
8
DEFAULT_255_2_778
10
11.2453167
20
70.511475
11
11.5099167
21
71.305175
0
LINE
8
DEFAULT_255_2_778
10
11.5099167
20
71.305175
11
10.9807167
21
71.305175
0
LINE
8
DEFAULT_255_2_778
10
19.9765417
20
140.0968481
11
18.6536417
21
140.0968481
0
LINE
8
DEFAULT_255_2_778
10
18.6536417
20
140.0968481
11
18.6536417
21
75.2739481
0
LINE
8
DEFAULT_255_2_778
10
18.6536417
20
69.9822481
11
18.6536417
21
5.1593481
0
LINE
8
DEFAULT_255_2_778
10
18.6536417
20
5.1593481
11
19.9765417
21
5.1593481
0
LINE
8
DEFAULT_255_2_778
10
17.3307834
20
75.2739333
11
19.9765834
21
75.2739333
0
LINE
8
DEFAULT_255_2_778
10
19.9765834
20
75.2739333
11
19.9765834
21
69.9822333
0
LINE
8
DEFAULT_255_2_778
10
19.9765834
20
69.9822333
11
17.3307834
21
69.9822333
0
LINE
8
DEFAULT_255_2_778
10
17.3307834
20
69.9822333
11
17.3307834
21
75.2739333
0
LINE
8
DEFAULT_255_2_778
10
18.1245
20
70.5114666
11
18.1245
21
74.7447666
0
LINE
8
DEFAULT_255_2_778
10
17.8599167
20
73.951075
11
18.1245167
21
74.744775
0
LINE
8
DEFAULT_255_2_778
10
18.1245167
20
74.744775
11
18.3891167
21
73.951075
0
LINE
8
DEFAULT_255_2_778
10
18.3891167
20
73.951075
11
17.8599167
21
73.951075
0
LINE
8
DEFAULT_255_2_778
10
19.1828
20
74.7447666
11
19.1828
21
70.5114666
0
LINE
8
DEFAULT_255_2_778
10
18.9182167
20
71.305175
11
19.1828167
21
70.511475
0
LINE
8
DEFAULT_255_2_778
10
19.1828167
20
70.511475
11
19.4474167
21
71.305175
0
LINE
8
DEFAULT_255_2_778
10
19.4474167
20
71.305175
11
18.9182167
21
71.305175
0
LINE
8
DEFAULT_255_1_388
10
4.5179882
20
148.6165987
11
4.5179882
21
148.2325838
0
LINE
8
DEFAULT_255_1_388
10
4.5179882
20
148.2325838
11
4.8848354
21
148.2325838
0
LINE
8
DEFAULT_255_1_388
10
4.8848354
20
148.2325838
11
4.8848354
21
148.0744601
0
LINE
8
DEFAULT_255_1_388
10
4.8848354
20
148.0744601
11
4.5179882
21
148.0744601
0
LINE
8
DEFAULT_255_1_388
10
4.5179882
20
148.0744601
11
4.5179882
21
147.6588204
0
LINE
8
DEFAULT_255_1_388
10
4.5179882
20
147.6588204
11
4.3499252
21
147.6588204
0
LINE
8
DEFAULT_255_1_388
10
4.3499252
20
147.6588204
11
4.3499252
21
148.0744601
0
LINE
8
DEFAULT_255_1_388
10
4.3499252
20
148.0744601
11
3.983078
21
148.0744601
0
LINE
8
DEFAULT_255_1_388
10
3.983078
20
148.0744601
11
3.983078
21
148.2325838
0
LINE
8
DEFAULT_255_1_388
10
3.983078
20
148.2325838
11
4.3499252
21
148.2325838
0
LINE
8
DEFAULT_255_1_388
10
4.3499252
20
148.2325838
11
4.3499252
21
148.6165987
0
LINE
8
DEFAULT_255_1_388
10
4.3499252
20
148.6165987
11
4.5179882
21
148.6165987
0
LINE
8
DEFAULT_255_1_388
10
5.9329701
20
147.6633382
11
5.9329701
21
147.5269
0
LINE
8
DEFAULT_255_1_388
10
5.9329701
20
147.5269
11
5.0709696
21
147.5269
0
LINE
8
DEFAULT_255_1_388
10
5.0709696
20
147.5269
11
5.0709696
21
147.6470741
0
LINE
8
DEFAULT_255_1_388
10
5.0709696
20
147.6470741
11
5.5263661
21
148.1530702
0
LINE
8
DEFAULT_255_1_388
10
5.2128292
20
148.4548607
11
5.0456698
21
148.4548607
0
LINE
8
DEFAULT_255_1_388
10
5.6248546
20
148.045546
11
5.2724645
21
147.6633382
0
LINE
8
DEFAULT_255_1_388
10
5.2724645
20
147.6633382
11
5.9329701
21
147.6633382
0
ARC
8
DEFAULT_255_1_388
10
4.0087721
20
149.4950983
40
2.0258655
50
318.5132526
51
320.7829045
0
ARC
8
DEFAULT_255_1_388
10
4.6035678
20
149.0109929
40
1.2589638
50
320.7372878
51
323.9739031
0
ARC
8
DEFAULT_255_1_388
10
5.0444609
20
148.6915554
40
0.7145141
50
323.8962701
51
328.64194
0
ARC
8
DEFAULT_255_1_388
10
5.2746867
20
148.5495545
40
0.4440242
50
328.8294576
51
331.7891185
0
ARC
8
DEFAULT_255_1_388
10
5.3869187
20
148.4916374
40
0.3177517
50
331.4254512
51
352.9365785
0
ARC
8
DEFAULT_255_1_388
10
5.4022187
20
148.488205
40
0.3021496
50
353.2257659
51
0.0166158
0
ARC
8
DEFAULT_255_1_388
10
5.4258948
20
148.4907894
40
0.2784847
50
359.486299
51
15.9343185
0
ARC
8
DEFAULT_255_1_388
10
5.4829214
20
148.5061269
40
0.2194403
50
16.1712913
51
43.5286088
0
ARC
8
DEFAULT_255_1_388
10
5.4916159
20
148.5148191
40
0.2071504
50
43.4417391
51
83.1661095
0
ARC
8
DEFAULT_255_1_388
10
5.476532
20
148.4319316
40
0.2912888
50
82.160179
51
90.1505708
0
ARC
8
DEFAULT_255_1_388
10
5.4729802
20
148.3715279
40
0.3517025
50
89.5460741
51
102.5418361
0
ARC
8
DEFAULT_255_1_388
10
5.4456522
20
148.4874933
40
0.2325748
50
102.1738499
51
129.206123
0
ARC
8
DEFAULT_255_1_388
10
5.4367975
20
148.5014664
40
0.2161591
50
129.72865
51
135.753947
0
ARC
8
DEFAULT_255_1_388
10
5.4504457
20
148.4905728
40
0.2335433
50
136.1757367
51
166.3673339
0
ARC
8
DEFAULT_255_1_388
10
5.5637146
20
148.4602148
40
0.3507873
50
165.9090694
51
178.8684636
0
ARC
8
DEFAULT_255_1_388
10
5.6612917
20
148.4549263
40
0.4484624
50
178.4391136
51
180.0083808
0
ARC
8
DEFAULT_255_1_388
10
5.5033619
20
148.4593197
40
0.4577138
50
163.2878482
51
180.5581842
0
ARC
8
DEFAULT_255_1_388
10
5.413166
20
148.4841393
40
0.3641968
50
133.4540601
51
162.947111
0
ARC
8
DEFAULT_255_1_388
10
5.4332542
20
148.4627789
40
0.3935189
50
100.7869829
51
133.4382499
0
ARC
8
DEFAULT_255_1_388
10
5.4723787
20
148.2885399
40
0.5720313
50
89.660664
51
101.3702276
0
ARC
8
DEFAULT_255_1_388
10
5.4798395
20
148.2954263
40
0.5651495
50
78.2172678
51
90.412935
0
ARC
8
DEFAULT_255_1_388
10
5.5197861
20
148.4781511
40
0.378122
50
55.9269121
51
78.4888449
0
ARC
8
DEFAULT_255_1_388
10
5.5418576
20
148.5162187
40
0.3342379
50
47.929771
51
55.4049217
0
ARC
8
DEFAULT_255_1_388
10
5.5533107
20
148.5278618
40
0.3179217
50
4.334829
51
48.0560205
0
ARC
8
DEFAULT_255_1_388
10
5.4300908
20
148.5087487
40
0.442341
50
359.9251713
51
5.5971671
0
ARC
8
DEFAULT_255_1_388
10
5.4783063
20
148.5150728
40
0.3941854
50
337.8914027
51
358.9967534
0
ARC
8
DEFAULT_255_1_388
10
5.1730633
20
148.6328295
40
0.7213271
50
326.9132501
51
338.3508308
0
ARC
8
DEFAULT_255_1_388
10
4.7246745
20
148.9202105
40
1.2538973
50
319.6471833
51
327.0959558
0
ARC
8
DEFAULT_255_1_388
10
4.2933403
20
149.276005
40
1.8129975
50
317.2588228
51
319.9045804
0
LINE
8
DEFAULT_255_1_388
10
6.8157526
20
148.8424898
11
6.8157526
21
147.968743
0
LINE
8
DEFAULT_255_1_388
10
6.8157526
20
147.968743
11
6.9982726
21
147.968743
0
LINE
8
DEFAULT_255_1_388
10
6.9982726
20
147.968743
11
6.9982726
21
147.8323048
0
LINE
8
DEFAULT_255_1_388
10
6.9982726
20
147.8323048
11
6.8157526
21
147.8323048
0
LINE
8
DEFAULT_255_1_388
10
6.8157526
20
147.8323048
11
6.8157526
21
147.5269
0
LINE
8
DEFAULT_255_1_388
10
6.8157526
20
147.5269
11
6.6476896
21
147.5269
0
LINE
8
DEFAULT_255_1_388
10
6.6476896
20
147.5269
11
6.6476896
21
147.8323048
0
LINE
8
DEFAULT_255_1_388
10
6.6476896
20
147.8323048
11
6.0486264
21
147.8323048
0
LINE
8
DEFAULT_255_1_388
10
6.0486264
20
147.8323048
11
6.0486264
21
147.9307933
0
LINE
8
DEFAULT_255_1_388
10
6.0486264
20
147.9307933
11
6.6377504
21
148.8424898
0
LINE
8
DEFAULT_255_1_388
10
6.6377504
20
148.8424898
11
6.8157526
21
148.8424898
0
LINE
8
DEFAULT_255_1_388
10
6.6278112
20
148.5777455
11
6.2383749
21
147.968743
0
LINE
8
DEFAULT_255_1_388
10
6.2383749
20
147.968743
11
6.6476896
21
147.968743
0
LINE
8
DEFAULT_255_1_388
10
6.6476896
20
147.968743
11
6.6476896
21
148.613888
0
LINE
8
DEFAULT_255_1_388
10
6.6476896
20
148.613888
11
6.6278112
21
148.5777455
0
LINE
8
DEFAULT_255_1_388
10
7.2539813
20
148.8424898
11
7.628057
21
147.7573089
0
LINE
8
DEFAULT_255_1_388
10
7.628057
20
147.7573089
11
8.0039398
21
148.8424898
0
LINE
8
DEFAULT_255_1_388
10
8.0039398
20
148.8424898
11
8.1936884
21
148.8424898
0
LINE
8
DEFAULT_255_1_388
10
8.1936884
20
148.8424898
11
7.7057636
21
147.5269
0
LINE
8
DEFAULT_255_1_388
10
7.7057636
20
147.5269
11
7.5521576
21
147.5269
0
LINE
8
DEFAULT_255_1_388
10
7.5521576
20
147.5269
11
7.0651364
21
148.8424898
0
LINE
8
DEFAULT_255_1_388
10
7.0651364
20
148.8424898
11
7.2539813
21
148.8424898
0
LINE
8
DEFAULT_255_1_388
10
4.788132
20
5.0693468
11
4.9625199
21
5.0693468
0
LINE
8
DEFAULT_255_1_388
10
3.9496242
20
5.2482525
11
3.9496242
21
5.3747516
0
LINE
8
DEFAULT_255_1_388
10
4.9625199
20
5.5446217
11
4.788132
21
5.5446217
0
LINE
8
DEFAULT_255_1_388
10
4.1240121
20
5.3702337
11
4.1240121
21
5.2428312
0
ARC
8
DEFAULT_255_1_388
10
4.3459433
20
5.1365329
40
0.6202263
50
340.1774904
51
353.7812217
0
ARC
8
DEFAULT_255_1_388
10
4.5227286
20
5.0706893
40
0.4315926
50
311.4560052
51
340.4420756
0
ARC
8
DEFAULT_255_1_388
10
4.5189826
20
5.0831665
40
0.4434573
50
282.4332229
51
310.7514507
0
ARC
8
DEFAULT_255_1_388
10
4.4695644
20
5.2873703
40
0.6535262
50
269.9358869
51
282.8096729
0
ARC
8
DEFAULT_255_1_388
10
4.4637583
20
5.4386329
40
0.8048043
50
269.9995752
51
270.3612856
0
ARC
8
DEFAULT_255_1_388
10
4.4578073
20
5.1587781
40
0.5249831
50
250.7885263
51
270.6488451
0
ARC
8
DEFAULT_255_1_388
10
4.4388898
20
5.0870853
40
0.4510942
50
219.3628377
51
250.0611024
0
ARC
8
DEFAULT_255_1_388
10
4.5321772
20
5.1663653
40
0.5735046
50
193.5480293
51
219.5755675
0
ARC
8
DEFAULT_255_1_388
10
4.7989981
20
5.235652
40
0.849146
50
181.1220183
51
193.8754971
0
ARC
8
DEFAULT_255_1_388
10
5.0313214
20
5.2480914
40
1.0816971
50
179.9914644
51
181.5398227
0
ARC
8
DEFAULT_255_1_388
10
4.8236525
20
5.3789586
40
0.8740384
50
169.5837606
51
180.275782
0
ARC
8
DEFAULT_255_1_388
10
4.6169873
20
5.4171439
40
0.6638751
50
155.0367033
51
169.6002779
0
ARC
8
DEFAULT_255_1_388
10
4.4892331
20
5.4787336
40
0.5220662
50
136.7831557
51
155.2472983
0
ARC
8
DEFAULT_255_1_388
10
4.4454122
20
5.5159577
40
0.4646502
50
121.7633063
51
136.4281161
0
ARC
8
DEFAULT_255_1_388
10
4.4605962
20
5.4879049
40
0.4964979
50
95.6460018
51
121.5489589
0
ARC
8
DEFAULT_255_1_388
10
4.4782936
20
5.3631704
40
0.6223912
50
89.9245727
51
96.1375919
0
ARC
8
DEFAULT_255_1_388
10
4.4839641
20
5.3765721
40
0.6090084
50
76.6779212
51
90.456405
0
ARC
8
DEFAULT_255_1_388
10
4.5282454
20
5.555506
40
0.42469
50
47.4858803
51
76.9287069
0
ARC
8
DEFAULT_255_1_388
10
4.5117068
20
5.5442623
40
0.4441778
50
16.5424081
51
46.8934505
0
ARC
8
DEFAULT_255_1_388
10
4.3308118
20
5.4848265
40
0.6345318
50
5.4072971
51
17.0363711
0
ARC
8
DEFAULT_255_1_388
10
4.1689843
20
5.4588304
40
0.6250632
50
7.8888693
51
15.9242022
0
ARC
8
DEFAULT_255_1_388
10
4.3924828
20
5.5237309
40
0.3923364
50
15.7650676
51
27.9410069
0
ARC
8
DEFAULT_255_1_388
10
4.5166997
20
5.5902317
40
0.2514401
50
27.8167196
51
46.4007942
0
ARC
8
DEFAULT_255_1_388
10
4.5222839
20
5.5895882
40
0.2480958
50
47.4372362
51
75.0695672
0
ARC
8
DEFAULT_255_1_388
10
4.4875675
20
5.4687277
40
0.3738281
50
74.7009379
51
87.8124314
0
ARC
8
DEFAULT_255_1_388
10
4.4793292
20
5.3503659
40
0.4924321
50
87.3802571
51
90.0251599
0
ARC
8
DEFAULT_255_1_388
10
4.4749939
20
5.4823997
40
0.3604218
50
89.3451886
51
108.5744412
0
ARC
8
DEFAULT_255_1_388
10
4.4595931
20
5.5401836
40
0.3007661
50
109.2998307
51
143.3037387
0
ARC
8
DEFAULT_255_1_388
10
4.5453221
20
5.4742584
40
0.4089031
50
143.075267
51
163.1918576
0
ARC
8
DEFAULT_255_1_388
10
4.7649055
20
5.4049652
40
0.6391492
50
162.9375929
51
174.6208776
0
ARC
8
DEFAULT_255_1_388
10
5.0603437
20
5.3725711
40
0.9363344
50
174.342123
51
180.1430283
0
ARC
8
DEFAULT_255_1_388
10
4.9555978
20
5.2382117
40
0.8315986
50
179.6817261
51
189.150555
0
ARC
8
DEFAULT_255_1_388
10
4.6742727
20
5.1913559
40
0.5464044
50
188.9911061
51
203.5772363
0
ARC
8
DEFAULT_255_1_388
10
4.5528019
20
5.1409539
40
0.4149206
50
203.9075402
51
215.1312435
0
ARC
8
DEFAULT_255_1_388
10
4.4489817
20
5.0604907
40
0.2837747
50
213.9071511
51
263.8848919
0
ARC
8
DEFAULT_255_1_388
10
4.463081
20
5.1487519
40
0.3730641
50
263.1757928
51
270.1031044
0
ARC
8
DEFAULT_255_1_388
10
4.466689
20
5.2890511
40
0.5133712
50
269.6722503
51
279.0606936
0
ARC
8
DEFAULT_255_1_388
10
4.4967045
20
5.107615
40
0.3294739
50
278.8749101
51
293.6349581
0
ARC
8
DEFAULT_255_1_388
10
4.5327249
20
5.0230251
40
0.2375405
50
293.8553806
51
310.0518171
0
ARC
8
DEFAULT_255_1_388
10
4.5332758
20
5.0160021
40
0.2318463
50
311.0644687
51
332.0111037
0
ARC
8
DEFAULT_255_1_388
10
4.3991431
20
5.0899702
40
0.3850112
50
331.6586806
51
343.2877423
0
ARC
8
DEFAULT_255_1_388
10
4.1670896
20
5.1612806
40
0.6277712
50
343.1446576
51
351.0103568
0
ARC
8
DEFAULT_255_1_388
10
4.003822
20
5.1912873
40
0.7937327
50
350.71248
51
351.1626997
0
LINE
8
DEFAULT_255_1_388
10
6.211246
20
5.3503553
11
6.211246
21
5.2672274
0
LINE
8
DEFAULT_255_1_388
10
5.153172
20
5.2554811
11
5.153172
21
5.3503553
0
LINE
8
DEFAULT_255_1_388
10
6.0386652
20
5.2545775
11
6.0386652
21
5.3521625
0
LINE
8
DEFAULT_255_1_388
10
5.3257528
20
5.3639088
11
5.3257528
21
5.2672274
0
ARC
8
DEFAULT_255_1_388
10
5.2390198
20
5.2627726
40
0.9722364
50
350.4878118
51
0.2625322
0
ARC
8
DEFAULT_255_1_388
10
5.4970158
20
5.2183994
40
0.7104556
50
336.0277991
51
350.5787241
0
ARC
8
DEFAULT_255_1_388
10
5.6483265
20
5.1500243
40
0.544417
50
319.887443
51
336.1331163
0
ARC
8
DEFAULT_255_1_388
10
5.7161077
20
5.0957733
40
0.4576311
50
302.4806296
51
319.6144102
0
ARC
8
DEFAULT_255_1_388
10
5.7031699
20
5.1207067
40
0.4856183
50
275.8196423
51
302.1885521
0
ARC
8
DEFAULT_255_1_388
10
5.684456
20
5.2492466
40
0.6154183
50
269.9169897
51
276.339506
0
ARC
8
DEFAULT_255_1_388
10
5.6794161
20
5.172068
40
0.5382553
50
252.5221437
51
270.441579
0
ARC
8
DEFAULT_255_1_388
10
5.6632411
20
5.1114046
40
0.4755426
50
237.5349961
51
252.1858334
0
ARC
8
DEFAULT_255_1_388
10
5.6732787
20
5.124212
40
0.4917393
50
209.0632754
51
237.3492577
0
ARC
8
DEFAULT_255_1_388
10
5.7712113
20
5.1857104
40
0.6072464
50
205.118533
51
209.6465345
0
ARC
8
DEFAULT_255_1_388
10
5.8608115
20
5.2237174
40
0.7045164
50
188.7216633
51
204.8239753
0
ARC
8
DEFAULT_255_1_388
10
6.0854891
20
5.2615387
40
0.9323368
50
180.3722704
51
188.9253909
0
ARC
8
DEFAULT_255_1_388
10
6.0824452
20
5.3548416
40
0.929284
50
169.5253055
51
180.2766048
0
ARC
8
DEFAULT_255_1_388
10
5.8684251
20
5.3942024
40
0.7116745
50
155.8314601
51
169.5088611
0
ARC
8
DEFAULT_255_1_388
10
5.7243714
20
5.4610312
40
0.5528904
50
139.6259579
51
156.0379072
0
ARC
8
DEFAULT_255_1_388
10
5.6580248
20
5.5144143
40
0.4677708
50
122.6414784
51
139.3431662
0
ARC
8
DEFAULT_255_1_388
10
5.6693503
20
5.4937787
40
0.4912586
50
93.0224537
51
122.4556091
0
ARC
8
DEFAULT_255_1_388
10
5.6815023
20
5.3851776
40
0.6003837
50
89.9756766
51
93.6340839
0
ARC
8
DEFAULT_255_1_388
10
5.6858621
20
5.4300879
40
0.5554884
50
73.7463329
51
90.4234008
0
ARC
8
DEFAULT_255_1_388
10
5.7056094
20
5.5065772
40
0.4765353
50
57.663051
51
73.4516911
0
ARC
8
DEFAULT_255_1_388
10
5.7047132
20
5.5090108
40
0.4749629
50
29.1441355
51
57.4146687
0
ARC
8
DEFAULT_255_1_388
10
5.5994943
20
5.4433046
40
0.5988917
50
24.0985653
51
29.732054
0
ARC
8
DEFAULT_255_1_388
10
5.4832575
20
5.3951154
40
0.7246823
50
8.6654943
51
23.8241215
0
ARC
8
DEFAULT_255_1_388
10
5.2318994
20
5.3541037
40
0.9793537
50
359.7807044
51
8.8218476
0
ARC
8
DEFAULT_255_1_388
10
5.1028698
20
5.3569731
40
0.9358078
50
359.7054632
51
8.0359751
0
ARC
8
DEFAULT_255_1_388
10
5.4403749
20
5.4061252
40
0.5947474
50
7.8926278
51
20.2962188
0
ARC
8
DEFAULT_255_1_388
10
5.62346
20
5.4736367
40
0.3996117
50
20.3231056
51
36.4990255
0
ARC
8
DEFAULT_255_1_388
10
5.7005897
20
5.5330399
40
0.3022818
50
36.1436715
51
85.6627846
0
ARC
8
DEFAULT_255_1_388
10
5.6823152
20
5.4160881
40
0.4203853
50
84.3845912
51
90.076054
0
ARC
8
DEFAULT_255_1_388
10
5.6775507
20
5.4903416
40
0.346157
50
89.3037228
51
109.9046209
0
ARC
8
DEFAULT_255_1_388
10
5.667134
20
5.5333379
40
0.3022217
50
110.8229774
51
143.917961
0
ARC
8
DEFAULT_255_1_388
10
5.77217
20
5.4531455
40
0.434348
50
143.5289166
51
163.2980252
0
ARC
8
DEFAULT_255_1_388
10
5.9867987
20
5.3856685
40
0.659321
50
163.0418884
51
174.3139873
0
ARC
8
DEFAULT_255_1_388
10
6.2572951
20
5.3544378
40
0.9315905
50
174.050934
51
179.4174954
0
ARC
8
DEFAULT_255_1_388
10
6.2004895
20
5.2625382
40
0.8747493
50
179.6928582
51
188.7908948
0
ARC
8
DEFAULT_255_1_388
10
5.9008695
20
5.2146086
40
0.5713262
50
188.6328449
51
202.5630732
0
ARC
8
DEFAULT_255_1_388
10
5.7597532
20
5.1579142
40
0.4192612
50
202.8078931
51
216.1195888
0
ARC
8
DEFAULT_255_1_388
10
5.6687049
20
5.0846479
40
0.3025752
50
215.0755613
51
264.6379773
0
ARC
8
DEFAULT_255_1_388
10
5.6829887
20
5.1781376
40
0.3970284
50
263.8464302
51
270.0830805
0
ARC
8
DEFAULT_255_1_388
10
5.6876431
20
5.1490808
40
0.3679937
50
269.3649295
51
287.5149684
0
ARC
8
DEFAULT_255_1_388
10
5.7076872
20
5.0762714
40
0.2925408
50
288.0629019
51
323.8115617
0
ARC
8
DEFAULT_255_1_388
10
5.6096848
20
5.1493754
40
0.4148018
50
323.6546541
51
342.6591359
0
ARC
8
DEFAULT_255_1_388
10
5.3811506
20
5.223728
40
0.6551163
50
342.4092446
51
353.6451501
0
ARC
8
DEFAULT_255_1_388
10
5.06263
20
5.2633565
40
0.9760748
50
353.4027553
51
359.4846611
0
LINE
8
DEFAULT_255_1_388
10
6.4714726
20
5.9674898
11
6.6955565
21
5.9674898
0
LINE
8
DEFAULT_255_1_388
10
6.6955565
20
5.9674898
11
7.1256532
21
4.8940553
0
LINE
8
DEFAULT_255_1_388
10
7.1256532
20
4.8940553
11
7.5557499
21
5.9674898
0
LINE
8
DEFAULT_255_1_388
10
7.5557499
20
5.9674898
11
7.7807375
21
5.9674898
0
LINE
8
DEFAULT_255_1_388
10
7.7807375
20
5.9674898
11
7.7807375
21
4.6519
0
LINE
8
DEFAULT_255_1_388
10
7.7807375
20
4.6519
11
7.6072531
21
4.6519
0
LINE
8
DEFAULT_255_1_388
10
7.6072531
20
4.6519
11
7.6072531
21
5.164221
0
LINE
8
DEFAULT_255_1_388
10
7.6072531
20
5.164221
11
7.6235172
21
5.7172025
0
LINE
8
DEFAULT_255_1_388
10
7.6235172
20
5.7172025
11
7.1916134
21
4.6519
0
LINE
8
DEFAULT_255_1_388
10
7.1916134
20
4.6519
11
7.0587895
21
4.6519
0
LINE
8
DEFAULT_255_1_388
10
7.0587895
20
4.6519
11
6.6277892
21
5.7144918
0
LINE
8
DEFAULT_255_1_388
10
6.6277892
20
5.7144918
11
6.6449569
21
5.164221
0
LINE
8
DEFAULT_255_1_388
10
6.6449569
20
5.164221
11
6.6449569
21
4.6519
0
LINE
8
DEFAULT_255_1_388
10
6.6449569
20
4.6519
11
6.4714726
21
4.6519
0
LINE
8
DEFAULT_255_1_388
10
6.4714726
20
4.6519
11
6.4714726
21
5.9674898
0
LINE
8
DEFAULT_255_1_388
10
8.5930419
20
5.9738148
11
8.5930419
21
4.6519
0
LINE
8
DEFAULT_255_1_388
10
8.5930419
20
4.6519
11
8.4249789
21
4.6519
0
LINE
8
DEFAULT_255_1_388
10
8.4249789
20
4.6519
11
8.4249789
21
5.765995
0
LINE
8
DEFAULT_255_1_388
10
8.4249789
20
5.765995
11
8.0879494
21
5.6422066
0
LINE
8
DEFAULT_255_1_388
10
8.0879494
20
5.6422066
11
8.0879494
21
5.7940055
0
LINE
8
DEFAULT_255_1_388
10
8.0879494
20
5.7940055
11
8.5668385
21
5.9738148
0
LINE
8
DEFAULT_255_1_388
10
8.5668385
20
5.9738148
11
8.5930419
21
5.9738148
0
LINE
8
DEFAULT_255_1_388
10
4.795832
20
13.0068468
11
4.9702199
21
13.0068468
0
LINE
8
DEFAULT_255_1_388
10
3.9573242
20
13.1857525
11
3.9573242
21
13.3122516
0
LINE
8
DEFAULT_255_1_388
10
4.9702199
20
13.4821217
11
4.795832
21
13.4821217
0
LINE
8
DEFAULT_255_1_388
10
4.1317121
20
13.3077337
11
4.1317121
21
13.1803312
0
ARC
8
DEFAULT_255_1_388
10
4.3536433
20
13.0740329
40
0.6202263
50
340.1774904
51
353.7812217
0
ARC
8
DEFAULT_255_1_388
10
4.5304286
20
13.0081893
40
0.4315926
50
311.4560052
51
340.4420756
0
ARC
8
DEFAULT_255_1_388
10
4.5266826
20
13.0206665
40
0.4434573
50
282.4332229
51
310.7514507
0
ARC
8
DEFAULT_255_1_388
10
4.4772644
20
13.2248703
40
0.6535262
50
269.9358869
51
282.8096729
0
ARC
8
DEFAULT_255_1_388
10
4.4714583
20
13.3761329
40
0.8048043
50
269.9995752
51
270.3612856
0
ARC
8
DEFAULT_255_1_388
10
4.4655073
20
13.0962781
40
0.5249831
50
250.7885263
51
270.6488451
0
ARC
8
DEFAULT_255_1_388
10
4.4465898
20
13.0245853
40
0.4510942
50
219.3628377
51
250.0611024
0
ARC
8
DEFAULT_255_1_388
10
4.5398772
20
13.1038653
40
0.5735046
50
193.5480293
51
219.5755675
0
ARC
8
DEFAULT_255_1_388
10
4.8066981
20
13.173152
40
0.849146
50
181.1220183
51
193.8754971
0
ARC
8
DEFAULT_255_1_388
10
5.0390214
20
13.1855914
40
1.0816971
50
179.9914644
51
181.5398227
0
ARC
8
DEFAULT_255_1_388
10
4.8313525
20
13.3164586
40
0.8740384
50
169.5837606
51
180.275782
0
ARC
8
DEFAULT_255_1_388
10
4.6246873
20
13.3546439
40
0.6638751
50
155.0367033
51
169.6002779
0
ARC
8
DEFAULT_255_1_388
10
4.4969331
20
13.4162336
40
0.5220662
50
136.7831557
51
155.2472983
0
ARC
8
DEFAULT_255_1_388
10
4.4531122
20
13.4534577
40
0.4646502
50
121.7633063
51
136.4281161
0
ARC
8
DEFAULT_255_1_388
10
4.4682962
20
13.4254049
40
0.4964979
50
95.6460018
51
121.5489589
0
ARC
8
DEFAULT_255_1_388
10
4.4859936
20
13.3006704
40
0.6223912
50
89.9245727
51
96.1375919
0
ARC
8
DEFAULT_255_1_388
10
4.4916641
20
13.3140721
40
0.6090084
50
76.6779212
51
90.456405
0
ARC
8
DEFAULT_255_1_388
10
4.5359454
20
13.493006
40
0.42469
50
47.4858803
51
76.9287069
0
ARC
8
DEFAULT_255_1_388
10
4.5194068
20
13.4817623
40
0.4441778
50
16.5424081
51
46.8934505
0
ARC
8
DEFAULT_255_1_388
10
4.3385118
20
13.4223265
40
0.6345318
50
5.4072971
51
17.0363711
0
ARC
8
DEFAULT_255_1_388
10
4.1766843
20
13.3963304
40
0.6250632
50
7.8888693
51
15.9242022
0
ARC
8
DEFAULT_255_1_388
10
4.4001828
20
13.4612309
40
0.3923364
50
15.7650676
51
27.9410069
0
ARC
8
DEFAULT_255_1_388
10
4.5243997
20
13.5277317
40
0.2514401
50
27.8167196
51
46.4007942
0
ARC
8
DEFAULT_255_1_388
10
4.5299839
20
13.5270882
40
0.2480958
50
47.4372362
51
75.0695672
0
ARC
8
DEFAULT_255_1_388
10
4.4952675
20
13.4062277
40
0.3738281
50
74.7009379
51
87.8124314
0
ARC
8
DEFAULT_255_1_388
10
4.4870292
20
13.2878659
40
0.4924321
50
87.3802571
51
90.0251599
0
ARC
8
DEFAULT_255_1_388
10
4.4826939
20
13.4198997
40
0.3604218
50
89.3451886
51
108.5744412
0
ARC
8
DEFAULT_255_1_388
10
4.4672931
20
13.4776836
40
0.3007661
50
109.2998307
51
143.3037387
0
ARC
8
DEFAULT_255_1_388
10
4.5530221
20
13.4117584
40
0.4089031
50
143.075267
51
163.1918576
0
ARC
8
DEFAULT_255_1_388
10
4.7726055
20
13.3424652
40
0.6391492
50
162.9375929
51
174.6208776
0
ARC
8
DEFAULT_255_1_388
10
5.0680437
20
13.3100711
40
0.9363344
50
174.342123
51
180.1430283
0
ARC
8
DEFAULT_255_1_388
10
4.9632978
20
13.1757117
40
0.8315986
50
179.6817261
51
189.150555
0
ARC
8
DEFAULT_255_1_388
10
4.6819727
20
13.1288559
40
0.5464044
50
188.9911061
51
203.5772363
0
ARC
8
DEFAULT_255_1_388
10
4.5605019
20
13.0784539
40
0.4149206
50
203.9075402
51
215.1312435
0
ARC
8
DEFAULT_255_1_388
10
4.4566817
20
12.9979907
40
0.2837747
50
213.9071511
51
263.8848919
0
ARC
8
DEFAULT_255_1_388
10
4.470781
20
13.0862519
40
0.3730641
50
263.1757928
51
270.1031044
0
ARC
8
DEFAULT_255_1_388
10
4.474389
20
13.2265511
40
0.5133712
50
269.6722503
51
279.0606936
0
ARC
8
DEFAULT_255_1_388
10
4.5044045
20
13.045115
40
0.3294739
50
278.8749101
51
293.6349581
0
ARC
8
DEFAULT_255_1_388
10
4.5404249
20
12.9605251
40
0.2375405
50
293.8553806
51
310.0518171
0
ARC
8
DEFAULT_255_1_388
10
4.5409758
20
12.9535021
40
0.2318463
50
311.0644687
51
332.0111037
0
ARC
8
DEFAULT_255_1_388
10
4.4068431
20
13.0274702
40
0.3850112
50
331.6586806
51
343.2877423
0
ARC
8
DEFAULT_255_1_388
10
4.1747896
20
13.0987806
40
0.6277712
50
343.1446576
51
351.0103568
0
ARC
8
DEFAULT_255_1_388
10
4.011522
20
13.1287873
40
0.7937327
50
350.71248
51
351.1626997
0
LINE
8
DEFAULT_255_1_388
10
6.218946
20
13.2878553
11
6.218946
21
13.2047274
0
LINE
8
DEFAULT_255_1_388
10
5.160872
20
13.1929811
11
5.160872
21
13.2878553
0
LINE
8
DEFAULT_255_1_388
10
6.0463652
20
13.1920775
11
6.0463652
21
13.2896625
0
LINE
8
DEFAULT_255_1_388
10
5.3334528
20
13.3014088
11
5.3334528
21
13.2047274
0
ARC
8
DEFAULT_255_1_388
10
5.2467198
20
13.2002726
40
0.9722364
50
350.4878118
51
0.2625322
0
ARC
8
DEFAULT_255_1_388
10
5.5047158
20
13.1558994
40
0.7104556
50
336.0277991
51
350.5787241
0
ARC
8
DEFAULT_255_1_388
10
5.6560265
20
13.0875243
40
0.544417
50
319.887443
51
336.1331163
0
ARC
8
DEFAULT_255_1_388
10
5.7238077
20
13.0332733
40
0.4576311
50
302.4806296
51
319.6144102
0
ARC
8
DEFAULT_255_1_388
10
5.7108699
20
13.0582067
40
0.4856183
50
275.8196423
51
302.1885521
0
ARC
8
DEFAULT_255_1_388
10
5.692156
20
13.1867466
40
0.6154183
50
269.9169897
51
276.339506
0
ARC
8
DEFAULT_255_1_388
10
5.6871161
20
13.109568
40
0.5382553
50
252.5221437
51
270.441579
0
ARC
8
DEFAULT_255_1_388
10
5.6709411
20
13.0489046
40
0.4755426
50
237.5349961
51
252.1858334
0
ARC
8
DEFAULT_255_1_388
10
5.6809787
20
13.061712
40
0.4917393
50
209.0632754
51
237.3492577
0
ARC
8
DEFAULT_255_1_388
10
5.7789113
20
13.1232104
40
0.6072464
50
205.118533
51
209.6465345
0
ARC
8
DEFAULT_255_1_388
10
5.8685115
20
13.1612174
40
0.7045164
50
188.7216633
51
204.8239753
0
ARC
8
DEFAULT_255_1_388
10
6.0931891
20
13.1990387
40
0.9323368
50
180.3722704
51
188.9253909
0
ARC
8
DEFAULT_255_1_388
10
6.0901452
20
13.2923416
40
0.929284
50
169.5253055
51
180.2766048
0
ARC
8
DEFAULT_255_1_388
10
5.8761251
20
13.3317024
40
0.7116745
50
155.8314601
51
169.5088611
0
ARC
8
DEFAULT_255_1_388
10
5.7320714
20
13.3985312
40
0.5528904
50
139.6259579
51
156.0379072
0
ARC
8
DEFAULT_255_1_388
10
5.6657248
20
13.4519143
40
0.4677708
50
122.6414784
51
139.3431662
0
ARC
8
DEFAULT_255_1_388
10
5.6770503
20
13.4312787
40
0.4912586
50
93.0224537
51
122.4556091
0
ARC
8
DEFAULT_255_1_388
10
5.6892023
20
13.3226776
40
0.6003837
50
89.9756766
51
93.6340839
0
ARC
8
DEFAULT_255_1_388
10
5.6935621
20
13.3675879
40
0.5554884
50
73.7463329
51
90.4234008
0
ARC
8
DEFAULT_255_1_388
10
5.7133094
20
13.4440772
40
0.4765353
50
57.663051
51
73.4516911
0
ARC
8
DEFAULT_255_1_388
10
5.7124132
20
13.4465108
40
0.4749629
50
29.1441355
51
57.4146687
0
ARC
8
DEFAULT_255_1_388
10
5.6071943
20
13.3808046
40
0.5988917
50
24.0985653
51
29.732054
0
ARC
8
DEFAULT_255_1_388
10
5.4909575
20
13.3326154
40
0.7246823
50
8.6654943
51
23.8241215
0
ARC
8
DEFAULT_255_1_388
10
5.2395994
20
13.2916037
40
0.9793537
50
359.7807044
51
8.8218476
0
ARC
8
DEFAULT_255_1_388
10
5.1105698
20
13.2944731
40
0.9358078
50
359.7054632
51
8.0359751
0
ARC
8
DEFAULT_255_1_388
10
5.4480749
20
13.3436252
40
0.5947474
50
7.8926278
51
20.2962188
0
ARC
8
DEFAULT_255_1_388
10
5.63116
20
13.4111367
40
0.3996117
50
20.3231056
51
36.4990255
0
ARC
8
DEFAULT_255_1_388
10
5.7082897
20
13.4705399
40
0.3022818
50
36.1436715
51
85.6627846
0
ARC
8
DEFAULT_255_1_388
10
5.6900152
20
13.3535881
40
0.4203853
50
84.3845912
51
90.076054
0
ARC
8
DEFAULT_255_1_388
10
5.6852507
20
13.4278416
40
0.346157
50
89.3037228
51
109.9046209
0
ARC
8
DEFAULT_255_1_388
10
5.674834
20
13.4708379
40
0.3022217
50
110.8229774
51
143.917961
0
ARC
8
DEFAULT_255_1_388
10
5.77987
20
13.3906455
40
0.434348
50
143.5289166
51
163.2980252
0
ARC
8
DEFAULT_255_1_388
10
5.9944987
20
13.3231685
40
0.659321
50
163.0418884
51
174.3139873
0
ARC
8
DEFAULT_255_1_388
10
6.2649951
20
13.2919378
40
0.9315905
50
174.050934
51
179.4174954
0
ARC
8
DEFAULT_255_1_388
10
6.2081895
20
13.2000382
40
0.8747493
50
179.6928582
51
188.7908948
0
ARC
8
DEFAULT_255_1_388
10
5.9085695
20
13.1521086
40
0.5713262
50
188.6328449
51
202.5630732
0
ARC
8
DEFAULT_255_1_388
10
5.7674532
20
13.0954142
40
0.4192612
50
202.8078931
51
216.1195888
0
ARC
8
DEFAULT_255_1_388
10
5.6764049
20
13.0221479
40
0.3025752
50
215.0755613
51
264.6379773
0
ARC
8
DEFAULT_255_1_388
10
5.6906887
20
13.1156376
40
0.3970284
50
263.8464302
51
270.0830805
0
ARC
8
DEFAULT_255_1_388
10
5.6953431
20
13.0865808
40
0.3679937
50
269.3649295
51
287.5149684
0
ARC
8
DEFAULT_255_1_388
10
5.7153872
20
13.0137714
40
0.2925408
50
288.0629019
51
323.8115617
0
ARC
8
DEFAULT_255_1_388
10
5.6173848
20
13.0868754
40
0.4148018
50
323.6546541
51
342.6591359
0
ARC
8
DEFAULT_255_1_388
10
5.3888506
20
13.161228
40
0.6551163
50
342.4092446
51
353.6451501
0
ARC
8
DEFAULT_255_1_388
10
5.07033
20
13.2008565
40
0.9760748
50
353.4027553
51
359.4846611
0
LINE
8
DEFAULT_255_1_388
10
6.4791726
20
13.9049898
11
6.7032565
21
13.9049898
0
LINE
8
DEFAULT_255_1_388
10
6.7032565
20
13.9049898
11
7.1333532
21
12.8315553
0
LINE
8
DEFAULT_255_1_388
10
7.1333532
20
12.8315553
11
7.5634499
21
13.9049898
0
LINE
8
DEFAULT_255_1_388
10
7.5634499
20
13.9049898
11
7.7884375
21
13.9049898
0
LINE
8
DEFAULT_255_1_388
10
7.7884375
20
13.9049898
11
7.7884375
21
12.5894
0
LINE
8
DEFAULT_255_1_388
10
7.7884375
20
12.5894
11
7.6149531
21
12.5894
0
LINE
8
DEFAULT_255_1_388
10
7.6149531
20
12.5894
11
7.6149531
21
13.101721
0
LINE
8
DEFAULT_255_1_388
10
7.6149531
20
13.101721
11
7.6312172
21
13.6547025
0
LINE
8
DEFAULT_255_1_388
10
7.6312172
20
13.6547025
11
7.1993134
21
12.5894
0
LINE
8
DEFAULT_255_1_388
10
7.1993134
20
12.5894
11
7.0664895
21
12.5894
0
LINE
8
DEFAULT_255_1_388
10
7.0664895
20
12.5894
11
6.6354892
21
13.6519918
0
LINE
8
DEFAULT_255_1_388
10
6.6354892
20
13.6519918
11
6.6526569
21
13.101721
0
LINE
8
DEFAULT_255_1_388
10
6.6526569
20
13.101721
11
6.6526569
21
12.5894
0
LINE
8
DEFAULT_255_1_388
10
6.6526569
20
12.5894
11
6.4791726
21
12.5894
0
LINE
8
DEFAULT_255_1_388
10
6.4791726
20
12.5894
11
6.4791726
21
13.9049898
0
LINE
8
DEFAULT_255_1_388
10
8.8763291
20
13.367369
11
8.8763291
21
13.1505135
0
LINE
8
DEFAULT_255_1_388
10
8.0459533
20
13.1279244
11
8.0459533
21
13.3511048
0
LINE
8
DEFAULT_255_1_388
10
8.7091696
20
13.1053353
11
8.7091696
21
13.3791153
0
LINE
8
DEFAULT_255_1_388
10
8.2131127
20
13.3917652
11
8.2131127
21
13.1243102
0
ARC
8
DEFAULT_255_1_388
10
7.4985624
20
13.1450118
40
1.3777776
50
353.8440855
51
0.2287917
0
ARC
8
DEFAULT_255_1_388
10
8.0204642
20
13.0867414
40
0.852639
50
344.4934746
51
353.9763743
0
ARC
8
DEFAULT_255_1_388
10
8.3571449
20
12.9910191
40
0.5026273
50
329.2803599
51
344.7473406
0
ARC
8
DEFAULT_255_1_388
10
8.4686945
20
12.9298038
40
0.3754848
50
324.9361395
51
328.6153007
0
ARC
8
DEFAULT_255_1_388
10
8.5112595
20
12.9000586
40
0.3235566
50
280.5801797
51
324.9173226
0
ARC
8
DEFAULT_255_1_388
10
8.4661223
20
13.0880236
40
0.5167077
50
269.5979457
51
281.6732777
0
ARC
8
DEFAULT_255_1_388
10
8.4580127
20
13.0745113
40
0.5032026
50
256.6228565
51
270.5105488
0
ARC
8
DEFAULT_255_1_388
10
8.4127869
20
12.9003345
40
0.3233092
50
215.8618351
51
257.2787793
0
ARC
8
DEFAULT_255_1_388
10
8.5276577
20
12.9774106
40
0.4615831
50
197.9695203
51
215.2622745
0
ARC
8
DEFAULT_255_1_388
10
8.8072252
20
13.0717641
40
0.7566307
50
187.8816486
51
198.2346584
0
ARC
8
DEFAULT_255_1_388
10
9.252549
20
13.1360453
40
1.2065653
50
180.8977266
51
188.0054894
0
ARC
8
DEFAULT_255_1_388
10
9.5575704
20
13.14754
40
1.5117443
50
180.7434591
51
181.152202
0
ARC
8
DEFAULT_255_1_388
10
9.39007
20
13.3565371
40
1.3441277
50
173.7674302
51
180.2315596
0
ARC
8
DEFAULT_255_1_388
10
8.8818569
20
13.4139779
40
0.8326847
50
164.3058537
51
173.9000553
0
ARC
8
DEFAULT_255_1_388
10
8.5542569
20
13.5083652
40
0.4917711
50
148.7922028
51
164.5682288
0
ARC
8
DEFAULT_255_1_388
10
8.4473306
20
13.5680457
40
0.3694204
50
144.5883979
51
148.1161588
0
ARC
8
DEFAULT_255_1_388
10
8.4086052
20
13.5950667
40
0.322202
50
101.6440149
51
144.5142619
0
ARC
8
DEFAULT_255_1_388
10
8.4564244
20
13.4050337
40
0.5180451
50
89.528284
51
102.5820197
0
ARC
8
DEFAULT_255_1_388
10
8.4653236
20
13.4006376
40
0.5224441
50
77.0437914
51
90.508231
0
ARC
8
DEFAULT_255_1_388
10
8.5105489
20
13.5854272
40
0.3322297
50
48.2777708
51
77.4996087
0
ARC
8
DEFAULT_255_1_388
10
8.5187229
20
13.5999557
40
0.315966
50
36.3141586
51
47.6307332
0
ARC
8
DEFAULT_255_1_388
10
8.4209952
20
13.5341159
40
0.4337313
50
18.2931065
51
35.6770203
0
ARC
8
DEFAULT_255_1_388
10
8.1348793
20
13.4359107
40
0.7362203
50
8.0246996
51
18.5605636
0
ARC
8
DEFAULT_255_1_388
10
7.6665148
20
13.3667432
40
1.2096583
50
1.127539
51
8.1718423
0
ARC
8
DEFAULT_255_1_388
10
7.3016281
20
13.3524374
40
1.5747719
50
0.5432713
51
1.38669
0
ARC
8
DEFAULT_255_1_388
10
7.507366
20
13.3831163
40
1.2018103
50
359.8092569
51
4.9408001
0
ARC
8
DEFAULT_255_1_388
10
7.9810241
20
13.42539
40
0.7262727
50
4.8364937
51
12.2906017
0
ARC
8
DEFAULT_255_1_388
10
8.2909706
20
13.4944485
40
0.4087324
50
12.0806994
51
23.8171225
0
ARC
8
DEFAULT_255_1_388
10
8.4230102
20
13.5503508
40
0.2653719
50
24.2874621
51
31.3934353
0
ARC
8
DEFAULT_255_1_388
10
8.4820538
20
13.5889822
40
0.1948607
50
30.7407708
51
82.4658033
0
ARC
8
DEFAULT_255_1_388
10
8.4618199
20
13.4896017
40
0.2961198
50
81.1057101
51
90.2187368
0
ARC
8
DEFAULT_255_1_388
10
8.4578011
20
13.5186421
40
0.2670929
50
89.380395
51
105.6763916
0
ARC
8
DEFAULT_255_1_388
10
8.4371733
20
13.593632
40
0.1893189
50
105.7980655
51
149.7387869
0
ARC
8
DEFAULT_255_1_388
10
8.5568873
20
13.5216719
40
0.3289892
50
149.4208441
51
163.628295
0
ARC
8
DEFAULT_255_1_388
10
8.7921103
20
13.4499345
40
0.5749004
50
163.3764549
51
172.141138
0
ARC
8
DEFAULT_255_1_388
10
9.1633824
20
13.3967582
40
0.9499585
50
172.0258462
51
178.0705453
0
ARC
8
DEFAULT_255_1_388
10
9.5055377
20
13.3805682
40
1.2924734
50
177.8639301
51
179.5036263
0
ARC
8
DEFAULT_255_1_388
10
9.3836395
20
13.1202151
40
1.170534
50
179.7995545
51
185.246089
0
ARC
8
DEFAULT_255_1_388
10
8.9287989
20
13.0771404
40
0.7136613
50
185.1411911
51
193.0082205
0
ARC
8
DEFAULT_255_1_388
10
8.6314249
20
13.0068441
40
0.4080987
50
192.7897338
51
205.2507384
0
ARC
8
DEFAULT_255_1_388
10
8.5136459
20
12.9542538
40
0.2791522
50
205.8001921
51
211.2545876
0
ARC
8
DEFAULT_255_1_388
10
8.4547998
20
12.9148132
40
0.2084074
50
210.3789935
51
238.4007996
0
ARC
8
DEFAULT_255_1_388
10
8.4526084
20
12.9200786
40
0.2117943
50
239.6521916
51
265.9793852
0
ARC
8
DEFAULT_255_1_388
10
8.4621933
20
12.9957358
40
0.2879689
50
265.1324455
51
270.0603288
0
ARC
8
DEFAULT_255_1_388
10
8.465431
20
12.9592418
40
0.2514919
50
269.3314378
51
287.2180039
0
ARC
8
DEFAULT_255_1_388
10
8.4809392
20
12.9026291
40
0.1928357
50
287.7957942
51
329.0808983
0
ARC
8
DEFAULT_255_1_388
10
8.373215
20
12.9698651
40
0.319808
50
328.6635261
51
343.3325043
0
ARC
8
DEFAULT_255_1_388
10
8.1287608
20
13.0460195
40
0.5758408
50
343.0498092
51
351.9392499
0
ARC
8
DEFAULT_255_1_388
10
7.738693
20
13.1035205
40
0.9701202
50
351.8071632
51
357.7957897
0
ARC
8
DEFAULT_255_1_388
10
7.3752407
20
13.1223724
40
1.3340376
50
357.5870923
51
359.2682493
0
LINE
8
DEFAULT_255_1_388
10
4.5033985
20
21.8488148
11
4.5033985
21
20.5269
0
LINE
8
DEFAULT_255_1_388
10
4.5033985
20
20.5269
11
4.3353355
21
20.5269
0
LINE
8
DEFAULT_255_1_388
10
4.3353355
20
20.5269
11
4.3353355
21
21.640995
0
LINE
8
DEFAULT_255_1_388
10
4.3353355
20
21.640995
11
3.998306
21
21.5172066
0
LINE
8
DEFAULT_255_1_388
10
3.998306
20
21.5172066
11
3.998306
21
21.6690055
0
LINE
8
DEFAULT_255_1_388
10
3.998306
20
21.6690055
11
4.4771951
21
21.8488148
0
LINE
8
DEFAULT_255_1_388
10
4.4771951
20
21.8488148
11
4.5033985
21
21.8488148
0
LINE
8
DEFAULT_255_1_388
10
5.2036609
20
21.1521666
11
5.0699334
21
21.1865021
0
LINE
8
DEFAULT_255_1_388
10
5.0699334
20
21.1865021
11
5.1367972
21
21.8424898
0
LINE
8
DEFAULT_255_1_388
10
5.1367972
20
21.8424898
11
5.8108563
21
21.8424898
0
LINE
8
DEFAULT_255_1_388
10
5.8108563
20
21.8424898
11
5.8108563
21
21.6879803
0
LINE
8
DEFAULT_255_1_388
10
5.8108563
20
21.6879803
11
5.2786568
21
21.6879803
0
LINE
8
DEFAULT_255_1_388
10
5.2786568
20
21.6879803
11
5.2389
21
21.3292652
0
LINE
8
DEFAULT_255_1_388
10
5.022948
20
20.8729652
11
5.1810718
21
20.8729652
0
LINE
8
DEFAULT_255_1_388
10
5.2479356
20
21.1883092
11
5.2036609
21
21.1521666
0
ARC
8
DEFAULT_255_1_388
10
5.4475613
20
20.9715241
40
0.4141476
50
93.7181681
51
120.253934
0
ARC
8
DEFAULT_255_1_388
10
5.4581665
20
20.8806284
40
0.5055616
50
89.9660471
51
94.2495185
0
ARC
8
DEFAULT_255_1_388
10
5.4627487
20
20.9469154
40
0.4392953
50
73.8045384
51
90.5585736
0
ARC
8
DEFAULT_255_1_388
10
5.4891745
20
21.043452
40
0.3392225
50
41.3071072
51
73.543002
0
ARC
8
DEFAULT_255_1_388
10
5.4423565
20
21.0031461
40
0.4009977
50
13.5075837
51
41.2174839
0
ARC
8
DEFAULT_255_1_388
10
5.2576662
20
20.9547907
40
0.5918864
50
1.1330171
51
13.8830737
0
ARC
8
DEFAULT_255_1_388
10
5.0980308
20
20.9462522
40
0.7516787
50
359.9925091
51
1.5431298
0
ARC
8
DEFAULT_255_1_388
10
5.2424923
20
20.9416027
40
0.6072343
50
347.8572712
51
0.4294349
0
ARC
8
DEFAULT_255_1_388
10
5.4394058
20
20.8969898
40
0.4053482
50
323.6727442
51
348.1674594
0
ARC
8
DEFAULT_255_1_388
10
5.4725022
20
20.8768175
40
0.3667495
50
316.8171818
51
323.1486802
0
ARC
8
DEFAULT_255_1_388
10
5.4794146
20
20.8726612
40
0.358869
50
281.839603
51
316.5458142
0
ARC
8
DEFAULT_255_1_388
10
5.4371434
20
21.0476363
40
0.5388223
50
269.5770964
51
282.4214641
0
ARC
8
DEFAULT_255_1_388
10
5.4291354
20
21.023593
40
0.5147801
50
256.2425863
51
270.4486481
0
ARC
8
DEFAULT_255_1_388
10
5.3954882
20
20.8886124
40
0.3756708
50
228.9024379
51
256.33135
0
ARC
8
DEFAULT_255_1_388
10
5.3871862
20
20.8755054
40
0.360344
50
193.7536029
51
228.5272638
0
ARC
8
DEFAULT_255_1_388
10
5.5264427
20
20.9163463
40
0.5053599
50
184.9244437
51
194.4976052
0
ARC
8
DEFAULT_255_1_388
10
5.5481068
20
20.9203722
40
0.3700839
50
187.3596909
51
198.6733728
0
ARC
8
DEFAULT_255_1_388
10
5.4300312
20
20.8794373
40
0.2451195
50
198.4453795
51
217.7945479
0
ARC
8
DEFAULT_255_1_388
10
5.3967484
20
20.8558563
40
0.2043754
50
218.2887146
51
228.5613203
0
ARC
8
DEFAULT_255_1_388
10
5.4077491
20
20.8706902
40
0.2227819
50
228.9652423
51
258.1237049
0
ARC
8
DEFAULT_255_1_388
10
5.4308929
20
20.9697964
40
0.3245374
50
257.7260585
51
270.4013717
0
ARC
8
DEFAULT_255_1_388
10
5.4359427
20
20.9197255
40
0.2744726
50
269.4204315
51
286.420998
0
ARC
8
DEFAULT_255_1_388
10
5.4526482
20
20.8590705
40
0.2115721
50
286.7250065
51
320.6004665
0
ARC
8
DEFAULT_255_1_388
10
5.4095398
20
20.8940527
40
0.2670878
50
320.6712228
51
344.5440474
0
ARC
8
DEFAULT_255_1_388
10
5.2794112
20
20.9322394
40
0.4026927
50
344.241448
51
356.735803
0
ARC
8
DEFAULT_255_1_388
10
5.1390419
20
20.9438656
40
0.5435085
50
356.3547471
51
0.0507222
0
ARC
8
DEFAULT_255_1_388
10
5.2892684
20
20.9473812
40
0.3932934
50
359.5579289
51
12.9534322
0
ARC
8
DEFAULT_255_1_388
10
5.4079524
20
20.9761586
40
0.2711827
50
12.6489751
51
41.608121
0
ARC
8
DEFAULT_255_1_388
10
5.4338684
20
20.9981946
40
0.2371737
50
41.7851122
51
85.9892156
0
ARC
8
DEFAULT_255_1_388
10
5.4199994
20
20.9066738
40
0.3295244
50
84.6965848
51
90.0672125
0
ARC
8
DEFAULT_255_1_388
10
5.4173561
20
20.8315118
40
0.4046926
50
89.6804991
51
99.161352
0
ARC
8
DEFAULT_255_1_388
10
5.3942571
20
20.9695848
40
0.2647044
50
98.9836248
51
113.8905702
0
ARC
8
DEFAULT_255_1_388
10
5.3684246
20
21.0305118
40
0.1985386
50
114.195234
51
127.3641866
0
LINE
8
DEFAULT_255_1_388
10
4.6356985
20
29.7863148
11
4.6356985
21
28.4644
0
LINE
8
DEFAULT_255_1_388
10
4.6356985
20
28.4644
11
4.4676355
21
28.4644
0
LINE
8
DEFAULT_255_1_388
10
4.4676355
20
28.4644
11
4.4676355
21
29.578495
0
LINE
8
DEFAULT_255_1_388
10
4.4676355
20
29.578495
11
4.130606
21
29.4547066
0
LINE
8
DEFAULT_255_1_388
10
4.130606
20
29.4547066
11
4.130606
21
29.6065055
0
LINE
8
DEFAULT_255_1_388
10
4.130606
20
29.6065055
11
4.6094951
21
29.7863148
0
LINE
8
DEFAULT_255_1_388
10
4.6094951
20
29.7863148
11
4.6356985
21
29.7863148
0
LINE
8
DEFAULT_255_1_388
10
5.8311143
20
29.7799898
11
5.8311143
21
28.906243
0
LINE
8
DEFAULT_255_1_388
10
5.8311143
20
28.906243
11
6.0136343
21
28.906243
0
LINE
8
DEFAULT_255_1_388
10
6.0136343
20
28.906243
11
6.0136343
21
28.7698048
0
LINE
8
DEFAULT_255_1_388
10
6.0136343
20
28.7698048
11
5.8311143
21
28.7698048
0
LINE
8
DEFAULT_255_1_388
10
5.8311143
20
28.7698048
11
5.8311143
21
28.4644
0
LINE
8
DEFAULT_255_1_388
10
5.8311143
20
28.4644
11
5.6630513
21
28.4644
0
LINE
8
DEFAULT_255_1_388
10
5.6630513
20
28.4644
11
5.6630513
21
28.7698048
0
LINE
8
DEFAULT_255_1_388
10
5.6630513
20
28.7698048
11
5.063988
21
28.7698048
0
LINE
8
DEFAULT_255_1_388
10
5.063988
20
28.7698048
11
5.063988
21
28.8682933
0
LINE
8
DEFAULT_255_1_388
10
5.063988
20
28.8682933
11
5.6531121
21
29.7799898
0
LINE
8
DEFAULT_255_1_388
10
5.6531121
20
29.7799898
11
5.8311143
21
29.7799898
0
LINE
8
DEFAULT_255_1_388
10
5.6431729
20
29.5152455
11
5.2537366
21
28.906243
0
LINE
8
DEFAULT_255_1_388
10
5.2537366
20
28.906243
11
5.6630513
21
28.906243
0
LINE
8
DEFAULT_255_1_388
10
5.6630513
20
28.906243
11
5.6630513
21
29.551388
0
LINE
8
DEFAULT_255_1_388
10
5.6630513
20
29.551388
11
5.6431729
21
29.5152455
0
LINE
8
DEFAULT_255_1_388
10
4.5033985
20
37.7238148
11
4.5033985
21
36.4019
0
LINE
8
DEFAULT_255_1_388
10
4.5033985
20
36.4019
11
4.3353355
21
36.4019
0
LINE
8
DEFAULT_255_1_388
10
4.3353355
20
36.4019
11
4.3353355
21
37.515995
0
LINE
8
DEFAULT_255_1_388
10
4.3353355
20
37.515995
11
3.998306
21
37.3922066
0
LINE
8
DEFAULT_255_1_388
10
3.998306
20
37.3922066
11
3.998306
21
37.5440055
0
LINE
8
DEFAULT_255_1_388
10
3.998306
20
37.5440055
11
4.4771951
21
37.7238148
0
LINE
8
DEFAULT_255_1_388
10
4.4771951
20
37.7238148
11
4.5033985
21
37.7238148
0
LINE
8
DEFAULT_255_1_388
10
5.2361893
20
37.0045775
11
5.2361893
21
37.1410157
0
LINE
8
DEFAULT_255_1_388
10
5.2361893
20
37.1410157
11
5.3617847
21
37.1410157
0
LINE
8
DEFAULT_255_1_388
10
5.1476399
20
37.3723282
11
4.9804805
21
37.3723282
0
LINE
8
DEFAULT_255_1_388
10
4.9687342
20
36.7488688
11
5.1367972
21
36.7488688
0
LINE
8
DEFAULT_255_1_388
10
5.3617847
20
37.0045775
11
5.2361893
21
37.0045775
0
ARC
8
DEFAULT_255_1_388
10
5.3585074
20
37.5226922
40
0.3816905
50
270.491971
51
281.8953028
0
ARC
8
DEFAULT_255_1_388
10
5.3856501
20
37.3987199
40
0.2547877
50
281.6690378
51
301.2943765
0
ARC
8
DEFAULT_255_1_388
10
5.4047952
20
37.3636926
40
0.2149197
50
301.7834992
51
311.754567
0
ARC
8
DEFAULT_255_1_388
10
5.4150993
20
37.352265
40
0.1995326
50
311.7325027
51
354.2803031
0
ARC
8
DEFAULT_255_1_388
10
5.3333409
20
37.366328
40
0.2823461
50
353.0941646
51
0.1174696
0
ARC
8
DEFAULT_255_1_388
10
5.2814967
20
37.3716874
40
0.3342238
50
359.1804452
51
15.0452323
0
ARC
8
DEFAULT_255_1_388
10
5.4329026
20
37.4158546
40
0.1765747
50
13.957816
51
77.6713812
0
ARC
8
DEFAULT_255_1_388
10
5.3894261
20
37.2600464
40
0.3381982
50
76.111571
51
90.7028736
0
ARC
8
DEFAULT_255_1_388
10
5.3827673
20
37.290825
40
0.3074046
50
89.5321574
51
103.5319393
0
ARC
8
DEFAULT_255_1_388
10
5.3602057
20
37.3807443
40
0.2147041
50
103.2930114
51
133.5619756
0
ARC
8
DEFAULT_255_1_388
10
5.3551999
20
37.3874351
40
0.2064084
50
133.8349761
51
173.5343225
0
ARC
8
DEFAULT_255_1_388
10
5.4365656
20
37.3730144
40
0.2889266
50
172.5097183
51
180.1360699
0
ARC
8
DEFAULT_255_1_388
10
5.329542
20
37.376888
40
0.3490913
50
155.3483706
51
180.7484035
0
ARC
8
DEFAULT_255_1_388
10
5.3240396
20
37.3736519
40
0.3454798
50
131.5745177
51
154.4799474
0
ARC
8
DEFAULT_255_1_388
10
5.3592678
20
37.3380422
40
0.3955058
50
96.9874487
51
131.9690874
0
ARC
8
DEFAULT_255_1_388
10
5.3839571
20
37.1979407
40
0.537622
50
89.8592909
51
97.7827481
0
ARC
8
DEFAULT_255_1_388
10
5.389368
20
37.168436
40
0.5671399
50
78.3654493
51
90.4132586
0
ARC
8
DEFAULT_255_1_388
10
5.4296321
20
37.3550918
40
0.3762034
50
56.6229818
51
78.6387103
0
ARC
8
DEFAULT_255_1_388
10
5.453815
20
37.3973846
40
0.3275964
50
47.0254604
51
56.085558
0
ARC
8
DEFAULT_255_1_388
10
5.4560401
20
37.4018189
40
0.3228382
50
10.9207523
51
46.777927
0
ARC
8
DEFAULT_255_1_388
10
5.3025995
20
37.3663401
40
0.4802559
50
359.6364235
51
11.6087615
0
ARC
8
DEFAULT_255_1_388
10
5.5090161
20
37.3646404
40
0.273833
50
332.3549969
51
359.7179765
0
ARC
8
DEFAULT_255_1_388
10
5.4358562
20
37.3993285
40
0.3547505
50
325.2332381
51
332.8746682
0
ARC
8
DEFAULT_255_1_388
10
5.4530144
20
37.3873763
40
0.3338396
50
292.9803892
51
325.2391113
0
ARC
8
DEFAULT_255_1_388
10
5.421934
20
37.4478679
40
0.4016959
50
292.542178
51
293.6931461
0
ARC
8
DEFAULT_255_1_388
10
5.4662912
20
36.7213036
40
0.372079
50
57.643292
51
72.8626085
0
ARC
8
DEFAULT_255_1_388
10
5.5061747
20
36.7859273
40
0.2961455
50
36.7246661
51
57.4701329
0
ARC
8
DEFAULT_255_1_388
10
5.5048903
20
36.787347
40
0.2963321
50
8.054535
51
36.3561529
0
ARC
8
DEFAULT_255_1_388
10
5.4078576
20
36.7699073
40
0.3948682
50
359.8316595
51
8.5873361
0
ARC
8
DEFAULT_255_1_388
10
5.365605
20
36.764497
40
0.4371398
50
343.9831631
51
0.557075
0
ARC
8
DEFAULT_255_1_388
10
5.46531
20
36.7371963
40
0.3337749
50
311.6358204
51
343.7652116
0
ARC
8
DEFAULT_255_1_388
10
5.4227353
20
36.7851955
40
0.3979351
50
279.7829743
51
311.625622
0
ARC
8
DEFAULT_255_1_388
10
5.3888489
20
36.9468642
40
0.5630417
50
269.7285092
51
280.3857694
0
ARC
8
DEFAULT_255_1_388
10
5.3818802
20
36.9422241
40
0.5584119
50
256.6827433
51
270.4412869
0
ARC
8
DEFAULT_255_1_388
10
5.3437788
20
36.7864698
40
0.3980715
50
229.4223821
51
256.8554507
0
ARC
8
DEFAULT_255_1_388
10
5.2971342
20
36.7339683
40
0.3278564
50
181.8183354
51
229.6455015
0
ARC
8
DEFAULT_255_1_388
10
5.4140951
20
36.7486825
40
0.4453611
50
179.9760419
51
183.2330638
0
ARC
8
DEFAULT_255_1_388
10
5.3947503
20
36.7463781
40
0.2579652
50
179.4467996
51
196.2871626
0
ARC
8
DEFAULT_255_1_388
10
5.3398957
20
36.7313709
40
0.2011057
50
196.5661293
51
227.7059371
0
ARC
8
DEFAULT_255_1_388
10
5.3583564
20
36.7520155
40
0.2287994
50
227.7653015
51
257.8763321
0
ARC
8
DEFAULT_255_1_388
10
5.3836647
20
36.8580961
40
0.3378385
50
257.4583525
51
270.4267406
0
ARC
8
DEFAULT_255_1_388
10
5.3887897
20
36.890723
40
0.3704652
50
269.5965319
51
280.8788143
0
ARC
8
DEFAULT_255_1_388
10
5.4146125
20
36.7617529
40
0.2389415
50
280.6347277
51
299.8594068
0
ARC
8
DEFAULT_255_1_388
10
5.4360895
20
36.7209736
40
0.19289
50
300.3575552
51
314.5515667
0
ARC
8
DEFAULT_255_1_388
10
5.426757
20
36.7278025
40
0.204312
50
315.0730962
51
345.0429362
0
ARC
8
DEFAULT_255_1_388
10
5.3229078
20
36.7580539
40
0.31246
50
344.598526
51
357.9270698
0
ARC
8
DEFAULT_255_1_388
10
5.2219383
20
36.7649705
40
0.4136265
50
357.4755098
51
0.0224936
0
ARC
8
DEFAULT_255_1_388
10
5.337226
20
36.7677099
40
0.2983498
50
359.5051035
51
13.4236939
0
ARC
8
DEFAULT_255_1_388
10
5.434735
20
36.7926637
40
0.1977186
50
12.9497905
51
48.7550905
0
ARC
8
DEFAULT_255_1_388
10
5.4142272
20
36.7646373
40
0.2323321
50
49.509109
51
72.1832965
0
ARC
8
DEFAULT_255_1_388
10
5.373974
20
36.6451632
40
0.358397
50
71.9008458
51
84.3555134
0
ARC
8
DEFAULT_255_1_388
10
5.3558135
20
36.4919712
40
0.512641
50
84.019632
51
89.3326067
0
LINE
8
DEFAULT_255_1_388
10
4.5033985
20
45.6613148
11
4.5033985
21
44.3394
0
LINE
8
DEFAULT_255_1_388
10
4.5033985
20
44.3394
11
4.3353355
21
44.3394
0
LINE
8
DEFAULT_255_1_388
10
4.3353355
20
44.3394
11
4.3353355
21
45.453495
0
LINE
8
DEFAULT_255_1_388
10
4.3353355
20
45.453495
11
3.998306
21
45.3297066
0
LINE
8
DEFAULT_255_1_388
10
3.998306
20
45.3297066
11
3.998306
21
45.4815055
0
LINE
8
DEFAULT_255_1_388
10
3.998306
20
45.4815055
11
4.4771951
21
45.6613148
0
LINE
8
DEFAULT_255_1_388
10
4.4771951
20
45.6613148
11
4.5033985
21
45.6613148
0
LINE
8
DEFAULT_255_1_388
10
5.8551309
20
44.4758382
11
5.8551309
21
44.3394
0
LINE
8
DEFAULT_255_1_388
10
5.8551309
20
44.3394
11
4.9931304
21
44.3394
0
LINE
8
DEFAULT_255_1_388
10
4.9931304
20
44.3394
11
4.9931304
21
44.4595741
0
LINE
8
DEFAULT_255_1_388
10
4.9931304
20
44.4595741
11
5.4485269
21
44.9655702
0
LINE
8
DEFAULT_255_1_388
10
5.13499
20
45.2673607
11
4.9678306
21
45.2673607
0
LINE
8
DEFAULT_255_1_388
10
5.5470154
20
44.858046
11
5.1946253
21
44.4758382
0
LINE
8
DEFAULT_255_1_388
10
5.1946253
20
44.4758382
11
5.8551309
21
44.4758382
0
ARC
8
DEFAULT_255_1_388
10
3.9309329
20
46.3075983
40
2.0258655
50
318.5132526
51
320.7829045
0
ARC
8
DEFAULT_255_1_388
10
4.5257286
20
45.8234929
40
1.2589638
50
320.7372878
51
323.9739031
0
ARC
8
DEFAULT_255_1_388
10
4.9666217
20
45.5040554
40
0.7145141
50
323.8962701
51
328.64194
0
ARC
8
DEFAULT_255_1_388
10
5.1968475
20
45.3620545
40
0.4440242
50
328.8294576
51
331.7891185
0
ARC
8
DEFAULT_255_1_388
10
5.3090795
20
45.3041374
40
0.3177517
50
331.4254512
51
352.9365785
0
ARC
8
DEFAULT_255_1_388
10
5.3243795
20
45.300705
40
0.3021496
50
353.2257659
51
0.0166158
0
ARC
8
DEFAULT_255_1_388
10
5.3480555
20
45.3032894
40
0.2784847
50
359.486299
51
15.9343185
0
ARC
8
DEFAULT_255_1_388
10
5.4050822
20
45.3186269
40
0.2194403
50
16.1712913
51
43.5286088
0
ARC
8
DEFAULT_255_1_388
10
5.4137767
20
45.3273191
40
0.2071504
50
43.4417391
51
83.1661095
0
ARC
8
DEFAULT_255_1_388
10
5.3986928
20
45.2444316
40
0.2912888
50
82.160179
51
90.1505708
0
ARC
8
DEFAULT_255_1_388
10
5.395141
20
45.1840279
40
0.3517025
50
89.5460741
51
102.5418361
0
ARC
8
DEFAULT_255_1_388
10
5.367813
20
45.2999933
40
0.2325748
50
102.1738499
51
129.206123
0
ARC
8
DEFAULT_255_1_388
10
5.3589583
20
45.3139664
40
0.2161591
50
129.72865
51
135.753947
0
ARC
8
DEFAULT_255_1_388
10
5.3726065
20
45.3030728
40
0.2335433
50
136.1757367
51
166.3673339
0
ARC
8
DEFAULT_255_1_388
10
5.4858754
20
45.2727148
40
0.3507873
50
165.9090694
51
178.8684636
0
ARC
8
DEFAULT_255_1_388
10
5.5834525
20
45.2674263
40
0.4484624
50
178.4391136
51
180.0083808
0
ARC
8
DEFAULT_255_1_388
10
5.4255227
20
45.2718197
40
0.4577138
50
163.2878482
51
180.5581842
0
ARC
8
DEFAULT_255_1_388
10
5.3353268
20
45.2966393
40
0.3641968
50
133.4540601
51
162.947111
0
ARC
8
DEFAULT_255_1_388
10
5.3554149
20
45.2752789
40
0.3935189
50
100.7869829
51
133.4382499
0
ARC
8
DEFAULT_255_1_388
10
5.3945394
20
45.1010399
40
0.5720313
50
89.660664
51
101.3702276
0
ARC
8
DEFAULT_255_1_388
10
5.4020003
20
45.1079263
40
0.5651495
50
78.2172678
51
90.412935
0
ARC
8
DEFAULT_255_1_388
10
5.4419469
20
45.2906511
40
0.378122
50
55.9269121
51
78.4888449
0
ARC
8
DEFAULT_255_1_388
10
5.4640184
20
45.3287187
40
0.3342379
50
47.929771
51
55.4049217
0
ARC
8
DEFAULT_255_1_388
10
5.4754715
20
45.3403618
40
0.3179217
50
4.334829
51
48.0560205
0
ARC
8
DEFAULT_255_1_388
10
5.3522516
20
45.3212487
40
0.442341
50
359.9251713
51
5.5971671
0
ARC
8
DEFAULT_255_1_388
10
5.4004671
20
45.3275728
40
0.3941854
50
337.8914027
51
358.9967534
0
ARC
8
DEFAULT_255_1_388
10
5.0952241
20
45.4453295
40
0.7213271
50
326.9132501
51
338.3508308
0
ARC
8
DEFAULT_255_1_388
10
4.6468353
20
45.7327105
40
1.2538973
50
319.6471833
51
327.0959558
0
ARC
8
DEFAULT_255_1_388
10
4.2155011
20
46.088505
40
1.8129975
50
317.2588228
51
319.9045804
0
LINE
8
DEFAULT_255_1_388
10
4.4959985
20
53.5988148
11
4.4959985
21
52.2769
0
LINE
8
DEFAULT_255_1_388
10
4.4959985
20
52.2769
11
4.3279355
21
52.2769
0
LINE
8
DEFAULT_255_1_388
10
4.3279355
20
52.2769
11
4.3279355
21
53.390995
0
LINE
8
DEFAULT_255_1_388
10
4.3279355
20
53.390995
11
3.990906
21
53.2672066
0
LINE
8
DEFAULT_255_1_388
10
3.990906
20
53.2672066
11
3.990906
21
53.4190055
0
LINE
8
DEFAULT_255_1_388
10
3.990906
20
53.4190055
11
4.4697951
21
53.5988148
0
LINE
8
DEFAULT_255_1_388
10
4.4697951
20
53.5988148
11
4.4959985
21
53.5988148
0
LINE
8
DEFAULT_255_1_388
10
5.5350976
20
53.5988148
11
5.5350976
21
52.2769
0
LINE
8
DEFAULT_255_1_388
10
5.5350976
20
52.2769
11
5.3670346
21
52.2769
0
LINE
8
DEFAULT_255_1_388
10
5.3670346
20
52.2769
11
5.3670346
21
53.390995
0
LINE
8
DEFAULT_255_1_388
10
5.3670346
20
53.390995
11
5.0300051
21
53.2672066
0
LINE
8
DEFAULT_255_1_388
10
5.0300051
20
53.2672066
11
5.0300051
21
53.4190055
0
LINE
8
DEFAULT_255_1_388
10
5.0300051
20
53.4190055
11
5.5088942
21
53.5988148
0
LINE
8
DEFAULT_255_1_388
10
5.5088942
20
53.5988148
11
5.5350976
21
53.5988148
0
LINE
8
DEFAULT_255_1_388
10
4.5033985
20
61.5363148
11
4.5033985
21
60.2144
0
LINE
8
DEFAULT_255_1_388
10
4.5033985
20
60.2144
11
4.3353355
21
60.2144
0
LINE
8
DEFAULT_255_1_388
10
4.3353355
20
60.2144
11
4.3353355
21
61.328495
0
LINE
8
DEFAULT_255_1_388
10
4.3353355
20
61.328495
11
3.998306
21
61.2047066
0
LINE
8
DEFAULT_255_1_388
10
3.998306
20
61.2047066
11
3.998306
21
61.3565055
0
LINE
8
DEFAULT_255_1_388
10
3.998306
20
61.3565055
11
4.4771951
21
61.5363148
0
LINE
8
DEFAULT_255_1_388
10
4.4771951
20
61.5363148
11
4.5033985
21
61.5363148
0
LINE
8
DEFAULT_255_1_388
10
5.8180848
20
60.992369
11
5.8180848
21
60.7755135
0
LINE
8
DEFAULT_255_1_388
10
4.987709
20
60.7529244
11
4.987709
21
60.9761048
0
LINE
8
DEFAULT_255_1_388
10
5.6509253
20
60.7303353
11
5.6509253
21
61.0041153
0
LINE
8
DEFAULT_255_1_388
10
5.1548685
20
61.0167652
11
5.1548685
21
60.7493102
0
ARC
8
DEFAULT_255_1_388
10
4.4403182
20
60.7700118
40
1.3777776
50
353.8440855
51
0.2287917
0
ARC
8
DEFAULT_255_1_388
10
4.9622199
20
60.7117414
40
0.852639
50
344.4934746
51
353.9763743
0
ARC
8
DEFAULT_255_1_388
10
5.2989006
20
60.6160191
40
0.5026273
50
329.2803599
51
344.7473406
0
ARC
8
DEFAULT_255_1_388
10
5.4104502
20
60.5548038
40
0.3754848
50
324.9361395
51
328.6153007
0
ARC
8
DEFAULT_255_1_388
10
5.4530152
20
60.5250586
40
0.3235566
50
280.5801797
51
324.9173226
0
ARC
8
DEFAULT_255_1_388
10
5.407878
20
60.7130236
40
0.5167077
50
269.5979457
51
281.6732777
0
ARC
8
DEFAULT_255_1_388
10
5.3997684
20
60.6995113
40
0.5032026
50
256.6228565
51
270.5105488
0
ARC
8
DEFAULT_255_1_388
10
5.3545427
20
60.5253345
40
0.3233092
50
215.8618351
51
257.2787793
0
ARC
8
DEFAULT_255_1_388
10
5.4694134
20
60.6024106
40
0.4615831
50
197.9695203
51
215.2622745
0
ARC
8
DEFAULT_255_1_388
10
5.7489809
20
60.6967641
40
0.7566307
50
187.8816486
51
198.2346584
0
ARC
8
DEFAULT_255_1_388
10
6.1943048
20
60.7610453
40
1.2065653
50
180.8977266
51
188.0054894
0
ARC
8
DEFAULT_255_1_388
10
6.4993261
20
60.77254
40
1.5117443
50
180.7434591
51
181.152202
0
ARC
8
DEFAULT_255_1_388
10
6.3318257
20
60.9815371
40
1.3441277
50
173.7674302
51
180.2315596
0
ARC
8
DEFAULT_255_1_388
10
5.8236126
20
61.0389779
40
0.8326847
50
164.3058537
51
173.9000553
0
ARC
8
DEFAULT_255_1_388
10
5.4960126
20
61.1333652
40
0.4917711
50
148.7922028
51
164.5682288
0
ARC
8
DEFAULT_255_1_388
10
5.3890864
20
61.1930457
40
0.3694204
50
144.5883979
51
148.1161588
0
ARC
8
DEFAULT_255_1_388
10
5.3503609
20
61.2200667
40
0.322202
50
101.6440149
51
144.5142619
0
ARC
8
DEFAULT_255_1_388
10
5.3981801
20
61.0300337
40
0.5180451
50
89.528284
51
102.5820197
0
ARC
8
DEFAULT_255_1_388
10
5.4070793
20
61.0256376
40
0.5224441
50
77.0437914
51
90.508231
0
ARC
8
DEFAULT_255_1_388
10
5.4523047
20
61.2104272
40
0.3322297
50
48.2777708
51
77.4996087
0
ARC
8
DEFAULT_255_1_388
10
5.4604787
20
61.2249557
40
0.315966
50
36.3141586
51
47.6307332
0
ARC
8
DEFAULT_255_1_388
10
5.3627509
20
61.1591159
40
0.4337313
50
18.2931065
51
35.6770203
0
ARC
8
DEFAULT_255_1_388
10
5.076635
20
61.0609107
40
0.7362203
50
8.0246996
51
18.5605636
0
ARC
8
DEFAULT_255_1_388
10
4.6082705
20
60.9917432
40
1.2096583
50
1.127539
51
8.1718423
0
ARC
8
DEFAULT_255_1_388
10
4.2433839
20
60.9774374
40
1.5747719
50
0.5432713
51
1.38669
0
ARC
8
DEFAULT_255_1_388
10
4.4491217
20
61.0081163
40
1.2018103
50
359.8092569
51
4.9408001
0
ARC
8
DEFAULT_255_1_388
10
4.9227799
20
61.05039
40
0.7262727
50
4.8364937
51
12.2906017
0
ARC
8
DEFAULT_255_1_388
10
5.2327263
20
61.1194485
40
0.4087324
50
12.0806994
51
23.8171225
0
ARC
8
DEFAULT_255_1_388
10
5.3647659
20
61.1753508
40
0.2653719
50
24.2874621
51
31.3934353
0
ARC
8
DEFAULT_255_1_388
10
5.4238095
20
61.2139822
40
0.1948607
50
30.7407708
51
82.4658033
0
ARC
8
DEFAULT_255_1_388
10
5.4035756
20
61.1146017
40
0.2961198
50
81.1057101
51
90.2187368
0
ARC
8
DEFAULT_255_1_388
10
5.3995568
20
61.1436421
40
0.2670929
50
89.380395
51
105.6763916
0
ARC
8
DEFAULT_255_1_388
10
5.378929
20
61.218632
40
0.1893189
50
105.7980655
51
149.7387869
0
ARC
8
DEFAULT_255_1_388
10
5.498643
20
61.1466719
40
0.3289892
50
149.4208441
51
163.628295
0
ARC
8
DEFAULT_255_1_388
10
5.733866
20
61.0749345
40
0.5749004
50
163.3764549
51
172.141138
0
ARC
8
DEFAULT_255_1_388
10
6.1051381
20
61.0217582
40
0.9499585
50
172.0258462
51
178.0705453
0
ARC
8
DEFAULT_255_1_388
10
6.4472934
20
61.0055682
40
1.2924734
50
177.8639301
51
179.5036263
0
ARC
8
DEFAULT_255_1_388
10
6.3253953
20
60.7452151
40
1.170534
50
179.7995545
51
185.246089
0
ARC
8
DEFAULT_255_1_388
10
5.8705546
20
60.7021404
40
0.7136613
50
185.1411911
51
193.0082205
0
ARC
8
DEFAULT_255_1_388
10
5.5731806
20
60.6318441
40
0.4080987
50
192.7897338
51
205.2507384
0
ARC
8
DEFAULT_255_1_388
10
5.4554016
20
60.5792538
40
0.2791522
50
205.8001921
51
211.2545876
0
ARC
8
DEFAULT_255_1_388
10
5.3965555
20
60.5398132
40
0.2084074
50
210.3789935
51
238.4007996
0
ARC
8
DEFAULT_255_1_388
10
5.3943641
20
60.5450786
40
0.2117943
50
239.6521916
51
265.9793852
0
ARC
8
DEFAULT_255_1_388
10
5.403949
20
60.6207358
40
0.2879689
50
265.1324455
51
270.0603288
0
ARC
8
DEFAULT_255_1_388
10
5.4071867
20
60.5842418
40
0.2514919
50
269.3314378
51
287.2180039
0
ARC
8
DEFAULT_255_1_388
10
5.422695
20
60.5276291
40
0.1928357
50
287.7957942
51
329.0808983
0
ARC
8
DEFAULT_255_1_388
10
5.3149707
20
60.5948651
40
0.319808
50
328.6635261
51
343.3325043
0
ARC
8
DEFAULT_255_1_388
10
5.0705165
20
60.6710195
40
0.5758408
50
343.0498092
51
351.9392499
0
ARC
8
DEFAULT_255_1_388
10
4.6804487
20
60.7285205
40
0.9701202
50
351.8071632
51
357.7957897
0
ARC
8
DEFAULT_255_1_388
10
4.3169964
20
60.7473724
40
1.3340376
50
357.5870923
51
359.2682493
0
LINE
8
DEFAULT_255_1_388
10
4.7629215
20
68.9416153
11
4.7629215
21
68.8928229
0
LINE
8
DEFAULT_255_1_388
10
4.1530155
20
68.1509964
11
4.1204872
21
68.1509964
0
LINE
8
DEFAULT_255_1_388
10
4.1204872
20
68.1509964
11
4.1204872
21
68.2919525
0
LINE
8
DEFAULT_255_1_388
10
4.1204872
20
68.2919525
11
4.1557262
21
68.2919525
0
LINE
8
DEFAULT_255_1_388
10
4.5957621
20
68.909087
11
4.5957621
21
68.9759508
0
ARC
8
DEFAULT_255_1_388
10
4.2814713
20
68.9929877
40
0.4089973
50
297.4036461
51
320.0168133
0
ARC
8
DEFAULT_255_1_388
10
4.3140893
20
68.9303072
40
0.3383378
50
270.2631886
51
297.3852322
0
ARC
8
DEFAULT_255_1_388
10
4.3102569
20
68.9840343
40
0.3920983
50
269.9969069
51
270.7871389
0
ARC
8
DEFAULT_255_1_388
10
4.3073892
20
68.9822737
40
0.3903482
50
254.5997295
51
270.4178147
0
ARC
8
DEFAULT_255_1_388
10
4.2913424
20
68.9187693
40
0.3248657
50
236.4717231
51
254.3539376
0
ARC
8
DEFAULT_255_1_388
10
4.3089155
20
68.9423999
40
0.3542746
50
208.4727261
51
236.2134628
0
ARC
8
DEFAULT_255_1_388
10
4.3807919
20
68.9863676
40
0.4384402
50
204.3450776
51
209.0455365
0
ARC
8
DEFAULT_255_1_388
10
4.4572295
20
69.01878
40
0.5214459
50
183.9375459
51
204.1275509
0
ARC
8
DEFAULT_255_1_388
10
4.5594601
20
69.0297863
40
0.6242037
50
179.9652726
51
184.3010611
0
ARC
8
DEFAULT_255_1_388
10
4.5324146
20
69.0335004
40
0.5971675
50
166.7585952
51
180.3200491
0
ARC
8
DEFAULT_255_1_388
10
4.4371954
20
69.0541979
40
0.4997418
50
154.6954866
51
166.5679151
0
ARC
8
DEFAULT_255_1_388
10
4.3412194
20
69.1025411
40
0.3923208
50
136.3325251
51
155.0871367
0
ARC
8
DEFAULT_255_1_388
10
4.3096114
20
69.1296271
40
0.3507618
50
121.2365985
51
135.9680081
0
ARC
8
DEFAULT_255_1_388
10
4.3254178
20
69.1003541
40
0.3839917
50
96.8454764
51
120.9881329
0
ARC
8
DEFAULT_255_1_388
10
4.3417984
20
68.9950942
40
0.4904679
50
89.887204
51
97.2797758
0
ARC
8
DEFAULT_255_1_388
10
4.3476957
20
69.0668652
40
0.418725
50
70.6505767
51
90.6748382
0
ARC
8
DEFAULT_255_1_388
10
4.3624654
20
69.1246091
40
0.3593866
50
36.7493297
51
69.8220487
0
ARC
8
DEFAULT_255_1_388
10
4.2501001
20
69.0370446
40
0.5018201
50
15.3958155
51
37.0841102
0
ARC
8
DEFAULT_255_1_388
10
4.0105286
20
68.9672111
40
0.7513436
50
3.9487796
51
15.6798517
0
ARC
8
DEFAULT_255_1_388
10
3.7403928
20
68.942881
40
1.0225293
50
359.9290791
51
4.266464
0
ARC
8
DEFAULT_255_1_388
10
3.2222845
20
68.8853372
40
1.5406551
50
352.8365702
51
0.2783851
0
ARC
8
DEFAULT_255_1_388
10
3.8171076
20
68.8080664
40
0.9408425
50
341.8359339
51
352.9884057
0
ARC
8
DEFAULT_255_1_388
10
4.1792063
20
68.6860144
40
0.5587481
50
322.8579243
51
342.1527461
0
ARC
8
DEFAULT_255_1_388
10
4.2763755
20
68.619735
40
0.4413099
50
319.3348471
51
322.100194
0
ARC
8
DEFAULT_255_1_388
10
4.2415687
20
68.6546814
40
0.4904992
50
285.954114
51
318.8878716
0
ARC
8
DEFAULT_255_1_388
10
4.1598124
20
68.9145865
40
0.7628991
50
272.9280841
51
286.4924389
0
ARC
8
DEFAULT_255_1_388
10
4.1384428
20
69.168024
40
1.017132
50
270.8209173
51
273.4010121
0
ARC
8
DEFAULT_255_1_388
10
4.1484451
20
68.9632073
40
0.6712943
50
270.6214576
51
281.4062333
0
ARC
8
DEFAULT_255_1_388
10
4.1968176
20
68.731925
40
0.4350167
50
281.1852583
51
299.0622058
0
ARC
8
DEFAULT_255_1_388
10
4.2388421
20
68.6508138
40
0.3437146
50
299.5068171
51
313.1200142
0
ARC
8
DEFAULT_255_1_388
10
4.2413158
20
68.6418959
40
0.3355418
50
313.8525725
51
338.5989631
0
ARC
8
DEFAULT_255_1_388
10
4.0586286
20
68.7169576
40
0.5330317
50
338.2523315
51
351.2431701
0
ARC
8
DEFAULT_255_1_388
10
3.7874037
20
68.7630494
40
0.8081235
50
350.940933
51
357.6690137
0
ARC
8
DEFAULT_255_1_388
10
4.3375917
20
68.9883048
40
0.2581236
50
269.9447107
51
306.8249644
0
ARC
8
DEFAULT_255_1_388
10
4.3109219
20
69.035906
40
0.3122948
50
305.5071046
51
327.0773808
0
ARC
8
DEFAULT_255_1_388
10
4.3242271
20
69.0252445
40
0.2953369
50
327.4106457
51
336.8396801
0
ARC
8
DEFAULT_255_1_388
10
3.9761984
20
68.9795932
40
0.6195743
50
359.663158
51
10.1176387
0
ARC
8
DEFAULT_255_1_388
10
4.1734747
20
69.0160922
40
0.4189561
50
9.9431549
51
26.7699242
0
ARC
8
DEFAULT_255_1_388
10
4.2406733
20
69.0470796
40
0.3450125
50
27.2018067
51
34.6833639
0
ARC
8
DEFAULT_255_1_388
10
4.2957346
20
69.088456
40
0.2762035
50
34.124913
51
50.30709
0
ARC
8
DEFAULT_255_1_388
10
4.3459829
20
69.1485741
40
0.1978518
50
50.3850304
51
90.6705051
0
ARC
8
DEFAULT_255_1_388
10
4.3407223
20
69.1143074
40
0.2321235
50
89.2729817
51
111.9140267
0
ARC
8
DEFAULT_255_1_388
10
4.338531
20
69.1301308
40
0.2166604
50
112.9381864
51
142.5320936
0
ARC
8
DEFAULT_255_1_388
10
4.3999799
20
69.0802392
40
0.2957902
50
142.1024021
51
166.3835244
0
ARC
8
DEFAULT_255_1_388
10
4.5328769
20
69.0459213
40
0.4330361
50
166.1100968
51
178.6653563
0
ARC
8
DEFAULT_255_1_388
10
4.6510695
20
69.0393061
40
0.5513642
50
178.2641888
51
180.010994
0
ARC
8
DEFAULT_255_1_388
10
4.5605196
20
69.0361136
40
0.4608248
50
179.6162225
51
191.8786013
0
ARC
8
DEFAULT_255_1_388
10
4.4232506
20
69.005759
40
0.3202502
50
191.6192934
51
215.2970746
0
ARC
8
DEFAULT_255_1_388
10
4.3993161
20
68.9914963
40
0.2924827
50
215.7258926
51
216.5355437
0
ARC
8
DEFAULT_255_1_388
10
4.3404782
20
68.9441919
40
0.2170661
50
215.7486606
51
239.9728403
0
ARC
8
DEFAULT_255_1_388
10
4.3325947
20
68.9384838
40
0.208217
50
241.065081
51
269.280972
0
ARC
8
DEFAULT_255_1_388
10
4.3373106
20
68.9940327
40
0.2638514
50
268.4083352
51
270.0069622
0
ARC
8
DEFAULT_255_1_388
10
4.4345818
20
77.058772
40
0.3175098
50
338.8762533
51
0.5167111
0
ARC
8
DEFAULT_255_1_388
10
4.4535412
20
77.05366
40
0.2979894
50
325.8415285
51
338.4793574
0
ARC
8
DEFAULT_255_1_388
10
4.4096046
20
77.0841242
40
0.351452
50
296.7587686
51
325.7536481
0
ARC
8
DEFAULT_255_1_388
10
4.3767673
20
77.1395363
40
0.4157374
50
296.0927901
51
297.3613472
0
ARC
8
DEFAULT_255_1_388
10
4.4061869
20
76.4012593
40
0.395855
50
47.9007294
51
67.1948823
0
ARC
8
DEFAULT_255_1_388
10
4.4282511
20
76.4289599
40
0.360516
50
35.2363914
51
47.551141
0
ARC
8
DEFAULT_255_1_388
10
4.4576915
20
76.4486093
40
0.3251343
50
359.2759765
51
35.4014143
0
ARC
8
DEFAULT_255_1_388
10
4.3738841
20
76.4403787
40
0.4089365
50
343.1293083
51
0.5775513
0
ARC
8
DEFAULT_255_1_388
10
4.4553955
20
76.4179336
40
0.3244269
50
310.8496669
51
342.7449331
0
ARC
8
DEFAULT_255_1_388
10
4.4083829
20
76.4715913
40
0.3957651
50
281.5472888
51
310.9170406
0
ARC
8
DEFAULT_255_1_388
10
4.3682704
20
76.6462814
40
0.5749654
50
269.619248
51
281.9789564
0
ARC
8
DEFAULT_255_1_388
10
4.3601482
20
76.6463776
40
0.5750649
50
257.4585678
51
270.4285689
0
ARC
8
DEFAULT_255_1_388
10
4.3173002
20
76.4659741
40
0.389671
50
228.7554326
51
257.8484789
0
ARC
8
DEFAULT_255_1_388
10
4.2824487
20
76.4240228
40
0.335154
50
184.0104975
51
228.5071184
0
ARC
8
DEFAULT_255_1_388
10
4.413288
20
76.443943
40
0.4671891
50
179.9315832
51
185.3253753
0
ARC
8
DEFAULT_255_1_388
10
4.2809392
20
76.4481592
40
0.33486
50
145.6796023
51
180.6259786
0
ARC
8
DEFAULT_255_1_388
10
4.2993158
20
76.4353271
40
0.3572723
50
115.5537685
51
145.6415986
0
ARC
8
DEFAULT_255_1_388
10
4.3376202
20
76.3667087
40
0.4357296
50
113.243307
51
116.2057839
0
ARC
8
DEFAULT_255_1_388
10
4.3204854
20
77.0864379
40
0.3549126
50
222.9549744
51
244.1370481
0
ARC
8
DEFAULT_255_1_388
10
4.3067497
20
77.0710378
40
0.3343711
50
213.3436887
51
222.6274467
0
ARC
8
DEFAULT_255_1_388
10
4.2851566
20
77.0563653
40
0.3082678
50
180.431584
51
213.271499
0
ARC
8
DEFAULT_255_1_388
10
4.3486565
20
77.0616296
40
0.3718363
50
179.9991191
51
181.1690594
0
ARC
8
DEFAULT_255_1_388
10
4.3959021
20
77.0655072
40
0.4190996
50
164.6186169
51
180.529336
0
ARC
8
DEFAULT_255_1_388
10
4.294867
20
77.092678
40
0.3144772
50
132.2455553
51
164.5090724
0
ARC
8
DEFAULT_255_1_388
10
4.3271649
20
77.056107
40
0.3632644
50
100.7053914
51
132.1386381
0
ARC
8
DEFAULT_255_1_388
10
4.361471
20
76.9011118
40
0.5219578
50
89.6730358
51
101.2451698
0
ARC
8
DEFAULT_255_1_388
10
4.3684701
20
76.9207648
40
0.5023124
50
76.287748
51
90.4586006
0
ARC
8
DEFAULT_255_1_388
10
4.4029203
20
77.0582671
40
0.3605639
50
47.8240511
51
76.4266241
0
ARC
8
DEFAULT_255_1_388
10
4.4279587
20
77.0875599
40
0.3220463
50
6.9168387
51
47.6262497
0
ARC
8
DEFAULT_255_1_388
10
4.294504
20
77.0629004
40
0.4575765
50
359.8415968
51
7.9697453
0
ARC
8
DEFAULT_255_1_388
10
4.332931
20
76.4508519
40
0.2827228
50
359.445363
51
16.9256873
0
ARC
8
DEFAULT_255_1_388
10
4.3856744
20
76.4653781
40
0.2280396
50
17.2920767
51
45.4630727
0
ARC
8
DEFAULT_255_1_388
10
4.3795879
20
76.4601324
40
0.2360485
50
45.30305
51
83.1920945
0
ARC
8
DEFAULT_255_1_388
10
4.3634624
20
76.3699473
40
0.3275527
50
82.2612665
51
90.1434275
0
ARC
8
DEFAULT_255_1_388
10
4.35999
20
76.3961869
40
0.3013237
50
89.4956434
51
104.8580688
0
ARC
8
DEFAULT_255_1_388
10
4.340109
20
76.4715455
40
0.2233867
50
104.8856641
51
135.244616
0
ARC
8
DEFAULT_255_1_388
10
4.3457079
20
76.4665352
40
0.2308906
50
135.3399546
51
172.1044062
0
ARC
8
DEFAULT_255_1_388
10
4.4364603
20
76.4491667
40
0.3232034
50
171.2645637
51
180.186429
0
ARC
8
DEFAULT_255_1_388
10
4.4174608
20
76.4455426
40
0.304213
50
179.5154935
51
193.6464289
0
ARC
8
DEFAULT_255_1_388
10
4.3256284
20
76.4221473
40
0.209456
50
193.3540274
51
225.8258581
0
ARC
8
DEFAULT_255_1_388
10
4.3302156
20
76.4301076
40
0.2183738
50
226.4180634
51
255.8552336
0
ARC
8
DEFAULT_255_1_388
10
4.3590623
20
76.5354521
40
0.3275812
50
255.4654104
51
268.7987425
0
ARC
8
DEFAULT_255_1_388
10
4.3643799
20
76.6296545
40
0.4218877
50
268.3449238
51
270.0094605
0
ARC
8
DEFAULT_255_1_388
10
4.3670032
20
76.5528094
40
0.3450519
50
269.5759586
51
282.0820163
0
ARC
8
DEFAULT_255_1_388
10
4.3923069
20
76.4409363
40
0.2303642
50
281.752014
51
306.6056188
0
ARC
8
DEFAULT_255_1_388
10
4.4033877
20
76.4227802
40
0.2091906
50
307.1346085
51
314.027845
0
ARC
8
DEFAULT_255_1_388
10
4.3993389
20
76.4257459
40
0.2141385
50
314.2552483
51
350.1694025
0
ARC
8
DEFAULT_255_1_388
10
4.3035626
20
76.4465175
40
0.312082
50
349.4140529
51
0.2933014
0
ARC
8
DEFAULT_255_1_388
10
4.3620903
20
77.0268924
40
0.2588377
50
89.477747
51
105.729729
0
ARC
8
DEFAULT_255_1_388
10
4.3467823
20
77.0837367
40
0.1999733
50
105.9233417
51
135.1660906
0
ARC
8
DEFAULT_255_1_388
10
4.3490854
20
77.0821412
40
0.2027322
50
135.3052302
51
168.9883645
0
ARC
8
DEFAULT_255_1_388
10
4.442187
20
77.0607996
40
0.2982129
50
168.3801673
51
180.3602268
0
ARC
8
DEFAULT_255_1_388
10
4.4164987
20
77.0565622
40
0.2725291
50
179.5033122
51
194.9125571
0
ARC
8
DEFAULT_255_1_388
10
4.3506394
20
77.0392427
40
0.204431
50
194.9720816
51
224.194444
0
ARC
8
DEFAULT_255_1_388
10
4.3474759
20
77.0366635
40
0.2003651
50
224.2962453
51
262.015664
0
ARC
8
DEFAULT_255_1_388
10
4.3634763
20
77.1189315
40
0.2840925
50
261.1245923
51
270.1962896
0
ARC
8
DEFAULT_255_1_388
10
4.3668244
20
77.0978859
40
0.2630559
50
269.4827276
51
285.0987215
0
ARC
8
DEFAULT_255_1_388
10
4.384168
20
77.0328175
40
0.1957162
50
285.1585357
51
315.9484501
0
ARC
8
DEFAULT_255_1_388
10
4.3741554
20
77.0420315
40
0.2093195
50
316.0413965
51
351.916092
0
ARC
8
DEFAULT_255_1_388
10
4.2916928
20
77.0579323
40
0.2932279
50
351.105835
51
0.1939062
0
ARC
8
DEFAULT_255_1_388
10
4.3212562
20
77.0613224
40
0.2636739
50
359.4789618
51
16.0678224
0
ARC
8
DEFAULT_255_1_388
10
4.3748034
20
77.0757721
40
0.2082215
50
16.3252067
51
44.7913869
0
ARC
8
DEFAULT_255_1_388
10
4.3728096
20
77.075832
40
0.2095992
50
44.3957814
51
88.2499162
0
ARC
8
DEFAULT_255_1_388
10
4.3645431
20
77.0070006
40
0.2787189
50
86.9833854
51
90.0192215
0
LINE
8
DEFAULT_255_1_388
10
4.8035819
20
85.3424898
11
4.8035819
21
85.2485191
0
LINE
8
DEFAULT_255_1_388
10
4.8035819
20
85.2485191
11
4.2587325
21
84.0269
0
LINE
8
DEFAULT_255_1_388
10
4.2587325
20
84.0269
11
4.083441
21
84.0269
0
LINE
8
DEFAULT_255_1_388
10
4.083441
20
84.0269
11
4.6264833
21
85.205148
0
LINE
8
DEFAULT_255_1_388
10
4.6264833
20
85.205148
11
3.9144745
21
85.205148
0
LINE
8
DEFAULT_255_1_388
10
3.9144745
20
85.205148
11
3.9144745
21
85.3424898
0
LINE
8
DEFAULT_255_1_388
10
3.9144745
20
85.3424898
11
4.8035819
21
85.3424898
0
LINE
8
DEFAULT_255_1_388
10
4.5804015
20
93.2808934
11
4.6102191
21
93.2808934
0
LINE
8
DEFAULT_255_1_388
10
4.6102191
20
93.2808934
11
4.6102191
21
93.1390338
0
LINE
8
DEFAULT_255_1_388
10
4.6102191
20
93.1390338
11
4.5794979
21
93.1390338
0
LINE
8
DEFAULT_255_1_388
10
3.9641705
20
92.4649747
11
3.9641705
21
92.5291278
0
LINE
8
DEFAULT_255_1_388
10
4.1322335
20
92.5074422
11
4.1322335
21
92.4459999
0
ARC
8
DEFAULT_255_1_388
10
4.5853871
20
92.5767826
40
0.562282
50
90.6001079
51
104.5146616
0
ARC
8
DEFAULT_255_1_388
10
4.541683
20
92.73931
40
0.3939917
50
104.2855758
51
133.8630124
0
ARC
8
DEFAULT_255_1_388
10
4.5601083
20
92.7271243
40
0.4155734
50
134.5304124
51
161.6210222
0
ARC
8
DEFAULT_255_1_388
10
4.7461015
20
92.6615421
40
0.6127682
50
161.2850533
51
174.2074364
0
ARC
8
DEFAULT_255_1_388
10
4.9050582
20
92.6396437
40
0.7731446
50
173.7817938
51
174.9251711
0
ARC
8
DEFAULT_255_1_388
10
4.3924775
20
92.484127
40
0.3412588
50
95.8332067
51
138.995412
0
ARC
8
DEFAULT_255_1_388
10
4.4176056
20
92.3402695
40
0.4870358
50
89.8755506
51
97.0540979
0
ARC
8
DEFAULT_255_1_388
10
4.4229445
20
92.4342841
40
0.3930432
50
71.6407016
51
90.6240821
0
ARC
8
DEFAULT_255_1_388
10
4.4398838
20
92.4966433
40
0.3285421
50
39.6368051
51
71.0190743
0
ARC
8
DEFAULT_255_1_388
10
4.3682746
20
92.4347586
40
0.4231706
50
10.6588054
51
39.9044509
0
ARC
8
DEFAULT_255_1_388
10
4.1941291
20
92.3969223
40
0.60133
50
359.6827842
51
11.1326896
0
ARC
8
DEFAULT_255_1_388
10
4.1896627
20
92.3889715
40
0.6058047
50
347.2485908
51
0.4371098
0
ARC
8
DEFAULT_255_1_388
10
4.3772413
20
92.3438379
40
0.4128987
50
318.1408565
51
347.6118497
0
ARC
8
DEFAULT_255_1_388
10
4.4138009
20
92.3137903
40
0.3656244
50
275.6342406
51
317.824739
0
ARC
8
DEFAULT_255_1_388
10
4.388953
20
92.4599827
40
0.513655
50
269.8872513
51
276.7916069
0
ARC
8
DEFAULT_255_1_388
10
4.3827723
20
92.3446181
40
0.398323
50
246.9139443
51
270.7436787
0
ARC
8
DEFAULT_255_1_388
10
4.3834919
20
92.3286044
40
0.3839368
50
218.1665534
51
245.8780431
0
ARC
8
DEFAULT_255_1_388
10
4.4824291
20
92.4113903
40
0.5128958
50
191.4115343
51
218.6077624
0
ARC
8
DEFAULT_255_1_388
10
4.7004607
20
92.4602777
40
0.7363054
50
179.6344971
51
191.7836758
0
ARC
8
DEFAULT_255_1_388
10
5.3284482
20
92.5366495
40
1.3642984
50
171.4523743
51
180.3158856
0
ARC
8
DEFAULT_255_1_388
10
4.8340209
20
92.6135895
40
0.8639311
50
157.9802296
51
171.6246761
0
ARC
8
DEFAULT_255_1_388
10
4.5849559
20
92.7129038
40
0.5958004
50
141.4299236
51
157.8541251
0
ARC
8
DEFAULT_255_1_388
10
4.5127643
20
92.7639746
40
0.5075416
50
102.871586
51
140.8564533
0
ARC
8
DEFAULT_255_1_388
10
4.5856195
20
92.4894943
40
0.7914163
50
90.377773
51
103.5868422
0
ARC
8
DEFAULT_255_1_388
10
4.3900717
20
92.4214543
40
0.2667015
50
89.8751238
51
126.2072139
0
ARC
8
DEFAULT_255_1_388
10
4.3952188
20
92.4040847
40
0.2838229
50
124.9742447
51
144.8960197
0
ARC
8
DEFAULT_255_1_388
10
4.3754433
20
92.4201981
40
0.2583845
50
145.2974778
51
160.2660922
0
ARC
8
DEFAULT_255_1_388
10
4.7210921
20
92.4424151
40
0.5888695
50
179.6512124
51
190.285571
0
ARC
8
DEFAULT_255_1_388
10
4.5305401
20
92.4064968
40
0.3949683
50
190.0944895
51
207.5099647
0
ARC
8
DEFAULT_255_1_388
10
4.4668982
20
92.3762177
40
0.3245464
50
207.9585471
51
216.325377
0
ARC
8
DEFAULT_255_1_388
10
4.4286619
20
92.3447712
40
0.2751259
50
215.7661336
51
232.5457193
0
ARC
8
DEFAULT_255_1_388
10
4.3855735
20
92.2900273
40
0.2054668
50
232.8005815
51
270.6605497
0
ARC
8
DEFAULT_255_1_388
10
4.390716
20
92.3309853
40
0.2464268
50
269.3550767
51
288.474612
0
ARC
8
DEFAULT_255_1_388
10
4.4011667
20
92.2916721
40
0.2058436
50
289.1831976
51
322.9685307
0
ARC
8
DEFAULT_255_1_388
10
4.3323768
20
92.3459279
40
0.2934408
50
322.6007085
51
346.5183319
0
ARC
8
DEFAULT_255_1_388
10
4.2021524
20
92.3791434
40
0.4278249
50
346.2584622
51
358.7739592
0
ARC
8
DEFAULT_255_1_388
10
4.08701
20
92.3853829
40
0.5430876
50
358.3757628
51
0.0082477
0
ARC
8
DEFAULT_255_1_388
10
4.1726918
20
92.3884856
40
0.4574157
50
359.6211417
51
11.28403
0
ARC
8
DEFAULT_255_1_388
10
4.3163524
20
92.4184535
40
0.3106708
50
11.0483152
51
31.8145585
0
ARC
8
DEFAULT_255_1_388
10
4.3511229
20
92.4373045
40
0.2711963
50
32.3028554
51
38.0820598
0
ARC
8
DEFAULT_255_1_388
10
4.3984462
20
92.4801717
40
0.2075566
50
36.8249851
51
85.741667
0
ARC
8
DEFAULT_255_1_388
10
4.3908875
20
92.4238065
40
0.2643487
50
85.0150021
51
90.050843
0
LINE
8
DEFAULT_255_1_388
10
4.1647618
20
100.5271666
11
4.0310343
21
100.5615021
0
LINE
8
DEFAULT_255_1_388
10
4.0310343
20
100.5615021
11
4.097898
21
101.2174898
0
LINE
8
DEFAULT_255_1_388
10
4.097898
20
101.2174898
11
4.7719571
21
101.2174898
0
LINE
8
DEFAULT_255_1_388
10
4.7719571
20
101.2174898
11
4.7719571
21
101.0629803
0
LINE
8
DEFAULT_255_1_388
10
4.7719571
20
101.0629803
11
4.2397577
21
101.0629803
0
LINE
8
DEFAULT_255_1_388
10
4.2397577
20
101.0629803
11
4.2000008
21
100.7042652
0
LINE
8
DEFAULT_255_1_388
10
3.9840489
20
100.2479652
11
4.1421727
21
100.2479652
0
LINE
8
DEFAULT_255_1_388
10
4.2090365
20
100.5633092
11
4.1647618
21
100.5271666
0
ARC
8
DEFAULT_255_1_388
10
4.4086622
20
100.3465241
40
0.4141476
50
93.7181681
51
120.253934
0
ARC
8
DEFAULT_255_1_388
10
4.4192674
20
100.2556284
40
0.5055616
50
89.9660471
51
94.2495185
0
ARC
8
DEFAULT_255_1_388
10
4.4238496
20
100.3219154
40
0.4392953
50
73.8045384
51
90.5585736
0
ARC
8
DEFAULT_255_1_388
10
4.4502754
20
100.418452
40
0.3392225
50
41.3071072
51
73.543002
0
ARC
8
DEFAULT_255_1_388
10
4.4034574
20
100.3781461
40
0.4009977
50
13.5075837
51
41.2174839
0
ARC
8
DEFAULT_255_1_388
10
4.2187671
20
100.3297907
40
0.5918864
50
1.1330171
51
13.8830737
0
ARC
8
DEFAULT_255_1_388
10
4.0591317
20
100.3212522
40
0.7516787
50
359.9925091
51
1.5431298
0
ARC
8
DEFAULT_255_1_388
10
4.2035932
20
100.3166027
40
0.6072343
50
347.8572712
51
0.4294349
0
ARC
8
DEFAULT_255_1_388
10
4.4005066
20
100.2719898
40
0.4053482
50
323.6727442
51
348.1674594
0
ARC
8
DEFAULT_255_1_388
10
4.4336031
20
100.2518175
40
0.3667495
50
316.8171818
51
323.1486802
0
ARC
8
DEFAULT_255_1_388
10
4.4405155
20
100.2476612
40
0.358869
50
281.839603
51
316.5458142
0
ARC
8
DEFAULT_255_1_388
10
4.3982442
20
100.4226363
40
0.5388223
50
269.5770964
51
282.4214641
0
ARC
8
DEFAULT_255_1_388
10
4.3902363
20
100.398593
40
0.5147801
50
256.2425863
51
270.4486481
0
ARC
8
DEFAULT_255_1_388
10
4.3565891
20
100.2636124
40
0.3756708
50
228.9024379
51
256.33135
0
ARC
8
DEFAULT_255_1_388
10
4.3482871
20
100.2505054
40
0.360344
50
193.7536029
51
228.5272638
0
ARC
8
DEFAULT_255_1_388
10
4.4875436
20
100.2913463
40
0.5053599
50
184.9244437
51
194.4976052
0
ARC
8
DEFAULT_255_1_388
10
4.5092077
20
100.2953722
40
0.3700839
50
187.3596909
51
198.6733728
0
ARC
8
DEFAULT_255_1_388
10
4.3911321
20
100.2544373
40
0.2451195
50
198.4453795
51
217.7945479
0
ARC
8
DEFAULT_255_1_388
10
4.3578493
20
100.2308563
40
0.2043754
50
218.2887146
51
228.5613203
0
ARC
8
DEFAULT_255_1_388
10
4.36885
20
100.2456902
40
0.2227819
50
228.9652423
51
258.1237049
0
ARC
8
DEFAULT_255_1_388
10
4.3919937
20
100.3447964
40
0.3245374
50
257.7260585
51
270.4013717
0
ARC
8
DEFAULT_255_1_388
10
4.3970435
20
100.2947255
40
0.2744726
50
269.4204315
51
286.420998
0
ARC
8
DEFAULT_255_1_388
10
4.4137491
20
100.2340705
40
0.2115721
50
286.7250065
51
320.6004665
0
ARC
8
DEFAULT_255_1_388
10
4.3706407
20
100.2690527
40
0.2670878
50
320.6712228
51
344.5440474
0
ARC
8
DEFAULT_255_1_388
10
4.240512
20
100.3072394
40
0.4026927
50
344.241448
51
356.735803
0
ARC
8
DEFAULT_255_1_388
10
4.1001428
20
100.3188656
40
0.5435085
50
356.3547471
51
0.0507222
0
ARC
8
DEFAULT_255_1_388
10
4.2503693
20
100.3223812
40
0.3932934
50
359.5579289
51
12.9534322
0
ARC
8
DEFAULT_255_1_388
10
4.3690533
20
100.3511586
40
0.2711827
50
12.6489751
51
41.608121
0
ARC
8
DEFAULT_255_1_388
10
4.3949693
20
100.3731946
40
0.2371737
50
41.7851122
51
85.9892156
0
ARC
8
DEFAULT_255_1_388
10
4.3811003
20
100.2816738
40
0.3295244
50
84.6965848
51
90.0672125
0
ARC
8
DEFAULT_255_1_388
10
4.378457
20
100.2065118
40
0.4046926
50
89.6804991
51
99.161352
0
ARC
8
DEFAULT_255_1_388
10
4.3553579
20
100.3445848
40
0.2647044
50
98.9836248
51
113.8905702
0
ARC
8
DEFAULT_255_1_388
10
4.3295254
20
100.4055118
40
0.1985386
50
114.195234
51
127.3641866
0
LINE
8
DEFAULT_255_1_388
10
4.9245151
20
109.1549898
11
4.9245151
21
108.281243
0
LINE
8
DEFAULT_255_1_388
10
4.9245151
20
108.281243
11
5.1070352
21
108.281243
0
LINE
8
DEFAULT_255_1_388
10
5.1070352
20
108.281243
11
5.1070352
21
108.1448048
0
LINE
8
DEFAULT_255_1_388
10
5.1070352
20
108.1448048
11
4.9245151
21
108.1448048
0
LINE
8
DEFAULT_255_1_388
10
4.9245151
20
108.1448048
11
4.9245151
21
107.8394
0
LINE
8
DEFAULT_255_1_388
10
4.9245151
20
107.8394
11
4.7564521
21
107.8394
0
LINE
8
DEFAULT_255_1_388
10
4.7564521
20
107.8394
11
4.7564521
21
108.1448048
0
LINE
8
DEFAULT_255_1_388
10
4.7564521
20
108.1448048
11
4.1573889
21
108.1448048
0
LINE
8
DEFAULT_255_1_388
10
4.1573889
20
108.1448048
11
4.1573889
21
108.2432933
0
LINE
8
DEFAULT_255_1_388
10
4.1573889
20
108.2432933
11
4.7465129
21
109.1549898
0
LINE
8
DEFAULT_255_1_388
10
4.7465129
20
109.1549898
11
4.9245151
21
109.1549898
0
LINE
8
DEFAULT_255_1_388
10
4.7365737
20
108.8902455
11
4.3471375
21
108.281243
0
LINE
8
DEFAULT_255_1_388
10
4.3471375
20
108.281243
11
4.7564521
21
108.281243
0
LINE
8
DEFAULT_255_1_388
10
4.7564521
20
108.281243
11
4.7564521
21
108.926388
0
LINE
8
DEFAULT_255_1_388
10
4.7564521
20
108.926388
11
4.7365737
21
108.8902455
0
LINE
8
DEFAULT_255_1_388
10
4.1972901
20
116.3795775
11
4.1972901
21
116.5160157
0
LINE
8
DEFAULT_255_1_388
10
4.1972901
20
116.5160157
11
4.3228856
21
116.5160157
0
LINE
8
DEFAULT_255_1_388
10
4.1087408
20
116.7473282
11
3.9415814
21
116.7473282
0
LINE
8
DEFAULT_255_1_388
10
3.9298351
20
116.1238688
11
4.097898
21
116.1238688
0
LINE
8
DEFAULT_255_1_388
10
4.3228856
20
116.3795775
11
4.1972901
21
116.3795775
0
ARC
8
DEFAULT_255_1_388
10
4.3196082
20
116.8976922
40
0.3816905
50
270.491971
51
281.8953028
0
ARC
8
DEFAULT_255_1_388
10
4.3467509
20
116.7737199
40
0.2547877
50
281.6690378
51
301.2943765
0
ARC
8
DEFAULT_255_1_388
10
4.3658961
20
116.7386926
40
0.2149197
50
301.7834992
51
311.754567
0
ARC
8
DEFAULT_255_1_388
10
4.3762002
20
116.727265
40
0.1995326
50
311.7325027
51
354.2803031
0
ARC
8
DEFAULT_255_1_388
10
4.2944418
20
116.741328
40
0.2823461
50
353.0941646
51
0.1174696
0
ARC
8
DEFAULT_255_1_388
10
4.2425976
20
116.7466874
40
0.3342238
50
359.1804452
51
15.0452323
0
ARC
8
DEFAULT_255_1_388
10
4.3940034
20
116.7908546
40
0.1765747
50
13.957816
51
77.6713812
0
ARC
8
DEFAULT_255_1_388
10
4.350527
20
116.6350464
40
0.3381982
50
76.111571
51
90.7028736
0
ARC
8
DEFAULT_255_1_388
10
4.3438682
20
116.665825
40
0.3074046
50
89.5321574
51
103.5319393
0
ARC
8
DEFAULT_255_1_388
10
4.3213066
20
116.7557443
40
0.2147041
50
103.2930114
51
133.5619756
0
ARC
8
DEFAULT_255_1_388
10
4.3163007
20
116.7624351
40
0.2064084
50
133.8349761
51
173.5343225
0
ARC
8
DEFAULT_255_1_388
10
4.3976665
20
116.7480144
40
0.2889266
50
172.5097183
51
180.1360699
0
ARC
8
DEFAULT_255_1_388
10
4.2906429
20
116.751888
40
0.3490913
50
155.3483706
51
180.7484035
0
ARC
8
DEFAULT_255_1_388
10
4.2851404
20
116.7486519
40
0.3454798
50
131.5745177
51
154.4799474
0
ARC
8
DEFAULT_255_1_388
10
4.3203687
20
116.7130422
40
0.3955058
50
96.9874487
51
131.9690874
0
ARC
8
DEFAULT_255_1_388
10
4.345058
20
116.5729407
40
0.537622
50
89.8592909
51
97.7827481
0
ARC
8
DEFAULT_255_1_388
10
4.3504689
20
116.543436
40
0.5671399
50
78.3654493
51
90.4132586
0
ARC
8
DEFAULT_255_1_388
10
4.390733
20
116.7300918
40
0.3762034
50
56.6229818
51
78.6387103
0
ARC
8
DEFAULT_255_1_388
10
4.4149159
20
116.7723846
40
0.3275964
50
47.0254604
51
56.085558
0
ARC
8
DEFAULT_255_1_388
10
4.417141
20
116.7768189
40
0.3228382
50
10.9207523
51
46.777927
0
ARC
8
DEFAULT_255_1_388
10
4.2637004
20
116.7413401
40
0.4802559
50
359.6364235
51
11.6087615
0
ARC
8
DEFAULT_255_1_388
10
4.470117
20
116.7396404
40
0.273833
50
332.3549969
51
359.7179765
0
ARC
8
DEFAULT_255_1_388
10
4.396957
20
116.7743285
40
0.3547505
50
325.2332381
51
332.8746682
0
ARC
8
DEFAULT_255_1_388
10
4.4141153
20
116.7623763
40
0.3338396
50
292.9803892
51
325.2391113
0
ARC
8
DEFAULT_255_1_388
10
4.3830349
20
116.8228679
40
0.4016959
50
292.542178
51
293.6931461
0
ARC
8
DEFAULT_255_1_388
10
4.4273921
20
116.0963036
40
0.372079
50
57.643292
51
72.8626085
0
ARC
8
DEFAULT_255_1_388
10
4.4672755
20
116.1609273
40
0.2961455
50
36.7246661
51
57.4701329
0
ARC
8
DEFAULT_255_1_388
10
4.4659912
20
116.162347
40
0.2963321
50
8.054535
51
36.3561529
0
ARC
8
DEFAULT_255_1_388
10
4.3689585
20
116.1449073
40
0.3948682
50
359.8316595
51
8.5873361
0
ARC
8
DEFAULT_255_1_388
10
4.3267059
20
116.139497
40
0.4371398
50
343.9831631
51
0.557075
0
ARC
8
DEFAULT_255_1_388
10
4.4264108
20
116.1121963
40
0.3337749
50
311.6358204
51
343.7652116
0
ARC
8
DEFAULT_255_1_388
10
4.3838362
20
116.1601955
40
0.3979351
50
279.7829743
51
311.625622
0
ARC
8
DEFAULT_255_1_388
10
4.3499497
20
116.3218642
40
0.5630417
50
269.7285092
51
280.3857694
0
ARC
8
DEFAULT_255_1_388
10
4.342981
20
116.3172241
40
0.5584119
50
256.6827433
51
270.4412869
0
ARC
8
DEFAULT_255_1_388
10
4.3048797
20
116.1614698
40
0.3980715
50
229.4223821
51
256.8554507
0
ARC
8
DEFAULT_255_1_388
10
4.258235
20
116.1089683
40
0.3278564
50
181.8183354
51
229.6455015
0
ARC
8
DEFAULT_255_1_388
10
4.375196
20
116.1236825
40
0.4453611
50
179.9760419
51
183.2330638
0
ARC
8
DEFAULT_255_1_388
10
4.3558512
20
116.1213781
40
0.2579652
50
179.4467996
51
196.2871626
0
ARC
8
DEFAULT_255_1_388
10
4.3009966
20
116.1063709
40
0.2011057
50
196.5661293
51
227.7059371
0
ARC
8
DEFAULT_255_1_388
10
4.3194573
20
116.1270155
40
0.2287994
50
227.7653015
51
257.8763321
0
ARC
8
DEFAULT_255_1_388
10
4.3447656
20
116.2330961
40
0.3378385
50
257.4583525
51
270.4267406
0
ARC
8
DEFAULT_255_1_388
10
4.3498906
20
116.265723
40
0.3704652
50
269.5965319
51
280.8788143
0
ARC
8
DEFAULT_255_1_388
10
4.3757134
20
116.1367529
40
0.2389415
50
280.6347277
51
299.8594068
0
ARC
8
DEFAULT_255_1_388
10
4.3971903
20
116.0959736
40
0.19289
50
300.3575552
51
314.5515667
0
ARC
8
DEFAULT_255_1_388
10
4.3878579
20
116.1028025
40
0.204312
50
315.0730962
51
345.0429362
0
ARC
8
DEFAULT_255_1_388
10
4.2840087
20
116.1330539
40
0.31246
50
344.598526
51
357.9270698
0
ARC
8
DEFAULT_255_1_388
10
4.1830391
20
116.1399705
40
0.4136265
50
357.4755098
51
0.0224936
0
ARC
8
DEFAULT_255_1_388
10
4.2983269
20
116.1427099
40
0.2983498
50
359.5051035
51
13.4236939
0
ARC
8
DEFAULT_255_1_388
10
4.3958359
20
116.1676637
40
0.1977186
50
12.9497905
51
48.7550905
0
ARC
8
DEFAULT_255_1_388
10
4.3753281
20
116.1396373
40
0.2323321
50
49.509109
51
72.1832965
0
ARC
8
DEFAULT_255_1_388
10
4.3350749
20
116.0201632
40
0.358397
50
71.9008458
51
84.3555134
0
ARC
8
DEFAULT_255_1_388
10
4.3169144
20
115.8669712
40
0.512641
50
84.019632
51
89.3326067
0
LINE
8
DEFAULT_255_1_388
10
4.8162318
20
123.8508382
11
4.8162318
21
123.7144
0
LINE
8
DEFAULT_255_1_388
10
4.8162318
20
123.7144
11
3.9542313
21
123.7144
0
LINE
8
DEFAULT_255_1_388
10
3.9542313
20
123.7144
11
3.9542313
21
123.8345741
0
LINE
8
DEFAULT_255_1_388
10
3.9542313
20
123.8345741
11
4.4096278
21
124.3405702
0
LINE
8
DEFAULT_255_1_388
10
4.0960909
20
124.6423607
11
3.9289315
21
124.6423607
0
LINE
8
DEFAULT_255_1_388
10
4.5081163
20
124.233046
11
4.1557262
21
123.8508382
0
LINE
8
DEFAULT_255_1_388
10
4.1557262
20
123.8508382
11
4.8162318
21
123.8508382
0
ARC
8
DEFAULT_255_1_388
10
2.8920337
20
125.6825983
40
2.0258655
50
318.5132526
51
320.7829045
0
ARC
8
DEFAULT_255_1_388
10
3.4868294
20
125.1984929
40
1.2589638
50
320.7372878
51
323.9739031
0
ARC
8
DEFAULT_255_1_388
10
3.9277226
20
124.8790554
40
0.7145141
50
323.8962701
51
328.64194
0
ARC
8
DEFAULT_255_1_388
10
4.1579484
20
124.7370545
40
0.4440242
50
328.8294576
51
331.7891185
0
ARC
8
DEFAULT_255_1_388
10
4.2701804
20
124.6791374
40
0.3177517
50
331.4254512
51
352.9365785
0
ARC
8
DEFAULT_255_1_388
10
4.2854804
20
124.675705
40
0.3021496
50
353.2257659
51
0.0166158
0
ARC
8
DEFAULT_255_1_388
10
4.3091564
20
124.6782894
40
0.2784847
50
359.486299
51
15.9343185
0
ARC
8
DEFAULT_255_1_388
10
4.3661831
20
124.6936269
40
0.2194403
50
16.1712913
51
43.5286088
0
ARC
8
DEFAULT_255_1_388
10
4.3748776
20
124.7023191
40
0.2071504
50
43.4417391
51
83.1661095
0
ARC
8
DEFAULT_255_1_388
10
4.3597937
20
124.6194316
40
0.2912888
50
82.160179
51
90.1505708
0
ARC
8
DEFAULT_255_1_388
10
4.3562418
20
124.5590279
40
0.3517025
50
89.5460741
51
102.5418361
0
ARC
8
DEFAULT_255_1_388
10
4.3289138
20
124.6749933
40
0.2325748
50
102.1738499
51
129.206123
0
ARC
8
DEFAULT_255_1_388
10
4.3200592
20
124.6889664
40
0.2161591
50
129.72865
51
135.753947
0
ARC
8
DEFAULT_255_1_388
10
4.3337074
20
124.6780728
40
0.2335433
50
136.1757367
51
166.3673339
0
ARC
8
DEFAULT_255_1_388
10
4.4469762
20
124.6477148
40
0.3507873
50
165.9090694
51
178.8684636
0
ARC
8
DEFAULT_255_1_388
10
4.5445534
20
124.6424263
40
0.4484624
50
178.4391136
51
180.0083808
0
ARC
8
DEFAULT_255_1_388
10
4.3866235
20
124.6468197
40
0.4577138
50
163.2878482
51
180.5581842
0
ARC
8
DEFAULT_255_1_388
10
4.2964276
20
124.6716393
40
0.3641968
50
133.4540601
51
162.947111
0
ARC
8
DEFAULT_255_1_388
10
4.3165158
20
124.6502789
40
0.3935189
50
100.7869829
51
133.4382499
0
ARC
8
DEFAULT_255_1_388
10
4.3556403
20
124.4760399
40
0.5720313
50
89.660664
51
101.3702276
0
ARC
8
DEFAULT_255_1_388
10
4.3631012
20
124.4829263
40
0.5651495
50
78.2172678
51
90.412935
0
ARC
8
DEFAULT_255_1_388
10
4.4030478
20
124.6656511
40
0.378122
50
55.9269121
51
78.4888449
0
ARC
8
DEFAULT_255_1_388
10
4.4251193
20
124.7037187
40
0.3342379
50
47.929771
51
55.4049217
0
ARC
8
DEFAULT_255_1_388
10
4.4365723
20
124.7153618
40
0.3179217
50
4.334829
51
48.0560205
0
ARC
8
DEFAULT_255_1_388
10
4.3133525
20
124.6962487
40
0.442341
50
359.9251713
51
5.5971671
0
ARC
8
DEFAULT_255_1_388
10
4.361568
20
124.7025728
40
0.3941854
50
337.8914027
51
358.9967534
0
ARC
8
DEFAULT_255_1_388
10
4.056325
20
124.8203295
40
0.7213271
50
326.9132501
51
338.3508308
0
ARC
8
DEFAULT_255_1_388
10
3.6079362
20
125.1077105
40
1.2538973
50
319.6471833
51
327.0959558
0
ARC
8
DEFAULT_255_1_388
10
3.176602
20
125.463505
40
1.8129975
50
317.2588228
51
319.9045804
0
LINE
8
DEFAULT_255_1_388
10
4.4952985
20
132.9738148
11
4.4952985
21
131.6519
0
LINE
8
DEFAULT_255_1_388
10
4.4952985
20
131.6519
11
4.3272355
21
131.6519
0
LINE
8
DEFAULT_255_1_388
10
4.3272355
20
131.6519
11
4.3272355
21
132.765995
0
LINE
8
DEFAULT_255_1_388
10
4.3272355
20
132.765995
11
3.990206
21
132.6422066
0
LINE
8
DEFAULT_255_1_388
10
3.990206
20
132.6422066
11
3.990206
21
132.7940055
0
LINE
8
DEFAULT_255_1_388
10
3.990206
20
132.7940055
11
4.4690951
21
132.9738148
0
LINE
8
DEFAULT_255_1_388
10
4.4690951
20
132.9738148
11
4.4952985
21
132.9738148
0
LINE
8
DEFAULT_255_1_388
10
4.7791856
20
140.367369
11
4.7791856
21
140.1505135
0
LINE
8
DEFAULT_255_1_388
10
3.9488099
20
140.1279244
11
3.9488099
21
140.3511048
0
LINE
8
DEFAULT_255_1_388
10
4.6120262
20
140.1053353
11
4.6120262
21
140.3791153
0
LINE
8
DEFAULT_255_1_388
10
4.1159693
20
140.3917652
11
4.1159693
21
140.1243102
0
ARC
8
DEFAULT_255_1_388
10
3.401419
20
140.1450118
40
1.3777776
50
353.8440855
51
0.2287917
0
ARC
8
DEFAULT_255_1_388
10
3.9233208
20
140.0867414
40
0.852639
50
344.4934746
51
353.9763743
0
ARC
8
DEFAULT_255_1_388
10
4.2600015
20
139.9910191
40
0.5026273
50
329.2803599
51
344.7473406
0
ARC
8
DEFAULT_255_1_388
10
4.3715511
20
139.9298038
40
0.3754848
50
324.9361395
51
328.6153007
0
ARC
8
DEFAULT_255_1_388
10
4.4141161
20
139.9000586
40
0.3235566
50
280.5801797
51
324.9173226
0
ARC
8
DEFAULT_255_1_388
10
4.3689789
20
140.0880236
40
0.5167077
50
269.5979457
51
281.6732777
0
ARC
8
DEFAULT_255_1_388
10
4.3608693
20
140.0745113
40
0.5032026
50
256.6228565
51
270.5105488
0
ARC
8
DEFAULT_255_1_388
10
4.3156435
20
139.9003345
40
0.3233092
50
215.8618351
51
257.2787793
0
ARC
8
DEFAULT_255_1_388
10
4.4305142
20
139.9774106
40
0.4615831
50
197.9695203
51
215.2622745
0
ARC
8
DEFAULT_255_1_388
10
4.7100818
20
140.0717641
40
0.7566307
50
187.8816486
51
198.2346584
0
ARC
8
DEFAULT_255_1_388
10
5.1554056
20
140.1360453
40
1.2065653
50
180.8977266
51
188.0054894
0
ARC
8
DEFAULT_255_1_388
10
5.460427
20
140.14754
40
1.5117443
50
180.7434591
51
181.152202
0
ARC
8
DEFAULT_255_1_388
10
5.2929266
20
140.3565371
40
1.3441277
50
173.7674302
51
180.2315596
0
ARC
8
DEFAULT_255_1_388
10
4.7847135
20
140.4139779
40
0.8326847
50
164.3058537
51
173.9000553
0
ARC
8
DEFAULT_255_1_388
10
4.4571135
20
140.5083652
40
0.4917711
50
148.7922028
51
164.5682288
0
ARC
8
DEFAULT_255_1_388
10
4.3501872
20
140.5680457
40
0.3694204
50
144.5883979
51
148.1161588
0
ARC
8
DEFAULT_255_1_388
10
4.3114618
20
140.5950667
40
0.322202
50
101.6440149
51
144.5142619
0
ARC
8
DEFAULT_255_1_388
10
4.359281
20
140.4050337
40
0.5180451
50
89.528284
51
102.5820197
0
ARC
8
DEFAULT_255_1_388
10
4.3681802
20
140.4006376
40
0.5224441
50
77.0437914
51
90.508231
0
ARC
8
DEFAULT_255_1_388
10
4.4134055
20
140.5854272
40
0.3322297
50
48.2777708
51
77.4996087
0
ARC
8
DEFAULT_255_1_388
10
4.4215795
20
140.5999557
40
0.315966
50
36.3141586
51
47.6307332
0
ARC
8
DEFAULT_255_1_388
10
4.3238518
20
140.5341159
40
0.4337313
50
18.2931065
51
35.6770203
0
ARC
8
DEFAULT_255_1_388
10
4.0377358
20
140.4359107
40
0.7362203
50
8.0246996
51
18.5605636
0
ARC
8
DEFAULT_255_1_388
10
3.5693714
20
140.3667432
40
1.2096583
50
1.127539
51
8.1718423
0
ARC
8
DEFAULT_255_1_388
10
3.2044847
20
140.3524374
40
1.5747719
50
0.5432713
51
1.38669
0
ARC
8
DEFAULT_255_1_388
10
3.4102226
20
140.3831163
40
1.2018103
50
359.8092569
51
4.9408001
0
ARC
8
DEFAULT_255_1_388
10
3.8838807
20
140.42539
40
0.7262727
50
4.8364937
51
12.2906017
0
ARC
8
DEFAULT_255_1_388
10
4.1938272
20
140.4944485
40
0.4087324
50
12.0806994
51
23.8171225
0
ARC
8
DEFAULT_255_1_388
10
4.3258668
20
140.5503508
40
0.2653719
50
24.2874621
51
31.3934353
0
ARC
8
DEFAULT_255_1_388
10
4.3849104
20
140.5889822
40
0.1948607
50
30.7407708
51
82.4658033
0
ARC
8
DEFAULT_255_1_388
10
4.3646765
20
140.4896017
40
0.2961198
50
81.1057101
51
90.2187368
0
ARC
8
DEFAULT_255_1_388
10
4.3606577
20
140.5186421
40
0.2670929
50
89.380395
51
105.6763916
0
ARC
8
DEFAULT_255_1_388
10
4.3400299
20
140.593632
40
0.1893189
50
105.7980655
51
149.7387869
0
ARC
8
DEFAULT_255_1_388
10
4.4597439
20
140.5216719
40
0.3289892
50
149.4208441
51
163.628295
0
ARC
8
DEFAULT_255_1_388
10
4.6949668
20
140.4499345
40
0.5749004
50
163.3764549
51
172.141138
0
ARC
8
DEFAULT_255_1_388
10
5.066239
20
140.3967582
40
0.9499585
50
172.0258462
51
178.0705453
0
ARC
8
DEFAULT_255_1_388
10
5.4083943
20
140.3805682
40
1.2924734
50
177.8639301
51
179.5036263
0
ARC
8
DEFAULT_255_1_388
10
5.2864961
20
140.1202151
40
1.170534
50
179.7995545
51
185.246089
0
ARC
8
DEFAULT_255_1_388
10
4.8316554
20
140.0771404
40
0.7136613
50
185.1411911
51
193.0082205
0
ARC
8
DEFAULT_255_1_388
10
4.5342815
20
140.0068441
40
0.4080987
50
192.7897338
51
205.2507384
0
ARC
8
DEFAULT_255_1_388
10
4.4165025
20
139.9542538
40
0.2791522
50
205.8001921
51
211.2545876
0
ARC
8
DEFAULT_255_1_388
10
4.3576564
20
139.9148132
40
0.2084074
50
210.3789935
51
238.4007996
0
ARC
8
DEFAULT_255_1_388
10
4.355465
20
139.9200786
40
0.2117943
50
239.6521916
51
265.9793852
0
ARC
8
DEFAULT_255_1_388
10
4.3650499
20
139.9957358
40
0.2879689
50
265.1324455
51
270.0603288
0
ARC
8
DEFAULT_255_1_388
10
4.3682876
20
139.9592418
40
0.2514919
50
269.3314378
51
287.2180039
0
ARC
8
DEFAULT_255_1_388
10
4.3837958
20
139.9026291
40
0.1928357
50
287.7957942
51
329.0808983
0
ARC
8
DEFAULT_255_1_388
10
4.2760715
20
139.9698651
40
0.319808
50
328.6635261
51
343.3325043
0
ARC
8
DEFAULT_255_1_388
10
4.0316174
20
140.0460195
40
0.5758408
50
343.0498092
51
351.9392499
0
ARC
8
DEFAULT_255_1_388
10
3.6415496
20
140.1035205
40
0.9701202
50
351.8071632
51
357.7957897
0
ARC
8
DEFAULT_255_1_388
10
3.2780973
20
140.1223724
40
1.3340376
50
357.5870923
51
359.2682493
0
LINE
8
DEFAULT_255_1_388
10
23.1190856
20
148.304869
11
23.1190856
21
148.0880135
0
LINE
8
DEFAULT_255_1_388
10
22.2887099
20
148.0654244
11
22.2887099
21
148.2886048
0
LINE
8
DEFAULT_255_1_388
10
22.9519262
20
148.0428353
11
22.9519262
21
148.3166153
0
LINE
8
DEFAULT_255_1_388
10
22.4558693
20
148.3292652
11
22.4558693
21
148.0618102
0
ARC
8
DEFAULT_255_1_388
10
21.741319
20
148.0825118
40
1.3777776
50
353.8440855
51
0.2287917
0
ARC
8
DEFAULT_255_1_388
10
22.2632208
20
148.0242414
40
0.852639
50
344.4934746
51
353.9763743
0
ARC
8
DEFAULT_255_1_388
10
22.5999015
20
147.9285191
40
0.5026273
50
329.2803599
51
344.7473406
0
ARC
8
DEFAULT_255_1_388
10
22.7114511
20
147.8673038
40
0.3754848
50
324.9361395
51
328.6153007
0
ARC
8
DEFAULT_255_1_388
10
22.7540161
20
147.8375586
40
0.3235566
50
280.5801797
51
324.9173226
0
ARC
8
DEFAULT_255_1_388
10
22.7088789
20
148.0255236
40
0.5167077
50
269.5979457
51
281.6732777
0
ARC
8
DEFAULT_255_1_388
10
22.7007693
20
148.0120113
40
0.5032026
50
256.6228565
51
270.5105488
0
ARC
8
DEFAULT_255_1_388
10
22.6555435
20
147.8378345
40
0.3233092
50
215.8618351
51
257.2787793
0
ARC
8
DEFAULT_255_1_388
10
22.7704142
20
147.9149106
40
0.4615831
50
197.9695203
51
215.2622745
0
ARC
8
DEFAULT_255_1_388
10
23.0499818
20
148.0092641
40
0.7566307
50
187.8816486
51
198.2346584
0
ARC
8
DEFAULT_255_1_388
10
23.4953056
20
148.0735453
40
1.2065653
50
180.8977266
51
188.0054894
0
ARC
8
DEFAULT_255_1_388
10
23.800327
20
148.08504
40
1.5117443
50
180.7434591
51
181.152202
0
ARC
8
DEFAULT_255_1_388
10
23.6328266
20
148.2940371
40
1.3441277
50
173.7674302
51
180.2315596
0
ARC
8
DEFAULT_255_1_388
10
23.1246135
20
148.3514779
40
0.8326847
50
164.3058537
51
173.9000553
0
ARC
8
DEFAULT_255_1_388
10
22.7970135
20
148.4458652
40
0.4917711
50
148.7922028
51
164.5682288
0
ARC
8
DEFAULT_255_1_388
10
22.6900872
20
148.5055457
40
0.3694204
50
144.5883979
51
148.1161588
0
ARC
8
DEFAULT_255_1_388
10
22.6513618
20
148.5325667
40
0.322202
50
101.6440149
51
144.5142619
0
ARC
8
DEFAULT_255_1_388
10
22.699181
20
148.3425337
40
0.5180451
50
89.528284
51
102.5820197
0
ARC
8
DEFAULT_255_1_388
10
22.7080802
20
148.3381376
40
0.5224441
50
77.0437914
51
90.508231
0
ARC
8
DEFAULT_255_1_388
10
22.7533055
20
148.5229272
40
0.3322297
50
48.2777708
51
77.4996087
0
ARC
8
DEFAULT_255_1_388
10
22.7614795
20
148.5374557
40
0.315966
50
36.3141586
51
47.6307332
0
ARC
8
DEFAULT_255_1_388
10
22.6637518
20
148.4716159
40
0.4337313
50
18.2931065
51
35.6770203
0
ARC
8
DEFAULT_255_1_388
10
22.3776358
20
148.3734107
40
0.7362203
50
8.0246996
51
18.5605636
0
ARC
8
DEFAULT_255_1_388
10
21.9092714
20
148.3042432
40
1.2096583
50
1.127539
51
8.1718423
0
ARC
8
DEFAULT_255_1_388
10
21.5443847
20
148.2899374
40
1.5747719
50
0.5432713
51
1.38669
0
ARC
8
DEFAULT_255_1_388
10
21.7501226
20
148.3206163
40
1.2018103
50
359.8092569
51
4.9408001
0
ARC
8
DEFAULT_255_1_388
10
22.2237807
20
148.36289
40
0.7262727
50
4.8364937
51
12.2906017
0
ARC
8
DEFAULT_255_1_388
10
22.5337272
20
148.4319485
40
0.4087324
50
12.0806994
51
23.8171225
0
ARC
8
DEFAULT_255_1_388
10
22.6657668
20
148.4878508
40
0.2653719
50
24.2874621
51
31.3934353
0
ARC
8
DEFAULT_255_1_388
10
22.7248104
20
148.5264822
40
0.1948607
50
30.7407708
51
82.4658033
0
ARC
8
DEFAULT_255_1_388
10
22.7045765
20
148.4271017
40
0.2961198
50
81.1057101
51
90.2187368
0
ARC
8
DEFAULT_255_1_388
10
22.7005577
20
148.4561421
40
0.2670929
50
89.380395
51
105.6763916
0
ARC
8
DEFAULT_255_1_388
10
22.6799299
20
148.531132
40
0.1893189
50
105.7980655
51
149.7387869
0
ARC
8
DEFAULT_255_1_388
10
22.7996439
20
148.4591719
40
0.3289892
50
149.4208441
51
163.628295
0
ARC
8
DEFAULT_255_1_388
10
23.0348668
20
148.3874345
40
0.5749004
50
163.3764549
51
172.141138
0
ARC
8
DEFAULT_255_1_388
10
23.406139
20
148.3342582
40
0.9499585
50
172.0258462
51
178.0705453
0
ARC
8
DEFAULT_255_1_388
10
23.7482943
20
148.3180682
40
1.2924734
50
177.8639301
51
179.5036263
0
ARC
8
DEFAULT_255_1_388
10
23.6263961
20
148.0577151
40
1.170534
50
179.7995545
51
185.246089
0
ARC
8
DEFAULT_255_1_388
10
23.1715554
20
148.0146404
40
0.7136613
50
185.1411911
51
193.0082205
0
ARC
8
DEFAULT_255_1_388
10
22.8741815
20
147.9443441
40
0.4080987
50
192.7897338
51
205.2507384
0
ARC
8
DEFAULT_255_1_388
10
22.7564025
20
147.8917538
40
0.2791522
50
205.8001921
51
211.2545876
0
ARC
8
DEFAULT_255_1_388
10
22.6975564
20
147.8523132
40
0.2084074
50
210.3789935
51
238.4007996
0
ARC
8
DEFAULT_255_1_388
10
22.695365
20
147.8575786
40
0.2117943
50
239.6521916
51
265.9793852
0
ARC
8
DEFAULT_255_1_388
10
22.7049499
20
147.9332358
40
0.2879689
50
265.1324455
51
270.0603288
0
ARC
8
DEFAULT_255_1_388
10
22.7081876
20
147.8967418
40
0.2514919
50
269.3314378
51
287.2180039
0
ARC
8
DEFAULT_255_1_388
10
22.7236958
20
147.8401291
40
0.1928357
50
287.7957942
51
329.0808983
0
ARC
8
DEFAULT_255_1_388
10
22.6159715
20
147.9073651
40
0.319808
50
328.6635261
51
343.3325043
0
ARC
8
DEFAULT_255_1_388
10
22.3715174
20
147.9835195
40
0.5758408
50
343.0498092
51
351.9392499
0
ARC
8
DEFAULT_255_1_388
10
21.9814496
20
148.0410205
40
0.9701202
50
351.8071632
51
357.7957897
0
ARC
8
DEFAULT_255_1_388
10
21.6179973
20
148.0598724
40
1.3340376
50
357.5870923
51
359.2682493
0
LINE
8
DEFAULT_255_1_388
10
23.4380439
20
148.8424898
11
23.8121196
21
147.7573089
0
LINE
8
DEFAULT_255_1_388
10
23.8121196
20
147.7573089
11
24.1880024
21
148.8424898
0
LINE
8
DEFAULT_255_1_388
10
24.1880024
20
148.8424898
11
24.3777509
21
148.8424898
0
LINE
8
DEFAULT_255_1_388
10
24.3777509
20
148.8424898
11
23.8898261
21
147.5269
0
LINE
8
DEFAULT_255_1_388
10
23.8898261
20
147.5269
11
23.7362202
21
147.5269
0
LINE
8
DEFAULT_255_1_388
10
23.7362202
20
147.5269
11
23.2491989
21
148.8424898
0
LINE
8
DEFAULT_255_1_388
10
23.2491989
20
148.8424898
11
23.4380439
21
148.8424898
0
LINE
8
DEFAULT_255_1_388
10
20.289032
20
5.0693468
11
20.4634199
21
5.0693468
0
LINE
8
DEFAULT_255_1_388
10
19.4505242
20
5.2482525
11
19.4505242
21
5.3747516
0
LINE
8
DEFAULT_255_1_388
10
20.4634199
20
5.5446217
11
20.289032
21
5.5446217
0
LINE
8
DEFAULT_255_1_388
10
19.6249121
20
5.3702337
11
19.6249121
21
5.2428312
0
ARC
8
DEFAULT_255_1_388
10
19.8468433
20
5.1365329
40
0.6202263
50
340.1774904
51
353.7812217
0
ARC
8
DEFAULT_255_1_388
10
20.0236286
20
5.0706893
40
0.4315926
50
311.4560052
51
340.4420756
0
ARC
8
DEFAULT_255_1_388
10
20.0198826
20
5.0831665
40
0.4434573
50
282.4332229
51
310.7514507
0
ARC
8
DEFAULT_255_1_388
10
19.9704644
20
5.2873703
40
0.6535262
50
269.9358869
51
282.8096729
0
ARC
8
DEFAULT_255_1_388
10
19.9646583
20
5.4386329
40
0.8048043
50
269.9995752
51
270.3612856
0
ARC
8
DEFAULT_255_1_388
10
19.9587073
20
5.1587781
40
0.5249831
50
250.7885263
51
270.6488451
0
ARC
8
DEFAULT_255_1_388
10
19.9397898
20
5.0870853
40
0.4510942
50
219.3628377
51
250.0611024
0
ARC
8
DEFAULT_255_1_388
10
20.0330772
20
5.1663653
40
0.5735046
50
193.5480293
51
219.5755675
0
ARC
8
DEFAULT_255_1_388
10
20.2998981
20
5.235652
40
0.849146
50
181.1220183
51
193.8754971
0
ARC
8
DEFAULT_255_1_388
10
20.5322214
20
5.2480914
40
1.0816971
50
179.9914644
51
181.5398227
0
ARC
8
DEFAULT_255_1_388
10
20.3245525
20
5.3789586
40
0.8740384
50
169.5837606
51
180.275782
0
ARC
8
DEFAULT_255_1_388
10
20.1178873
20
5.4171439
40
0.6638751
50
155.0367033
51
169.6002779
0
ARC
8
DEFAULT_255_1_388
10
19.9901331
20
5.4787336
40
0.5220662
50
136.7831557
51
155.2472983
0
ARC
8
DEFAULT_255_1_388
10
19.9463122
20
5.5159577
40
0.4646502
50
121.7633063
51
136.4281161
0
ARC
8
DEFAULT_255_1_388
10
19.9614962
20
5.4879049
40
0.4964979
50
95.6460018
51
121.5489589
0
ARC
8
DEFAULT_255_1_388
10
19.9791936
20
5.3631704
40
0.6223912
50
89.9245727
51
96.1375919
0
ARC
8
DEFAULT_255_1_388
10
19.9848641
20
5.3765721
40
0.6090084
50
76.6779212
51
90.456405
0
ARC
8
DEFAULT_255_1_388
10
20.0291454
20
5.555506
40
0.42469
50
47.4858803
51
76.9287069
0
ARC
8
DEFAULT_255_1_388
10
20.0126068
20
5.5442623
40
0.4441778
50
16.5424081
51
46.8934505
0
ARC
8
DEFAULT_255_1_388
10
19.8317118
20
5.4848265
40
0.6345318
50
5.4072971
51
17.0363711
0
ARC
8
DEFAULT_255_1_388
10
19.6698843
20
5.4588304
40
0.6250632
50
7.8888693
51
15.9242022
0
ARC
8
DEFAULT_255_1_388
10
19.8933828
20
5.5237309
40
0.3923364
50
15.7650676
51
27.9410069
0
ARC
8
DEFAULT_255_1_388
10
20.0175997
20
5.5902317
40
0.2514401
50
27.8167196
51
46.4007942
0
ARC
8
DEFAULT_255_1_388
10
20.0231839
20
5.5895882
40
0.2480958
50
47.4372362
51
75.0695672
0
ARC
8
DEFAULT_255_1_388
10
19.9884675
20
5.4687277
40
0.3738281
50
74.7009379
51
87.8124314
0
ARC
8
DEFAULT_255_1_388
10
19.9802292
20
5.3503659
40
0.4924321
50
87.3802571
51
90.0251599
0
ARC
8
DEFAULT_255_1_388
10
19.9758939
20
5.4823997
40
0.3604218
50
89.3451886
51
108.5744412
0
ARC
8
DEFAULT_255_1_388
10
19.9604931
20
5.5401836
40
0.3007661
50
109.2998307
51
143.3037387
0
ARC
8
DEFAULT_255_1_388
10
20.0462221
20
5.4742584
40
0.4089031
50
143.075267
51
163.1918576
0
ARC
8
DEFAULT_255_1_388
10
20.2658055
20
5.4049652
40
0.6391492
50
162.9375929
51
174.6208776
0
ARC
8
DEFAULT_255_1_388
10
20.5612437
20
5.3725711
40
0.9363344
50
174.342123
51
180.1430283
0
ARC
8
DEFAULT_255_1_388
10
20.4564978
20
5.2382117
40
0.8315986
50
179.6817261
51
189.150555
0
ARC
8
DEFAULT_255_1_388
10
20.1751727
20
5.1913559
40
0.5464044
50
188.9911061
51
203.5772363
0
ARC
8
DEFAULT_255_1_388
10
20.0537019
20
5.1409539
40
0.4149206
50
203.9075402
51
215.1312435
0
ARC
8
DEFAULT_255_1_388
10
19.9498817
20
5.0604907
40
0.2837747
50
213.9071511
51
263.8848919
0
ARC
8
DEFAULT_255_1_388
10
19.963981
20
5.1487519
40
0.3730641
50
263.1757928
51
270.1031044
0
ARC
8
DEFAULT_255_1_388
10
19.967589
20
5.2890511
40
0.5133712
50
269.6722503
51
279.0606936
0
ARC
8
DEFAULT_255_1_388
10
19.9976045
20
5.107615
40
0.3294739
50
278.8749101
51
293.6349581
0
ARC
8
DEFAULT_255_1_388
10
20.0336249
20
5.0230251
40
0.2375405
50
293.8553806
51
310.0518171
0
ARC
8
DEFAULT_255_1_388
10
20.0341758
20
5.0160021
40
0.2318463
50
311.0644687
51
332.0111037
0
ARC
8
DEFAULT_255_1_388
10
19.9000431
20
5.0899702
40
0.3850112
50
331.6586806
51
343.2877423
0
ARC
8
DEFAULT_255_1_388
10
19.6679896
20
5.1612806
40
0.6277712
50
343.1446576
51
351.0103568
0
ARC
8
DEFAULT_255_1_388
10
19.504722
20
5.1912873
40
0.7937327
50
350.71248
51
351.1626997
0
LINE
8
DEFAULT_255_1_388
10
21.712146
20
5.3503553
11
21.712146
21
5.2672274
0
LINE
8
DEFAULT_255_1_388
10
20.654072
20
5.2554811
11
20.654072
21
5.3503553
0
LINE
8
DEFAULT_255_1_388
10
21.5395652
20
5.2545775
11
21.5395652
21
5.3521625
0
LINE
8
DEFAULT_255_1_388
10
20.8266528
20
5.3639088
11
20.8266528
21
5.2672274
0
ARC
8
DEFAULT_255_1_388
10
20.7399198
20
5.2627726
40
0.9722364
50
350.4878118
51
0.2625322
0
ARC
8
DEFAULT_255_1_388
10
20.9979158
20
5.2183994
40
0.7104556
50
336.0277991
51
350.5787241
0
ARC
8
DEFAULT_255_1_388
10
21.1492265
20
5.1500243
40
0.544417
50
319.887443
51
336.1331163
0
ARC
8
DEFAULT_255_1_388
10
21.2170077
20
5.0957733
40
0.4576311
50
302.4806296
51
319.6144102
0
ARC
8
DEFAULT_255_1_388
10
21.2040699
20
5.1207067
40
0.4856183
50
275.8196423
51
302.1885521
0
ARC
8
DEFAULT_255_1_388
10
21.185356
20
5.2492466
40
0.6154183
50
269.9169897
51
276.339506
0
ARC
8
DEFAULT_255_1_388
10
21.1803161
20
5.172068
40
0.5382553
50
252.5221437
51
270.441579
0
ARC
8
DEFAULT_255_1_388
10
21.1641411
20
5.1114046
40
0.4755426
50
237.5349961
51
252.1858334
0
ARC
8
DEFAULT_255_1_388
10
21.1741787
20
5.124212
40
0.4917393
50
209.0632754
51
237.3492577
0
ARC
8
DEFAULT_255_1_388
10
21.2721113
20
5.1857104
40
0.6072464
50
205.118533
51
209.6465345
0
ARC
8
DEFAULT_255_1_388
10
21.3617115
20
5.2237174
40
0.7045164
50
188.7216633
51
204.8239753
0
ARC
8
DEFAULT_255_1_388
10
21.5863891
20
5.2615387
40
0.9323368
50
180.3722704
51
188.9253909
0
ARC
8
DEFAULT_255_1_388
10
21.5833452
20
5.3548416
40
0.929284
50
169.5253055
51
180.2766048
0
ARC
8
DEFAULT_255_1_388
10
21.3693251
20
5.3942024
40
0.7116745
50
155.8314601
51
169.5088611
0
ARC
8
DEFAULT_255_1_388
10
21.2252714
20
5.4610312
40
0.5528904
50
139.6259579
51
156.0379072
0
ARC
8
DEFAULT_255_1_388
10
21.1589248
20
5.5144143
40
0.4677708
50
122.6414784
51
139.3431662
0
ARC
8
DEFAULT_255_1_388
10
21.1702503
20
5.4937787
40
0.4912586
50
93.0224537
51
122.4556091
0
ARC
8
DEFAULT_255_1_388
10
21.1824023
20
5.3851776
40
0.6003837
50
89.9756766
51
93.6340839
0
ARC
8
DEFAULT_255_1_388
10
21.1867621
20
5.4300879
40
0.5554884
50
73.7463329
51
90.4234008
0
ARC
8
DEFAULT_255_1_388
10
21.2065094
20
5.5065772
40
0.4765353
50
57.663051
51
73.4516911
0
ARC
8
DEFAULT_255_1_388
10
21.2056132
20
5.5090108
40
0.4749629
50
29.1441355
51
57.4146687
0
ARC
8
DEFAULT_255_1_388
10
21.1003943
20
5.4433046
40
0.5988917
50
24.0985653
51
29.732054
0
ARC
8
DEFAULT_255_1_388
10
20.9841575
20
5.3951154
40
0.7246823
50
8.6654943
51
23.8241215
0
ARC
8
DEFAULT_255_1_388
10
20.7327994
20
5.3541037
40
0.9793537
50
359.7807044
51
8.8218476
0
ARC
8
DEFAULT_255_1_388
10
20.6037698
20
5.3569731
40
0.9358078
50
359.7054632
51
8.0359751
0
ARC
8
DEFAULT_255_1_388
10
20.9412749
20
5.4061252
40
0.5947474
50
7.8926278
51
20.2962188
0
ARC
8
DEFAULT_255_1_388
10
21.12436
20
5.4736367
40
0.3996117
50
20.3231056
51
36.4990255
0
ARC
8
DEFAULT_255_1_388
10
21.2014897
20
5.5330399
40
0.3022818
50
36.1436715
51
85.6627846
0
ARC
8
DEFAULT_255_1_388
10
21.1832152
20
5.4160881
40
0.4203853
50
84.3845912
51
90.076054
0
ARC
8
DEFAULT_255_1_388
10
21.1784507
20
5.4903416
40
0.346157
50
89.3037228
51
109.9046209
0
ARC
8
DEFAULT_255_1_388
10
21.168034
20
5.5333379
40
0.3022217
50
110.8229774
51
143.917961
0
ARC
8
DEFAULT_255_1_388
10
21.27307
20
5.4531455
40
0.434348
50
143.5289166
51
163.2980252
0
ARC
8
DEFAULT_255_1_388
10
21.4876987
20
5.3856685
40
0.659321
50
163.0418884
51
174.3139873
0
ARC
8
DEFAULT_255_1_388
10
21.7581951
20
5.3544378
40
0.9315905
50
174.050934
51
179.4174954
0
ARC
8
DEFAULT_255_1_388
10
21.7013895
20
5.2625382
40
0.8747493
50
179.6928582
51
188.7908948
0
ARC
8
DEFAULT_255_1_388
10
21.4017695
20
5.2146086
40
0.5713262
50
188.6328449
51
202.5630732
0
ARC
8
DEFAULT_255_1_388
10
21.2606532
20
5.1579142
40
0.4192612
50
202.8078931
51
216.1195888
0
ARC
8
DEFAULT_255_1_388
10
21.1696049
20
5.0846479
40
0.3025752
50
215.0755613
51
264.6379773
0
ARC
8
DEFAULT_255_1_388
10
21.1838887
20
5.1781376
40
0.3970284
50
263.8464302
51
270.0830805
0
ARC
8
DEFAULT_255_1_388
10
21.1885431
20
5.1490808
40
0.3679937
50
269.3649295
51
287.5149684
0
ARC
8
DEFAULT_255_1_388
10
21.2085872
20
5.0762714
40
0.2925408
50
288.0629019
51
323.8115617
0
ARC
8
DEFAULT_255_1_388
10
21.1105848
20
5.1493754
40
0.4148018
50
323.6546541
51
342.6591359
0
ARC
8
DEFAULT_255_1_388
10
20.8820506
20
5.223728
40
0.6551163
50
342.4092446
51
353.6451501
0
ARC
8
DEFAULT_255_1_388
10
20.56353
20
5.2633565
40
0.9760748
50
353.4027553
51
359.4846611
0
LINE
8
DEFAULT_255_1_388
10
21.9723726
20
5.9674898
11
22.1964565
21
5.9674898
0
LINE
8
DEFAULT_255_1_388
10
22.1964565
20
5.9674898
11
22.6265532
21
4.8940553
0
LINE
8
DEFAULT_255_1_388
10
22.6265532
20
4.8940553
11
23.0566499
21
5.9674898
0
LINE
8
DEFAULT_255_1_388
10
23.0566499
20
5.9674898
11
23.2816375
21
5.9674898
0
LINE
8
DEFAULT_255_1_388
10
23.2816375
20
5.9674898
11
23.2816375
21
4.6519
0
LINE
8
DEFAULT_255_1_388
10
23.2816375
20
4.6519
11
23.1081531
21
4.6519
0
LINE
8
DEFAULT_255_1_388
10
23.1081531
20
4.6519
11
23.1081531
21
5.164221
0
LINE
8
DEFAULT_255_1_388
10
23.1081531
20
5.164221
11
23.1244172
21
5.7172025
0
LINE
8
DEFAULT_255_1_388
10
23.1244172
20
5.7172025
11
22.6925134
21
4.6519
0
LINE
8
DEFAULT_255_1_388
10
22.6925134
20
4.6519
11
22.5596895
21
4.6519
0
LINE
8
DEFAULT_255_1_388
10
22.5596895
20
4.6519
11
22.1286892
21
5.7144918
0
LINE
8
DEFAULT_255_1_388
10
22.1286892
20
5.7144918
11
22.1458569
21
5.164221
0
LINE
8
DEFAULT_255_1_388
10
22.1458569
20
5.164221
11
22.1458569
21
4.6519
0
LINE
8
DEFAULT_255_1_388
10
22.1458569
20
4.6519
11
21.9723726
21
4.6519
0
LINE
8
DEFAULT_255_1_388
10
21.9723726
20
4.6519
11
21.9723726
21
5.9674898
0
LINE
8
DEFAULT_255_1_388
10
24.0939419
20
5.9738148
11
24.0939419
21
4.6519
0
LINE
8
DEFAULT_255_1_388
10
24.0939419
20
4.6519
11
23.9258789
21
4.6519
0
LINE
8
DEFAULT_255_1_388
10
23.9258789
20
4.6519
11
23.9258789
21
5.765995
0
LINE
8
DEFAULT_255_1_388
10
23.9258789
20
5.765995
11
23.5888494
21
5.6422066
0
LINE
8
DEFAULT_255_1_388
10
23.5888494
20
5.6422066
11
23.5888494
21
5.7940055
0
LINE
8
DEFAULT_255_1_388
10
23.5888494
20
5.7940055
11
24.0677385
21
5.9738148
0
LINE
8
DEFAULT_255_1_388
10
24.0677385
20
5.9738148
11
24.0939419
21
5.9738148
0
LINE
8
DEFAULT_255_1_388
10
20.281432
20
13.0068468
11
20.4558199
21
13.0068468
0
LINE
8
DEFAULT_255_1_388
10
19.4429242
20
13.1857525
11
19.4429242
21
13.3122516
0
LINE
8
DEFAULT_255_1_388
10
20.4558199
20
13.4821217
11
20.281432
21
13.4821217
0
LINE
8
DEFAULT_255_1_388
10
19.6173121
20
13.3077337
11
19.6173121
21
13.1803312
0
ARC
8
DEFAULT_255_1_388
10
19.8392433
20
13.0740329
40
0.6202263
50
340.1774904
51
353.7812217
0
ARC
8
DEFAULT_255_1_388
10
20.0160286
20
13.0081893
40
0.4315926
50
311.4560052
51
340.4420756
0
ARC
8
DEFAULT_255_1_388
10
20.0122826
20
13.0206665
40
0.4434573
50
282.4332229
51
310.7514507
0
ARC
8
DEFAULT_255_1_388
10
19.9628644
20
13.2248703
40
0.6535262
50
269.9358869
51
282.8096729
0
ARC
8
DEFAULT_255_1_388
10
19.9570583
20
13.3761329
40
0.8048043
50
269.9995752
51
270.3612856
0
ARC
8
DEFAULT_255_1_388
10
19.9511073
20
13.0962781
40
0.5249831
50
250.7885263
51
270.6488451
0
ARC
8
DEFAULT_255_1_388
10
19.9321898
20
13.0245853
40
0.4510942
50
219.3628377
51
250.0611024
0
ARC
8
DEFAULT_255_1_388
10
20.0254772
20
13.1038653
40
0.5735046
50
193.5480293
51
219.5755675
0
ARC
8
DEFAULT_255_1_388
10
20.2922981
20
13.173152
40
0.849146
50
181.1220183
51
193.8754971
0
ARC
8
DEFAULT_255_1_388
10
20.5246214
20
13.1855914
40
1.0816971
50
179.9914644
51
181.5398227
0
ARC
8
DEFAULT_255_1_388
10
20.3169525
20
13.3164586
40
0.8740384
50
169.5837606
51
180.275782
0
ARC
8
DEFAULT_255_1_388
10
20.1102873
20
13.3546439
40
0.6638751
50
155.0367033
51
169.6002779
0
ARC
8
DEFAULT_255_1_388
10
19.9825331
20
13.4162336
40
0.5220662
50
136.7831557
51
155.2472983
0
ARC
8
DEFAULT_255_1_388
10
19.9387122
20
13.4534577
40
0.4646502
50
121.7633063
51
136.4281161
0
ARC
8
DEFAULT_255_1_388
10
19.9538962
20
13.4254049
40
0.4964979
50
95.6460018
51
121.5489589
0
ARC
8
DEFAULT_255_1_388
10
19.9715936
20
13.3006704
40
0.6223912
50
89.9245727
51
96.1375919
0
ARC
8
DEFAULT_255_1_388
10
19.9772641
20
13.3140721
40
0.6090084
50
76.6779212
51
90.456405
0
ARC
8
DEFAULT_255_1_388
10
20.0215454
20
13.493006
40
0.42469
50
47.4858803
51
76.9287069
0
ARC
8
DEFAULT_255_1_388
10
20.0050068
20
13.4817623
40
0.4441778
50
16.5424081
51
46.8934505
0
ARC
8
DEFAULT_255_1_388
10
19.8241118
20
13.4223265
40
0.6345318
50
5.4072971
51
17.0363711
0
ARC
8
DEFAULT_255_1_388
10
19.6622843
20
13.3963304
40
0.6250632
50
7.8888693
51
15.9242022
0
ARC
8
DEFAULT_255_1_388
10
19.8857828
20
13.4612309
40
0.3923364
50
15.7650676
51
27.9410069
0
ARC
8
DEFAULT_255_1_388
10
20.0099997
20
13.5277317
40
0.2514401
50
27.8167196
51
46.4007942
0
ARC
8
DEFAULT_255_1_388
10
20.0155839
20
13.5270882
40
0.2480958
50
47.4372362
51
75.0695672
0
ARC
8
DEFAULT_255_1_388
10
19.9808675
20
13.4062277
40
0.3738281
50
74.7009379
51
87.8124314
0
ARC
8
DEFAULT_255_1_388
10
19.9726292
20
13.2878659
40
0.4924321
50
87.3802571
51
90.0251599
0
ARC
8
DEFAULT_255_1_388
10
19.9682939
20
13.4198997
40
0.3604218
50
89.3451886
51
108.5744412
0
ARC
8
DEFAULT_255_1_388
10
19.9528931
20
13.4776836
40
0.3007661
50
109.2998307
51
143.3037387
0
ARC
8
DEFAULT_255_1_388
10
20.0386221
20
13.4117584
40
0.4089031
50
143.075267
51
163.1918576
0
ARC
8
DEFAULT_255_1_388
10
20.2582055
20
13.3424652
40
0.6391492
50
162.9375929
51
174.6208776
0
ARC
8
DEFAULT_255_1_388
10
20.5536437
20
13.3100711
40
0.9363344
50
174.342123
51
180.1430283
0
ARC
8
DEFAULT_255_1_388
10
20.4488978
20
13.1757117
40
0.8315986
50
179.6817261
51
189.150555
0
ARC
8
DEFAULT_255_1_388
10
20.1675727
20
13.1288559
40
0.5464044
50
188.9911061
51
203.5772363
0
ARC
8
DEFAULT_255_1_388
10
20.0461019
20
13.0784539
40
0.4149206
50
203.9075402
51
215.1312435
0
ARC
8
DEFAULT_255_1_388
10
19.9422817
20
12.9979907
40
0.2837747
50
213.9071511
51
263.8848919
0
ARC
8
DEFAULT_255_1_388
10
19.956381
20
13.0862519
40
0.3730641
50
263.1757928
51
270.1031044
0
ARC
8
DEFAULT_255_1_388
10
19.959989
20
13.2265511
40
0.5133712
50
269.6722503
51
279.0606936
0
ARC
8
DEFAULT_255_1_388
10
19.9900045
20
13.045115
40
0.3294739
50
278.8749101
51
293.6349581
0
ARC
8
DEFAULT_255_1_388
10
20.0260249
20
12.9605251
40
0.2375405
50
293.8553806
51
310.0518171
0
ARC
8
DEFAULT_255_1_388
10
20.0265758
20
12.9535021
40
0.2318463
50
311.0644687
51
332.0111037
0
ARC
8
DEFAULT_255_1_388
10
19.8924431
20
13.0274702
40
0.3850112
50
331.6586806
51
343.2877423
0
ARC
8
DEFAULT_255_1_388
10
19.6603896
20
13.0987806
40
0.6277712
50
343.1446576
51
351.0103568
0
ARC
8
DEFAULT_255_1_388
10
19.497122
20
13.1287873
40
0.7937327
50
350.71248
51
351.1626997
0
LINE
8
DEFAULT_255_1_388
10
21.704546
20
13.2878553
11
21.704546
21
13.2047274
0
LINE
8
DEFAULT_255_1_388
10
20.646472
20
13.1929811
11
20.646472
21
13.2878553
0
LINE
8
DEFAULT_255_1_388
10
21.5319652
20
13.1920775
11
21.5319652
21
13.2896625
0
LINE
8
DEFAULT_255_1_388
10
20.8190528
20
13.3014088
11
20.8190528
21
13.2047274
0
ARC
8
DEFAULT_255_1_388
10
20.7323198
20
13.2002726
40
0.9722364
50
350.4878118
51
0.2625322
0
ARC
8
DEFAULT_255_1_388
10
20.9903158
20
13.1558994
40
0.7104556
50
336.0277991
51
350.5787241
0
ARC
8
DEFAULT_255_1_388
10
21.1416265
20
13.0875243
40
0.544417
50
319.887443
51
336.1331163
0
ARC
8
DEFAULT_255_1_388
10
21.2094077
20
13.0332733
40
0.4576311
50
302.4806296
51
319.6144102
0
ARC
8
DEFAULT_255_1_388
10
21.1964699
20
13.0582067
40
0.4856183
50
275.8196423
51
302.1885521
0
ARC
8
DEFAULT_255_1_388
10
21.177756
20
13.1867466
40
0.6154183
50
269.9169897
51
276.339506
0
ARC
8
DEFAULT_255_1_388
10
21.1727161
20
13.109568
40
0.5382553
50
252.5221437
51
270.441579
0
ARC
8
DEFAULT_255_1_388
10
21.1565411
20
13.0489046
40
0.4755426
50
237.5349961
51
252.1858334
0
ARC
8
DEFAULT_255_1_388
10
21.1665787
20
13.061712
40
0.4917393
50
209.0632754
51
237.3492577
0
ARC
8
DEFAULT_255_1_388
10
21.2645113
20
13.1232104
40
0.6072464
50
205.118533
51
209.6465345
0
ARC
8
DEFAULT_255_1_388
10
21.3541115
20
13.1612174
40
0.7045164
50
188.7216633
51
204.8239753
0
ARC
8
DEFAULT_255_1_388
10
21.5787891
20
13.1990387
40
0.9323368
50
180.3722704
51
188.9253909
0
ARC
8
DEFAULT_255_1_388
10
21.5757452
20
13.2923416
40
0.929284
50
169.5253055
51
180.2766048
0
ARC
8
DEFAULT_255_1_388
10
21.3617251
20
13.3317024
40
0.7116745
50
155.8314601
51
169.5088611
0
ARC
8
DEFAULT_255_1_388
10
21.2176714
20
13.3985312
40
0.5528904
50
139.6259579
51
156.0379072
0
ARC
8
DEFAULT_255_1_388
10
21.1513248
20
13.4519143
40
0.4677708
50
122.6414784
51
139.3431662
0
ARC
8
DEFAULT_255_1_388
10
21.1626503
20
13.4312787
40
0.4912586
50
93.0224537
51
122.4556091
0
ARC
8
DEFAULT_255_1_388
10
21.1748023
20
13.3226776
40
0.6003837
50
89.9756766
51
93.6340839
0
ARC
8
DEFAULT_255_1_388
10
21.1791621
20
13.3675879
40
0.5554884
50
73.7463329
51
90.4234008
0
ARC
8
DEFAULT_255_1_388
10
21.1989094
20
13.4440772
40
0.4765353
50
57.663051
51
73.4516911
0
ARC
8
DEFAULT_255_1_388
10
21.1980132
20
13.4465108
40
0.4749629
50
29.1441355
51
57.4146687
0
ARC
8
DEFAULT_255_1_388
10
21.0927943
20
13.3808046
40
0.5988917
50
24.0985653
51
29.732054
0
ARC
8
DEFAULT_255_1_388
10
20.9765575
20
13.3326154
40
0.7246823
50
8.6654943
51
23.8241215
0
ARC
8
DEFAULT_255_1_388
10
20.7251994
20
13.2916037
40
0.9793537
50
359.7807044
51
8.8218476
0
ARC
8
DEFAULT_255_1_388
10
20.5961698
20
13.2944731
40
0.9358078
50
359.7054632
51
8.0359751
0
ARC
8
DEFAULT_255_1_388
10
20.9336749
20
13.3436252
40
0.5947474
50
7.8926278
51
20.2962188
0
ARC
8
DEFAULT_255_1_388
10
21.11676
20
13.4111367
40
0.3996117
50
20.3231056
51
36.4990255
0
ARC
8
DEFAULT_255_1_388
10
21.1938897
20
13.4705399
40
0.3022818
50
36.1436715
51
85.6627846
0
ARC
8
DEFAULT_255_1_388
10
21.1756152
20
13.3535881
40
0.4203853
50
84.3845912
51
90.076054
0
ARC
8
DEFAULT_255_1_388
10
21.1708507
20
13.4278416
40
0.346157
50
89.3037228
51
109.9046209
0
ARC
8
DEFAULT_255_1_388
10
21.160434
20
13.4708379
40
0.3022217
50
110.8229774
51
143.917961
0
ARC
8
DEFAULT_255_1_388
10
21.26547
20
13.3906455
40
0.434348
50
143.5289166
51
163.2980252
0
ARC
8
DEFAULT_255_1_388
10
21.4800987
20
13.3231685
40
0.659321
50
163.0418884
51
174.3139873
0
ARC
8
DEFAULT_255_1_388
10
21.7505951
20
13.2919378
40
0.9315905
50
174.050934
51
179.4174954
0
ARC
8
DEFAULT_255_1_388
10
21.6937895
20
13.2000382
40
0.8747493
50
179.6928582
51
188.7908948
0
ARC
8
DEFAULT_255_1_388
10
21.3941695
20
13.1521086
40
0.5713262
50
188.6328449
51
202.5630732
0
ARC
8
DEFAULT_255_1_388
10
21.2530532
20
13.0954142
40
0.4192612
50
202.8078931
51
216.1195888
0
ARC
8
DEFAULT_255_1_388
10
21.1620049
20
13.0221479
40
0.3025752
50
215.0755613
51
264.6379773
0
ARC
8
DEFAULT_255_1_388
10
21.1762887
20
13.1156376
40
0.3970284
50
263.8464302
51
270.0830805
0
ARC
8
DEFAULT_255_1_388
10
21.1809431
20
13.0865808
40
0.3679937
50
269.3649295
51
287.5149684
0
ARC
8
DEFAULT_255_1_388
10
21.2009872
20
13.0137714
40
0.2925408
50
288.0629019
51
323.8115617
0
ARC
8
DEFAULT_255_1_388
10
21.1029848
20
13.0868754
40
0.4148018
50
323.6546541
51
342.6591359
0
ARC
8
DEFAULT_255_1_388
10
20.8744506
20
13.161228
40
0.6551163
50
342.4092446
51
353.6451501
0
ARC
8
DEFAULT_255_1_388
10
20.55593
20
13.2008565
40
0.9760748
50
353.4027553
51
359.4846611
0
LINE
8
DEFAULT_255_1_388
10
21.9647726
20
13.9049898
11
22.1888565
21
13.9049898
0
LINE
8
DEFAULT_255_1_388
10
22.1888565
20
13.9049898
11
22.6189532
21
12.8315553
0
LINE
8
DEFAULT_255_1_388
10
22.6189532
20
12.8315553
11
23.0490499
21
13.9049898
0
LINE
8
DEFAULT_255_1_388
10
23.0490499
20
13.9049898
11
23.2740375
21
13.9049898
0
LINE
8
DEFAULT_255_1_388
10
23.2740375
20
13.9049898
11
23.2740375
21
12.5894
0
LINE
8
DEFAULT_255_1_388
10
23.2740375
20
12.5894
11
23.1005531
21
12.5894
0
LINE
8
DEFAULT_255_1_388
10
23.1005531
20
12.5894
11
23.1005531
21
13.101721
0
LINE
8
DEFAULT_255_1_388
10
23.1005531
20
13.101721
11
23.1168172
21
13.6547025
0
LINE
8
DEFAULT_255_1_388
10
23.1168172
20
13.6547025
11
22.6849134
21
12.5894
0
LINE
8
DEFAULT_255_1_388
10
22.6849134
20
12.5894
11
22.5520895
21
12.5894
0
LINE
8
DEFAULT_255_1_388
10
22.5520895
20
12.5894
11
22.1210892
21
13.6519918
0
LINE
8
DEFAULT_255_1_388
10
22.1210892
20
13.6519918
11
22.1382569
21
13.101721
0
LINE
8
DEFAULT_255_1_388
10
22.1382569
20
13.101721
11
22.1382569
21
12.5894
0
LINE
8
DEFAULT_255_1_388
10
22.1382569
20
12.5894
11
21.9647726
21
12.5894
0
LINE
8
DEFAULT_255_1_388
10
21.9647726
20
12.5894
11
21.9647726
21
13.9049898
0
LINE
8
DEFAULT_255_1_388
10
24.3619291
20
13.367369
11
24.3619291
21
13.1505135
0
LINE
8
DEFAULT_255_1_388
10
23.5315533
20
13.1279244
11
23.5315533
21
13.3511048
0
LINE
8
DEFAULT_255_1_388
10
24.1947696
20
13.1053353
11
24.1947696
21
13.3791153
0
LINE
8
DEFAULT_255_1_388
10
23.6987127
20
13.3917652
11
23.6987127
21
13.1243102
0
ARC
8
DEFAULT_255_1_388
10
22.9841624
20
13.1450118
40
1.3777776
50
353.8440855
51
0.2287917
0
ARC
8
DEFAULT_255_1_388
10
23.5060642
20
13.0867414
40
0.852639
50
344.4934746
51
353.9763743
0
ARC
8
DEFAULT_255_1_388
10
23.8427449
20
12.9910191
40
0.5026273
50
329.2803599
51
344.7473406
0
ARC
8
DEFAULT_255_1_388
10
23.9542945
20
12.9298038
40
0.3754848
50
324.9361395
51
328.6153007
0
ARC
8
DEFAULT_255_1_388
10
23.9968595
20
12.9000586
40
0.3235566
50
280.5801797
51
324.9173226
0
ARC
8
DEFAULT_255_1_388
10
23.9517223
20
13.0880236
40
0.5167077
50
269.5979457
51
281.6732777
0
ARC
8
DEFAULT_255_1_388
10
23.9436127
20
13.0745113
40
0.5032026
50
256.6228565
51
270.5105488
0
ARC
8
DEFAULT_255_1_388
10
23.8983869
20
12.9003345
40
0.3233092
50
215.8618351
51
257.2787793
0
ARC
8
DEFAULT_255_1_388
10
24.0132577
20
12.9774106
40
0.4615831
50
197.9695203
51
215.2622745
0
ARC
8
DEFAULT_255_1_388
10
24.2928252
20
13.0717641
40
0.7566307
50
187.8816486
51
198.2346584
0
ARC
8
DEFAULT_255_1_388
10
24.738149
20
13.1360453
40
1.2065653
50
180.8977266
51
188.0054894
0
ARC
8
DEFAULT_255_1_388
10
25.0431704
20
13.14754
40
1.5117443
50
180.7434591
51
181.152202
0
ARC
8
DEFAULT_255_1_388
10
24.87567
20
13.3565371
40
1.3441277
50
173.7674302
51
180.2315596
0
ARC
8
DEFAULT_255_1_388
10
24.3674569
20
13.4139779
40
0.8326847
50
164.3058537
51
173.9000553
0
ARC
8
DEFAULT_255_1_388
10
24.0398569
20
13.5083652
40
0.4917711
50
148.7922028
51
164.5682288
0
ARC
8
DEFAULT_255_1_388
10
23.9329306
20
13.5680457
40
0.3694204
50
144.5883979
51
148.1161588
0
ARC
8
DEFAULT_255_1_388
10
23.8942052
20
13.5950667
40
0.322202
50
101.6440149
51
144.5142619
0
ARC
8
DEFAULT_255_1_388
10
23.9420244
20
13.4050337
40
0.5180451
50
89.528284
51
102.5820197
0
ARC
8
DEFAULT_255_1_388
10
23.9509236
20
13.4006376
40
0.5224441
50
77.0437914
51
90.508231
0
ARC
8
DEFAULT_255_1_388
10
23.9961489
20
13.5854272
40
0.3322297
50
48.2777708
51
77.4996087
0
ARC
8
DEFAULT_255_1_388
10
24.0043229
20
13.5999557
40
0.315966
50
36.3141586
51
47.6307332
0
ARC
8
DEFAULT_255_1_388
10
23.9065952
20
13.5341159
40
0.4337313
50
18.2931065
51
35.6770203
0
ARC
8
DEFAULT_255_1_388
10
23.6204793
20
13.4359107
40
0.7362203
50
8.0246996
51
18.5605636
0
ARC
8
DEFAULT_255_1_388
10
23.1521148
20
13.3667432
40
1.2096583
50
1.127539
51
8.1718423
0
ARC
8
DEFAULT_255_1_388
10
22.7872281
20
13.3524374
40
1.5747719
50
0.5432713
51
1.38669
0
ARC
8
DEFAULT_255_1_388
10
22.992966
20
13.3831163
40
1.2018103
50
359.8092569
51
4.9408001
0
ARC
8
DEFAULT_255_1_388
10
23.4666241
20
13.42539
40
0.7262727
50
4.8364937
51
12.2906017
0
ARC
8
DEFAULT_255_1_388
10
23.7765706
20
13.4944485
40
0.4087324
50
12.0806994
51
23.8171225
0
ARC
8
DEFAULT_255_1_388
10
23.9086102
20
13.5503508
40
0.2653719
50
24.2874621
51
31.3934353
0
ARC
8
DEFAULT_255_1_388
10
23.9676538
20
13.5889822
40
0.1948607
50
30.7407708
51
82.4658033
0
ARC
8
DEFAULT_255_1_388
10
23.9474199
20
13.4896017
40
0.2961198
50
81.1057101
51
90.2187368
0
ARC
8
DEFAULT_255_1_388
10
23.9434011
20
13.5186421
40
0.2670929
50
89.380395
51
105.6763916
0
ARC
8
DEFAULT_255_1_388
10
23.9227733
20
13.593632
40
0.1893189
50
105.7980655
51
149.7387869
0
ARC
8
DEFAULT_255_1_388
10
24.0424873
20
13.5216719
40
0.3289892
50
149.4208441
51
163.628295
0
ARC
8
DEFAULT_255_1_388
10
24.2777103
20
13.4499345
40
0.5749004
50
163.3764549
51
172.141138
0
ARC
8
DEFAULT_255_1_388
10
24.6489824
20
13.3967582
40
0.9499585
50
172.0258462
51
178.0705453
0
ARC
8
DEFAULT_255_1_388
10
24.9911377
20
13.3805682
40
1.2924734
50
177.8639301
51
179.5036263
0
ARC
8
DEFAULT_255_1_388
10
24.8692395
20
13.1202151
40
1.170534
50
179.7995545
51
185.246089
0
ARC
8
DEFAULT_255_1_388
10
24.4143989
20
13.0771404
40
0.7136613
50
185.1411911
51
193.0082205
0
ARC
8
DEFAULT_255_1_388
10
24.1170249
20
13.0068441
40
0.4080987
50
192.7897338
51
205.2507384
0
ARC
8
DEFAULT_255_1_388
10
23.9992459
20
12.9542538
40
0.2791522
50
205.8001921
51
211.2545876
0
ARC
8
DEFAULT_255_1_388
10
23.9403998
20
12.9148132
40
0.2084074
50
210.3789935
51
238.4007996
0
ARC
8
DEFAULT_255_1_388
10
23.9382084
20
12.9200786
40
0.2117943
50
239.6521916
51
265.9793852
0
ARC
8
DEFAULT_255_1_388
10
23.9477933
20
12.9957358
40
0.2879689
50
265.1324455
51
270.0603288
0
ARC
8
DEFAULT_255_1_388
10
23.951031
20
12.9592418
40
0.2514919
50
269.3314378
51
287.2180039
0
ARC
8
DEFAULT_255_1_388
10
23.9665392
20
12.9026291
40
0.1928357
50
287.7957942
51
329.0808983
0
ARC
8
DEFAULT_255_1_388
10
23.858815
20
12.9698651
40
0.319808
50
328.6635261
51
343.3325043
0
ARC
8
DEFAULT_255_1_388
10
23.6143608
20
13.0460195
40
0.5758408
50
343.0498092
51
351.9392499
0
ARC
8
DEFAULT_255_1_388
10
23.224293
20
13.1035205
40
0.9701202
50
351.8071632
51
357.7957897
0
ARC
8
DEFAULT_255_1_388
10
22.8608407
20
13.1223724
40
1.3340376
50
357.5870923
51
359.2682493
0
LINE
8
DEFAULT_255_1_388
10
23.0445985
20
21.8488148
11
23.0445985
21
20.5269
0
LINE
8
DEFAULT_255_1_388
10
23.0445985
20
20.5269
11
22.8765355
21
20.5269
0
LINE
8
DEFAULT_255_1_388
10
22.8765355
20
20.5269
11
22.8765355
21
21.640995
0
LINE
8
DEFAULT_255_1_388
10
22.8765355
20
21.640995
11
22.539506
21
21.5172066
0
LINE
8
DEFAULT_255_1_388
10
22.539506
20
21.5172066
11
22.539506
21
21.6690055
0
LINE
8
DEFAULT_255_1_388
10
22.539506
20
21.6690055
11
23.0183951
21
21.8488148
0
LINE
8
DEFAULT_255_1_388
10
23.0183951
20
21.8488148
11
23.0445985
21
21.8488148
0
LINE
8
DEFAULT_255_1_388
10
23.7448609
20
21.1521666
11
23.6111334
21
21.1865021
0
LINE
8
DEFAULT_255_1_388
10
23.6111334
20
21.1865021
11
23.6779972
21
21.8424898
0
LINE
8
DEFAULT_255_1_388
10
23.6779972
20
21.8424898
11
24.3520562
21
21.8424898
0
LINE
8
DEFAULT_255_1_388
10
24.3520562
20
21.8424898
11
24.3520562
21
21.6879803
0
LINE
8
DEFAULT_255_1_388
10
24.3520562
20
21.6879803
11
23.8198568
21
21.6879803
0
LINE
8
DEFAULT_255_1_388
10
23.8198568
20
21.6879803
11
23.7801
21
21.3292652
0
LINE
8
DEFAULT_255_1_388
10
23.564148
20
20.8729652
11
23.7222718
21
20.8729652
0
LINE
8
DEFAULT_255_1_388
10
23.7891356
20
21.1883092
11
23.7448609
21
21.1521666
0
ARC
8
DEFAULT_255_1_388
10
23.9887613
20
20.9715241
40
0.4141476
50
93.7181681
51
120.253934
0
ARC
8
DEFAULT_255_1_388
10
23.9993665
20
20.8806284
40
0.5055616
50
89.9660471
51
94.2495185
0
ARC
8
DEFAULT_255_1_388
10
24.0039487
20
20.9469154
40
0.4392953
50
73.8045384
51
90.5585736
0
ARC
8
DEFAULT_255_1_388
10
24.0303745
20
21.043452
40
0.3392225
50
41.3071072
51
73.543002
0
ARC
8
DEFAULT_255_1_388
10
23.9835565
20
21.0031461
40
0.4009977
50
13.5075837
51
41.2174839
0
ARC
8
DEFAULT_255_1_388
10
23.7988662
20
20.9547907
40
0.5918864
50
1.1330171
51
13.8830737
0
ARC
8
DEFAULT_255_1_388
10
23.6392308
20
20.9462522
40
0.7516787
50
359.9925091
51
1.5431298
0
ARC
8
DEFAULT_255_1_388
10
23.7836923
20
20.9416027
40
0.6072343
50
347.8572712
51
0.4294349
0
ARC
8
DEFAULT_255_1_388
10
23.9806058
20
20.8969898
40
0.4053482
50
323.6727442
51
348.1674594
0
ARC
8
DEFAULT_255_1_388
10
24.0137022
20
20.8768175
40
0.3667495
50
316.8171818
51
323.1486802
0
ARC
8
DEFAULT_255_1_388
10
24.0206146
20
20.8726612
40
0.358869
50
281.839603
51
316.5458142
0
ARC
8
DEFAULT_255_1_388
10
23.9783434
20
21.0476363
40
0.5388223
50
269.5770964
51
282.4214641
0
ARC
8
DEFAULT_255_1_388
10
23.9703354
20
21.023593
40
0.5147801
50
256.2425863
51
270.4486481
0
ARC
8
DEFAULT_255_1_388
10
23.9366882
20
20.8886124
40
0.3756708
50
228.9024379
51
256.33135
0
ARC
8
DEFAULT_255_1_388
10
23.9283862
20
20.8755054
40
0.360344
50
193.7536029
51
228.5272638
0
ARC
8
DEFAULT_255_1_388
10
24.0676427
20
20.9163463
40
0.5053599
50
184.9244437
51
194.4976052
0
ARC
8
DEFAULT_255_1_388
10
24.0893068
20
20.9203722
40
0.3700839
50
187.3596909
51
198.6733728
0
ARC
8
DEFAULT_255_1_388
10
23.9712312
20
20.8794373
40
0.2451195
50
198.4453795
51
217.7945479
0
ARC
8
DEFAULT_255_1_388
10
23.9379484
20
20.8558563
40
0.2043754
50
218.2887146
51
228.5613203
0
ARC
8
DEFAULT_255_1_388
10
23.9489491
20
20.8706902
40
0.2227819
50
228.9652423
51
258.1237049
0
ARC
8
DEFAULT_255_1_388
10
23.9720929
20
20.9697964
40
0.3245374
50
257.7260585
51
270.4013717
0
ARC
8
DEFAULT_255_1_388
10
23.9771427
20
20.9197255
40
0.2744726
50
269.4204315
51
286.420998
0
ARC
8
DEFAULT_255_1_388
10
23.9938482
20
20.8590705
40
0.2115721
50
286.7250065
51
320.6004665
0
ARC
8
DEFAULT_255_1_388
10
23.9507398
20
20.8940527
40
0.2670878
50
320.6712228
51
344.5440474
0
ARC
8
DEFAULT_255_1_388
10
23.8206112
20
20.9322394
40
0.4026927
50
344.241448
51
356.735803
0
ARC
8
DEFAULT_255_1_388
10
23.6802419
20
20.9438656
40
0.5435085
50
356.3547471
51
0.0507222
0
ARC
8
DEFAULT_255_1_388
10
23.8304684
20
20.9473812
40
0.3932934
50
359.5579289
51
12.9534322
0
ARC
8
DEFAULT_255_1_388
10
23.9491524
20
20.9761586
40
0.2711827
50
12.6489751
51
41.608121
0
ARC
8
DEFAULT_255_1_388
10
23.9750684
20
20.9981946
40
0.2371737
50
41.7851122
51
85.9892156
0
ARC
8
DEFAULT_255_1_388
10
23.9611994
20
20.9066738
40
0.3295244
50
84.6965848
51
90.0672125
0
ARC
8
DEFAULT_255_1_388
10
23.9585561
20
20.8315118
40
0.4046926
50
89.6804991
51
99.161352
0
ARC
8
DEFAULT_255_1_388
10
23.9354571
20
20.9695848
40
0.2647044
50
98.9836248
51
113.8905702
0
ARC
8
DEFAULT_255_1_388
10
23.9096246
20
21.0305118
40
0.1985386
50
114.195234
51
127.3641866
0
LINE
8
DEFAULT_255_1_388
10
22.9123985
20
29.7863148
11
22.9123985
21
28.4644
0
LINE
8
DEFAULT_255_1_388
10
22.9123985
20
28.4644
11
22.7443355
21
28.4644
0
LINE
8
DEFAULT_255_1_388
10
22.7443355
20
28.4644
11
22.7443355
21
29.578495
0
LINE
8
DEFAULT_255_1_388
10
22.7443355
20
29.578495
11
22.407306
21
29.4547066
0
LINE
8
DEFAULT_255_1_388
10
22.407306
20
29.4547066
11
22.407306
21
29.6065055
0
LINE
8
DEFAULT_255_1_388
10
22.407306
20
29.6065055
11
22.8861951
21
29.7863148
0
LINE
8
DEFAULT_255_1_388
10
22.8861951
20
29.7863148
11
22.9123985
21
29.7863148
0
LINE
8
DEFAULT_255_1_388
10
24.1078143
20
29.7799898
11
24.1078143
21
28.906243
0
LINE
8
DEFAULT_255_1_388
10
24.1078143
20
28.906243
11
24.2903343
21
28.906243
0
LINE
8
DEFAULT_255_1_388
10
24.2903343
20
28.906243
11
24.2903343
21
28.7698048
0
LINE
8
DEFAULT_255_1_388
10
24.2903343
20
28.7698048
11
24.1078143
21
28.7698048
0
LINE
8
DEFAULT_255_1_388
10
24.1078143
20
28.7698048
11
24.1078143
21
28.4644
0
LINE
8
DEFAULT_255_1_388
10
24.1078143
20
28.4644
11
23.9397513
21
28.4644
0
LINE
8
DEFAULT_255_1_388
10
23.9397513
20
28.4644
11
23.9397513
21
28.7698048
0
LINE
8
DEFAULT_255_1_388
10
23.9397513
20
28.7698048
11
23.340688
21
28.7698048
0
LINE
8
DEFAULT_255_1_388
10
23.340688
20
28.7698048
11
23.340688
21
28.8682933
0
LINE
8
DEFAULT_255_1_388
10
23.340688
20
28.8682933
11
23.9298121
21
29.7799898
0
LINE
8
DEFAULT_255_1_388
10
23.9298121
20
29.7799898
11
24.1078143
21
29.7799898
0
LINE
8
DEFAULT_255_1_388
10
23.9198729
20
29.5152455
11
23.5304366
21
28.906243
0
LINE
8
DEFAULT_255_1_388
10
23.5304366
20
28.906243
11
23.9397513
21
28.906243
0
LINE
8
DEFAULT_255_1_388
10
23.9397513
20
28.906243
11
23.9397513
21
29.551388
0
LINE
8
DEFAULT_255_1_388
10
23.9397513
20
29.551388
11
23.9198729
21
29.5152455
0
LINE
8
DEFAULT_255_1_388
10
23.0445985
20
37.7238148
11
23.0445985
21
36.4019
0
LINE
8
DEFAULT_255_1_388
10
23.0445985
20
36.4019
11
22.8765355
21
36.4019
0
LINE
8
DEFAULT_255_1_388
10
22.8765355
20
36.4019
11
22.8765355
21
37.515995
0
LINE
8
DEFAULT_255_1_388
10
22.8765355
20
37.515995
11
22.539506
21
37.3922066
0
LINE
8
DEFAULT_255_1_388
10
22.539506
20
37.3922066
11
22.539506
21
37.5440055
0
LINE
8
DEFAULT_255_1_388
10
22.539506
20
37.5440055
11
23.0183951
21
37.7238148
0
LINE
8
DEFAULT_255_1_388
10
23.0183951
20
37.7238148
11
23.0445985
21
37.7238148
0
LINE
8
DEFAULT_255_1_388
10
23.7773893
20
37.0045775
11
23.7773893
21
37.1410157
0
LINE
8
DEFAULT_255_1_388
10
23.7773893
20
37.1410157
11
23.9029847
21
37.1410157
0
LINE
8
DEFAULT_255_1_388
10
23.6888399
20
37.3723282
11
23.5216805
21
37.3723282
0
LINE
8
DEFAULT_255_1_388
10
23.5099342
20
36.7488688
11
23.6779972
21
36.7488688
0
LINE
8
DEFAULT_255_1_388
10
23.9029847
20
37.0045775
11
23.7773893
21
37.0045775
0
ARC
8
DEFAULT_255_1_388
10
23.8997074
20
37.5226922
40
0.3816905
50
270.491971
51
281.8953028
0
ARC
8
DEFAULT_255_1_388
10
23.9268501
20
37.3987199
40
0.2547877
50
281.6690378
51
301.2943765
0
ARC
8
DEFAULT_255_1_388
10
23.9459952
20
37.3636926
40
0.2149197
50
301.7834992
51
311.754567
0
ARC
8
DEFAULT_255_1_388
10
23.9562993
20
37.352265
40
0.1995326
50
311.7325027
51
354.2803031
0
ARC
8
DEFAULT_255_1_388
10
23.8745409
20
37.366328
40
0.2823461
50
353.0941646
51
0.1174696
0
ARC
8
DEFAULT_255_1_388
10
23.8226967
20
37.3716874
40
0.3342238
50
359.1804452
51
15.0452323
0
ARC
8
DEFAULT_255_1_388
10
23.9741026
20
37.4158546
40
0.1765747
50
13.957816
51
77.6713812
0
ARC
8
DEFAULT_255_1_388
10
23.9306261
20
37.2600464
40
0.3381982
50
76.111571
51
90.7028736
0
ARC
8
DEFAULT_255_1_388
10
23.9239673
20
37.290825
40
0.3074046
50
89.5321574
51
103.5319393
0
ARC
8
DEFAULT_255_1_388
10
23.9014057
20
37.3807443
40
0.2147041
50
103.2930114
51
133.5619756
0
ARC
8
DEFAULT_255_1_388
10
23.8963999
20
37.3874351
40
0.2064084
50
133.8349761
51
173.5343225
0
ARC
8
DEFAULT_255_1_388
10
23.9777656
20
37.3730144
40
0.2889266
50
172.5097183
51
180.1360699
0
ARC
8
DEFAULT_255_1_388
10
23.870742
20
37.376888
40
0.3490913
50
155.3483706
51
180.7484035
0
ARC
8
DEFAULT_255_1_388
10
23.8652396
20
37.3736519
40
0.3454798
50
131.5745177
51
154.4799474
0
ARC
8
DEFAULT_255_1_388
10
23.9004678
20
37.3380422
40
0.3955058
50
96.9874487
51
131.9690874
0
ARC
8
DEFAULT_255_1_388
10
23.9251571
20
37.1979407
40
0.537622
50
89.8592909
51
97.7827481
0
ARC
8
DEFAULT_255_1_388
10
23.930568
20
37.168436
40
0.5671399
50
78.3654493
51
90.4132586
0
ARC
8
DEFAULT_255_1_388
10
23.9708321
20
37.3550918
40
0.3762034
50
56.6229818
51
78.6387103
0
ARC
8
DEFAULT_255_1_388
10
23.995015
20
37.3973846
40
0.3275964
50
47.0254604
51
56.085558
0
ARC
8
DEFAULT_255_1_388
10
23.9972401
20
37.4018189
40
0.3228382
50
10.9207523
51
46.777927
0
ARC
8
DEFAULT_255_1_388
10
23.8437995
20
37.3663401
40
0.4802559
50
359.6364235
51
11.6087615
0
ARC
8
DEFAULT_255_1_388
10
24.0502161
20
37.3646404
40
0.273833
50
332.3549969
51
359.7179765
0
ARC
8
DEFAULT_255_1_388
10
23.9770562
20
37.3993285
40
0.3547505
50
325.2332381
51
332.8746682
0
ARC
8
DEFAULT_255_1_388
10
23.9942144
20
37.3873763
40
0.3338396
50
292.9803892
51
325.2391113
0
ARC
8
DEFAULT_255_1_388
10
23.963134
20
37.4478679
40
0.4016959
50
292.542178
51
293.6931461
0
ARC
8
DEFAULT_255_1_388
10
24.0074912
20
36.7213036
40
0.372079
50
57.643292
51
72.8626085
0
ARC
8
DEFAULT_255_1_388
10
24.0473747
20
36.7859273
40
0.2961455
50
36.7246661
51
57.4701329
0
ARC
8
DEFAULT_255_1_388
10
24.0460903
20
36.787347
40
0.2963321
50
8.054535
51
36.3561529
0
ARC
8
DEFAULT_255_1_388
10
23.9490576
20
36.7699073
40
0.3948682
50
359.8316595
51
8.5873361
0
ARC
8
DEFAULT_255_1_388
10
23.906805
20
36.764497
40
0.4371398
50
343.9831631
51
0.557075
0
ARC
8
DEFAULT_255_1_388
10
24.00651
20
36.7371963
40
0.3337749
50
311.6358204
51
343.7652116
0
ARC
8
DEFAULT_255_1_388
10
23.9639353
20
36.7851955
40
0.3979351
50
279.7829743
51
311.625622
0
ARC
8
DEFAULT_255_1_388
10
23.9300489
20
36.9468642
40
0.5630417
50
269.7285092
51
280.3857694
0
ARC
8
DEFAULT_255_1_388
10
23.9230802
20
36.9422241
40
0.5584119
50
256.6827433
51
270.4412869
0
ARC
8
DEFAULT_255_1_388
10
23.8849788
20
36.7864698
40
0.3980715
50
229.4223821
51
256.8554507
0
ARC
8
DEFAULT_255_1_388
10
23.8383342
20
36.7339683
40
0.3278564
50
181.8183354
51
229.6455015
0
ARC
8
DEFAULT_255_1_388
10
23.9552951
20
36.7486825
40
0.4453611
50
179.9760419
51
183.2330638
0
ARC
8
DEFAULT_255_1_388
10
23.9359503
20
36.7463781
40
0.2579652
50
179.4467996
51
196.2871626
0
ARC
8
DEFAULT_255_1_388
10
23.8810957
20
36.7313709
40
0.2011057
50
196.5661293
51
227.7059371
0
ARC
8
DEFAULT_255_1_388
10
23.8995564
20
36.7520155
40
0.2287994
50
227.7653015
51
257.8763321
0
ARC
8
DEFAULT_255_1_388
10
23.9248647
20
36.8580961
40
0.3378385
50
257.4583525
51
270.4267406
0
ARC
8
DEFAULT_255_1_388
10
23.9299897
20
36.890723
40
0.3704652
50
269.5965319
51
280.8788143
0
ARC
8
DEFAULT_255_1_388
10
23.9558125
20
36.7617529
40
0.2389415
50
280.6347277
51
299.8594068
0
ARC
8
DEFAULT_255_1_388
10
23.9772895
20
36.7209736
40
0.19289
50
300.3575552
51
314.5515667
0
ARC
8
DEFAULT_255_1_388
10
23.967957
20
36.7278025
40
0.204312
50
315.0730962
51
345.0429362
0
ARC
8
DEFAULT_255_1_388
10
23.8641078
20
36.7580539
40
0.31246
50
344.598526
51
357.9270698
0
ARC
8
DEFAULT_255_1_388
10
23.7631383
20
36.7649705
40
0.4136265
50
357.4755098
51
0.0224936
0
ARC
8
DEFAULT_255_1_388
10
23.878426
20
36.7677099
40
0.2983498
50
359.5051035
51
13.4236939
0
ARC
8
DEFAULT_255_1_388
10
23.975935
20
36.7926637
40
0.1977186
50
12.9497905
51
48.7550905
0
ARC
8
DEFAULT_255_1_388
10
23.9554272
20
36.7646373
40
0.2323321
50
49.509109
51
72.1832965
0
ARC
8
DEFAULT_255_1_388
10
23.915174
20
36.6451632
40
0.358397
50
71.9008458
51
84.3555134
0
ARC
8
DEFAULT_255_1_388
10
23.8970135
20
36.4919712
40
0.512641
50
84.019632
51
89.3326067
0
LINE
8
DEFAULT_255_1_388
10
23.0445985
20
45.6613148
11
23.0445985
21
44.3394
0
LINE
8
DEFAULT_255_1_388
10
23.0445985
20
44.3394
11
22.8765355
21
44.3394
0
LINE
8
DEFAULT_255_1_388
10
22.8765355
20
44.3394
11
22.8765355
21
45.453495
0
LINE
8
DEFAULT_255_1_388
10
22.8765355
20
45.453495
11
22.539506
21
45.3297066
0
LINE
8
DEFAULT_255_1_388
10
22.539506
20
45.3297066
11
22.539506
21
45.4815055
0
LINE
8
DEFAULT_255_1_388
10
22.539506
20
45.4815055
11
23.0183951
21
45.6613148
0
LINE
8
DEFAULT_255_1_388
10
23.0183951
20
45.6613148
11
23.0445985
21
45.6613148
0
LINE
8
DEFAULT_255_1_388
10
24.3963309
20
44.4758382
11
24.3963309
21
44.3394
0
LINE
8
DEFAULT_255_1_388
10
24.3963309
20
44.3394
11
23.5343304
21
44.3394
0
LINE
8
DEFAULT_255_1_388
10
23.5343304
20
44.3394
11
23.5343304
21
44.4595741
0
LINE
8
DEFAULT_255_1_388
10
23.5343304
20
44.4595741
11
23.9897269
21
44.9655702
0
LINE
8
DEFAULT_255_1_388
10
23.67619
20
45.2673607
11
23.5090306
21
45.2673607
0
LINE
8
DEFAULT_255_1_388
10
24.0882154
20
44.858046
11
23.7358253
21
44.4758382
0
LINE
8
DEFAULT_255_1_388
10
23.7358253
20
44.4758382
11
24.3963309
21
44.4758382
0
ARC
8
DEFAULT_255_1_388
10
22.4721329
20
46.3075983
40
2.0258655
50
318.5132526
51
320.7829045
0
ARC
8
DEFAULT_255_1_388
10
23.0669286
20
45.8234929
40
1.2589638
50
320.7372878
51
323.9739031
0
ARC
8
DEFAULT_255_1_388
10
23.5078217
20
45.5040554
40
0.7145141
50
323.8962701
51
328.64194
0
ARC
8
DEFAULT_255_1_388
10
23.7380475
20
45.3620545
40
0.4440242
50
328.8294576
51
331.7891185
0
ARC
8
DEFAULT_255_1_388
10
23.8502795
20
45.3041374
40
0.3177517
50
331.4254512
51
352.9365785
0
ARC
8
DEFAULT_255_1_388
10
23.8655795
20
45.300705
40
0.3021496
50
353.2257659
51
0.0166158
0
ARC
8
DEFAULT_255_1_388
10
23.8892555
20
45.3032894
40
0.2784847
50
359.486299
51
15.9343185
0
ARC
8
DEFAULT_255_1_388
10
23.9462822
20
45.3186269
40
0.2194403
50
16.1712913
51
43.5286088
0
ARC
8
DEFAULT_255_1_388
10
23.9549767
20
45.3273191
40
0.2071504
50
43.4417391
51
83.1661095
0
ARC
8
DEFAULT_255_1_388
10
23.9398928
20
45.2444316
40
0.2912888
50
82.160179
51
90.1505708
0
ARC
8
DEFAULT_255_1_388
10
23.936341
20
45.1840279
40
0.3517025
50
89.5460741
51
102.5418361
0
ARC
8
DEFAULT_255_1_388
10
23.909013
20
45.2999933
40
0.2325748
50
102.1738499
51
129.206123
0
ARC
8
DEFAULT_255_1_388
10
23.9001583
20
45.3139664
40
0.2161591
50
129.72865
51
135.753947
0
ARC
8
DEFAULT_255_1_388
10
23.9138065
20
45.3030728
40
0.2335433
50
136.1757367
51
166.3673339
0
ARC
8
DEFAULT_255_1_388
10
24.0270754
20
45.2727148
40
0.3507873
50
165.9090694
51
178.8684636
0
ARC
8
DEFAULT_255_1_388
10
24.1246525
20
45.2674263
40
0.4484624
50
178.4391136
51
180.0083808
0
ARC
8
DEFAULT_255_1_388
10
23.9667227
20
45.2718197
40
0.4577138
50
163.2878482
51
180.5581842
0
ARC
8
DEFAULT_255_1_388
10
23.8765268
20
45.2966393
40
0.3641968
50
133.4540601
51
162.947111
0
ARC
8
DEFAULT_255_1_388
10
23.8966149
20
45.2752789
40
0.3935189
50
100.7869829
51
133.4382499
0
ARC
8
DEFAULT_255_1_388
10
23.9357394
20
45.1010399
40
0.5720313
50
89.660664
51
101.3702276
0
ARC
8
DEFAULT_255_1_388
10
23.9432003
20
45.1079263
40
0.5651495
50
78.2172678
51
90.412935
0
ARC
8
DEFAULT_255_1_388
10
23.9831469
20
45.2906511
40
0.378122
50
55.9269121
51
78.4888449
0
ARC
8
DEFAULT_255_1_388
10
24.0052184
20
45.3287187
40
0.3342379
50
47.929771
51
55.4049217
0
ARC
8
DEFAULT_255_1_388
10
24.0166715
20
45.3403618
40
0.3179217
50
4.334829
51
48.0560205
0
ARC
8
DEFAULT_255_1_388
10
23.8934516
20
45.3212487
40
0.442341
50
359.9251713
51
5.5971671
0
ARC
8
DEFAULT_255_1_388
10
23.9416671
20
45.3275728
40
0.3941854
50
337.8914027
51
358.9967534
0
ARC
8
DEFAULT_255_1_388
10
23.6364241
20
45.4453295
40
0.7213271
50
326.9132501
51
338.3508308
0
ARC
8
DEFAULT_255_1_388
10
23.1880353
20
45.7327105
40
1.2538973
50
319.6471833
51
327.0959558
0
ARC
8
DEFAULT_255_1_388
10
22.7567011
20
46.088505
40
1.8129975
50
317.2588228
51
319.9045804
0
LINE
8
DEFAULT_255_1_388
10
23.0519985
20
53.5988148
11
23.0519985
21
52.2769
0
LINE
8
DEFAULT_255_1_388
10
23.0519985
20
52.2769
11
22.8839355
21
52.2769
0
LINE
8
DEFAULT_255_1_388
10
22.8839355
20
52.2769
11
22.8839355
21
53.390995
0
LINE
8
DEFAULT_255_1_388
10
22.8839355
20
53.390995
11
22.546906
21
53.2672066
0
LINE
8
DEFAULT_255_1_388
10
22.546906
20
53.2672066
11
22.546906
21
53.4190055
0
LINE
8
DEFAULT_255_1_388
10
22.546906
20
53.4190055
11
23.0257951
21
53.5988148
0
LINE
8
DEFAULT_255_1_388
10
23.0257951
20
53.5988148
11
23.0519985
21
53.5988148
0
LINE
8
DEFAULT_255_1_388
10
24.0910976
20
53.5988148
11
24.0910976
21
52.2769
0
LINE
8
DEFAULT_255_1_388
10
24.0910976
20
52.2769
11
23.9230346
21
52.2769
0
LINE
8
DEFAULT_255_1_388
10
23.9230346
20
52.2769
11
23.9230346
21
53.390995
0
LINE
8
DEFAULT_255_1_388
10
23.9230346
20
53.390995
11
23.5860051
21
53.2672066
0
LINE
8
DEFAULT_255_1_388
10
23.5860051
20
53.2672066
11
23.5860051
21
53.4190055
0
LINE
8
DEFAULT_255_1_388
10
23.5860051
20
53.4190055
11
24.0648942
21
53.5988148
0
LINE
8
DEFAULT_255_1_388
10
24.0648942
20
53.5988148
11
24.0910976
21
53.5988148
0
LINE
8
DEFAULT_255_1_388
10
23.0445985
20
61.5363148
11
23.0445985
21
60.2144
0
LINE
8
DEFAULT_255_1_388
10
23.0445985
20
60.2144
11
22.8765355
21
60.2144
0
LINE
8
DEFAULT_255_1_388
10
22.8765355
20
60.2144
11
22.8765355
21
61.328495
0
LINE
8
DEFAULT_255_1_388
10
22.8765355
20
61.328495
11
22.539506
21
61.2047066
0
LINE
8
DEFAULT_255_1_388
10
22.539506
20
61.2047066
11
22.539506
21
61.3565055
0
LINE
8
DEFAULT_255_1_388
10
22.539506
20
61.3565055
11
23.0183951
21
61.5363148
0
LINE
8
DEFAULT_255_1_388
10
23.0183951
20
61.5363148
11
23.0445985
21
61.5363148
0
LINE
8
DEFAULT_255_1_388
10
24.3592848
20
60.992369
11
24.3592848
21
60.7755135
0
LINE
8
DEFAULT_255_1_388
10
23.528909
20
60.7529244
11
23.528909
21
60.9761048
0
LINE
8
DEFAULT_255_1_388
10
24.1921253
20
60.7303353
11
24.1921253
21
61.0041153
0
LINE
8
DEFAULT_255_1_388
10
23.6960685
20
61.0167652
11
23.6960685
21
60.7493102
0
ARC
8
DEFAULT_255_1_388
10
22.9815182
20
60.7700118
40
1.3777776
50
353.8440855
51
0.2287917
0
ARC
8
DEFAULT_255_1_388
10
23.5034199
20
60.7117414
40
0.852639
50
344.4934746
51
353.9763743
0
ARC
8
DEFAULT_255_1_388
10
23.8401006
20
60.6160191
40
0.5026273
50
329.2803599
51
344.7473406
0
ARC
8
DEFAULT_255_1_388
10
23.9516502
20
60.5548038
40
0.3754848
50
324.9361395
51
328.6153007
0
ARC
8
DEFAULT_255_1_388
10
23.9942152
20
60.5250586
40
0.3235566
50
280.5801797
51
324.9173226
0
ARC
8
DEFAULT_255_1_388
10
23.949078
20
60.7130236
40
0.5167077
50
269.5979457
51
281.6732777
0
ARC
8
DEFAULT_255_1_388
10
23.9409684
20
60.6995113
40
0.5032026
50
256.6228565
51
270.5105488
0
ARC
8
DEFAULT_255_1_388
10
23.8957427
20
60.5253345
40
0.3233092
50
215.8618351
51
257.2787793
0
ARC
8
DEFAULT_255_1_388
10
24.0106134
20
60.6024106
40
0.4615831
50
197.9695203
51
215.2622745
0
ARC
8
DEFAULT_255_1_388
10
24.2901809
20
60.6967641
40
0.7566307
50
187.8816486
51
198.2346584
0
ARC
8
DEFAULT_255_1_388
10
24.7355048
20
60.7610453
40
1.2065653
50
180.8977266
51
188.0054894
0
ARC
8
DEFAULT_255_1_388
10
25.0405261
20
60.77254
40
1.5117443
50
180.7434591
51
181.152202
0
ARC
8
DEFAULT_255_1_388
10
24.8730257
20
60.9815371
40
1.3441277
50
173.7674302
51
180.2315596
0
ARC
8
DEFAULT_255_1_388
10
24.3648126
20
61.0389779
40
0.8326847
50
164.3058537
51
173.9000553
0
ARC
8
DEFAULT_255_1_388
10
24.0372126
20
61.1333652
40
0.4917711
50
148.7922028
51
164.5682288
0
ARC
8
DEFAULT_255_1_388
10
23.9302864
20
61.1930457
40
0.3694204
50
144.5883979
51
148.1161588
0
ARC
8
DEFAULT_255_1_388
10
23.8915609
20
61.2200667
40
0.322202
50
101.6440149
51
144.5142619
0
ARC
8
DEFAULT_255_1_388
10
23.9393801
20
61.0300337
40
0.5180451
50
89.528284
51
102.5820197
0
ARC
8
DEFAULT_255_1_388
10
23.9482793
20
61.0256376
40
0.5224441
50
77.0437914
51
90.508231
0
ARC
8
DEFAULT_255_1_388
10
23.9935047
20
61.2104272
40
0.3322297
50
48.2777708
51
77.4996087
0
ARC
8
DEFAULT_255_1_388
10
24.0016787
20
61.2249557
40
0.315966
50
36.3141586
51
47.6307332
0
ARC
8
DEFAULT_255_1_388
10
23.9039509
20
61.1591159
40
0.4337313
50
18.2931065
51
35.6770203
0
ARC
8
DEFAULT_255_1_388
10
23.617835
20
61.0609107
40
0.7362203
50
8.0246996
51
18.5605636
0
ARC
8
DEFAULT_255_1_388
10
23.1494705
20
60.9917432
40
1.2096583
50
1.127539
51
8.1718423
0
ARC
8
DEFAULT_255_1_388
10
22.7845839
20
60.9774374
40
1.5747719
50
0.5432713
51
1.38669
0
ARC
8
DEFAULT_255_1_388
10
22.9903217
20
61.0081163
40
1.2018103
50
359.8092569
51
4.9408001
0
ARC
8
DEFAULT_255_1_388
10
23.4639799
20
61.05039
40
0.7262727
50
4.8364937
51
12.2906017
0
ARC
8
DEFAULT_255_1_388
10
23.7739263
20
61.1194485
40
0.4087324
50
12.0806994
51
23.8171225
0
ARC
8
DEFAULT_255_1_388
10
23.9059659
20
61.1753508
40
0.2653719
50
24.2874621
51
31.3934353
0
ARC
8
DEFAULT_255_1_388
10
23.9650095
20
61.2139822
40
0.1948607
50
30.7407708
51
82.4658033
0
ARC
8
DEFAULT_255_1_388
10
23.9447756
20
61.1146017
40
0.2961198
50
81.1057101
51
90.2187368
0
ARC
8
DEFAULT_255_1_388
10
23.9407568
20
61.1436421
40
0.2670929
50
89.380395
51
105.6763916
0
ARC
8
DEFAULT_255_1_388
10
23.920129
20
61.218632
40
0.1893189
50
105.7980655
51
149.7387869
0
ARC
8
DEFAULT_255_1_388
10
24.039843
20
61.1466719
40
0.3289892
50
149.4208441
51
163.628295
0
ARC
8
DEFAULT_255_1_388
10
24.275066
20
61.0749345
40
0.5749004
50
163.3764549
51
172.141138
0
ARC
8
DEFAULT_255_1_388
10
24.6463381
20
61.0217582
40
0.9499585
50
172.0258462
51
178.0705453
0
ARC
8
DEFAULT_255_1_388
10
24.9884934
20
61.0055682
40
1.2924734
50
177.8639301
51
179.5036263
0
ARC
8
DEFAULT_255_1_388
10
24.8665953
20
60.7452151
40
1.170534
50
179.7995545
51
185.246089
0
ARC
8
DEFAULT_255_1_388
10
24.4117546
20
60.7021404
40
0.7136613
50
185.1411911
51
193.0082205
0
ARC
8
DEFAULT_255_1_388
10
24.1143806
20
60.6318441
40
0.4080987
50
192.7897338
51
205.2507384
0
ARC
8
DEFAULT_255_1_388
10
23.9966016
20
60.5792538
40
0.2791522
50
205.8001921
51
211.2545876
0
ARC
8
DEFAULT_255_1_388
10
23.9377555
20
60.5398132
40
0.2084074
50
210.3789935
51
238.4007996
0
ARC
8
DEFAULT_255_1_388
10
23.9355641
20
60.5450786
40
0.2117943
50
239.6521916
51
265.9793852
0
ARC
8
DEFAULT_255_1_388
10
23.945149
20
60.6207358
40
0.2879689
50
265.1324455
51
270.0603288
0
ARC
8
DEFAULT_255_1_388
10
23.9483867
20
60.5842418
40
0.2514919
50
269.3314378
51
287.2180039
0
ARC
8
DEFAULT_255_1_388
10
23.963895
20
60.5276291
40
0.1928357
50
287.7957942
51
329.0808983
0
ARC
8
DEFAULT_255_1_388
10
23.8561707
20
60.5948651
40
0.319808
50
328.6635261
51
343.3325043
0
ARC
8
DEFAULT_255_1_388
10
23.6117165
20
60.6710195
40
0.5758408
50
343.0498092
51
351.9392499
0
ARC
8
DEFAULT_255_1_388
10
23.2216487
20
60.7285205
40
0.9701202
50
351.8071632
51
357.7957897
0
ARC
8
DEFAULT_255_1_388
10
22.8581964
20
60.7473724
40
1.3340376
50
357.5870923
51
359.2682493
0
LINE
8
DEFAULT_255_1_388
10
24.3442215
20
68.9416153
11
24.3442215
21
68.8928229
0
LINE
8
DEFAULT_255_1_388
10
23.7343155
20
68.1509964
11
23.7017872
21
68.1509964
0
LINE
8
DEFAULT_255_1_388
10
23.7017872
20
68.1509964
11
23.7017872
21
68.2919525
0
LINE
8
DEFAULT_255_1_388
10
23.7017872
20
68.2919525
11
23.7370262
21
68.2919525
0
LINE
8
DEFAULT_255_1_388
10
24.1770621
20
68.909087
11
24.1770621
21
68.9759508
0
ARC
8
DEFAULT_255_1_388
10
23.8627713
20
68.9929877
40
0.4089973
50
297.4036461
51
320.0168133
0
ARC
8
DEFAULT_255_1_388
10
23.8953893
20
68.9303072
40
0.3383378
50
270.2631886
51
297.3852322
0
ARC
8
DEFAULT_255_1_388
10
23.8915569
20
68.9840343
40
0.3920983
50
269.9969069
51
270.7871389
0
ARC
8
DEFAULT_255_1_388
10
23.8886892
20
68.9822737
40
0.3903482
50
254.5997295
51
270.4178147
0
ARC
8
DEFAULT_255_1_388
10
23.8726424
20
68.9187693
40
0.3248657
50
236.4717231
51
254.3539376
0
ARC
8
DEFAULT_255_1_388
10
23.8902155
20
68.9423999
40
0.3542746
50
208.4727261
51
236.2134628
0
ARC
8
DEFAULT_255_1_388
10
23.9620919
20
68.9863676
40
0.4384402
50
204.3450776
51
209.0455365
0
ARC
8
DEFAULT_255_1_388
10
24.0385295
20
69.01878
40
0.5214459
50
183.9375459
51
204.1275509
0
ARC
8
DEFAULT_255_1_388
10
24.1407601
20
69.0297863
40
0.6242037
50
179.9652726
51
184.3010611
0
ARC
8
DEFAULT_255_1_388
10
24.1137146
20
69.0335004
40
0.5971675
50
166.7585952
51
180.3200491
0
ARC
8
DEFAULT_255_1_388
10
24.0184954
20
69.0541979
40
0.4997418
50
154.6954866
51
166.5679151
0
ARC
8
DEFAULT_255_1_388
10
23.9225194
20
69.1025411
40
0.3923208
50
136.3325251
51
155.0871367
0
ARC
8
DEFAULT_255_1_388
10
23.8909114
20
69.1296271
40
0.3507618
50
121.2365985
51
135.9680081
0
ARC
8
DEFAULT_255_1_388
10
23.9067178
20
69.1003541
40
0.3839917
50
96.8454764
51
120.9881329
0
ARC
8
DEFAULT_255_1_388
10
23.9230984
20
68.9950942
40
0.4904679
50
89.887204
51
97.2797758
0
ARC
8
DEFAULT_255_1_388
10
23.9289957
20
69.0668652
40
0.418725
50
70.6505767
51
90.6748382
0
ARC
8
DEFAULT_255_1_388
10
23.9437654
20
69.1246091
40
0.3593866
50
36.7493297
51
69.8220487
0
ARC
8
DEFAULT_255_1_388
10
23.8314001
20
69.0370446
40
0.5018201
50
15.3958155
51
37.0841102
0
ARC
8
DEFAULT_255_1_388
10
23.5918286
20
68.9672111
40
0.7513436
50
3.9487796
51
15.6798517
0
ARC
8
DEFAULT_255_1_388
10
23.3216928
20
68.942881
40
1.0225293
50
359.9290791
51
4.266464
0
ARC
8
DEFAULT_255_1_388
10
22.8035845
20
68.8853372
40
1.5406551
50
352.8365702
51
0.2783851
0
ARC
8
DEFAULT_255_1_388
10
23.3984076
20
68.8080664
40
0.9408425
50
341.8359339
51
352.9884057
0
ARC
8
DEFAULT_255_1_388
10
23.7605063
20
68.6860144
40
0.5587481
50
322.8579243
51
342.1527461
0
ARC
8
DEFAULT_255_1_388
10
23.8576755
20
68.619735
40
0.4413099
50
319.3348471
51
322.100194
0
ARC
8
DEFAULT_255_1_388
10
23.8228687
20
68.6546814
40
0.4904992
50
285.954114
51
318.8878716
0
ARC
8
DEFAULT_255_1_388
10
23.7411124
20
68.9145865
40
0.7628991
50
272.9280841
51
286.4924389
0
ARC
8
DEFAULT_255_1_388
10
23.7197428
20
69.168024
40
1.017132
50
270.8209173
51
273.4010121
0
ARC
8
DEFAULT_255_1_388
10
23.7297451
20
68.9632073
40
0.6712943
50
270.6214576
51
281.4062333
0
ARC
8
DEFAULT_255_1_388
10
23.7781176
20
68.731925
40
0.4350167
50
281.1852583
51
299.0622058
0
ARC
8
DEFAULT_255_1_388
10
23.8201421
20
68.6508138
40
0.3437146
50
299.5068171
51
313.1200142
0
ARC
8
DEFAULT_255_1_388
10
23.8226158
20
68.6418959
40
0.3355418
50
313.8525725
51
338.5989631
0
ARC
8
DEFAULT_255_1_388
10
23.6399286
20
68.7169576
40
0.5330317
50
338.2523315
51
351.2431701
0
ARC
8
DEFAULT_255_1_388
10
23.3687037
20
68.7630494
40
0.8081235
50
350.940933
51
357.6690137
0
ARC
8
DEFAULT_255_1_388
10
23.9188917
20
68.9883048
40
0.2581236
50
269.9447107
51
306.8249644
0
ARC
8
DEFAULT_255_1_388
10
23.8922219
20
69.035906
40
0.3122948
50
305.5071046
51
327.0773808
0
ARC
8
DEFAULT_255_1_388
10
23.9055271
20
69.0252445
40
0.2953369
50
327.4106457
51
336.8396801
0
ARC
8
DEFAULT_255_1_388
10
23.5574984
20
68.9795932
40
0.6195743
50
359.663158
51
10.1176387
0
ARC
8
DEFAULT_255_1_388
10
23.7547747
20
69.0160922
40
0.4189561
50
9.9431549
51
26.7699242
0
ARC
8
DEFAULT_255_1_388
10
23.8219733
20
69.0470796
40
0.3450125
50
27.2018067
51
34.6833639
0
ARC
8
DEFAULT_255_1_388
10
23.8770346
20
69.088456
40
0.2762035
50
34.124913
51
50.30709
0
ARC
8
DEFAULT_255_1_388
10
23.9272829
20
69.1485741
40
0.1978518
50
50.3850304
51
90.6705051
0
ARC
8
DEFAULT_255_1_388
10
23.9220223
20
69.1143074
40
0.2321235
50
89.2729817
51
111.9140267
0
ARC
8
DEFAULT_255_1_388
10
23.919831
20
69.1301308
40
0.2166604
50
112.9381864
51
142.5320936
0
ARC
8
DEFAULT_255_1_388
10
23.9812799
20
69.0802392
40
0.2957902
50
142.1024021
51
166.3835244
0
ARC
8
DEFAULT_255_1_388
10
24.1141769
20
69.0459213
40
0.4330361
50
166.1100968
51
178.6653563
0
ARC
8
DEFAULT_255_1_388
10
24.2323695
20
69.0393061
40
0.5513642
50
178.2641888
51
180.010994
0
ARC
8
DEFAULT_255_1_388
10
24.1418196
20
69.0361136
40
0.4608248
50
179.6162225
51
191.8786013
0
ARC
8
DEFAULT_255_1_388
10
24.0045506
20
69.005759
40
0.3202502
50
191.6192934
51
215.2970746
0
ARC
8
DEFAULT_255_1_388
10
23.9806161
20
68.9914963
40
0.2924827
50
215.7258926
51
216.5355437
0
ARC
8
DEFAULT_255_1_388
10
23.9217782
20
68.9441919
40
0.2170661
50
215.7486606
51
239.9728403
0
ARC
8
DEFAULT_255_1_388
10
23.9138947
20
68.9384838
40
0.208217
50
241.065081
51
269.280972
0
ARC
8
DEFAULT_255_1_388
10
23.9186106
20
68.9940327
40
0.2638514
50
268.4083352
51
270.0069622
0
ARC
8
DEFAULT_255_1_388
10
24.0158818
20
77.058772
40
0.3175098
50
338.8762533
51
0.5167111
0
ARC
8
DEFAULT_255_1_388
10
24.0348412
20
77.05366
40
0.2979894
50
325.8415285
51
338.4793574
0
ARC
8
DEFAULT_255_1_388
10
23.9909046
20
77.0841242
40
0.351452
50
296.7587686
51
325.7536481
0
ARC
8
DEFAULT_255_1_388
10
23.9580673
20
77.1395363
40
0.4157374
50
296.0927901
51
297.3613472
0
ARC
8
DEFAULT_255_1_388
10
23.9874869
20
76.4012593
40
0.395855
50
47.9007294
51
67.1948823
0
ARC
8
DEFAULT_255_1_388
10
24.0095511
20
76.4289599
40
0.360516
50
35.2363914
51
47.551141
0
ARC
8
DEFAULT_255_1_388
10
24.0389915
20
76.4486093
40
0.3251343
50
359.2759765
51
35.4014143
0
ARC
8
DEFAULT_255_1_388
10
23.9551841
20
76.4403787
40
0.4089365
50
343.1293083
51
0.5775513
0
ARC
8
DEFAULT_255_1_388
10
24.0366955
20
76.4179336
40
0.3244269
50
310.8496669
51
342.7449331
0
ARC
8
DEFAULT_255_1_388
10
23.9896829
20
76.4715913
40
0.3957651
50
281.5472888
51
310.9170406
0
ARC
8
DEFAULT_255_1_388
10
23.9495704
20
76.6462814
40
0.5749654
50
269.619248
51
281.9789564
0
ARC
8
DEFAULT_255_1_388
10
23.9414482
20
76.6463776
40
0.5750649
50
257.4585678
51
270.4285689
0
ARC
8
DEFAULT_255_1_388
10
23.8986002
20
76.4659741
40
0.389671
50
228.7554326
51
257.8484789
0
ARC
8
DEFAULT_255_1_388
10
23.8637487
20
76.4240228
40
0.335154
50
184.0104975
51
228.5071184
0
ARC
8
DEFAULT_255_1_388
10
23.994588
20
76.443943
40
0.4671891
50
179.9315832
51
185.3253753
0
ARC
8
DEFAULT_255_1_388
10
23.8622392
20
76.4481592
40
0.33486
50
145.6796023
51
180.6259786
0
ARC
8
DEFAULT_255_1_388
10
23.8806158
20
76.4353271
40
0.3572723
50
115.5537685
51
145.6415986
0
ARC
8
DEFAULT_255_1_388
10
23.9189202
20
76.3667087
40
0.4357296
50
113.243307
51
116.2057839
0
ARC
8
DEFAULT_255_1_388
10
23.9017854
20
77.0864379
40
0.3549126
50
222.9549744
51
244.1370481
0
ARC
8
DEFAULT_255_1_388
10
23.8880497
20
77.0710378
40
0.3343711
50
213.3436887
51
222.6274467
0
ARC
8
DEFAULT_255_1_388
10
23.8664566
20
77.0563653
40
0.3082678
50
180.431584
51
213.271499
0
ARC
8
DEFAULT_255_1_388
10
23.9299565
20
77.0616296
40
0.3718363
50
179.9991191
51
181.1690594
0
ARC
8
DEFAULT_255_1_388
10
23.9772021
20
77.0655072
40
0.4190996
50
164.6186169
51
180.529336
0
ARC
8
DEFAULT_255_1_388
10
23.876167
20
77.092678
40
0.3144772
50
132.2455553
51
164.5090724
0
ARC
8
DEFAULT_255_1_388
10
23.9084649
20
77.056107
40
0.3632644
50
100.7053914
51
132.1386381
0
ARC
8
DEFAULT_255_1_388
10
23.942771
20
76.9011118
40
0.5219578
50
89.6730358
51
101.2451698
0
ARC
8
DEFAULT_255_1_388
10
23.9497701
20
76.9207648
40
0.5023124
50
76.287748
51
90.4586006
0
ARC
8
DEFAULT_255_1_388
10
23.9842203
20
77.0582671
40
0.3605639
50
47.8240511
51
76.4266241
0
ARC
8
DEFAULT_255_1_388
10
24.0092587
20
77.0875599
40
0.3220463
50
6.9168387
51
47.6262497
0
ARC
8
DEFAULT_255_1_388
10
23.875804
20
77.0629004
40
0.4575765
50
359.8415968
51
7.9697453
0
ARC
8
DEFAULT_255_1_388
10
23.914231
20
76.4508519
40
0.2827228
50
359.445363
51
16.9256873
0
ARC
8
DEFAULT_255_1_388
10
23.9669744
20
76.4653781
40
0.2280396
50
17.2920767
51
45.4630727
0
ARC
8
DEFAULT_255_1_388
10
23.9608879
20
76.4601324
40
0.2360485
50
45.30305
51
83.1920945
0
ARC
8
DEFAULT_255_1_388
10
23.9447624
20
76.3699473
40
0.3275527
50
82.2612665
51
90.1434275
0
ARC
8
DEFAULT_255_1_388
10
23.94129
20
76.3961869
40
0.3013237
50
89.4956434
51
104.8580688
0
ARC
8
DEFAULT_255_1_388
10
23.921409
20
76.4715455
40
0.2233867
50
104.8856641
51
135.244616
0
ARC
8
DEFAULT_255_1_388
10
23.9270079
20
76.4665352
40
0.2308906
50
135.3399546
51
172.1044062
0
ARC
8
DEFAULT_255_1_388
10
24.0177603
20
76.4491667
40
0.3232034
50
171.2645637
51
180.186429
0
ARC
8
DEFAULT_255_1_388
10
23.9987608
20
76.4455426
40
0.304213
50
179.5154935
51
193.6464289
0
ARC
8
DEFAULT_255_1_388
10
23.9069284
20
76.4221473
40
0.209456
50
193.3540274
51
225.8258581
0
ARC
8
DEFAULT_255_1_388
10
23.9115156
20
76.4301076
40
0.2183738
50
226.4180634
51
255.8552336
0
ARC
8
DEFAULT_255_1_388
10
23.9403623
20
76.5354521
40
0.3275812
50
255.4654104
51
268.7987425
0
ARC
8
DEFAULT_255_1_388
10
23.9456799
20
76.6296545
40
0.4218877
50
268.3449238
51
270.0094605
0
ARC
8
DEFAULT_255_1_388
10
23.9483032
20
76.5528094
40
0.3450519
50
269.5759586
51
282.0820163
0
ARC
8
DEFAULT_255_1_388
10
23.9736069
20
76.4409363
40
0.2303642
50
281.752014
51
306.6056188
0
ARC
8
DEFAULT_255_1_388
10
23.9846877
20
76.4227802
40
0.2091906
50
307.1346085
51
314.027845
0
ARC
8
DEFAULT_255_1_388
10
23.9806389
20
76.4257459
40
0.2141385
50
314.2552483
51
350.1694025
0
ARC
8
DEFAULT_255_1_388
10
23.8848626
20
76.4465175
40
0.312082
50
349.4140529
51
0.2933014
0
ARC
8
DEFAULT_255_1_388
10
23.9433903
20
77.0268924
40
0.2588377
50
89.477747
51
105.729729
0
ARC
8
DEFAULT_255_1_388
10
23.9280823
20
77.0837367
40
0.1999733
50
105.9233417
51
135.1660906
0
ARC
8
DEFAULT_255_1_388
10
23.9303854
20
77.0821412
40
0.2027322
50
135.3052302
51
168.9883645
0
ARC
8
DEFAULT_255_1_388
10
24.023487
20
77.0607996
40
0.2982129
50
168.3801673
51
180.3602268
0
ARC
8
DEFAULT_255_1_388
10
23.9977987
20
77.0565622
40
0.2725291
50
179.5033122
51
194.9125571
0
ARC
8
DEFAULT_255_1_388
10
23.9319394
20
77.0392427
40
0.204431
50
194.9720816
51
224.194444
0
ARC
8
DEFAULT_255_1_388
10
23.9287759
20
77.0366635
40
0.2003651
50
224.2962453
51
262.015664
0
ARC
8
DEFAULT_255_1_388
10
23.9447763
20
77.1189315
40
0.2840925
50
261.1245923
51
270.1962896
0
ARC
8
DEFAULT_255_1_388
10
23.9481244
20
77.0978859
40
0.2630559
50
269.4827276
51
285.0987215
0
ARC
8
DEFAULT_255_1_388
10
23.965468
20
77.0328175
40
0.1957162
50
285.1585357
51
315.9484501
0
ARC
8
DEFAULT_255_1_388
10
23.9554554
20
77.0420315
40
0.2093195
50
316.0413965
51
351.916092
0
ARC
8
DEFAULT_255_1_388
10
23.8729928
20
77.0579323
40
0.2932279
50
351.105835
51
0.1939062
0
ARC
8
DEFAULT_255_1_388
10
23.9025562
20
77.0613224
40
0.2636739
50
359.4789618
51
16.0678224
0
ARC
8
DEFAULT_255_1_388
10
23.9561034
20
77.0757721
40
0.2082215
50
16.3252067
51
44.7913869
0
ARC
8
DEFAULT_255_1_388
10
23.9541096
20
77.075832
40
0.2095992
50
44.3957814
51
88.2499162
0
ARC
8
DEFAULT_255_1_388
10
23.9458431
20
77.0070006
40
0.2787189
50
86.9833854
51
90.0192215
0
LINE
8
DEFAULT_255_1_388
10
24.3848819
20
85.3424898
11
24.3848819
21
85.2485191
0
LINE
8
DEFAULT_255_1_388
10
24.3848819
20
85.2485191
11
23.8400325
21
84.0269
0
LINE
8
DEFAULT_255_1_388
10
23.8400325
20
84.0269
11
23.664741
21
84.0269
0
LINE
8
DEFAULT_255_1_388
10
23.664741
20
84.0269
11
24.2077833
21
85.205148
0
LINE
8
DEFAULT_255_1_388
10
24.2077833
20
85.205148
11
23.4957745
21
85.205148
0
LINE
8
DEFAULT_255_1_388
10
23.4957745
20
85.205148
11
23.4957745
21
85.3424898
0
LINE
8
DEFAULT_255_1_388
10
23.4957745
20
85.3424898
11
24.3848819
21
85.3424898
0
LINE
8
DEFAULT_255_1_388
10
24.1617015
20
93.2808934
11
24.1915191
21
93.2808934
0
LINE
8
DEFAULT_255_1_388
10
24.1915191
20
93.2808934
11
24.1915191
21
93.1390338
0
LINE
8
DEFAULT_255_1_388
10
24.1915191
20
93.1390338
11
24.1607979
21
93.1390338
0
LINE
8
DEFAULT_255_1_388
10
23.5454705
20
92.4649747
11
23.5454705
21
92.5291278
0
LINE
8
DEFAULT_255_1_388
10
23.7135335
20
92.5074422
11
23.7135335
21
92.4459999
0
ARC
8
DEFAULT_255_1_388
10
24.1666871
20
92.5767826
40
0.562282
50
90.6001079
51
104.5146616
0
ARC
8
DEFAULT_255_1_388
10
24.122983
20
92.73931
40
0.3939917
50
104.2855758
51
133.8630124
0
ARC
8
DEFAULT_255_1_388
10
24.1414083
20
92.7271243
40
0.4155734
50
134.5304124
51
161.6210222
0
ARC
8
DEFAULT_255_1_388
10
24.3274015
20
92.6615421
40
0.6127682
50
161.2850533
51
174.2074364
0
ARC
8
DEFAULT_255_1_388
10
24.4863582
20
92.6396437
40
0.7731446
50
173.7817938
51
174.9251711
0
ARC
8
DEFAULT_255_1_388
10
23.9737775
20
92.484127
40
0.3412588
50
95.8332067
51
138.995412
0
ARC
8
DEFAULT_255_1_388
10
23.9989056
20
92.3402695
40
0.4870358
50
89.8755506
51
97.0540979
0
ARC
8
DEFAULT_255_1_388
10
24.0042445
20
92.4342841
40
0.3930432
50
71.6407016
51
90.6240821
0
ARC
8
DEFAULT_255_1_388
10
24.0211838
20
92.4966433
40
0.3285421
50
39.6368051
51
71.0190743
0
ARC
8
DEFAULT_255_1_388
10
23.9495746
20
92.4347586
40
0.4231706
50
10.6588054
51
39.9044509
0
ARC
8
DEFAULT_255_1_388
10
23.7754291
20
92.3969223
40
0.60133
50
359.6827842
51
11.1326896
0
ARC
8
DEFAULT_255_1_388
10
23.7709627
20
92.3889715
40
0.6058047
50
347.2485908
51
0.4371098
0
ARC
8
DEFAULT_255_1_388
10
23.9585413
20
92.3438379
40
0.4128987
50
318.1408565
51
347.6118497
0
ARC
8
DEFAULT_255_1_388
10
23.9951009
20
92.3137903
40
0.3656244
50
275.6342406
51
317.824739
0
ARC
8
DEFAULT_255_1_388
10
23.970253
20
92.4599827
40
0.513655
50
269.8872513
51
276.7916069
0
ARC
8
DEFAULT_255_1_388
10
23.9640723
20
92.3446181
40
0.398323
50
246.9139443
51
270.7436787
0
ARC
8
DEFAULT_255_1_388
10
23.9647919
20
92.3286044
40
0.3839368
50
218.1665534
51
245.8780431
0
ARC
8
DEFAULT_255_1_388
10
24.0637291
20
92.4113903
40
0.5128958
50
191.4115343
51
218.6077624
0
ARC
8
DEFAULT_255_1_388
10
24.2817607
20
92.4602777
40
0.7363054
50
179.6344971
51
191.7836758
0
ARC
8
DEFAULT_255_1_388
10
24.9097482
20
92.5366495
40
1.3642984
50
171.4523743
51
180.3158856
0
ARC
8
DEFAULT_255_1_388
10
24.4153209
20
92.6135895
40
0.8639311
50
157.9802296
51
171.6246761
0
ARC
8
DEFAULT_255_1_388
10
24.1662559
20
92.7129038
40
0.5958004
50
141.4299236
51
157.8541251
0
ARC
8
DEFAULT_255_1_388
10
24.0940643
20
92.7639746
40
0.5075416
50
102.871586
51
140.8564533
0
ARC
8
DEFAULT_255_1_388
10
24.1669195
20
92.4894943
40
0.7914163
50
90.377773
51
103.5868422
0
ARC
8
DEFAULT_255_1_388
10
23.9713717
20
92.4214543
40
0.2667015
50
89.8751238
51
126.2072139
0
ARC
8
DEFAULT_255_1_388
10
23.9765188
20
92.4040847
40
0.2838229
50
124.9742447
51
144.8960197
0
ARC
8
DEFAULT_255_1_388
10
23.9567433
20
92.4201981
40
0.2583845
50
145.2974778
51
160.2660922
0
ARC
8
DEFAULT_255_1_388
10
24.3023921
20
92.4424151
40
0.5888695
50
179.6512124
51
190.285571
0
ARC
8
DEFAULT_255_1_388
10
24.1118401
20
92.4064968
40
0.3949683
50
190.0944895
51
207.5099647
0
ARC
8
DEFAULT_255_1_388
10
24.0481982
20
92.3762177
40
0.3245464
50
207.9585471
51
216.325377
0
ARC
8
DEFAULT_255_1_388
10
24.0099619
20
92.3447712
40
0.2751259
50
215.7661336
51
232.5457193
0
ARC
8
DEFAULT_255_1_388
10
23.9668735
20
92.2900273
40
0.2054668
50
232.8005815
51
270.6605497
0
ARC
8
DEFAULT_255_1_388
10
23.972016
20
92.3309853
40
0.2464268
50
269.3550767
51
288.474612
0
ARC
8
DEFAULT_255_1_388
10
23.9824667
20
92.2916721
40
0.2058436
50
289.1831976
51
322.9685307
0
ARC
8
DEFAULT_255_1_388
10
23.9136768
20
92.3459279
40
0.2934408
50
322.6007085
51
346.5183319
0
ARC
8
DEFAULT_255_1_388
10
23.7834524
20
92.3791434
40
0.4278249
50
346.2584622
51
358.7739592
0
ARC
8
DEFAULT_255_1_388
10
23.66831
20
92.3853829
40
0.5430876
50
358.3757628
51
0.0082477
0
ARC
8
DEFAULT_255_1_388
10
23.7539918
20
92.3884856
40
0.4574157
50
359.6211417
51
11.28403
0
ARC
8
DEFAULT_255_1_388
10
23.8976524
20
92.4184535
40
0.3106708
50
11.0483152
51
31.8145585
0
ARC
8
DEFAULT_255_1_388
10
23.9324229
20
92.4373045
40
0.2711963
50
32.3028554
51
38.0820598
0
ARC
8
DEFAULT_255_1_388
10
23.9797462
20
92.4801717
40
0.2075566
50
36.8249851
51
85.741667
0
ARC
8
DEFAULT_255_1_388
10
23.9721875
20
92.4238065
40
0.2643487
50
85.0150021
51
90.050843
0
LINE
8
DEFAULT_255_1_388
10
23.7460618
20
100.5271666
11
23.6123343
21
100.5615021
0
LINE
8
DEFAULT_255_1_388
10
23.6123343
20
100.5615021
11
23.679198
21
101.2174898
0
LINE
8
DEFAULT_255_1_388
10
23.679198
20
101.2174898
11
24.3532571
21
101.2174898
0
LINE
8
DEFAULT_255_1_388
10
24.3532571
20
101.2174898
11
24.3532571
21
101.0629803
0
LINE
8
DEFAULT_255_1_388
10
24.3532571
20
101.0629803
11
23.8210577
21
101.0629803
0
LINE
8
DEFAULT_255_1_388
10
23.8210577
20
101.0629803
11
23.7813008
21
100.7042652
0
LINE
8
DEFAULT_255_1_388
10
23.5653489
20
100.2479652
11
23.7234727
21
100.2479652
0
LINE
8
DEFAULT_255_1_388
10
23.7903365
20
100.5633092
11
23.7460618
21
100.5271666
0
ARC
8
DEFAULT_255_1_388
10
23.9899622
20
100.3465241
40
0.4141476
50
93.7181681
51
120.253934
0
ARC
8
DEFAULT_255_1_388
10
24.0005674
20
100.2556284
40
0.5055616
50
89.9660471
51
94.2495185
0
ARC
8
DEFAULT_255_1_388
10
24.0051496
20
100.3219154
40
0.4392953
50
73.8045384
51
90.5585736
0
ARC
8
DEFAULT_255_1_388
10
24.0315754
20
100.418452
40
0.3392225
50
41.3071072
51
73.543002
0
ARC
8
DEFAULT_255_1_388
10
23.9847574
20
100.3781461
40
0.4009977
50
13.5075837
51
41.2174839
0
ARC
8
DEFAULT_255_1_388
10
23.8000671
20
100.3297907
40
0.5918864
50
1.1330171
51
13.8830737
0
ARC
8
DEFAULT_255_1_388
10
23.6404317
20
100.3212522
40
0.7516787
50
359.9925091
51
1.5431298
0
ARC
8
DEFAULT_255_1_388
10
23.7848932
20
100.3166027
40
0.6072343
50
347.8572712
51
0.4294349
0
ARC
8
DEFAULT_255_1_388
10
23.9818066
20
100.2719898
40
0.4053482
50
323.6727442
51
348.1674594
0
ARC
8
DEFAULT_255_1_388
10
24.0149031
20
100.2518175
40
0.3667495
50
316.8171818
51
323.1486802
0
ARC
8
DEFAULT_255_1_388
10
24.0218155
20
100.2476612
40
0.358869
50
281.839603
51
316.5458142
0
ARC
8
DEFAULT_255_1_388
10
23.9795442
20
100.4226363
40
0.5388223
50
269.5770964
51
282.4214641
0
ARC
8
DEFAULT_255_1_388
10
23.9715363
20
100.398593
40
0.5147801
50
256.2425863
51
270.4486481
0
ARC
8
DEFAULT_255_1_388
10
23.9378891
20
100.2636124
40
0.3756708
50
228.9024379
51
256.33135
0
ARC
8
DEFAULT_255_1_388
10
23.9295871
20
100.2505054
40
0.360344
50
193.7536029
51
228.5272638
0
ARC
8
DEFAULT_255_1_388
10
24.0688436
20
100.2913463
40
0.5053599
50
184.9244437
51
194.4976052
0
ARC
8
DEFAULT_255_1_388
10
24.0905077
20
100.2953722
40
0.3700839
50
187.3596909
51
198.6733728
0
ARC
8
DEFAULT_255_1_388
10
23.9724321
20
100.2544373
40
0.2451195
50
198.4453795
51
217.7945479
0
ARC
8
DEFAULT_255_1_388
10
23.9391493
20
100.2308563
40
0.2043754
50
218.2887146
51
228.5613203
0
ARC
8
DEFAULT_255_1_388
10
23.95015
20
100.2456902
40
0.2227819
50
228.9652423
51
258.1237049
0
ARC
8
DEFAULT_255_1_388
10
23.9732937
20
100.3447964
40
0.3245374
50
257.7260585
51
270.4013717
0
ARC
8
DEFAULT_255_1_388
10
23.9783435
20
100.2947255
40
0.2744726
50
269.4204315
51
286.420998
0
ARC
8
DEFAULT_255_1_388
10
23.9950491
20
100.2340705
40
0.2115721
50
286.7250065
51
320.6004665
0
ARC
8
DEFAULT_255_1_388
10
23.9519407
20
100.2690527
40
0.2670878
50
320.6712228
51
344.5440474
0
ARC
8
DEFAULT_255_1_388
10
23.821812
20
100.3072394
40
0.4026927
50
344.241448
51
356.735803
0
ARC
8
DEFAULT_255_1_388
10
23.6814428
20
100.3188656
40
0.5435085
50
356.3547471
51
0.0507222
0
ARC
8
DEFAULT_255_1_388
10
23.8316693
20
100.3223812
40
0.3932934
50
359.5579289
51
12.9534322
0
ARC
8
DEFAULT_255_1_388
10
23.9503533
20
100.3511586
40
0.2711827
50
12.6489751
51
41.608121
0
ARC
8
DEFAULT_255_1_388
10
23.9762693
20
100.3731946
40
0.2371737
50
41.7851122
51
85.9892156
0
ARC
8
DEFAULT_255_1_388
10
23.9624003
20
100.2816738
40
0.3295244
50
84.6965848
51
90.0672125
0
ARC
8
DEFAULT_255_1_388
10
23.959757
20
100.2065118
40
0.4046926
50
89.6804991
51
99.161352
0
ARC
8
DEFAULT_255_1_388
10
23.9366579
20
100.3445848
40
0.2647044
50
98.9836248
51
113.8905702
0
ARC
8
DEFAULT_255_1_388
10
23.9108254
20
100.4055118
40
0.1985386
50
114.195234
51
127.3641866
0
LINE
8
DEFAULT_255_1_388
10
23.9766151
20
109.1549898
11
23.9766151
21
108.281243
0
LINE
8
DEFAULT_255_1_388
10
23.9766151
20
108.281243
11
24.1591352
21
108.281243
0
LINE
8
DEFAULT_255_1_388
10
24.1591352
20
108.281243
11
24.1591352
21
108.1448048
0
LINE
8
DEFAULT_255_1_388
10
24.1591352
20
108.1448048
11
23.9766151
21
108.1448048
0
LINE
8
DEFAULT_255_1_388
10
23.9766151
20
108.1448048
11
23.9766151
21
107.8394
0
LINE
8
DEFAULT_255_1_388
10
23.9766151
20
107.8394
11
23.8085521
21
107.8394
0
LINE
8
DEFAULT_255_1_388
10
23.8085521
20
107.8394
11
23.8085521
21
108.1448048
0
LINE
8
DEFAULT_255_1_388
10
23.8085521
20
108.1448048
11
23.2094889
21
108.1448048
0
LINE
8
DEFAULT_255_1_388
10
23.2094889
20
108.1448048
11
23.2094889
21
108.2432933
0
LINE
8
DEFAULT_255_1_388
10
23.2094889
20
108.2432933
11
23.7986129
21
109.1549898
0
LINE
8
DEFAULT_255_1_388
10
23.7986129
20
109.1549898
11
23.9766151
21
109.1549898
0
LINE
8
DEFAULT_255_1_388
10
23.7886737
20
108.8902455
11
23.3992375
21
108.281243
0
LINE
8
DEFAULT_255_1_388
10
23.3992375
20
108.281243
11
23.8085521
21
108.281243
0
LINE
8
DEFAULT_255_1_388
10
23.8085521
20
108.281243
11
23.8085521
21
108.926388
0
LINE
8
DEFAULT_255_1_388
10
23.8085521
20
108.926388
11
23.7886737
21
108.8902455
0
LINE
8
DEFAULT_255_1_388
10
23.7785901
20
116.3795775
11
23.7785901
21
116.5160157
0
LINE
8
DEFAULT_255_1_388
10
23.7785901
20
116.5160157
11
23.9041856
21
116.5160157
0
LINE
8
DEFAULT_255_1_388
10
23.6900408
20
116.7473282
11
23.5228814
21
116.7473282
0
LINE
8
DEFAULT_255_1_388
10
23.5111351
20
116.1238688
11
23.679198
21
116.1238688
0
LINE
8
DEFAULT_255_1_388
10
23.9041856
20
116.3795775
11
23.7785901
21
116.3795775
0
ARC
8
DEFAULT_255_1_388
10
23.9009082
20
116.8976922
40
0.3816905
50
270.491971
51
281.8953028
0
ARC
8
DEFAULT_255_1_388
10
23.9280509
20
116.7737199
40
0.2547877
50
281.6690378
51
301.2943765
0
ARC
8
DEFAULT_255_1_388
10
23.9471961
20
116.7386926
40
0.2149197
50
301.7834992
51
311.754567
0
ARC
8
DEFAULT_255_1_388
10
23.9575002
20
116.727265
40
0.1995326
50
311.7325027
51
354.2803031
0
ARC
8
DEFAULT_255_1_388
10
23.8757418
20
116.741328
40
0.2823461
50
353.0941646
51
0.1174696
0
ARC
8
DEFAULT_255_1_388
10
23.8238976
20
116.7466874
40
0.3342238
50
359.1804452
51
15.0452323
0
ARC
8
DEFAULT_255_1_388
10
23.9753034
20
116.7908546
40
0.1765747
50
13.957816
51
77.6713812
0
ARC
8
DEFAULT_255_1_388
10
23.931827
20
116.6350464
40
0.3381982
50
76.111571
51
90.7028736
0
ARC
8
DEFAULT_255_1_388
10
23.9251682
20
116.665825
40
0.3074046
50
89.5321574
51
103.5319393
0
ARC
8
DEFAULT_255_1_388
10
23.9026066
20
116.7557443
40
0.2147041
50
103.2930114
51
133.5619756
0
ARC
8
DEFAULT_255_1_388
10
23.8976007
20
116.7624351
40
0.2064084
50
133.8349761
51
173.5343225
0
ARC
8
DEFAULT_255_1_388
10
23.9789665
20
116.7480144
40
0.2889266
50
172.5097183
51
180.1360699
0
ARC
8
DEFAULT_255_1_388
10
23.8719429
20
116.751888
40
0.3490913
50
155.3483706
51
180.7484035
0
ARC
8
DEFAULT_255_1_388
10
23.8664404
20
116.7486519
40
0.3454798
50
131.5745177
51
154.4799474
0
ARC
8
DEFAULT_255_1_388
10
23.9016687
20
116.7130422
40
0.3955058
50
96.9874487
51
131.9690874
0
ARC
8
DEFAULT_255_1_388
10
23.926358
20
116.5729407
40
0.537622
50
89.8592909
51
97.7827481
0
ARC
8
DEFAULT_255_1_388
10
23.9317689
20
116.543436
40
0.5671399
50
78.3654493
51
90.4132586
0
ARC
8
DEFAULT_255_1_388
10
23.972033
20
116.7300918
40
0.3762034
50
56.6229818
51
78.6387103
0
ARC
8
DEFAULT_255_1_388
10
23.9962159
20
116.7723846
40
0.3275964
50
47.0254604
51
56.085558
0
ARC
8
DEFAULT_255_1_388
10
23.998441
20
116.7768189
40
0.3228382
50
10.9207523
51
46.777927
0
ARC
8
DEFAULT_255_1_388
10
23.8450004
20
116.7413401
40
0.4802559
50
359.6364235
51
11.6087615
0
ARC
8
DEFAULT_255_1_388
10
24.051417
20
116.7396404
40
0.273833
50
332.3549969
51
359.7179765
0
ARC
8
DEFAULT_255_1_388
10
23.978257
20
116.7743285
40
0.3547505
50
325.2332381
51
332.8746682
0
ARC
8
DEFAULT_255_1_388
10
23.9954153
20
116.7623763
40
0.3338396
50
292.9803892
51
325.2391113
0
ARC
8
DEFAULT_255_1_388
10
23.9643349
20
116.8228679
40
0.4016959
50
292.542178
51
293.6931461
0
ARC
8
DEFAULT_255_1_388
10
24.0086921
20
116.0963036
40
0.372079
50
57.643292
51
72.8626085
0
ARC
8
DEFAULT_255_1_388
10
24.0485755
20
116.1609273
40
0.2961455
50
36.7246661
51
57.4701329
0
ARC
8
DEFAULT_255_1_388
10
24.0472912
20
116.162347
40
0.2963321
50
8.054535
51
36.3561529
0
ARC
8
DEFAULT_255_1_388
10
23.9502585
20
116.1449073
40
0.3948682
50
359.8316595
51
8.5873361
0
ARC
8
DEFAULT_255_1_388
10
23.9080059
20
116.139497
40
0.4371398
50
343.9831631
51
0.557075
0
ARC
8
DEFAULT_255_1_388
10
24.0077108
20
116.1121963
40
0.3337749
50
311.6358204
51
343.7652116
0
ARC
8
DEFAULT_255_1_388
10
23.9651362
20
116.1601955
40
0.3979351
50
279.7829743
51
311.625622
0
ARC
8
DEFAULT_255_1_388
10
23.9312497
20
116.3218642
40
0.5630417
50
269.7285092
51
280.3857694
0
ARC
8
DEFAULT_255_1_388
10
23.924281
20
116.3172241
40
0.5584119
50
256.6827433
51
270.4412869
0
ARC
8
DEFAULT_255_1_388
10
23.8861797
20
116.1614698
40
0.3980715
50
229.4223821
51
256.8554507
0
ARC
8
DEFAULT_255_1_388
10
23.839535
20
116.1089683
40
0.3278564
50
181.8183354
51
229.6455015
0
ARC
8
DEFAULT_255_1_388
10
23.956496
20
116.1236825
40
0.4453611
50
179.9760419
51
183.2330638
0
ARC
8
DEFAULT_255_1_388
10
23.9371512
20
116.1213781
40
0.2579652
50
179.4467996
51
196.2871626
0
ARC
8
DEFAULT_255_1_388
10
23.8822966
20
116.1063709
40
0.2011057
50
196.5661293
51
227.7059371
0
ARC
8
DEFAULT_255_1_388
10
23.9007573
20
116.1270155
40
0.2287994
50
227.7653015
51
257.8763321
0
ARC
8
DEFAULT_255_1_388
10
23.9260656
20
116.2330961
40
0.3378385
50
257.4583525
51
270.4267406
0
ARC
8
DEFAULT_255_1_388
10
23.9311906
20
116.265723
40
0.3704652
50
269.5965319
51
280.8788143
0
ARC
8
DEFAULT_255_1_388
10
23.9570134
20
116.1367529
40
0.2389415
50
280.6347277
51
299.8594068
0
ARC
8
DEFAULT_255_1_388
10
23.9784903
20
116.0959736
40
0.19289
50
300.3575552
51
314.5515667
0
ARC
8
DEFAULT_255_1_388
10
23.9691579
20
116.1028025
40
0.204312
50
315.0730962
51
345.0429362
0
ARC
8
DEFAULT_255_1_388
10
23.8653087
20
116.1330539
40
0.31246
50
344.598526
51
357.9270698
0
ARC
8
DEFAULT_255_1_388
10
23.7643391
20
116.1399705
40
0.4136265
50
357.4755098
51
0.0224936
0
ARC
8
DEFAULT_255_1_388
10
23.8796269
20
116.1427099
40
0.2983498
50
359.5051035
51
13.4236939
0
ARC
8
DEFAULT_255_1_388
10
23.9771359
20
116.1676637
40
0.1977186
50
12.9497905
51
48.7550905
0
ARC
8
DEFAULT_255_1_388
10
23.9566281
20
116.1396373
40
0.2323321
50
49.509109
51
72.1832965
0
ARC
8
DEFAULT_255_1_388
10
23.9163749
20
116.0201632
40
0.358397
50
71.9008458
51
84.3555134
0
ARC
8
DEFAULT_255_1_388
10
23.8982144
20
115.8669712
40
0.512641
50
84.019632
51
89.3326067
0
LINE
8
DEFAULT_255_1_388
10
24.3975318
20
123.8508382
11
24.3975318
21
123.7144
0
LINE
8
DEFAULT_255_1_388
10
24.3975318
20
123.7144
11
23.5355313
21
123.7144
0
LINE
8
DEFAULT_255_1_388
10
23.5355313
20
123.7144
11
23.5355313
21
123.8345741
0
LINE
8
DEFAULT_255_1_388
10
23.5355313
20
123.8345741
11
23.9909278
21
124.3405702
0
LINE
8
DEFAULT_255_1_388
10
23.6773909
20
124.6423607
11
23.5102315
21
124.6423607
0
LINE
8
DEFAULT_255_1_388
10
24.0894163
20
124.233046
11
23.7370262
21
123.8508382
0
LINE
8
DEFAULT_255_1_388
10
23.7370262
20
123.8508382
11
24.3975318
21
123.8508382
0
ARC
8
DEFAULT_255_1_388
10
22.4733337
20
125.6825983
40
2.0258655
50
318.5132526
51
320.7829045
0
ARC
8
DEFAULT_255_1_388
10
23.0681294
20
125.1984929
40
1.2589638
50
320.7372878
51
323.9739031
0
ARC
8
DEFAULT_255_1_388
10
23.5090226
20
124.8790554
40
0.7145141
50
323.8962701
51
328.64194
0
ARC
8
DEFAULT_255_1_388
10
23.7392484
20
124.7370545
40
0.4440242
50
328.8294576
51
331.7891185
0
ARC
8
DEFAULT_255_1_388
10
23.8514804
20
124.6791374
40
0.3177517
50
331.4254512
51
352.9365785
0
ARC
8
DEFAULT_255_1_388
10
23.8667804
20
124.675705
40
0.3021496
50
353.2257659
51
0.0166158
0
ARC
8
DEFAULT_255_1_388
10
23.8904564
20
124.6782894
40
0.2784847
50
359.486299
51
15.9343185
0
ARC
8
DEFAULT_255_1_388
10
23.9474831
20
124.6936269
40
0.2194403
50
16.1712913
51
43.5286088
0
ARC
8
DEFAULT_255_1_388
10
23.9561776
20
124.7023191
40
0.2071504
50
43.4417391
51
83.1661095
0
ARC
8
DEFAULT_255_1_388
10
23.9410937
20
124.6194316
40
0.2912888
50
82.160179
51
90.1505708
0
ARC
8
DEFAULT_255_1_388
10
23.9375418
20
124.5590279
40
0.3517025
50
89.5460741
51
102.5418361
0
ARC
8
DEFAULT_255_1_388
10
23.9102138
20
124.6749933
40
0.2325748
50
102.1738499
51
129.206123
0
ARC
8
DEFAULT_255_1_388
10
23.9013592
20
124.6889664
40
0.2161591
50
129.72865
51
135.753947
0
ARC
8
DEFAULT_255_1_388
10
23.9150074
20
124.6780728
40
0.2335433
50
136.1757367
51
166.3673339
0
ARC
8
DEFAULT_255_1_388
10
24.0282762
20
124.6477148
40
0.3507873
50
165.9090694
51
178.8684636
0
ARC
8
DEFAULT_255_1_388
10
24.1258534
20
124.6424263
40
0.4484624
50
178.4391136
51
180.0083808
0
ARC
8
DEFAULT_255_1_388
10
23.9679235
20
124.6468197
40
0.4577138
50
163.2878482
51
180.5581842
0
ARC
8
DEFAULT_255_1_388
10
23.8777276
20
124.6716393
40
0.3641968
50
133.4540601
51
162.947111
0
ARC
8
DEFAULT_255_1_388
10
23.8978158
20
124.6502789
40
0.3935189
50
100.7869829
51
133.4382499
0
ARC
8
DEFAULT_255_1_388
10
23.9369403
20
124.4760399
40
0.5720313
50
89.660664
51
101.3702276
0
ARC
8
DEFAULT_255_1_388
10
23.9444012
20
124.4829263
40
0.5651495
50
78.2172678
51
90.412935
0
ARC
8
DEFAULT_255_1_388
10
23.9843478
20
124.6656511
40
0.378122
50
55.9269121
51
78.4888449
0
ARC
8
DEFAULT_255_1_388
10
24.0064193
20
124.7037187
40
0.3342379
50
47.929771
51
55.4049217
0
ARC
8
DEFAULT_255_1_388
10
24.0178723
20
124.7153618
40
0.3179217
50
4.334829
51
48.0560205
0
ARC
8
DEFAULT_255_1_388
10
23.8946525
20
124.6962487
40
0.442341
50
359.9251713
51
5.5971671
0
ARC
8
DEFAULT_255_1_388
10
23.942868
20
124.7025728
40
0.3941854
50
337.8914027
51
358.9967534
0
ARC
8
DEFAULT_255_1_388
10
23.637625
20
124.8203295
40
0.7213271
50
326.9132501
51
338.3508308
0
ARC
8
DEFAULT_255_1_388
10
23.1892362
20
125.1077105
40
1.2538973
50
319.6471833
51
327.0959558
0
ARC
8
DEFAULT_255_1_388
10
22.757902
20
125.463505
40
1.8129975
50
317.2588228
51
319.9045804
0
LINE
8
DEFAULT_255_1_388
10
24.0931985
20
132.9738148
11
24.0931985
21
131.6519
0
LINE
8
DEFAULT_255_1_388
10
24.0931985
20
131.6519
11
23.9251355
21
131.6519
0
LINE
8
DEFAULT_255_1_388
10
23.9251355
20
131.6519
11
23.9251355
21
132.765995
0
LINE
8
DEFAULT_255_1_388
10
23.9251355
20
132.765995
11
23.588106
21
132.6422066
0
LINE
8
DEFAULT_255_1_388
10
23.588106
20
132.6422066
11
23.588106
21
132.7940055
0
LINE
8
DEFAULT_255_1_388
10
23.588106
20
132.7940055
11
24.0669951
21
132.9738148
0
LINE
8
DEFAULT_255_1_388
10
24.0669951
20
132.9738148
11
24.0931985
21
132.9738148
0
LINE
8
DEFAULT_255_1_388
10
24.3604856
20
140.367369
11
24.3604856
21
140.1505135
0
LINE
8
DEFAULT_255_1_388
10
23.5301099
20
140.1279244
11
23.5301099
21
140.3511048
0
LINE
8
DEFAULT_255_1_388
10
24.1933262
20
140.1053353
11
24.1933262
21
140.3791153
0
LINE
8
DEFAULT_255_1_388
10
23.6972693
20
140.3917652
11
23.6972693
21
140.1243102
0
ARC
8
DEFAULT_255_1_388
10
22.982719
20
140.1450118
40
1.3777776
50
353.8440855
51
0.2287917
0
ARC
8
DEFAULT_255_1_388
10
23.5046208
20
140.0867414
40
0.852639
50
344.4934746
51
353.9763743
0
ARC
8
DEFAULT_255_1_388
10
23.8413015
20
139.9910191
40
0.5026273
50
329.2803599
51
344.7473406
0
ARC
8
DEFAULT_255_1_388
10
23.9528511
20
139.9298038
40
0.3754848
50
324.9361395
51
328.6153007
0
ARC
8
DEFAULT_255_1_388
10
23.9954161
20
139.9000586
40
0.3235566
50
280.5801797
51
324.9173226
0
ARC
8
DEFAULT_255_1_388
10
23.9502789
20
140.0880236
40
0.5167077
50
269.5979457
51
281.6732777
0
ARC
8
DEFAULT_255_1_388
10
23.9421693
20
140.0745113
40
0.5032026
50
256.6228565
51
270.5105488
0
ARC
8
DEFAULT_255_1_388
10
23.8969435
20
139.9003345
40
0.3233092
50
215.8618351
51
257.2787793
0
ARC
8
DEFAULT_255_1_388
10
24.0118142
20
139.9774106
40
0.4615831
50
197.9695203
51
215.2622745
0
ARC
8
DEFAULT_255_1_388
10
24.2913818
20
140.0717641
40
0.7566307
50
187.8816486
51
198.2346584
0
ARC
8
DEFAULT_255_1_388
10
24.7367056
20
140.1360453
40
1.2065653
50
180.8977266
51
188.0054894
0
ARC
8
DEFAULT_255_1_388
10
25.041727
20
140.14754
40
1.5117443
50
180.7434591
51
181.152202
0
ARC
8
DEFAULT_255_1_388
10
24.8742266
20
140.3565371
40
1.3441277
50
173.7674302
51
180.2315596
0
ARC
8
DEFAULT_255_1_388
10
24.3660135
20
140.4139779
40
0.8326847
50
164.3058537
51
173.9000553
0
ARC
8
DEFAULT_255_1_388
10
24.0384135
20
140.5083652
40
0.4917711
50
148.7922028
51
164.5682288
0
ARC
8
DEFAULT_255_1_388
10
23.9314872
20
140.5680457
40
0.3694204
50
144.5883979
51
148.1161588
0
ARC
8
DEFAULT_255_1_388
10
23.8927618
20
140.5950667
40
0.322202
50
101.6440149
51
144.5142619
0
ARC
8
DEFAULT_255_1_388
10
23.940581
20
140.4050337
40
0.5180451
50
89.528284
51
102.5820197
0
ARC
8
DEFAULT_255_1_388
10
23.9494802
20
140.4006376
40
0.5224441
50
77.0437914
51
90.508231
0
ARC
8
DEFAULT_255_1_388
10
23.9947055
20
140.5854272
40
0.3322297
50
48.2777708
51
77.4996087
0
ARC
8
DEFAULT_255_1_388
10
24.0028795
20
140.5999557
40
0.315966
50
36.3141586
51
47.6307332
0
ARC
8
DEFAULT_255_1_388
10
23.9051518
20
140.5341159
40
0.4337313
50
18.2931065
51
35.6770203
0
ARC
8
DEFAULT_255_1_388
10
23.6190358
20
140.4359107
40
0.7362203
50
8.0246996
51
18.5605636
0
ARC
8
DEFAULT_255_1_388
10
23.1506714
20
140.3667432
40
1.2096583
50
1.127539
51
8.1718423
0
ARC
8
DEFAULT_255_1_388
10
22.7857847
20
140.3524374
40
1.5747719
50
0.5432713
51
1.38669
0
ARC
8
DEFAULT_255_1_388
10
22.9915226
20
140.3831163
40
1.2018103
50
359.8092569
51
4.9408001
0
ARC
8
DEFAULT_255_1_388
10
23.4651807
20
140.42539
40
0.7262727
50
4.8364937
51
12.2906017
0
ARC
8
DEFAULT_255_1_388
10
23.7751272
20
140.4944485
40
0.4087324
50
12.0806994
51
23.8171225
0
ARC
8
DEFAULT_255_1_388
10
23.9071668
20
140.5503508
40
0.2653719
50
24.2874621
51
31.3934353
0
ARC
8
DEFAULT_255_1_388
10
23.9662104
20
140.5889822
40
0.1948607
50
30.7407708
51
82.4658033
0
ARC
8
DEFAULT_255_1_388
10
23.9459765
20
140.4896017
40
0.2961198
50
81.1057101
51
90.2187368
0
ARC
8
DEFAULT_255_1_388
10
23.9419577
20
140.5186421
40
0.2670929
50
89.380395
51
105.6763916
0
ARC
8
DEFAULT_255_1_388
10
23.9213299
20
140.593632
40
0.1893189
50
105.7980655
51
149.7387869
0
ARC
8
DEFAULT_255_1_388
10
24.0410439
20
140.5216719
40
0.3289892
50
149.4208441
51
163.628295
0
ARC
8
DEFAULT_255_1_388
10
24.2762668
20
140.4499345
40
0.5749004
50
163.3764549
51
172.141138
0
ARC
8
DEFAULT_255_1_388
10
24.647539
20
140.3967582
40
0.9499585
50
172.0258462
51
178.0705453
0
ARC
8
DEFAULT_255_1_388
10
24.9896943
20
140.3805682
40
1.2924734
50
177.8639301
51
179.5036263
0
ARC
8
DEFAULT_255_1_388
10
24.8677961
20
140.1202151
40
1.170534
50
179.7995545
51
185.246089
0
ARC
8
DEFAULT_255_1_388
10
24.4129554
20
140.0771404
40
0.7136613
50
185.1411911
51
193.0082205
0
ARC
8
DEFAULT_255_1_388
10
24.1155815
20
140.0068441
40
0.4080987
50
192.7897338
51
205.2507384
0
ARC
8
DEFAULT_255_1_388
10
23.9978025
20
139.9542538
40
0.2791522
50
205.8001921
51
211.2545876
0
ARC
8
DEFAULT_255_1_388
10
23.9389564
20
139.9148132
40
0.2084074
50
210.3789935
51
238.4007996
0
ARC
8
DEFAULT_255_1_388
10
23.936765
20
139.9200786
40
0.2117943
50
239.6521916
51
265.9793852
0
ARC
8
DEFAULT_255_1_388
10
23.9463499
20
139.9957358
40
0.2879689
50
265.1324455
51
270.0603288
0
ARC
8
DEFAULT_255_1_388
10
23.9495876
20
139.9592418
40
0.2514919
50
269.3314378
51
287.2180039
0
ARC
8
DEFAULT_255_1_388
10
23.9650958
20
139.9026291
40
0.1928357
50
287.7957942
51
329.0808983
0
ARC
8
DEFAULT_255_1_388
10
23.8573715
20
139.9698651
40
0.319808
50
328.6635261
51
343.3325043
0
ARC
8
DEFAULT_255_1_388
10
23.6129174
20
140.0460195
40
0.5758408
50
343.0498092
51
351.9392499
0
ARC
8
DEFAULT_255_1_388
10
23.2228496
20
140.1035205
40
0.9701202
50
351.8071632
51
357.7957897
0
ARC
8
DEFAULT_255_1_388
10
22.8593973
20
140.1223724
40
1.3340376
50
357.5870923
51
359.2682493
0
ENDSEC
0
EOF