0
SECTION
2
HEADER
9
$MEASUREMENT
70
1
0
ENDSEC
0
SECTION
2
TABLES
0
TABLE
2
LTYPE
0
LTYPE
72
65
70
64
2
CONTINUOUS
3
______
73
0
40
0
0
ENDTAB
0
TABLE
2
LAYER
0
LAYER
2
DEFAULT_255_2_778
70
0
62
255
6
CONTINUOUS
0
LAYER
2
DEFAULT_255_1_388
70
0
62
255
6
CONTINUOUS
0
ENDTAB
0
ENDSEC
0
SECTION
2
ENTITIES
0
ARC
8
DEFAULT_255_2_778
10
3.5700693
20
75.805203
40
0.7914215
50
129.1312896
51
180.1450914
0
ARC
8
DEFAULT_255_2_778
10
3.5703345
20
75.8056901
40
0.7912112
50
89.854026
51
129.1684493
0
ARC
8
DEFAULT_255_2_778
10
25.7993937
20
75.8053767
40
0.7915249
50
39.4792447
51
90.147911
0
ARC
8
DEFAULT_255_2_778
10
25.7999935
20
75.8052233
40
0.7911595
50
359.8533901
51
39.5154338
0
ARC
8
DEFAULT_255_2_778
10
25.7996693
20
-1.9863492
40
0.7914836
50
309.4761667
51
0.1482649
0
ARC
8
DEFAULT_255_2_778
10
25.799398
20
-1.9867803
40
0.7913235
50
269.8517415
51
309.511178
0
ARC
8
DEFAULT_255_2_778
10
3.570342
20
-1.9867221
40
0.7913815
50
219.1282118
51
270.1454017
0
ARC
8
DEFAULT_255_2_778
10
3.5700247
20
-1.9863397
40
0.7913769
50
179.8524075
51
219.1641908
0
LINE
8
DEFAULT_255_2_778
10
3.5723503
20
76.5968989
11
25.7973503
21
76.5968989
0
LINE
8
DEFAULT_255_2_778
10
26.5911503
20
75.8031989
11
26.5911503
21
-1.9843011
0
LINE
8
DEFAULT_255_2_778
10
25.7973503
20
-2.7781011
11
3.5723503
21
-2.7781011
0
LINE
8
DEFAULT_255_2_778
10
2.7786503
20
-1.9843011
11
2.7786503
21
75.8031989
0
LINE
8
DEFAULT_255_1_388
10
8.3479985
20
0.6821148
11
8.3479985
21
-0.6398
0
LINE
8
DEFAULT_255_1_388
10
8.3479985
20
-0.6398
11
8.1799355
21
-0.6398
0
LINE
8
DEFAULT_255_1_388
10
8.1799355
20
-0.6398
11
8.1799355
21
0.474295
0
LINE
8
DEFAULT_255_1_388
10
8.1799355
20
0.474295
11
7.842906
21
0.3505066
0
LINE
8
DEFAULT_255_1_388
10
7.842906
20
0.3505066
11
7.842906
21
0.5023055
0
LINE
8
DEFAULT_255_1_388
10
7.842906
20
0.5023055
11
8.3217951
21
0.6821148
0
LINE
8
DEFAULT_255_1_388
10
8.3217951
20
0.6821148
11
8.3479985
21
0.6821148
0
LINE
8
DEFAULT_255_1_388
10
9.687081
20
0.6757898
11
9.687081
21
0.5818191
0
LINE
8
DEFAULT_255_1_388
10
9.687081
20
0.5818191
11
9.1422316
21
-0.6398
0
LINE
8
DEFAULT_255_1_388
10
9.1422316
20
-0.6398
11
8.9669401
21
-0.6398
0
LINE
8
DEFAULT_255_1_388
10
8.9669401
20
-0.6398
11
9.5099824
21
0.538448
0
LINE
8
DEFAULT_255_1_388
10
9.5099824
20
0.538448
11
8.7979736
21
0.538448
0
LINE
8
DEFAULT_255_1_388
10
8.7979736
20
0.538448
11
8.7979736
21
0.6757898
0
LINE
8
DEFAULT_255_1_388
10
8.7979736
20
0.6757898
11
9.687081
21
0.6757898
0
LINE
8
DEFAULT_255_1_388
10
10.5029997
20
0.6766934
11
10.5328173
21
0.6766934
0
LINE
8
DEFAULT_255_1_388
10
10.5328173
20
0.6766934
11
10.5328173
21
0.5348338
0
LINE
8
DEFAULT_255_1_388
10
10.5328173
20
0.5348338
11
10.5020961
21
0.5348338
0
LINE
8
DEFAULT_255_1_388
10
9.8867688
20
-0.1392253
11
9.8867688
21
-0.0750722
0
LINE
8
DEFAULT_255_1_388
10
10.0548317
20
-0.0967578
11
10.0548317
21
-0.1582001
0
ARC
8
DEFAULT_255_1_388
10
10.5079853
20
-0.0274174
40
0.562282
50
90.6001079
51
104.5146616
0
ARC
8
DEFAULT_255_1_388
10
10.4642812
20
0.13511
40
0.3939917
50
104.2855758
51
133.8630124
0
ARC
8
DEFAULT_255_1_388
10
10.4827065
20
0.1229243
40
0.4155734
50
134.5304124
51
161.6210222
0
ARC
8
DEFAULT_255_1_388
10
10.6686997
20
0.0573421
40
0.6127682
50
161.2850533
51
174.2074364
0
ARC
8
DEFAULT_255_1_388
10
10.8276564
20
0.0354437
40
0.7731446
50
173.7817938
51
174.9251711
0
ARC
8
DEFAULT_255_1_388
10
10.3150758
20
-0.120073
40
0.3412588
50
95.8332067
51
138.995412
0
ARC
8
DEFAULT_255_1_388
10
10.3402038
20
-0.2639305
40
0.4870358
50
89.8755506
51
97.0540979
0
ARC
8
DEFAULT_255_1_388
10
10.3455427
20
-0.1699159
40
0.3930432
50
71.6407016
51
90.6240821
0
ARC
8
DEFAULT_255_1_388
10
10.3624821
20
-0.1075567
40
0.3285421
50
39.6368051
51
71.0190743
0
ARC
8
DEFAULT_255_1_388
10
10.2908728
20
-0.1694414
40
0.4231706
50
10.6588054
51
39.9044509
0
ARC
8
DEFAULT_255_1_388
10
10.1167274
20
-0.2072777
40
0.60133
50
359.6827842
51
11.1326896
0
ARC
8
DEFAULT_255_1_388
10
10.112261
20
-0.2152285
40
0.6058047
50
347.2485908
51
0.4371098
0
ARC
8
DEFAULT_255_1_388
10
10.2998395
20
-0.2603621
40
0.4128987
50
318.1408565
51
347.6118497
0
ARC
8
DEFAULT_255_1_388
10
10.3363992
20
-0.2904097
40
0.3656244
50
275.6342406
51
317.824739
0
ARC
8
DEFAULT_255_1_388
10
10.3115513
20
-0.1442173
40
0.513655
50
269.8872513
51
276.7916069
0
ARC
8
DEFAULT_255_1_388
10
10.3053705
20
-0.2595819
40
0.398323
50
246.9139443
51
270.7436787
0
ARC
8
DEFAULT_255_1_388
10
10.3060901
20
-0.2755956
40
0.3839368
50
218.1665534
51
245.8780431
0
ARC
8
DEFAULT_255_1_388
10
10.4050273
20
-0.1928097
40
0.5128958
50
191.4115343
51
218.6077624
0
ARC
8
DEFAULT_255_1_388
10
10.623059
20
-0.1439223
40
0.7363054
50
179.6344971
51
191.7836758
0
ARC
8
DEFAULT_255_1_388
10
11.2510464
20
-0.0675505
40
1.3642984
50
171.4523743
51
180.3158856
0
ARC
8
DEFAULT_255_1_388
10
10.7566191
20
0.0093895
40
0.8639311
50
157.9802296
51
171.6246761
0
ARC
8
DEFAULT_255_1_388
10
10.5075542
20
0.1087038
40
0.5958004
50
141.4299236
51
157.8541251
0
ARC
8
DEFAULT_255_1_388
10
10.4353625
20
0.1597746
40
0.5075416
50
102.871586
51
140.8564533
0
ARC
8
DEFAULT_255_1_388
10
10.5082178
20
-0.1147057
40
0.7914163
50
90.377773
51
103.5868422
0
ARC
8
DEFAULT_255_1_388
10
10.3126699
20
-0.1827457
40
0.2667015
50
89.8751238
51
126.2072139
0
ARC
8
DEFAULT_255_1_388
10
10.317817
20
-0.2001153
40
0.2838229
50
124.9742447
51
144.8960197
0
ARC
8
DEFAULT_255_1_388
10
10.2980415
20
-0.1840019
40
0.2583845
50
145.2974778
51
160.2660922
0
ARC
8
DEFAULT_255_1_388
10
10.6436903
20
-0.1617849
40
0.5888695
50
179.6512124
51
190.285571
0
ARC
8
DEFAULT_255_1_388
10
10.4531383
20
-0.1977032
40
0.3949683
50
190.0944895
51
207.5099647
0
ARC
8
DEFAULT_255_1_388
10
10.3894965
20
-0.2279823
40
0.3245464
50
207.9585471
51
216.325377
0
ARC
8
DEFAULT_255_1_388
10
10.3512602
20
-0.2594288
40
0.2751259
50
215.7661336
51
232.5457193
0
ARC
8
DEFAULT_255_1_388
10
10.3081718
20
-0.3141727
40
0.2054668
50
232.8005815
51
270.6605497
0
ARC
8
DEFAULT_255_1_388
10
10.3133142
20
-0.2732147
40
0.2464268
50
269.3550767
51
288.474612
0
ARC
8
DEFAULT_255_1_388
10
10.3237649
20
-0.3125279
40
0.2058436
50
289.1831976
51
322.9685307
0
ARC
8
DEFAULT_255_1_388
10
10.2549751
20
-0.2582721
40
0.2934408
50
322.6007085
51
346.5183319
0
ARC
8
DEFAULT_255_1_388
10
10.1247507
20
-0.2250566
40
0.4278249
50
346.2584622
51
358.7739592
0
ARC
8
DEFAULT_255_1_388
10
10.0096082
20
-0.2188171
40
0.5430876
50
358.3757628
51
0.0082477
0
ARC
8
DEFAULT_255_1_388
10
10.09529
20
-0.2157144
40
0.4574157
50
359.6211417
51
11.28403
0
ARC
8
DEFAULT_255_1_388
10
10.2389507
20
-0.1857465
40
0.3106708
50
11.0483152
51
31.8145585
0
ARC
8
DEFAULT_255_1_388
10
10.2737212
20
-0.1668955
40
0.2711963
50
32.3028554
51
38.0820598
0
ARC
8
DEFAULT_255_1_388
10
10.3210445
20
-0.1240283
40
0.2075566
50
36.8249851
51
85.741667
0
ARC
8
DEFAULT_255_1_388
10
10.3134857
20
-0.1803935
40
0.2643487
50
85.0150021
51
90.050843
0
LINE
8
DEFAULT_255_1_388
10
11.7246188
20
0.1499153
11
11.7246188
21
0.1011229
0
LINE
8
DEFAULT_255_1_388
10
11.1147128
20
-0.6407036
11
11.0821845
21
-0.6407036
0
LINE
8
DEFAULT_255_1_388
10
11.0821845
20
-0.6407036
11
11.0821845
21
-0.4997475
0
LINE
8
DEFAULT_255_1_388
10
11.0821845
20
-0.4997475
11
11.1174235
21
-0.4997475
0
LINE
8
DEFAULT_255_1_388
10
11.5574594
20
0.117387
11
11.5574594
21
0.1842508
0
ARC
8
DEFAULT_255_1_388
10
11.2431686
20
0.2012877
40
0.4089973
50
297.4036461
51
320.0168133
0
ARC
8
DEFAULT_255_1_388
10
11.2757866
20
0.1386072
40
0.3383378
50
270.2631886
51
297.3852322
0
ARC
8
DEFAULT_255_1_388
10
11.2719542
20
0.1923343
40
0.3920983
50
269.9969069
51
270.7871389
0
ARC
8
DEFAULT_255_1_388
10
11.2690866
20
0.1905737
40
0.3903482
50
254.5997295
51
270.4178147
0
ARC
8
DEFAULT_255_1_388
10
11.2530397
20
0.1270693
40
0.3248657
50
236.4717231
51
254.3539376
0
ARC
8
DEFAULT_255_1_388
10
11.2706129
20
0.1506999
40
0.3542746
50
208.4727261
51
236.2134628
0
ARC
8
DEFAULT_255_1_388
10
11.3424892
20
0.1946676
40
0.4384402
50
204.3450776
51
209.0455365
0
ARC
8
DEFAULT_255_1_388
10
11.4189268
20
0.22708
40
0.5214459
50
183.9375459
51
204.1275509
0
ARC
8
DEFAULT_255_1_388
10
11.5211574
20
0.2380863
40
0.6242037
50
179.9652726
51
184.3010611
0
ARC
8
DEFAULT_255_1_388
10
11.494112
20
0.2418004
40
0.5971675
50
166.7585952
51
180.3200491
0
ARC
8
DEFAULT_255_1_388
10
11.3988928
20
0.2624979
40
0.4997418
50
154.6954866
51
166.5679151
0
ARC
8
DEFAULT_255_1_388
10
11.3029168
20
0.3108411
40
0.3923208
50
136.3325251
51
155.0871367
0
ARC
8
DEFAULT_255_1_388
10
11.2713087
20
0.3379271
40
0.3507618
50
121.2365985
51
135.9680081
0
ARC
8
DEFAULT_255_1_388
10
11.2871152
20
0.3086541
40
0.3839917
50
96.8454764
51
120.9881329
0
ARC
8
DEFAULT_255_1_388
10
11.3034958
20
0.2033942
40
0.4904679
50
89.887204
51
97.2797758
0
ARC
8
DEFAULT_255_1_388
10
11.3093931
20
0.2751652
40
0.418725
50
70.6505767
51
90.6748382
0
ARC
8
DEFAULT_255_1_388
10
11.3241628
20
0.3329091
40
0.3593866
50
36.7493297
51
69.8220487
0
ARC
8
DEFAULT_255_1_388
10
11.2117975
20
0.2453446
40
0.5018201
50
15.3958155
51
37.0841102
0
ARC
8
DEFAULT_255_1_388
10
10.972226
20
0.1755111
40
0.7513436
50
3.9487796
51
15.6798517
0
ARC
8
DEFAULT_255_1_388
10
10.7020902
20
0.151181
40
1.0225293
50
359.9290791
51
4.266464
0
ARC
8
DEFAULT_255_1_388
10
10.1839819
20
0.0936372
40
1.5406551
50
352.8365702
51
0.2783851
0
ARC
8
DEFAULT_255_1_388
10
10.778805
20
0.0163664
40
0.9408425
50
341.8359339
51
352.9884057
0
ARC
8
DEFAULT_255_1_388
10
11.1409037
20
-0.1056856
40
0.5587481
50
322.8579243
51
342.1527461
0
ARC
8
DEFAULT_255_1_388
10
11.2380729
20
-0.171965
40
0.4413099
50
319.3348471
51
322.100194
0
ARC
8
DEFAULT_255_1_388
10
11.203266
20
-0.1370186
40
0.4904992
50
285.954114
51
318.8878716
0
ARC
8
DEFAULT_255_1_388
10
11.1215098
20
0.1228865
40
0.7628991
50
272.9280841
51
286.4924389
0
ARC
8
DEFAULT_255_1_388
10
11.1001402
20
0.376324
40
1.017132
50
270.8209173
51
273.4010121
0
ARC
8
DEFAULT_255_1_388
10
11.1101425
20
0.1715073
40
0.6712943
50
270.6214576
51
281.4062333
0
ARC
8
DEFAULT_255_1_388
10
11.1585149
20
-0.059775
40
0.4350167
50
281.1852583
51
299.0622058
0
ARC
8
DEFAULT_255_1_388
10
11.2005394
20
-0.1408862
40
0.3437146
50
299.5068171
51
313.1200142
0
ARC
8
DEFAULT_255_1_388
10
11.2030132
20
-0.1498041
40
0.3355418
50
313.8525725
51
338.5989631
0
ARC
8
DEFAULT_255_1_388
10
11.020326
20
-0.0747424
40
0.5330317
50
338.2523315
51
351.2431701
0
ARC
8
DEFAULT_255_1_388
10
10.7491011
20
-0.0286506
40
0.8081235
50
350.940933
51
357.6690137
0
ARC
8
DEFAULT_255_1_388
10
11.2992891
20
0.1966048
40
0.2581236
50
269.9447107
51
306.8249644
0
ARC
8
DEFAULT_255_1_388
10
11.2726193
20
0.244206
40
0.3122948
50
305.5071046
51
327.0773808
0
ARC
8
DEFAULT_255_1_388
10
11.2859244
20
0.2335445
40
0.2953369
50
327.4106457
51
336.8396801
0
ARC
8
DEFAULT_255_1_388
10
10.9378958
20
0.1878932
40
0.6195743
50
359.663158
51
10.1176387
0
ARC
8
DEFAULT_255_1_388
10
11.1351721
20
0.2243922
40
0.4189561
50
9.9431549
51
26.7699242
0
ARC
8
DEFAULT_255_1_388
10
11.2023707
20
0.2553796
40
0.3450125
50
27.2018067
51
34.6833639
0
ARC
8
DEFAULT_255_1_388
10
11.257432
20
0.296756
40
0.2762035
50
34.124913
51
50.30709
0
ARC
8
DEFAULT_255_1_388
10
11.3076803
20
0.3568741
40
0.1978518
50
50.3850304
51
90.6705051
0
ARC
8
DEFAULT_255_1_388
10
11.3024196
20
0.3226074
40
0.2321235
50
89.2729817
51
111.9140267
0
ARC
8
DEFAULT_255_1_388
10
11.3002284
20
0.3384308
40
0.2166604
50
112.9381864
51
142.5320936
0
ARC
8
DEFAULT_255_1_388
10
11.3616773
20
0.2885392
40
0.2957902
50
142.1024021
51
166.3835244
0
ARC
8
DEFAULT_255_1_388
10
11.4945743
20
0.2542213
40
0.4330361
50
166.1100968
51
178.6653563
0
ARC
8
DEFAULT_255_1_388
10
11.6127668
20
0.2476061
40
0.5513642
50
178.2641888
51
180.010994
0
ARC
8
DEFAULT_255_1_388
10
11.522217
20
0.2444136
40
0.4608248
50
179.6162225
51
191.8786013
0
ARC
8
DEFAULT_255_1_388
10
11.384948
20
0.214059
40
0.3202502
50
191.6192934
51
215.2970746
0
ARC
8
DEFAULT_255_1_388
10
11.3610135
20
0.1997963
40
0.2924827
50
215.7258926
51
216.5355437
0
ARC
8
DEFAULT_255_1_388
10
11.3021755
20
0.1524919
40
0.2170661
50
215.7486606
51
239.9728403
0
ARC
8
DEFAULT_255_1_388
10
11.2942921
20
0.1467838
40
0.208217
50
241.065081
51
269.280972
0
ARC
8
DEFAULT_255_1_388
10
11.2990079
20
0.2023327
40
0.2638514
50
268.4083352
51
270.0069622
0
LINE
8
DEFAULT_255_1_388
10
12.3200678
20
-0.0127263
11
12.3200678
21
-0.1491645
0
LINE
8
DEFAULT_255_1_388
10
12.3200678
20
-0.1491645
11
11.8791284
21
-0.1491645
0
LINE
8
DEFAULT_255_1_388
10
11.8791284
20
-0.1491645
11
11.8791284
21
-0.0127263
0
LINE
8
DEFAULT_255_1_388
10
11.8791284
20
-0.0127263
11
12.3200678
21
-0.0127263
0
LINE
8
DEFAULT_255_1_388
10
12.9652128
20
-0.6398
11
12.5089128
21
-0.6398
0
LINE
8
DEFAULT_255_1_388
10
12.5089128
20
-0.6398
11
12.5089128
21
0.6757898
0
LINE
8
DEFAULT_255_1_388
10
12.5089128
20
0.6757898
11
12.9390095
21
0.6757898
0
LINE
8
DEFAULT_255_1_388
10
12.9715378
20
-0.0244726
11
12.6823972
21
-0.0244726
0
LINE
8
DEFAULT_255_1_388
10
12.6823972
20
-0.0244726
11
12.6823972
21
-0.4979404
0
LINE
8
DEFAULT_255_1_388
10
12.6823972
20
-0.4979404
11
12.9688271
21
-0.4979404
0
LINE
8
DEFAULT_255_1_388
10
12.6823972
20
0.5330267
11
12.6823972
21
0.1146763
0
LINE
8
DEFAULT_255_1_388
10
12.6823972
20
0.1146763
11
12.9444309
21
0.1146763
0
LINE
8
DEFAULT_255_1_388
10
12.9390095
20
0.5330267
11
12.6823972
21
0.5330267
0
ARC
8
DEFAULT_255_1_388
10
12.9432515
20
-0.1530176
40
0.8288183
50
82.1256322
51
90.2932506
0
ARC
8
DEFAULT_255_1_388
10
12.987009
20
0.152759
40
0.5199321
50
69.9044202
51
82.2857574
0
ARC
8
DEFAULT_255_1_388
10
13.0512083
20
0.3262993
40
0.3348993
50
51.1840204
51
70.018125
0
ARC
8
DEFAULT_255_1_388
10
13.0798915
20
0.3679945
40
0.2844579
50
12.1018086
51
50.421322
0
ARC
8
DEFAULT_255_1_388
10
12.9241786
20
0.3288937
40
0.4449429
50
359.5252354
51
12.8212369
0
ARC
8
DEFAULT_255_1_388
10
13.1019216
20
0.3210943
40
0.2672162
50
323.4907456
51
0.8818258
0
ARC
8
DEFAULT_255_1_388
10
13.0548629
20
0.3574523
40
0.3266736
50
298.6824053
51
323.2758285
0
ARC
8
DEFAULT_255_1_388
10
13.014192
20
0.4250509
40
0.4055105
50
293.1994739
51
299.139634
0
ARC
8
DEFAULT_255_1_388
10
13.089887
20
-0.2595349
40
0.3229926
50
54.0009997
51
74.9168635
0
ARC
8
DEFAULT_255_1_388
10
13.1029797
20
-0.2373489
40
0.2973581
50
36.3578854
51
53.5293172
0
ARC
8
DEFAULT_255_1_388
10
13.0887165
20
-0.247515
40
0.3148715
50
4.8189348
51
36.3090187
0
ARC
8
DEFAULT_255_1_388
10
13.0010189
20
-0.2598617
40
0.4033265
50
359.9373213
51
5.5201284
0
ARC
8
DEFAULT_255_1_388
10
12.9645519
20
-0.2644267
40
0.4398126
50
344.7479357
51
0.5372278
0
ARC
8
DEFAULT_255_1_388
10
13.0760418
20
-0.2944795
40
0.3243441
50
311.1785587
51
344.6887681
0
ARC
8
DEFAULT_255_1_388
10
13.0431961
20
-0.2535916
40
0.3767511
50
286.0417804
51
310.8440924
0
ARC
8
DEFAULT_255_1_388
10
12.986137
20
-0.0683115
40
0.5705957
50
274.1044074
51
286.4070149
0
ARC
8
DEFAULT_255_1_388
10
12.9662586
20
0.1434901
40
0.7832907
50
269.9235077
51
274.4458593
0
ARC
8
DEFAULT_255_1_388
10
12.9714304
20
-0.1196538
40
0.3782955
50
269.6057074
51
281.3740795
0
ARC
8
DEFAULT_255_1_388
10
12.9973802
20
-0.2426431
40
0.2526069
50
281.105298
51
302.5134029
0
ARC
8
DEFAULT_255_1_388
10
13.013919
20
-0.2723056
40
0.2187131
50
303.0365425
51
311.8818034
0
ARC
8
DEFAULT_255_1_388
10
13.0219367
20
-0.2818398
40
0.2062624
50
311.9916937
51
351.7143773
0
ARC
8
DEFAULT_255_1_388
10
12.9300392
20
-0.2632729
40
0.2999202
50
350.7343295
51
0.2221526
0
ARC
8
DEFAULT_255_1_388
10
12.917948
20
-0.256913
40
0.3120525
50
359.045729
51
17.2295312
0
ARC
8
DEFAULT_255_1_388
10
13.034851
20
-0.2221845
40
0.1901144
50
17.6685208
51
78.9940245
0
ARC
8
DEFAULT_255_1_388
10
12.9766871
20
-0.4309989
40
0.4065575
50
76.565218
51
90.7103392
0
LINE
8
DEFAULT_255_1_388
10
12.9716468
20
-0.0244726
11
12.9715378
21
-0.0244726
0
ARC
8
DEFAULT_255_1_388
10
12.9469697
20
0.4842949
40
0.3696273
50
269.6064514
51
281.4533785
0
ARC
8
DEFAULT_255_1_388
10
12.9720338
20
0.3660283
40
0.2487412
50
281.2044438
51
302.5143998
0
ARC
8
DEFAULT_255_1_388
10
12.9874592
20
0.3382576
40
0.2170405
50
303.0211308
51
309.8378766
0
ARC
8
DEFAULT_255_1_388
10
13.0080709
20
0.3151486
40
0.1860946
50
309.5229446
51
356.9509628
0
ARC
8
DEFAULT_255_1_388
10
12.9334835
20
0.3258831
40
0.2612347
50
355.4699226
51
0.0498632
0
ARC
8
DEFAULT_255_1_388
10
12.9020508
20
0.3283789
40
0.2926762
50
359.5558955
51
11.2092924
0
ARC
8
DEFAULT_255_1_388
10
13.0097476
20
0.3506667
40
0.1827036
50
10.9185717
51
31.322519
0
ARC
8
DEFAULT_255_1_388
10
13.0419024
20
0.3685571
40
0.1459418
50
31.8850633
51
52.1415586
0
ARC
8
DEFAULT_255_1_388
10
13.0110453
20
0.3249674
40
0.1993088
50
52.8283418
51
71.9850132
0
ARC
8
DEFAULT_255_1_388
10
12.9687614
20
0.2005158
40
0.3307407
50
71.686634
51
82.8453416
0
ARC
8
DEFAULT_255_1_388
10
12.9418261
20
-0.0030108
40
0.536039
50
82.6981895
51
90.1730083
0
ARC
8
DEFAULT_255_1_388
10
12.9393093
20
0.0848836
40
0.4481429
50
89.8851568
51
90.0383283
0
LINE
8
DEFAULT_255_1_388
10
14.6729497
20
0.0586553
11
14.6729497
21
-0.0244726
0
LINE
8
DEFAULT_255_1_388
10
13.6148757
20
-0.0362189
11
13.6148757
21
0.0586553
0
LINE
8
DEFAULT_255_1_388
10
14.5003688
20
-0.0371225
11
14.5003688
21
0.0604625
0
LINE
8
DEFAULT_255_1_388
10
13.7874565
20
0.0722088
11
13.7874565
21
-0.0244726
0
ARC
8
DEFAULT_255_1_388
10
13.7007235
20
-0.0289274
40
0.9722364
50
350.4878118
51
0.2625322
0
ARC
8
DEFAULT_255_1_388
10
13.9587195
20
-0.0733006
40
0.7104556
50
336.0277991
51
350.5787241
0
ARC
8
DEFAULT_255_1_388
10
14.1100302
20
-0.1416757
40
0.544417
50
319.887443
51
336.1331163
0
ARC
8
DEFAULT_255_1_388
10
14.1778114
20
-0.1959267
40
0.4576311
50
302.4806296
51
319.6144102
0
ARC
8
DEFAULT_255_1_388
10
14.1648735
20
-0.1709933
40
0.4856183
50
275.8196423
51
302.1885521
0
ARC
8
DEFAULT_255_1_388
10
14.1461596
20
-0.0424534
40
0.6154183
50
269.9169897
51
276.339506
0
ARC
8
DEFAULT_255_1_388
10
14.1411197
20
-0.119632
40
0.5382553
50
252.5221437
51
270.441579
0
ARC
8
DEFAULT_255_1_388
10
14.1249448
20
-0.1802954
40
0.4755426
50
237.5349961
51
252.1858334
0
ARC
8
DEFAULT_255_1_388
10
14.1349824
20
-0.167488
40
0.4917393
50
209.0632754
51
237.3492577
0
ARC
8
DEFAULT_255_1_388
10
14.2329149
20
-0.1059896
40
0.6072464
50
205.118533
51
209.6465345
0
ARC
8
DEFAULT_255_1_388
10
14.3225152
20
-0.0679826
40
0.7045164
50
188.7216633
51
204.8239753
0
ARC
8
DEFAULT_255_1_388
10
14.5471927
20
-0.0301613
40
0.9323368
50
180.3722704
51
188.9253909
0
ARC
8
DEFAULT_255_1_388
10
14.5441488
20
0.0631416
40
0.929284
50
169.5253055
51
180.2766048
0
ARC
8
DEFAULT_255_1_388
10
14.3301287
20
0.1025024
40
0.7116745
50
155.8314601
51
169.5088611
0
ARC
8
DEFAULT_255_1_388
10
14.1860751
20
0.1693312
40
0.5528904
50
139.6259579
51
156.0379072
0
ARC
8
DEFAULT_255_1_388
10
14.1197284
20
0.2227143
40
0.4677708
50
122.6414784
51
139.3431662
0
ARC
8
DEFAULT_255_1_388
10
14.1310539
20
0.2020787
40
0.4912586
50
93.0224537
51
122.4556091
0
ARC
8
DEFAULT_255_1_388
10
14.143206
20
0.0934776
40
0.6003837
50
89.9756766
51
93.6340839
0
ARC
8
DEFAULT_255_1_388
10
14.1475658
20
0.1383879
40
0.5554884
50
73.7463329
51
90.4234008
0
ARC
8
DEFAULT_255_1_388
10
14.1673131
20
0.2148772
40
0.4765353
50
57.663051
51
73.4516911
0
ARC
8
DEFAULT_255_1_388
10
14.1664168
20
0.2173108
40
0.4749629
50
29.1441355
51
57.4146687
0
ARC
8
DEFAULT_255_1_388
10
14.061198
20
0.1516046
40
0.5988917
50
24.0985653
51
29.732054
0
ARC
8
DEFAULT_255_1_388
10
13.9449612
20
0.1034154
40
0.7246823
50
8.6654943
51
23.8241215
0
ARC
8
DEFAULT_255_1_388
10
13.693603
20
0.0624037
40
0.9793537
50
359.7807044
51
8.8218476
0
ARC
8
DEFAULT_255_1_388
10
13.5645734
20
0.0652731
40
0.9358078
50
359.7054632
51
8.0359751
0
ARC
8
DEFAULT_255_1_388
10
13.9020786
20
0.1144252
40
0.5947474
50
7.8926278
51
20.2962188
0
ARC
8
DEFAULT_255_1_388
10
14.0851636
20
0.1819367
40
0.3996117
50
20.3231056
51
36.4990255
0
ARC
8
DEFAULT_255_1_388
10
14.1622933
20
0.2413399
40
0.3022818
50
36.1436715
51
85.6627846
0
ARC
8
DEFAULT_255_1_388
10
14.1440189
20
0.1243881
40
0.4203853
50
84.3845912
51
90.076054
0
ARC
8
DEFAULT_255_1_388
10
14.1392544
20
0.1986416
40
0.346157
50
89.3037228
51
109.9046209
0
ARC
8
DEFAULT_255_1_388
10
14.1288377
20
0.2416379
40
0.3022217
50
110.8229774
51
143.917961
0
ARC
8
DEFAULT_255_1_388
10
14.2338736
20
0.1614455
40
0.434348
50
143.5289166
51
163.2980252
0
ARC
8
DEFAULT_255_1_388
10
14.4485023
20
0.0939685
40
0.659321
50
163.0418884
51
174.3139873
0
ARC
8
DEFAULT_255_1_388
10
14.7189988
20
0.0627378
40
0.9315905
50
174.050934
51
179.4174954
0
ARC
8
DEFAULT_255_1_388
10
14.6621932
20
-0.0291618
40
0.8747493
50
179.6928582
51
188.7908948
0
ARC
8
DEFAULT_255_1_388
10
14.3625732
20
-0.0770914
40
0.5713262
50
188.6328449
51
202.5630732
0
ARC
8
DEFAULT_255_1_388
10
14.2214568
20
-0.1337858
40
0.4192612
50
202.8078931
51
216.1195888
0
ARC
8
DEFAULT_255_1_388
10
14.1304085
20
-0.2070521
40
0.3025752
50
215.0755613
51
264.6379773
0
ARC
8
DEFAULT_255_1_388
10
14.1446923
20
-0.1135624
40
0.3970284
50
263.8464302
51
270.0830805
0
ARC
8
DEFAULT_255_1_388
10
14.1493468
20
-0.1426192
40
0.3679937
50
269.3649295
51
287.5149684
0
ARC
8
DEFAULT_255_1_388
10
14.1693908
20
-0.2154286
40
0.2925408
50
288.0629019
51
323.8115617
0
ARC
8
DEFAULT_255_1_388
10
14.0713885
20
-0.1423246
40
0.4148018
50
323.6546541
51
342.6591359
0
ARC
8
DEFAULT_255_1_388
10
13.8428542
20
-0.067972
40
0.6551163
50
342.4092446
51
353.6451501
0
ARC
8
DEFAULT_255_1_388
10
13.5243336
20
-0.0283435
40
0.9760748
50
353.4027553
51
359.4846611
0
LINE
8
DEFAULT_255_1_388
10
15.9451684
20
0.0586553
11
15.9451684
21
-0.0244726
0
LINE
8
DEFAULT_255_1_388
10
14.8870944
20
-0.0362189
11
14.8870944
21
0.0586553
0
LINE
8
DEFAULT_255_1_388
10
15.7725876
20
-0.0371225
11
15.7725876
21
0.0604625
0
LINE
8
DEFAULT_255_1_388
10
15.0596752
20
0.0722088
11
15.0596752
21
-0.0244726
0
ARC
8
DEFAULT_255_1_388
10
14.9729422
20
-0.0289274
40
0.9722364
50
350.4878118
51
0.2625322
0
ARC
8
DEFAULT_255_1_388
10
15.2309383
20
-0.0733006
40
0.7104556
50
336.0277991
51
350.5787241
0
ARC
8
DEFAULT_255_1_388
10
15.3822489
20
-0.1416757
40
0.544417
50
319.887443
51
336.1331163
0
ARC
8
DEFAULT_255_1_388
10
15.4500301
20
-0.1959267
40
0.4576311
50
302.4806296
51
319.6144102
0
ARC
8
DEFAULT_255_1_388
10
15.4370923
20
-0.1709933
40
0.4856183
50
275.8196423
51
302.1885521
0
ARC
8
DEFAULT_255_1_388
10
15.4183784
20
-0.0424534
40
0.6154183
50
269.9169897
51
276.339506
0
ARC
8
DEFAULT_255_1_388
10
15.4133385
20
-0.119632
40
0.5382553
50
252.5221437
51
270.441579
0
ARC
8
DEFAULT_255_1_388
10
15.3971635
20
-0.1802954
40
0.4755426
50
237.5349961
51
252.1858334
0
ARC
8
DEFAULT_255_1_388
10
15.4072011
20
-0.167488
40
0.4917393
50
209.0632754
51
237.3492577
0
ARC
8
DEFAULT_255_1_388
10
15.5051337
20
-0.1059896
40
0.6072464
50
205.118533
51
209.6465345
0
ARC
8
DEFAULT_255_1_388
10
15.5947339
20
-0.0679826
40
0.7045164
50
188.7216633
51
204.8239753
0
ARC
8
DEFAULT_255_1_388
10
15.8194115
20
-0.0301613
40
0.9323368
50
180.3722704
51
188.9253909
0
ARC
8
DEFAULT_255_1_388
10
15.8163676
20
0.0631416
40
0.929284
50
169.5253055
51
180.2766048
0
ARC
8
DEFAULT_255_1_388
10
15.6023475
20
0.1025024
40
0.7116745
50
155.8314601
51
169.5088611
0
ARC
8
DEFAULT_255_1_388
10
15.4582938
20
0.1693312
40
0.5528904
50
139.6259579
51
156.0379072
0
ARC
8
DEFAULT_255_1_388
10
15.3919472
20
0.2227143
40
0.4677708
50
122.6414784
51
139.3431662
0
ARC
8
DEFAULT_255_1_388
10
15.4032727
20
0.2020787
40
0.4912586
50
93.0224537
51
122.4556091
0
ARC
8
DEFAULT_255_1_388
10
15.4154248
20
0.0934776
40
0.6003837
50
89.9756766
51
93.6340839
0
ARC
8
DEFAULT_255_1_388
10
15.4197845
20
0.1383879
40
0.5554884
50
73.7463329
51
90.4234008
0
ARC
8
DEFAULT_255_1_388
10
15.4395318
20
0.2148772
40
0.4765353
50
57.663051
51
73.4516911
0
ARC
8
DEFAULT_255_1_388
10
15.4386356
20
0.2173108
40
0.4749629
50
29.1441355
51
57.4146687
0
ARC
8
DEFAULT_255_1_388
10
15.3334167
20
0.1516046
40
0.5988917
50
24.0985653
51
29.732054
0
ARC
8
DEFAULT_255_1_388
10
15.2171799
20
0.1034154
40
0.7246823
50
8.6654943
51
23.8241215
0
ARC
8
DEFAULT_255_1_388
10
14.9658218
20
0.0624037
40
0.9793537
50
359.7807044
51
8.8218476
0
ARC
8
DEFAULT_255_1_388
10
14.8367922
20
0.0652731
40
0.9358078
50
359.7054632
51
8.0359751
0
ARC
8
DEFAULT_255_1_388
10
15.1742973
20
0.1144252
40
0.5947474
50
7.8926278
51
20.2962188
0
ARC
8
DEFAULT_255_1_388
10
15.3573824
20
0.1819367
40
0.3996117
50
20.3231056
51
36.4990255
0
ARC
8
DEFAULT_255_1_388
10
15.4345121
20
0.2413399
40
0.3022818
50
36.1436715
51
85.6627846
0
ARC
8
DEFAULT_255_1_388
10
15.4162377
20
0.1243881
40
0.4203853
50
84.3845912
51
90.076054
0
ARC
8
DEFAULT_255_1_388
10
15.4114731
20
0.1986416
40
0.346157
50
89.3037228
51
109.9046209
0
ARC
8
DEFAULT_255_1_388
10
15.4010564
20
0.2416379
40
0.3022217
50
110.8229774
51
143.917961
0
ARC
8
DEFAULT_255_1_388
10
15.5060924
20
0.1614455
40
0.434348
50
143.5289166
51
163.2980252
0
ARC
8
DEFAULT_255_1_388
10
15.7207211
20
0.0939685
40
0.659321
50
163.0418884
51
174.3139873
0
ARC
8
DEFAULT_255_1_388
10
15.9912176
20
0.0627378
40
0.9315905
50
174.050934
51
179.4174954
0
ARC
8
DEFAULT_255_1_388
10
15.934412
20
-0.0291618
40
0.8747493
50
179.6928582
51
188.7908948
0
ARC
8
DEFAULT_255_1_388
10
15.6347919
20
-0.0770914
40
0.5713262
50
188.6328449
51
202.5630732
0
ARC
8
DEFAULT_255_1_388
10
15.4936756
20
-0.1337858
40
0.4192612
50
202.8078931
51
216.1195888
0
ARC
8
DEFAULT_255_1_388
10
15.4026273
20
-0.2070521
40
0.3025752
50
215.0755613
51
264.6379773
0
ARC
8
DEFAULT_255_1_388
10
15.4169111
20
-0.1135624
40
0.3970284
50
263.8464302
51
270.0830805
0
ARC
8
DEFAULT_255_1_388
10
15.4215656
20
-0.1426192
40
0.3679937
50
269.3649295
51
287.5149684
0
ARC
8
DEFAULT_255_1_388
10
15.4416096
20
-0.2154286
40
0.2925408
50
288.0629019
51
323.8115617
0
ARC
8
DEFAULT_255_1_388
10
15.3436073
20
-0.1423246
40
0.4148018
50
323.6546541
51
342.6591359
0
ARC
8
DEFAULT_255_1_388
10
15.115073
20
-0.067972
40
0.6551163
50
342.4092446
51
353.6451501
0
ARC
8
DEFAULT_255_1_388
10
14.7965524
20
-0.0283435
40
0.9760748
50
353.4027553
51
359.4846611
0
LINE
8
DEFAULT_255_1_388
10
16.3797829
20
0.6757898
11
16.3797829
21
-0.4979404
0
LINE
8
DEFAULT_255_1_388
10
16.3797829
20
-0.4979404
11
17.0032424
21
-0.4979404
0
LINE
8
DEFAULT_255_1_388
10
17.0032424
20
-0.4979404
11
17.0032424
21
-0.6398
0
LINE
8
DEFAULT_255_1_388
10
17.0032424
20
-0.6398
11
16.205395
21
-0.6398
0
LINE
8
DEFAULT_255_1_388
10
16.205395
20
-0.6398
11
16.205395
21
0.6757898
0
LINE
8
DEFAULT_255_1_388
10
16.205395
20
0.6757898
11
16.3797829
21
0.6757898
0
LINE
8
DEFAULT_255_1_388
10
17.9447565
20
0.1101585
11
17.9447565
21
-0.0317011
0
LINE
8
DEFAULT_255_1_388
10
17.9447565
20
-0.0317011
11
17.3746074
21
-0.0317011
0
LINE
8
DEFAULT_255_1_388
10
17.3746074
20
-0.0317011
11
17.3746074
21
-0.4979404
0
LINE
8
DEFAULT_255_1_388
10
17.3746074
20
-0.4979404
11
18.0369201
21
-0.4979404
0
LINE
8
DEFAULT_255_1_388
10
18.0369201
20
-0.4979404
11
18.0369201
21
-0.6398
0
LINE
8
DEFAULT_255_1_388
10
18.0369201
20
-0.6398
11
17.201123
21
-0.6398
0
LINE
8
DEFAULT_255_1_388
10
17.201123
20
-0.6398
11
17.201123
21
0.6757898
0
LINE
8
DEFAULT_255_1_388
10
17.201123
20
0.6757898
11
18.0278845
21
0.6757898
0
LINE
8
DEFAULT_255_1_388
10
18.0278845
20
0.6757898
11
18.0278845
21
0.5330267
0
LINE
8
DEFAULT_255_1_388
10
18.0278845
20
0.5330267
11
17.3746074
21
0.5330267
0
LINE
8
DEFAULT_255_1_388
10
17.3746074
20
0.5330267
11
17.3746074
21
0.1101585
0
LINE
8
DEFAULT_255_1_388
10
17.3746074
20
0.1101585
11
17.9447565
21
0.1101585
0
LINE
8
DEFAULT_255_1_388
10
19.1049333
20
-0.6398
11
18.9793378
21
-0.2964455
0
LINE
8
DEFAULT_255_1_388
10
18.9793378
20
-0.2964455
11
18.4281635
21
-0.2964455
0
LINE
8
DEFAULT_255_1_388
10
18.4281635
20
-0.2964455
11
18.3043752
21
-0.6398
0
LINE
8
DEFAULT_255_1_388
10
18.3043752
20
-0.6398
11
18.1254694
21
-0.6398
0
LINE
8
DEFAULT_255_1_388
10
18.1254694
20
-0.6398
11
18.6278513
21
0.6757898
0
LINE
8
DEFAULT_255_1_388
10
18.6278513
20
0.6757898
11
18.7796501
21
0.6757898
0
LINE
8
DEFAULT_255_1_388
10
18.7796501
20
0.6757898
11
19.2829355
21
-0.6398
0
LINE
8
DEFAULT_255_1_388
10
19.2829355
20
-0.6398
11
19.1049333
21
-0.6398
0
LINE
8
DEFAULT_255_1_388
10
18.7037507
20
0.4616451
11
18.4805703
21
-0.1536823
0
LINE
8
DEFAULT_255_1_388
10
18.4805703
20
-0.1536823
11
18.9278347
21
-0.1536823
0
LINE
8
DEFAULT_255_1_388
10
18.9278347
20
-0.1536823
11
18.7037507
21
0.4616451
0
LINE
8
DEFAULT_255_1_388
10
20.4711228
20
0.6757898
11
20.4711228
21
-0.6398
0
LINE
8
DEFAULT_255_1_388
10
20.4711228
20
-0.6398
11
20.2967348
21
-0.6398
0
LINE
8
DEFAULT_255_1_388
10
20.2967348
20
-0.6398
11
19.6344221
21
0.3739993
0
LINE
8
DEFAULT_255_1_388
10
19.6344221
20
0.3739993
11
19.6344221
21
-0.6398
0
LINE
8
DEFAULT_255_1_388
10
19.6344221
20
-0.6398
11
19.4600341
21
-0.6398
0
LINE
8
DEFAULT_255_1_388
10
19.4600341
20
-0.6398
11
19.4600341
21
0.6757898
0
LINE
8
DEFAULT_255_1_388
10
19.4600341
20
0.6757898
11
19.6344221
21
0.6757898
0
LINE
8
DEFAULT_255_1_388
10
19.6344221
20
0.6757898
11
20.2985419
21
-0.3425273
0
LINE
8
DEFAULT_255_1_388
10
20.2985419
20
-0.3425273
11
20.2985419
21
0.6757898
0
LINE
8
DEFAULT_255_1_388
10
20.2985419
20
0.6757898
11
20.4711228
21
0.6757898
0
LINE
8
DEFAULT_255_2_778
10
11.0359959
20
73.1231531
11
10.9838959
21
73.4604531
0
LINE
8
DEFAULT_255_2_778
10
10.9838959
20
73.4604531
11
10.4068959
21
73.4604531
0
LINE
8
DEFAULT_255_2_778
10
10.4068959
20
73.4604531
11
10.2364959
21
73.1231531
0
LINE
8
DEFAULT_255_2_778
10
10.2364959
20
73.1231531
11
9.8694959
21
73.1231531
0
LINE
8
DEFAULT_255_2_778
10
9.8694959
20
73.1231531
11
10.7531959
21
74.7606531
0
LINE
8
DEFAULT_255_2_778
10
10.7531959
20
74.7606531
11
11.0608959
21
74.7606531
0
LINE
8
DEFAULT_255_2_778
10
11.0608959
20
74.7606531
11
11.3754959
21
73.1231531
0
LINE
8
DEFAULT_255_2_778
10
11.3754959
20
73.1231531
11
11.0357959
21
73.1231531
0
LINE
8
DEFAULT_255_2_778
10
11.0357959
20
73.1231531
11
11.0359959
21
73.1231531
0
LINE
8
DEFAULT_255_2_778
10
10.8486959
20
74.3434531
11
10.5430959
21
73.7338531
0
LINE
8
DEFAULT_255_2_778
10
10.5430959
20
73.7338531
11
10.9418959
21
73.7338531
0
LINE
8
DEFAULT_255_2_778
10
10.9418959
20
73.7338531
11
10.8486959
21
74.3434531
0
LINE
8
DEFAULT_255_2_778
10
10.8486959
20
74.3434531
11
10.8486959
21
74.3434531
0
LINE
8
DEFAULT_255_2_778
10
12.1615594
20
74.8506646
11
11.8593594
21
73.1229646
0
LINE
8
DEFAULT_255_2_778
10
11.8593594
20
73.1229646
11
11.5368594
21
73.1229646
0
LINE
8
DEFAULT_255_2_778
10
11.5368594
20
73.1229646
11
11.8400594
21
74.8506646
0
LINE
8
DEFAULT_255_2_778
10
11.8400594
20
74.8506646
11
12.1615594
21
74.8506646
0
LINE
8
DEFAULT_255_2_778
10
12.1615594
20
74.8506646
11
12.1615594
21
74.8506646
0
LINE
8
DEFAULT_255_2_778
10
12.7717594
20
74.8506646
11
12.4695594
21
73.1229646
0
LINE
8
DEFAULT_255_2_778
10
12.4695594
20
73.1229646
11
12.1470594
21
73.1229646
0
LINE
8
DEFAULT_255_2_778
10
12.1470594
20
73.1229646
11
12.4502594
21
74.8506646
0
LINE
8
DEFAULT_255_2_778
10
12.4502594
20
74.8506646
11
12.7717594
21
74.8506646
0
LINE
8
DEFAULT_255_2_778
10
12.7717594
20
74.8506646
11
12.7717594
21
74.8506646
0
ARC
8
DEFAULT_255_2_778
10
13.3180767
20
73.6387764
40
0.5383522
50
238.763891
51
270.7055166
0
ARC
8
DEFAULT_255_2_778
10
13.2867625
20
73.583452
40
0.4748131
50
204.061185
51
238.5328679
0
ARC
8
DEFAULT_255_2_778
10
13.3693681
20
73.6230331
40
0.5663841
50
179.4896096
51
204.3103027
0
ARC
8
DEFAULT_255_2_778
10
13.4933843
20
73.6275727
40
0.6903781
50
175.123126
51
179.9580366
0
ARC
8
DEFAULT_255_2_778
10
13.5850479
20
73.6625152
40
0.7790728
50
149.5392097
51
174.9446897
0
ARC
8
DEFAULT_255_2_778
10
13.459184
20
73.7460212
40
0.628301
50
120.7003982
51
150.2846053
0
ARC
8
DEFAULT_255_2_778
10
13.4196851
20
73.8057024
40
0.556829
50
89.4236852
51
120.3409826
0
ARC
8
DEFAULT_255_2_778
10
13.4252352
20
73.7069671
40
0.6555361
50
88.4553682
51
89.9955718
0
ARC
8
DEFAULT_255_2_778
10
13.4481363
20
73.8911369
40
0.4711572
50
58.4514404
51
90.636095
0
ARC
8
DEFAULT_255_2_778
10
13.4744403
20
73.9545423
40
0.403504
50
35.6058989
51
56.9235594
0
ARC
8
DEFAULT_255_2_778
10
13.3641882
20
73.8807058
40
0.5361477
50
0.6851965
51
35.1616077
0
ARC
8
DEFAULT_255_2_778
10
13.1616313
20
73.8603229
40
0.7391521
50
359.9888194
51
2.0774415
0
ARC
8
DEFAULT_255_2_778
10
13.0480025
20
73.8620249
40
0.852783
50
353.383538
51
359.8759623
0
ARC
8
DEFAULT_255_2_778
10
13.534221
20
73.6096119
40
0.4107176
50
177.8018731
51
179.9839782
0
ARC
8
DEFAULT_255_2_778
10
13.3756217
20
73.598124
40
0.2523852
50
177.3650374
51
219.8309448
0
ARC
8
DEFAULT_255_2_778
10
13.3462068
20
73.5848401
40
0.2214564
50
222.0668323
51
271.55222
0
ARC
8
DEFAULT_255_2_778
10
13.3632002
20
73.7896289
40
0.4263057
50
268.5221572
51
269.9980687
0
ARC
8
DEFAULT_255_2_778
10
13.3616001
20
73.7600217
40
0.3967017
50
270.2290309
51
318.5203973
0
ARC
8
DEFAULT_255_2_778
10
13.4310056
20
73.5767979
40
0.4555006
50
292.4982989
51
325.2807674
0
ARC
8
DEFAULT_255_2_778
10
13.3411907
20
73.7553545
40
0.6549996
50
269.6158853
51
293.7802026
0
ARC
8
DEFAULT_255_2_778
10
13.3368026
20
73.842233
40
0.7418635
50
269.0811303
51
269.9997673
0
ARC
8
DEFAULT_255_2_778
10
13.4205249
20
73.8351977
40
0.2651417
50
88.6426435
51
89.9971979
0
ARC
8
DEFAULT_255_2_778
10
13.4187009
20
73.8704788
40
0.2298681
50
89.5421073
51
130.5025885
0
ARC
8
DEFAULT_255_2_778
10
13.5174398
20
73.7703327
40
0.370282
50
132.0556576
51
154.4346079
0
ARC
8
DEFAULT_255_2_778
10
13.9187288
20
73.5527869
40
0.8264843
50
152.8348001
51
159.2008974
0
ARC
8
DEFAULT_255_2_778
10
13.283715
20
73.9237268
40
0.3137404
50
351.1327381
51
359.8552777
0
ARC
8
DEFAULT_255_2_778
10
13.3301744
20
73.9233274
40
0.2672803
50
359.9157472
51
8.073482
0
ARC
8
DEFAULT_255_2_778
10
13.4328726
20
73.9386276
40
0.1634528
50
7.8192239
51
49.4174523
0
ARC
8
DEFAULT_255_2_778
10
13.4309336
20
73.9254377
40
0.174876
50
51.746929
51
91.3525911
0
LINE
8
DEFAULT_255_2_778
10
12.8055056
20
73.686265
11
12.8090056
21
73.731165
0
LINE
8
DEFAULT_255_2_778
10
13.8951056
20
73.763765
11
13.8768056
21
73.625365
0
LINE
8
DEFAULT_255_2_778
10
13.8768056
20
73.625365
11
13.1238056
21
73.625365
0
LINE
8
DEFAULT_255_2_778
10
13.6588056
20
73.497265
11
13.8054056
21
73.317365
0
LINE
8
DEFAULT_255_2_778
10
13.3249056
20
73.100465
11
13.3247056
21
73.100465
0
LINE
8
DEFAULT_255_2_778
10
13.1461056
20
73.846265
11
13.5868056
21
73.846265
0
LINE
8
DEFAULT_255_2_778
10
13.5868056
20
73.846265
11
13.5937056
21
73.875365
0
LINE
8
DEFAULT_255_2_778
10
13.4268056
20
74.100265
11
13.4268056
21
74.100265
0
ARC
8
DEFAULT_255_2_778
10
14.7973588
20
73.9188783
40
0.4439397
50
89.8554796
51
141.1589213
0
ARC
8
DEFAULT_255_2_778
10
14.7984572
20
73.857943
40
0.5048737
50
88.7717605
51
89.9975792
0
ARC
8
DEFAULT_255_2_778
10
14.8178417
20
74.0468406
40
0.315976
50
50.4893295
51
91.5528058
0
ARC
8
DEFAULT_255_2_778
10
14.8339359
20
74.0812178
40
0.2793745
50
33.8414583
51
48.5499238
0
ARC
8
DEFAULT_255_2_778
10
14.731985
20
74.0223286
40
0.3969262
50
4.3932888
51
32.7062485
0
ARC
8
DEFAULT_255_2_778
10
14.4819065
20
73.9869301
40
0.6491822
50
359.8769204
51
5.8177478
0
ARC
8
DEFAULT_255_2_778
10
14.2701804
20
73.9878881
40
0.8609097
50
353.9399056
51
359.8434284
0
ARC
8
DEFAULT_255_2_778
10
14.4164047
20
73.9535967
40
0.3954956
50
352.2407688
51
359.7520116
0
ARC
8
DEFAULT_255_2_778
10
14.5201997
20
73.9524041
40
0.2916973
50
359.8980094
51
5.448398
0
ARC
8
DEFAULT_255_2_778
10
14.6814536
20
73.9695865
40
0.129553
50
4.6550554
51
97.2610773
0
ARC
8
DEFAULT_255_2_778
10
14.655996
20
73.8438531
40
0.2544097
50
87.9539208
51
89.9945997
0
ARC
8
DEFAULT_255_2_778
10
14.6629447
20
73.8282668
40
0.2700847
50
91.4691634
51
141.078713
0
ARC
8
DEFAULT_255_2_778
10
14.7966376
20
73.6864301
40
0.4639576
50
137.8219849
51
140.394746
0
ARC
8
DEFAULT_255_2_778
10
16.9661161
20
73.733211
40
1.026426
50
77.5141066
51
90.4821212
0
ARC
8
DEFAULT_255_2_778
10
17.0845798
20
74.2424611
40
0.5036389
50
52.814306
51
78.1469212
0
ARC
8
DEFAULT_255_2_778
10
17.1732245
20
74.3707438
40
0.3479303
50
357.5432245
51
51.6759047
0
ARC
8
DEFAULT_255_2_778
10
16.9814613
20
74.3561938
40
0.5393738
50
356.248244
51
359.9613012
0
ARC
8
DEFAULT_255_2_778
10
17.128092
20
74.3435882
40
0.3922439
50
295.0867564
51
356.6841236
0
ARC
8
DEFAULT_255_2_778
10
16.9599154
20
74.6063279
40
0.7026958
50
292.6018649
51
298.4245718
0
ARC
8
DEFAULT_255_2_778
10
17.1412835
20
73.693675
40
0.2784307
50
29.5992916
51
71.4243751
0
ARC
8
DEFAULT_255_2_778
10
17.0686219
20
73.6514727
40
0.3624559
50
358.8250622
51
29.7265593
0
ARC
8
DEFAULT_255_2_778
10
16.932071
20
73.6443262
40
0.4989307
50
356.3312443
51
359.9671937
0
ARC
8
DEFAULT_255_2_778
10
16.9581925
20
73.6255387
40
0.4719696
50
307.6792206
51
358.4048608
0
ARC
8
DEFAULT_255_2_778
10
16.8807048
20
73.7463643
40
0.6150877
50
279.1080464
51
306.5123219
0
ARC
8
DEFAULT_255_2_778
10
16.7961448
20
74.1684116
40
1.0453321
50
269.63465
51
280.0226117
0
ARC
8
DEFAULT_255_2_778
10
16.8094212
20
73.7335308
40
0.3407431
50
267.9747348
51
304.6141501
0
ARC
8
DEFAULT_255_2_778
10
16.8661516
20
73.6473067
40
0.2375665
50
305.166569
51
352.3059676
0
ARC
8
DEFAULT_255_2_778
10
16.775822
20
73.6683166
40
0.3300111
50
350.7906063
51
359.6837465
0
ARC
8
DEFAULT_255_2_778
10
16.9356152
20
73.6739465
40
0.170376
50
357.4933304
51
35.754963
0
ARC
8
DEFAULT_255_2_778
10
16.9423472
20
73.6596963
40
0.1739313
50
40.8670445
51
88.9145542
0
ARC
8
DEFAULT_255_2_778
10
16.9113357
20
73.4744792
40
0.360752
50
84.5431107
51
87.5464559
0
ARC
8
DEFAULT_255_2_778
10
16.8864523
20
74.4465688
40
0.3741259
50
268.9933192
51
299.9063201
0
ARC
8
DEFAULT_255_2_778
10
16.9296435
20
74.3537438
40
0.2722705
50
301.7671328
51
305.0688299
0
ARC
8
DEFAULT_255_2_778
10
16.9572403
20
74.3176463
40
0.2268776
50
304.6024496
51
352.3134516
0
ARC
8
DEFAULT_255_2_778
10
16.9035208
20
74.3283322
40
0.2815642
50
351.6205962
51
359.745937
0
ARC
8
DEFAULT_255_2_778
10
17.0391775
20
74.3344083
40
0.1460884
50
357.1260689
51
87.9509322
0
ARC
8
DEFAULT_255_2_778
10
16.9733166
20
74.0550677
40
0.4312349
50
80.5121161
51
90.1776895
0
ARC
8
DEFAULT_255_2_778
10
18.304359
20
73.3832308
40
0.6634375
50
79.3314563
51
88.7113465
0
ARC
8
DEFAULT_255_2_778
10
18.3079683
20
73.6166839
40
0.4299655
50
88.4925657
51
89.9946723
0
ARC
8
DEFAULT_255_2_778
10
18.2982438
20
73.7367608
40
0.3100425
50
88.1952228
51
143.885382
0
ARC
8
DEFAULT_255_2_778
10
18.4077805
20
73.9817129
40
0.3980768
50
117.0828142
51
147.9763761
0
ARC
8
DEFAULT_255_2_778
10
18.3544747
20
74.0650295
40
0.2997784
50
89.5977622
51
115.2613452
0
ARC
8
DEFAULT_255_2_778
10
18.3464621
20
73.8928482
40
0.4720608
50
75.0830674
51
88.7719532
0
ARC
8
DEFAULT_255_2_778
10
19.3883565
20
73.2100588
40
0.303463
50
178.9513385
51
196.6911244
0
ARC
8
DEFAULT_255_2_778
10
19.5567182
20
73.2154238
40
0.4717738
50
177.8405456
51
179.9770623
0
ARC
8
DEFAULT_255_2_778
10
18.7787325
20
73.5200947
40
0.4198561
50
270.5473861
51
316.8967404
0
ARC
8
DEFAULT_255_2_778
10
18.7827705
20
73.5304581
40
0.4302003
50
268.5226571
51
269.9964175
0
ARC
8
DEFAULT_255_2_778
10
18.7647216
20
73.4785252
40
0.3781887
50
226.455184
51
271.0541416
0
ARC
8
DEFAULT_255_2_778
10
18.7161161
20
73.4331869
40
0.311866
50
179.0506747
51
227.1894377
0
ARC
8
DEFAULT_255_2_778
10
18.7977006
20
73.4382683
40
0.3934079
50
177.4603384
51
179.9875271
0
ARC
8
DEFAULT_255_2_778
10
18.7677222
20
73.4542892
40
0.3630457
50
122.3464314
51
179.7772632
0
ARC
8
DEFAULT_255_2_778
10
18.9127921
20
73.2271577
40
0.6325515
50
98.6956815
51
122.4402135
0
ARC
8
DEFAULT_255_2_778
10
18.9977072
20
72.7721789
40
1.0952432
50
89.6404969
51
99.4883828
0
ARC
8
DEFAULT_255_2_778
10
18.91142
20
73.987456
40
0.2635833
50
349.2520325
51
359.7979352
0
ARC
8
DEFAULT_255_2_778
10
18.9485896
20
73.9866836
40
0.2264121
50
359.9602232
51
5.7075699
0
ARC
8
DEFAULT_255_2_778
10
19.0517084
20
74.0008244
40
0.1224577
50
3.9221136
51
47.9806675
0
ARC
8
DEFAULT_255_2_778
10
19.0461009
20
73.9834028
40
0.1393558
50
51.0640414
51
91.6537281
0
ARC
8
DEFAULT_255_2_778
10
19.0343864
20
73.8492856
40
0.2735232
50
88.3883484
51
89.9950272
0
ARC
8
DEFAULT_255_2_778
10
19.0289472
20
73.9271996
40
0.1956856
50
88.4002709
51
125.6558116
0
ARC
8
DEFAULT_255_2_778
10
19.0229477
20
73.9454867
40
0.1774238
50
127.5242925
51
170.6536699
0
ARC
8
DEFAULT_255_2_778
10
18.8789596
20
73.9592573
40
0.3527561
50
122.7014157
51
177.7346919
0
ARC
8
DEFAULT_255_2_778
10
19.030198
20
73.7542043
40
0.6072396
50
91.7146868
51
124.2570002
0
ARC
8
DEFAULT_255_2_778
10
19.05893
20
73.4973064
40
0.865138
50
89.9735854
51
93.1077226
0
ARC
8
DEFAULT_255_2_778
10
19.0592938
20
73.440756
40
0.9216883
50
89.4414218
51
89.9978259
0
ARC
8
DEFAULT_255_2_778
10
19.0704714
20
73.8422068
40
0.5201984
50
63.6868659
51
90.2414521
0
ARC
8
DEFAULT_255_2_778
10
19.1244671
20
73.9701249
40
0.3816898
50
44.805062
51
62.4405121
0
ARC
8
DEFAULT_255_2_778
10
19.1511934
20
73.9943957
40
0.3456276
50
358.4368244
51
45.0725574
0
ARC
8
DEFAULT_255_2_778
10
18.9988451
20
73.9857092
40
0.4978477
50
354.0151208
51
359.9146153
0
ARC
8
DEFAULT_255_2_778
10
19.916384
20
73.2634006
40
0.5223437
50
178.2666392
51
179.9853875
0
ARC
8
DEFAULT_255_2_778
10
19.7189724
20
73.2555635
40
0.3250299
50
178.5948625
51
200.018038
0
ARC
8
DEFAULT_255_2_778
10
18.8607749
20
73.6444835
40
0.2979407
50
268.1351457
51
269.9967975
0
ARC
8
DEFAULT_255_2_778
10
18.8555143
20
73.6419809
40
0.2954847
50
271.0168715
51
323.4470831
0
ARC
8
DEFAULT_255_2_778
10
19.0185177
20
73.2824003
40
0.3950093
50
89.6139406
51
115.9632081
0
ARC
8
DEFAULT_255_2_778
10
18.9568146
20
73.4235476
40
0.2411766
50
117.4642621
51
142.4598629
0
ARC
8
DEFAULT_255_2_778
10
18.9147894
20
73.4604762
40
0.1853888
50
143.595728
51
174.110017
0
ARC
8
DEFAULT_255_2_778
10
18.8922711
20
73.4549244
40
0.1637466
50
171.368069
51
179.7835889
0
ARC
8
DEFAULT_255_2_778
10
18.8267207
20
73.4518088
40
0.098266
50
177.8221965
51
224.0379617
0
ARC
8
DEFAULT_255_2_778
10
18.8464576
20
73.4768517
40
0.1299333
50
225.9269812
51
272.0384171
0
ARC
8
DEFAULT_255_2_778
10
20.216987
20
74.0119976
40
0.3515032
50
37.8132465
51
89.9360651
0
ARC
8
DEFAULT_255_2_778
10
20.0346749
20
73.5217418
40
0.4267183
50
285.291584
51
321.0175046
0
ARC
8
DEFAULT_255_2_778
10
20.0570669
20
73.4755225
40
0.3763475
50
269.8450062
51
283.8588709
0
ARC
8
DEFAULT_255_2_778
10
20.0560587
20
73.5082286
40
0.4090522
50
268.5880369
51
269.9986183
0
ARC
8
DEFAULT_255_2_778
10
20.0420305
20
73.4550487
40
0.3557701
50
236.3475668
51
270.6359501
0
ARC
8
DEFAULT_255_2_778
10
20.0598141
20
73.4665321
40
0.3752788
50
201.8435891
51
235.058908
0
ARC
8
DEFAULT_255_2_778
10
20.3322211
20
73.5855871
40
0.6724873
50
181.1917384
51
202.6233367
0
ARC
8
DEFAULT_255_2_778
10
20.6351677
20
73.6186339
40
0.9764219
50
180.0156472
51
182.7609519
0
ARC
8
DEFAULT_255_2_778
10
20.5470549
20
73.6192658
40
0.8883095
50
174.2087211
51
180.0579587
0
ARC
8
DEFAULT_255_2_778
10
20.6346038
20
73.6321468
40
0.9727968
50
152.6606942
51
172.4775279
0
ARC
8
DEFAULT_255_2_778
10
20.4685375
20
73.7066269
40
0.7911386
50
151.1967159
51
151.9287309
0
ARC
8
DEFAULT_255_2_778
10
20.2724416
20
73.8306657
40
0.559722
50
125.8155177
51
152.6517649
0
ARC
8
DEFAULT_255_2_778
10
20.1926864
20
73.9251789
40
0.4365104
50
121.2895022
51
124.5859333
0
ARC
8
DEFAULT_255_2_778
10
20.2005174
20
73.9108255
40
0.4528439
50
89.3885498
51
121.1930117
0
ARC
8
DEFAULT_255_2_778
10
20.205315
20
73.8290492
40
0.5345942
50
88.6747242
51
89.9962477
0
ARC
8
DEFAULT_255_2_778
10
21.0229427
20
73.5916181
40
1.044966
50
173.5557888
51
179.5636493
0
ARC
8
DEFAULT_255_2_778
10
20.5582157
20
73.598589
40
0.5802095
50
179.9025124
51
183.3187157
0
ARC
8
DEFAULT_255_2_778
10
20.270534
20
73.569649
40
0.2915917
50
180.9134286
51
207.6247443
0
ARC
8
DEFAULT_255_2_778
10
20.135005
20
73.5052881
40
0.1417894
50
209.9763709
51
272.172214
0
ARC
8
DEFAULT_255_2_778
10
20.1512082
20
73.6290383
40
0.2656585
50
267.6638236
51
269.9934853
0
ARC
8
DEFAULT_255_2_778
10
20.1452669
20
73.6328962
40
0.2695812
50
271.2564257
51
323.4819236
0
ARC
8
DEFAULT_255_2_778
10
20.0042443
20
73.7717425
40
0.4663623
50
320.0808185
51
322.7722781
0
ARC
8
DEFAULT_255_2_778
10
20.2905955
20
73.9180938
40
0.1811681
50
17.7085133
51
91.4917236
0
ARC
8
DEFAULT_255_2_778
10
20.2776466
20
73.8173302
40
0.2819906
50
88.3270304
51
89.9962875
0
ARC
8
DEFAULT_255_2_778
10
20.2751839
20
73.8654886
40
0.2338453
50
89.3920923
51
141.8934507
0
ARC
8
DEFAULT_255_2_778
10
20.4150372
20
73.7558724
40
0.411538
50
141.9009784
51
164.0634131
0
ARC
8
DEFAULT_255_2_778
10
20.9401614
20
73.5881385
40
0.9626867
50
163.0454941
51
172.7936709
0
LINE
8
DEFAULT_255_2_778
10
14.1790793
20
74.3402006
11
14.4788793
21
74.3413006
0
LINE
8
DEFAULT_255_2_778
10
14.4788793
20
74.3413006
11
14.4515793
21
74.1973006
0
LINE
8
DEFAULT_255_2_778
10
15.1262793
20
73.8970006
11
14.9968793
21
73.1231006
0
LINE
8
DEFAULT_255_2_778
10
14.9968793
20
73.1231006
11
14.6764793
21
73.1231006
0
LINE
8
DEFAULT_255_2_778
10
14.6764793
20
73.1231006
11
14.8082793
21
73.9002006
0
LINE
8
DEFAULT_255_2_778
10
14.4391793
20
73.9822006
11
14.2856793
21
73.1229006
0
LINE
8
DEFAULT_255_2_778
10
14.2856793
20
73.1229006
11
13.9652793
21
73.1229006
0
LINE
8
DEFAULT_255_2_778
10
13.9652793
20
73.1229006
11
14.1787793
21
74.3400006
0
LINE
8
DEFAULT_255_2_778
10
14.1787793
20
74.3400006
11
14.1790793
21
74.3402006
0
LINE
8
DEFAULT_255_2_778
10
16.0157793
20
73.9553006
11
15.9692793
21
73.6933006
0
LINE
8
DEFAULT_255_2_778
10
15.9692793
20
73.6933006
11
15.3466793
21
73.6933006
0
LINE
8
DEFAULT_255_2_778
10
15.3466793
20
73.6933006
11
15.3921793
21
73.9553006
0
LINE
8
DEFAULT_255_2_778
10
15.3921793
20
73.9553006
11
16.0157793
21
73.9553006
0
LINE
8
DEFAULT_255_2_778
10
16.0157793
20
73.9553006
11
16.0157793
21
73.9553006
0
LINE
8
DEFAULT_255_2_778
10
16.7894793
20
73.1231006
11
16.1544793
21
73.1231006
0
LINE
8
DEFAULT_255_2_778
10
16.1544793
20
73.1231006
11
16.4417793
21
74.7606006
0
LINE
8
DEFAULT_255_2_778
10
16.4417793
20
74.7606006
11
16.9574793
21
74.7596006
0
LINE
8
DEFAULT_255_2_778
10
16.7894793
20
73.1231006
11
16.7894793
21
73.1231006
0
LINE
8
DEFAULT_255_2_778
10
16.9267793
20
73.8351006
11
16.6131793
21
73.8362006
0
LINE
8
DEFAULT_255_2_778
10
16.6131793
20
73.8362006
11
16.5348793
21
73.3941006
0
LINE
8
DEFAULT_255_2_778
10
16.5348793
20
73.3941006
11
16.7973793
21
73.3930006
0
LINE
8
DEFAULT_255_2_778
10
16.9267793
20
73.8349006
11
16.9267793
21
73.8351006
0
LINE
8
DEFAULT_255_2_778
10
16.7267793
20
74.4876006
11
16.6539793
21
74.0748006
0
LINE
8
DEFAULT_255_2_778
10
16.6539793
20
74.0748006
11
16.8798793
21
74.0725006
0
LINE
8
DEFAULT_255_2_778
10
16.9719793
20
74.4863006
11
16.7267793
21
74.4873006
0
LINE
8
DEFAULT_255_2_778
10
16.7267793
20
74.4873006
11
16.7267793
21
74.4876006
0
LINE
8
DEFAULT_255_2_778
10
18.4681793
20
74.3490006
11
18.4271793
21
74.0352006
0
LINE
8
DEFAULT_255_2_778
10
18.0477793
20
73.9195006
11
17.9056793
21
73.1231006
0
LINE
8
DEFAULT_255_2_778
10
17.9056793
20
73.1231006
11
17.5852793
21
73.1231006
0
LINE
8
DEFAULT_255_2_778
10
17.5852793
20
73.1231006
11
17.7987793
21
74.3402006
0
LINE
8
DEFAULT_255_2_778
10
17.7987793
20
74.3402006
11
18.0998793
21
74.3413006
0
LINE
8
DEFAULT_255_2_778
10
18.0998793
20
74.3413006
11
18.0702793
21
74.1928006
0
LINE
8
DEFAULT_255_2_778
10
18.4679793
20
74.3490006
11
18.4681793
21
74.3490006
0
LINE
8
DEFAULT_255_2_778
10
19.4122793
20
73.1229006
11
19.0976793
21
73.1229006
0
LINE
8
DEFAULT_255_2_778
10
19.0045793
20
73.8674006
11
19.1545793
21
73.8653006
0
LINE
8
DEFAULT_255_2_778
10
19.1545793
20
73.8653006
11
19.1703793
21
73.9383006
0
LINE
8
DEFAULT_255_2_778
10
18.8478793
20
73.9743006
11
18.5264793
21
73.9732006
0
LINE
8
DEFAULT_255_2_778
10
19.4939793
20
73.9338006
11
19.3997793
21
73.3512006
0
LINE
8
DEFAULT_255_2_778
10
19.3997793
20
73.3512006
11
19.3942793
21
73.2792006
0
LINE
8
DEFAULT_255_2_778
10
19.4135793
20
73.1443006
11
19.4124793
21
73.1229006
0
LINE
8
DEFAULT_255_2_778
10
19.4124793
20
73.1229006
11
19.4122793
21
73.1229006
0
LINE
8
DEFAULT_255_2_778
10
19.0928793
20
73.4660006
11
19.1325793
21
73.6764006
0
LINE
8
DEFAULT_255_2_778
10
19.1325793
20
73.6764006
11
19.0211793
21
73.6774006
0
LINE
8
DEFAULT_255_2_778
10
18.8510793
20
73.3470006
11
18.8510793
21
73.3467006
0
LINE
8
DEFAULT_255_2_778
10
20.4946793
20
74.2275006
11
20.6150793
21
74.8506006
0
LINE
8
DEFAULT_255_2_778
10
20.6150793
20
74.8506006
11
20.9364793
21
74.8506006
0
LINE
8
DEFAULT_255_2_778
10
20.9364793
20
74.8506006
11
20.6343793
21
73.1229006
0
LINE
8
DEFAULT_255_2_778
10
20.6343793
20
73.1229006
11
20.3480793
21
73.1229006
0
LINE
8
DEFAULT_255_2_778
10
20.3480793
20
73.1229006
11
20.3663793
21
73.2533006
0
LINE
8
DEFAULT_255_2_778
10
19.6632793
20
73.7089006
11
19.6701793
21
73.7595006
0
LINE
8
DEFAULT_255_2_778
10
20.2176793
20
74.3635006
11
20.2173793
21
74.3635006
0
LINE
8
DEFAULT_255_2_778
10
20.3755793
20
73.4896006
11
20.4631793
21
73.9732006
0
LINE
8
DEFAULT_255_2_778
10
19.9850793
20
73.7089006
11
19.9845793
21
73.7089006
0
LINE
8
DEFAULT_255_2_778
10
21.5304594
20
74.8506646
11
21.2282594
21
73.1229646
0
LINE
8
DEFAULT_255_2_778
10
21.2282594
20
73.1229646
11
20.9057594
21
73.1229646
0
LINE
8
DEFAULT_255_2_778
10
20.9057594
20
73.1229646
11
21.2089594
21
74.8506646
0
LINE
8
DEFAULT_255_2_778
10
21.2089594
20
74.8506646
11
21.5304594
21
74.8506646
0
LINE
8
DEFAULT_255_2_778
10
21.5304594
20
74.8506646
11
21.5304594
21
74.8506646
0
ARC
8
DEFAULT_255_2_778
10
22.0768767
20
73.6387764
40
0.5383522
50
238.763891
51
270.7055166
0
ARC
8
DEFAULT_255_2_778
10
22.0455625
20
73.583452
40
0.4748131
50
204.061185
51
238.5328679
0
ARC
8
DEFAULT_255_2_778
10
22.1281681
20
73.6230331
40
0.5663841
50
179.4896096
51
204.3103027
0
ARC
8
DEFAULT_255_2_778
10
22.2521843
20
73.6275727
40
0.6903781
50
175.123126
51
179.9580366
0
ARC
8
DEFAULT_255_2_778
10
22.3438479
20
73.6625152
40
0.7790728
50
149.5392097
51
174.9446897
0
ARC
8
DEFAULT_255_2_778
10
22.217984
20
73.7460212
40
0.628301
50
120.7003982
51
150.2846053
0
ARC
8
DEFAULT_255_2_778
10
22.1784851
20
73.8057024
40
0.556829
50
89.4236852
51
120.3409826
0
ARC
8
DEFAULT_255_2_778
10
22.1840352
20
73.7069671
40
0.6555361
50
88.4553682
51
89.9955718
0
ARC
8
DEFAULT_255_2_778
10
22.2069363
20
73.8911369
40
0.4711572
50
58.4514404
51
90.636095
0
ARC
8
DEFAULT_255_2_778
10
22.2332403
20
73.9545423
40
0.403504
50
35.6058989
51
56.9235594
0
ARC
8
DEFAULT_255_2_778
10
22.1229882
20
73.8807058
40
0.5361477
50
0.6851965
51
35.1616077
0
ARC
8
DEFAULT_255_2_778
10
21.9204313
20
73.8603229
40
0.7391521
50
359.9888194
51
2.0774415
0
ARC
8
DEFAULT_255_2_778
10
21.8068025
20
73.8620249
40
0.852783
50
353.383538
51
359.8759623
0
ARC
8
DEFAULT_255_2_778
10
22.293021
20
73.6096119
40
0.4107176
50
177.8018731
51
179.9839782
0
ARC
8
DEFAULT_255_2_778
10
22.1344217
20
73.598124
40
0.2523852
50
177.3650374
51
219.8309448
0
ARC
8
DEFAULT_255_2_778
10
22.1050068
20
73.5848401
40
0.2214564
50
222.0668323
51
271.55222
0
ARC
8
DEFAULT_255_2_778
10
22.1220002
20
73.7896289
40
0.4263057
50
268.5221572
51
269.9980687
0
ARC
8
DEFAULT_255_2_778
10
22.1204001
20
73.7600217
40
0.3967017
50
270.2290309
51
318.5203973
0
ARC
8
DEFAULT_255_2_778
10
22.1898056
20
73.5767979
40
0.4555006
50
292.4982989
51
325.2807674
0
ARC
8
DEFAULT_255_2_778
10
22.0999907
20
73.7553545
40
0.6549996
50
269.6158853
51
293.7802026
0
ARC
8
DEFAULT_255_2_778
10
22.0956026
20
73.842233
40
0.7418635
50
269.0811303
51
269.9997673
0
ARC
8
DEFAULT_255_2_778
10
22.1793249
20
73.8351977
40
0.2651417
50
88.6426435
51
89.9971979
0
ARC
8
DEFAULT_255_2_778
10
22.1775009
20
73.8704788
40
0.2298681
50
89.5421073
51
130.5025885
0
ARC
8
DEFAULT_255_2_778
10
22.2762398
20
73.7703327
40
0.370282
50
132.0556576
51
154.4346079
0
ARC
8
DEFAULT_255_2_778
10
22.6775288
20
73.5527869
40
0.8264843
50
152.8348001
51
159.2008974
0
ARC
8
DEFAULT_255_2_778
10
22.042515
20
73.9237268
40
0.3137404
50
351.1327381
51
359.8552777
0
ARC
8
DEFAULT_255_2_778
10
22.0889744
20
73.9233274
40
0.2672803
50
359.9157472
51
8.073482
0
ARC
8
DEFAULT_255_2_778
10
22.1916726
20
73.9386276
40
0.1634528
50
7.8192239
51
49.4174523
0
ARC
8
DEFAULT_255_2_778
10
22.1897336
20
73.9254377
40
0.174876
50
51.746929
51
91.3525911
0
LINE
8
DEFAULT_255_2_778
10
21.5643056
20
73.686265
11
21.5678056
21
73.731165
0
LINE
8
DEFAULT_255_2_778
10
22.6539056
20
73.763765
11
22.6356056
21
73.625365
0
LINE
8
DEFAULT_255_2_778
10
22.6356056
20
73.625365
11
21.8826056
21
73.625365
0
LINE
8
DEFAULT_255_2_778
10
22.4176056
20
73.497265
11
22.5642056
21
73.317365
0
LINE
8
DEFAULT_255_2_778
10
22.0837056
20
73.100465
11
22.0835056
21
73.100465
0
LINE
8
DEFAULT_255_2_778
10
21.9049056
20
73.846265
11
22.3456056
21
73.846265
0
LINE
8
DEFAULT_255_2_778
10
22.3456056
20
73.846265
11
22.3525056
21
73.875365
0
LINE
8
DEFAULT_255_2_778
10
22.1856056
20
74.100265
11
22.1856056
21
74.100265
0
ARC
8
DEFAULT_255_2_778
10
22.5732251
20
73.2393848
40
0.7187609
50
318.1171527
51
335.3457065
0
ARC
8
DEFAULT_255_2_778
10
22.7861338
20
73.0572586
40
0.4387075
50
306.2044829
51
317.2623563
0
ARC
8
DEFAULT_255_2_778
10
22.8118587
20
73.0265063
40
0.3987066
50
269.0092455
51
305.8318035
0
ARC
8
DEFAULT_255_2_778
10
22.8209703
20
73.1911254
40
0.5634934
50
257.9736769
51
268.3723286
0
ARC
8
DEFAULT_255_2_778
10
22.976467
20
74.0453273
40
1.431581
50
256.8370098
51
259.0102636
0
ARC
8
DEFAULT_255_2_778
10
22.7299218
20
73.293381
40
0.396887
50
268.3457775
51
269.9906226
0
ARC
8
DEFAULT_255_2_778
10
22.744688
20
73.1339479
40
0.2379166
50
266.425992
51
328.6474802
0
LINE
8
DEFAULT_255_2_778
10
23.1491646
20
74.3399594
11
23.2378646
21
73.5864594
0
LINE
8
DEFAULT_255_2_778
10
23.2378646
20
73.5864594
11
23.5889646
21
74.3399594
0
LINE
8
DEFAULT_255_2_778
10
23.5889646
20
74.3399594
11
23.9453646
21
74.3399594
0
LINE
8
DEFAULT_255_2_778
10
23.9453646
20
74.3399594
11
23.2264646
21
72.9395594
0
LINE
8
DEFAULT_255_2_778
10
22.6504646
20
72.6513594
11
22.6742646
21
72.8987594
0
LINE
8
DEFAULT_255_2_778
10
22.6742646
20
72.8987594
11
22.7184646
21
72.8966594
0
LINE
8
DEFAULT_255_2_778
10
22.9478646
20
73.0101594
11
23.0182646
21
73.1395594
0
LINE
8
DEFAULT_255_2_778
10
23.0182646
20
73.1395594
11
22.8171646
21
74.3396594
0
LINE
8
DEFAULT_255_2_778
10
22.8171646
20
74.3396594
11
23.1489646
21
74.3396594
0
LINE
8
DEFAULT_255_2_778
10
23.1489646
20
74.3396594
11
23.1491646
21
74.3399594
0
LINE
8
DEFAULT_255_2_778
10
5.4244542
20
74.7394666
11
5.4244542
21
73.5541666
0
LINE
8
DEFAULT_255_2_778
10
5.4244542
20
73.5541666
11
8.3507542
21
73.5171666
0
LINE
8
DEFAULT_255_2_778
10
8.3507542
20
73.5171666
11
8.3507542
21
74.7394666
0
LINE
8
DEFAULT_255_2_778
10
8.3507542
20
74.7394666
11
7.4246542
21
75.5914666
0
LINE
8
DEFAULT_255_2_778
10
7.4246542
20
75.5914666
11
6.2764542
21
75.5914666
0
LINE
8
DEFAULT_255_2_778
10
6.2764542
20
75.5914666
11
5.4244542
21
74.7394666
0
LINE
8
DEFAULT_255_2_778
10
5.5726542
20
73.3319666
11
8.2025542
21
73.3319666
0
LINE
8
DEFAULT_255_2_778
10
8.2025542
20
73.3319666
11
7.4617542
21
72.6281666
0
LINE
8
DEFAULT_255_2_778
10
7.4617542
20
72.6281666
11
6.3504542
21
72.6281666
0
LINE
8
DEFAULT_255_2_778
10
6.3504542
20
72.6281666
11
5.5726542
21
73.3319666
0
ARC
8
DEFAULT_255_2_778
10
7.8458226
20
73.8810768
40
0.1423419
50
264.5115721
51
318.4176283
0
ARC
8
DEFAULT_255_2_778
10
7.8189879
20
73.8781225
40
0.1616977
50
325.5297452
51
3.3557414
0
ARC
8
DEFAULT_255_2_778
10
7.8389795
20
74.2346157
40
0.142084
50
354.4959081
51
48.5537602
0
ARC
8
DEFAULT_255_2_778
10
7.8416444
20
74.2074068
40
0.1619557
50
55.6500697
51
93.3401169
0
ARC
8
DEFAULT_255_2_778
10
7.8414709
20
74.433925
40
0.0654958
50
261.8698976
51
8.1301024
0
ARC
8
DEFAULT_255_2_778
10
7.7988672
20
74.8166455
40
0.1074847
50
358.3696885
51
95.9524071
0
ARC
8
DEFAULT_255_2_778
10
7.7588839
20
74.5882916
40
0.3364968
50
85.0838783
51
90.1320543
0
LINE
8
DEFAULT_255_2_778
10
5.6838084
20
73.7393875
11
6.1283084
21
74.9617875
0
LINE
8
DEFAULT_255_2_778
10
6.1283084
20
74.9617875
11
6.3876084
21
74.9617875
0
LINE
8
DEFAULT_255_2_778
10
6.3876084
20
74.9617875
11
6.8691084
21
73.7764875
0
LINE
8
DEFAULT_255_2_778
10
6.8691084
20
73.7764875
11
6.5358084
21
73.7764875
0
LINE
8
DEFAULT_255_2_778
10
6.5358084
20
73.7764875
11
6.4246084
21
74.0357875
0
LINE
8
DEFAULT_255_2_778
10
6.4246084
20
74.0357875
11
6.0913084
21
74.0357875
0
LINE
8
DEFAULT_255_2_778
10
6.0913084
20
74.0357875
11
6.0913084
21
74.1838875
0
LINE
8
DEFAULT_255_2_778
10
6.0913084
20
74.1838875
11
6.3876084
21
74.1838875
0
LINE
8
DEFAULT_255_2_778
10
6.3876084
20
74.1838875
11
6.2024084
21
74.6283875
0
LINE
8
DEFAULT_255_2_778
10
6.2024084
20
74.6283875
11
5.8690084
21
73.7393875
0
LINE
8
DEFAULT_255_2_778
10
5.8690084
20
73.7393875
11
5.6838084
21
73.7393875
0
LINE
8
DEFAULT_255_2_778
10
5.6838084
20
73.7393875
11
5.6838084
21
73.7393875
0
LINE
8
DEFAULT_255_2_778
10
6.7580084
20
74.4061875
11
6.9062084
21
74.4061875
0
LINE
8
DEFAULT_255_2_778
10
6.9062084
20
74.4061875
11
6.9062084
21
74.2579875
0
LINE
8
DEFAULT_255_2_778
10
6.9062084
20
74.2579875
11
6.7580084
21
74.2579875
0
LINE
8
DEFAULT_255_2_778
10
6.7580084
20
74.2579875
11
6.7580084
21
74.4061875
0
LINE
8
DEFAULT_255_2_778
10
7.2766084
20
74.7395875
11
7.6100084
21
74.7395875
0
LINE
8
DEFAULT_255_2_778
10
7.6100084
20
74.7395875
11
7.6100084
21
74.3690875
0
LINE
8
DEFAULT_255_2_778
10
7.6100084
20
74.3690875
11
7.3507084
21
74.3690875
0
LINE
8
DEFAULT_255_2_778
10
7.3507084
20
74.3690875
11
7.3507084
21
74.2209875
0
LINE
8
DEFAULT_255_2_778
10
7.3507084
20
74.2209875
11
7.6840084
21
74.2209875
0
LINE
8
DEFAULT_255_2_778
10
7.6840084
20
74.2209875
11
7.6840084
21
73.8875875
0
LINE
8
DEFAULT_255_2_778
10
7.6840084
20
73.8875875
11
7.2766084
21
73.8875875
0
LINE
8
DEFAULT_255_2_778
10
7.2766084
20
73.8875875
11
7.2766084
21
74.7395875
0
LINE
8
DEFAULT_255_2_778
10
7.2766084
20
74.7395875
11
7.2766084
21
74.7395875
0
LINE
8
DEFAULT_255_2_778
10
6.9803084
20
74.9247875
11
6.9803084
21
73.7393875
0
LINE
8
DEFAULT_255_2_778
10
6.9803084
20
73.7393875
11
7.8322084
21
73.7393875
0
LINE
8
DEFAULT_255_2_778
10
7.9804084
20
73.8875875
11
7.9804084
21
74.2209875
0
LINE
8
DEFAULT_255_2_778
10
7.9063084
20
74.4431875
11
7.9063084
21
74.8135875
0
LINE
8
DEFAULT_255_2_778
10
7.7581084
20
74.9247875
11
6.9803084
21
74.9247875
0
LINE
8
DEFAULT_255_2_778
10
6.9803084
20
74.9247875
11
6.9803084
21
74.9247875
0
LINE
8
DEFAULT_255_2_778
10
6.3394427
20
72.9490198
11
6.3367427
21
72.9490198
0
ARC
8
DEFAULT_255_2_778
10
6.3340483
20
73.0740854
40
0.1250946
50
247.1356448
51
271.2341787
0
ARC
8
DEFAULT_255_2_778
10
6.3160916
20
73.0317164
40
0.0790776
50
215.0349981
51
247.1960091
0
ARC
8
DEFAULT_255_2_778
10
6.3109464
20
73.0263964
40
0.0718243
50
178.625123
51
213.9163394
0
ARC
8
DEFAULT_255_2_778
10
6.3131693
20
73.1434391
40
0.0740421
50
147.0420611
51
181.175799
0
ARC
8
DEFAULT_255_2_778
10
6.3147919
20
73.1395628
40
0.0775487
50
112.4780918
51
145.2909011
0
ARC
8
DEFAULT_255_2_778
10
6.333917
20
73.0951534
40
0.1258981
50
88.7138988
51
112.7934617
0
ARC
8
DEFAULT_255_2_778
10
6.339481
20
73.0956878
40
0.1253619
50
67.159311
51
91.2516049
0
ARC
8
DEFAULT_255_2_778
10
6.3569794
20
73.1376852
40
0.0798654
50
35.1978461
51
67.0331611
0
ARC
8
DEFAULT_255_2_778
10
6.3626391
20
73.1436431
40
0.0718243
50
358.625123
51
33.9163394
0
ARC
8
DEFAULT_255_2_778
10
6.3604162
20
73.0266004
40
0.0740421
50
327.0420611
51
1.175799
0
ARC
8
DEFAULT_255_2_778
10
6.361381
20
73.0278218
40
0.0739133
50
291.6436853
51
325.8406333
0
ARC
8
DEFAULT_255_2_778
10
6.3401809
20
73.036874
40
0.0482768
50
265.9160158
51
308.3617549
0
ARC
8
DEFAULT_255_2_778
10
6.3451719
20
73.0258207
40
0.036631
50
312.9754563
51
3.2850623
0
ARC
8
DEFAULT_255_2_778
10
6.3448152
20
73.143502
40
0.0369754
50
357.082104
51
47.4006092
0
ARC
8
DEFAULT_255_2_778
10
6.339634
20
73.1333686
40
0.0480383
50
51.0349629
51
93.4505724
0
ARC
8
DEFAULT_255_2_778
10
6.3340455
20
73.133049
40
0.0483461
50
86.8017862
51
128.8135095
0
ARC
8
DEFAULT_255_2_778
10
6.3287702
20
73.143502
40
0.0369754
50
132.5993908
51
182.917896
0
ARC
8
DEFAULT_255_2_778
10
6.3284135
20
73.0258207
40
0.036631
50
176.7149377
51
227.0245437
0
ARC
8
DEFAULT_255_2_778
10
6.3334908
20
73.037186
40
0.0485752
50
231.7867693
51
273.8385805
0
ARC
8
DEFAULT_255_2_778
10
6.5570034
20
73.0255567
40
0.0766655
50
226.2029837
51
273.3195937
0
ARC
8
DEFAULT_255_2_778
10
6.5622798
20
73.0235746
40
0.0790566
50
176.8492311
51
222.4458356
0
ARC
8
DEFAULT_255_2_778
10
6.5699928
20
73.0254647
40
0.043631
50
176.5112098
51
217.639275
0
ARC
8
DEFAULT_255_2_778
10
6.5593879
20
73.0203664
40
0.0322122
50
221.9818643
51
273.6574471
0
ARC
8
DEFAULT_255_2_778
10
6.5632217
20
73.0208151
40
0.0326438
50
266.8760675
51
317.6392064
0
ARC
8
DEFAULT_255_2_778
10
6.5527926
20
73.0254647
40
0.043631
50
322.360725
51
3.4887902
0
ARC
8
DEFAULT_255_2_778
10
6.5605056
20
73.0235746
40
0.0790566
50
317.5541644
51
3.1507689
0
ARC
8
DEFAULT_255_2_778
10
6.5656687
20
73.0258223
40
0.0769357
50
266.6274163
51
313.7210327
0
LINE
8
DEFAULT_255_2_778
10
6.4394427
20
72.8874198
11
6.3828427
21
72.8874198
0
LINE
8
DEFAULT_255_2_778
10
6.3828427
20
72.8874198
11
6.3394427
21
72.9490198
0
LINE
8
DEFAULT_255_2_778
10
6.2391427
20
73.0281198
11
6.2391427
21
73.1419198
0
LINE
8
DEFAULT_255_2_778
10
6.4344427
20
73.1419198
11
6.4344427
21
73.0281198
0
LINE
8
DEFAULT_255_2_778
10
6.3886427
20
72.9591198
11
6.4394427
21
72.8876198
0
LINE
8
DEFAULT_255_2_778
10
6.4394427
20
72.8876198
11
6.4394427
21
72.8874198
0
LINE
8
DEFAULT_255_2_778
10
6.3817427
20
73.0279198
11
6.3817427
21
73.1416198
0
LINE
8
DEFAULT_255_2_778
10
6.2918427
20
73.1416198
11
6.2918427
21
73.0279198
0
LINE
8
DEFAULT_255_2_778
10
6.3367427
20
72.9887198
11
6.3367427
21
72.9887198
0
LINE
8
DEFAULT_255_2_778
10
6.4833427
20
73.0279198
11
6.4833427
21
73.2170198
0
LINE
8
DEFAULT_255_2_778
10
6.4833427
20
73.2170198
11
6.5264427
21
73.2170198
0
LINE
8
DEFAULT_255_2_778
10
6.5264427
20
73.2170198
11
6.5264427
21
73.0281198
0
LINE
8
DEFAULT_255_2_778
10
6.5963427
20
73.0281198
11
6.5963427
21
73.2170198
0
LINE
8
DEFAULT_255_2_778
10
6.5963427
20
73.2170198
11
6.6394427
21
73.2170198
0
LINE
8
DEFAULT_255_2_778
10
6.6394427
20
73.2170198
11
6.6394427
21
73.0279198
0
LINE
8
DEFAULT_255_2_778
10
6.5611427
20
72.9490198
11
6.5614427
21
72.9490198
0
ARC
8
DEFAULT_255_2_778
10
12.1641553
20
74.2521635
40
5.5033955
50
191.4837585
51
191.8239227
0
ARC
8
DEFAULT_255_2_778
10
8.3589245
20
73.4483972
40
1.6145995
50
189.6626565
51
190.4158531
0
ARC
8
DEFAULT_255_2_778
10
6.1197449
20
73.2812409
40
0.6557616
50
349.0334606
51
350.8880298
0
ARC
8
DEFAULT_255_2_778
10
6.0674183
20
73.2848866
40
0.7078549
50
346.9283592
51
349.5494987
0
ARC
8
DEFAULT_255_2_778
10
7.2958769
20
73.0540243
40
0.1856762
50
15.5793022
51
22.5708948
0
ARC
8
DEFAULT_255_2_778
10
7.3328007
20
73.0588058
40
0.1489195
50
11.1061152
51
17.6230497
0
ARC
8
DEFAULT_255_2_778
10
8.063214
20
72.9430593
40
0.6018696
50
164.5010167
51
166.1150622
0
ARC
8
DEFAULT_255_2_778
10
7.6620856
20
73.0540243
40
0.1856762
50
157.4291052
51
164.4206978
0
LINE
8
DEFAULT_255_2_778
10
6.7201313
20
72.9524917
11
6.6762313
21
72.9524917
0
LINE
8
DEFAULT_255_2_778
10
6.6762313
20
72.9524917
11
6.7392313
21
73.2170917
0
LINE
8
DEFAULT_255_2_778
10
6.7392313
20
73.2170917
11
6.7942313
21
73.2170917
0
LINE
8
DEFAULT_255_2_778
10
6.7942313
20
73.2170917
11
6.8577313
21
72.9524917
0
LINE
8
DEFAULT_255_2_778
10
6.8577313
20
72.9524917
11
6.8138313
21
72.9524917
0
LINE
8
DEFAULT_255_2_778
10
6.8138313
20
72.9524917
11
6.8000313
21
73.0164917
0
LINE
8
DEFAULT_255_2_778
10
6.8000313
20
73.0164917
11
6.7336313
21
73.0164917
0
LINE
8
DEFAULT_255_2_778
10
6.7336313
20
73.0164917
11
6.7199313
21
72.9524917
0
LINE
8
DEFAULT_255_2_778
10
6.7199313
20
72.9524917
11
6.7201313
21
72.9524917
0
LINE
8
DEFAULT_255_2_778
10
6.7569313
20
73.1249917
11
6.7418313
21
73.0535917
0
LINE
8
DEFAULT_255_2_778
10
6.7418313
20
73.0535917
11
6.7926313
21
73.0535917
0
LINE
8
DEFAULT_255_2_778
10
6.7926313
20
73.0535917
11
6.7775313
21
73.1244917
0
LINE
8
DEFAULT_255_2_778
10
6.7569313
20
73.1247917
11
6.7569313
21
73.1249917
0
LINE
8
DEFAULT_255_2_778
10
7.0231313
20
72.9524917
11
6.8741313
21
72.9524917
0
LINE
8
DEFAULT_255_2_778
10
6.8741313
20
72.9524917
11
6.8741313
21
73.2170917
0
LINE
8
DEFAULT_255_2_778
10
6.8741313
20
73.2170917
11
6.9170313
21
73.2170917
0
LINE
8
DEFAULT_255_2_778
10
6.9170313
20
73.2170917
11
6.9170313
21
72.9934917
0
LINE
8
DEFAULT_255_2_778
10
6.9170313
20
72.9934917
11
7.0231313
21
72.9934917
0
LINE
8
DEFAULT_255_2_778
10
7.0231313
20
72.9934917
11
7.0231313
21
72.9524917
0
LINE
8
DEFAULT_255_2_778
10
7.0231313
20
72.9524917
11
7.0231313
21
72.9524917
0
LINE
8
DEFAULT_255_2_778
10
7.1760313
20
72.9524917
11
7.0321313
21
72.9524917
0
LINE
8
DEFAULT_255_2_778
10
7.0321313
20
72.9524917
11
7.0321313
21
72.9934917
0
LINE
8
DEFAULT_255_2_778
10
7.0321313
20
72.9934917
11
7.0823313
21
72.9934917
0
LINE
8
DEFAULT_255_2_778
10
7.0823313
20
72.9934917
11
7.0823313
21
73.1760917
0
LINE
8
DEFAULT_255_2_778
10
7.0823313
20
73.1760917
11
7.0321313
21
73.1760917
0
LINE
8
DEFAULT_255_2_778
10
7.0321313
20
73.1760917
11
7.0321313
21
73.2170917
0
LINE
8
DEFAULT_255_2_778
10
7.0321313
20
73.2170917
11
7.1760313
21
73.2170917
0
LINE
8
DEFAULT_255_2_778
10
7.1760313
20
73.2170917
11
7.1760313
21
73.1760917
0
LINE
8
DEFAULT_255_2_778
10
7.1760313
20
73.1760917
11
7.1257313
21
73.1760917
0
LINE
8
DEFAULT_255_2_778
10
7.1257313
20
73.1760917
11
7.1257313
21
72.9934917
0
LINE
8
DEFAULT_255_2_778
10
7.1257313
20
72.9934917
11
7.1760313
21
72.9934917
0
LINE
8
DEFAULT_255_2_778
10
7.1760313
20
72.9934917
11
7.1760313
21
72.9524917
0
LINE
8
DEFAULT_255_2_778
10
7.1760313
20
72.9524917
11
7.1760313
21
72.9524917
0
LINE
8
DEFAULT_255_2_778
10
7.2940313
20
72.9524917
11
7.2509313
21
72.9524917
0
LINE
8
DEFAULT_255_2_778
10
7.2509313
20
72.9524917
11
7.2509313
21
73.1760917
0
LINE
8
DEFAULT_255_2_778
10
7.2509313
20
73.1760917
11
7.1855313
21
73.1760917
0
LINE
8
DEFAULT_255_2_778
10
7.1855313
20
73.1760917
11
7.1855313
21
73.2170917
0
LINE
8
DEFAULT_255_2_778
10
7.1855313
20
73.2170917
11
7.3596313
21
73.2170917
0
LINE
8
DEFAULT_255_2_778
10
7.3596313
20
73.2170917
11
7.3596313
21
73.1760917
0
LINE
8
DEFAULT_255_2_778
10
7.3596313
20
73.1760917
11
7.2943313
21
73.1760917
0
LINE
8
DEFAULT_255_2_778
10
7.2943313
20
73.1760917
11
7.2943313
21
72.9524917
0
LINE
8
DEFAULT_255_2_778
10
7.2943313
20
72.9524917
11
7.2940313
21
72.9524917
0
LINE
8
DEFAULT_255_2_778
10
7.4996313
20
72.9524917
11
7.4565313
21
72.9524917
0
LINE
8
DEFAULT_255_2_778
10
7.4565313
20
72.9524917
11
7.4565313
21
73.0485917
0
LINE
8
DEFAULT_255_2_778
10
7.4565313
20
73.0485917
11
7.3832313
21
73.2170917
0
LINE
8
DEFAULT_255_2_778
10
7.3832313
20
73.2170917
11
7.4281313
21
73.2170917
0
LINE
8
DEFAULT_255_2_778
10
7.4281313
20
73.2170917
11
7.4673313
21
73.1252917
0
LINE
8
DEFAULT_255_2_778
10
7.4906313
20
73.1252917
11
7.5287313
21
73.2170917
0
LINE
8
DEFAULT_255_2_778
10
7.5287313
20
73.2170917
11
7.5731313
21
73.2170917
0
LINE
8
DEFAULT_255_2_778
10
7.5731313
20
73.2170917
11
7.4998313
21
73.0485917
0
LINE
8
DEFAULT_255_2_778
10
7.4998313
20
73.0485917
11
7.4998313
21
72.9524917
0
LINE
8
DEFAULT_255_2_778
10
7.4998313
20
72.9524917
11
7.4996313
21
72.9524917
0
LINE
8
DEFAULT_255_1_388
10
8.7579985
20
71.4582148
11
8.7579985
21
70.1363
0
LINE
8
DEFAULT_255_1_388
10
8.7579985
20
70.1363
11
8.5899355
21
70.1363
0
LINE
8
DEFAULT_255_1_388
10
8.5899355
20
70.1363
11
8.5899355
21
71.250395
0
LINE
8
DEFAULT_255_1_388
10
8.5899355
20
71.250395
11
8.252906
21
71.1266066
0
LINE
8
DEFAULT_255_1_388
10
8.252906
20
71.1266066
11
8.252906
21
71.2784055
0
LINE
8
DEFAULT_255_1_388
10
8.252906
20
71.2784055
11
8.7317951
21
71.4582148
0
LINE
8
DEFAULT_255_1_388
10
8.7317951
20
71.4582148
11
8.7579985
21
71.4582148
0
LINE
8
DEFAULT_255_1_388
10
10.097081
20
71.4518898
11
10.097081
21
71.3579191
0
LINE
8
DEFAULT_255_1_388
10
10.097081
20
71.3579191
11
9.5522316
21
70.1363
0
LINE
8
DEFAULT_255_1_388
10
9.5522316
20
70.1363
11
9.3769401
21
70.1363
0
LINE
8
DEFAULT_255_1_388
10
9.3769401
20
70.1363
11
9.9199824
21
71.314548
0
LINE
8
DEFAULT_255_1_388
10
9.9199824
20
71.314548
11
9.2079736
21
71.314548
0
LINE
8
DEFAULT_255_1_388
10
9.2079736
20
71.314548
11
9.2079736
21
71.4518898
0
LINE
8
DEFAULT_255_1_388
10
9.2079736
20
71.4518898
11
10.097081
21
71.4518898
0
LINE
8
DEFAULT_255_1_388
10
10.9129997
20
71.4527934
11
10.9428173
21
71.4527934
0
LINE
8
DEFAULT_255_1_388
10
10.9428173
20
71.4527934
11
10.9428173
21
71.3109338
0
LINE
8
DEFAULT_255_1_388
10
10.9428173
20
71.3109338
11
10.9120961
21
71.3109338
0
LINE
8
DEFAULT_255_1_388
10
10.2967688
20
70.6368747
11
10.2967688
21
70.7010278
0
LINE
8
DEFAULT_255_1_388
10
10.4648317
20
70.6793422
11
10.4648317
21
70.6178999
0
ARC
8
DEFAULT_255_1_388
10
10.9179853
20
70.7486826
40
0.562282
50
90.6001079
51
104.5146616
0
ARC
8
DEFAULT_255_1_388
10
10.8742812
20
70.91121
40
0.3939917
50
104.2855758
51
133.8630124
0
ARC
8
DEFAULT_255_1_388
10
10.8927065
20
70.8990243
40
0.4155734
50
134.5304124
51
161.6210222
0
ARC
8
DEFAULT_255_1_388
10
11.0786997
20
70.8334421
40
0.6127682
50
161.2850533
51
174.2074364
0
ARC
8
DEFAULT_255_1_388
10
11.2376564
20
70.8115437
40
0.7731446
50
173.7817938
51
174.9251711
0
ARC
8
DEFAULT_255_1_388
10
10.7250758
20
70.656027
40
0.3412588
50
95.8332067
51
138.995412
0
ARC
8
DEFAULT_255_1_388
10
10.7502038
20
70.5121695
40
0.4870358
50
89.8755506
51
97.0540979
0
ARC
8
DEFAULT_255_1_388
10
10.7555427
20
70.6061841
40
0.3930432
50
71.6407016
51
90.6240821
0
ARC
8
DEFAULT_255_1_388
10
10.7724821
20
70.6685433
40
0.3285421
50
39.6368051
51
71.0190743
0
ARC
8
DEFAULT_255_1_388
10
10.7008728
20
70.6066586
40
0.4231706
50
10.6588054
51
39.9044509
0
ARC
8
DEFAULT_255_1_388
10
10.5267274
20
70.5688223
40
0.60133
50
359.6827842
51
11.1326896
0
ARC
8
DEFAULT_255_1_388
10
10.522261
20
70.5608715
40
0.6058047
50
347.2485908
51
0.4371098
0
ARC
8
DEFAULT_255_1_388
10
10.7098395
20
70.5157379
40
0.4128987
50
318.1408565
51
347.6118497
0
ARC
8
DEFAULT_255_1_388
10
10.7463992
20
70.4856903
40
0.3656244
50
275.6342406
51
317.824739
0
ARC
8
DEFAULT_255_1_388
10
10.7215513
20
70.6318827
40
0.513655
50
269.8872513
51
276.7916069
0
ARC
8
DEFAULT_255_1_388
10
10.7153705
20
70.5165181
40
0.398323
50
246.9139443
51
270.7436787
0
ARC
8
DEFAULT_255_1_388
10
10.7160901
20
70.5005044
40
0.3839368
50
218.1665534
51
245.8780431
0
ARC
8
DEFAULT_255_1_388
10
10.8150273
20
70.5832903
40
0.5128958
50
191.4115343
51
218.6077624
0
ARC
8
DEFAULT_255_1_388
10
11.033059
20
70.6321777
40
0.7363054
50
179.6344971
51
191.7836758
0
ARC
8
DEFAULT_255_1_388
10
11.6610464
20
70.7085495
40
1.3642984
50
171.4523743
51
180.3158856
0
ARC
8
DEFAULT_255_1_388
10
11.1666191
20
70.7854895
40
0.8639311
50
157.9802296
51
171.6246761
0
ARC
8
DEFAULT_255_1_388
10
10.9175542
20
70.8848038
40
0.5958004
50
141.4299236
51
157.8541251
0
ARC
8
DEFAULT_255_1_388
10
10.8453625
20
70.9358746
40
0.5075416
50
102.871586
51
140.8564533
0
ARC
8
DEFAULT_255_1_388
10
10.9182178
20
70.6613943
40
0.7914163
50
90.377773
51
103.5868422
0
ARC
8
DEFAULT_255_1_388
10
10.7226699
20
70.5933543
40
0.2667015
50
89.8751238
51
126.2072139
0
ARC
8
DEFAULT_255_1_388
10
10.727817
20
70.5759847
40
0.2838229
50
124.9742447
51
144.8960197
0
ARC
8
DEFAULT_255_1_388
10
10.7080415
20
70.5920981
40
0.2583845
50
145.2974778
51
160.2660922
0
ARC
8
DEFAULT_255_1_388
10
11.0536903
20
70.6143151
40
0.5888695
50
179.6512124
51
190.285571
0
ARC
8
DEFAULT_255_1_388
10
10.8631383
20
70.5783968
40
0.3949683
50
190.0944895
51
207.5099647
0
ARC
8
DEFAULT_255_1_388
10
10.7994965
20
70.5481177
40
0.3245464
50
207.9585471
51
216.325377
0
ARC
8
DEFAULT_255_1_388
10
10.7612602
20
70.5166712
40
0.2751259
50
215.7661336
51
232.5457193
0
ARC
8
DEFAULT_255_1_388
10
10.7181718
20
70.4619273
40
0.2054668
50
232.8005815
51
270.6605497
0
ARC
8
DEFAULT_255_1_388
10
10.7233142
20
70.5028853
40
0.2464268
50
269.3550767
51
288.474612
0
ARC
8
DEFAULT_255_1_388
10
10.7337649
20
70.4635721
40
0.2058436
50
289.1831976
51
322.9685307
0
ARC
8
DEFAULT_255_1_388
10
10.6649751
20
70.5178279
40
0.2934408
50
322.6007085
51
346.5183319
0
ARC
8
DEFAULT_255_1_388
10
10.5347507
20
70.5510434
40
0.4278249
50
346.2584622
51
358.7739592
0
ARC
8
DEFAULT_255_1_388
10
10.4196082
20
70.5572829
40
0.5430876
50
358.3757628
51
0.0082477
0
ARC
8
DEFAULT_255_1_388
10
10.50529
20
70.5603856
40
0.4574157
50
359.6211417
51
11.28403
0
ARC
8
DEFAULT_255_1_388
10
10.6489507
20
70.5903535
40
0.3106708
50
11.0483152
51
31.8145585
0
ARC
8
DEFAULT_255_1_388
10
10.6837212
20
70.6092045
40
0.2711963
50
32.3028554
51
38.0820598
0
ARC
8
DEFAULT_255_1_388
10
10.7310445
20
70.6520717
40
0.2075566
50
36.8249851
51
85.741667
0
ARC
8
DEFAULT_255_1_388
10
10.7234857
20
70.5957065
40
0.2643487
50
85.0150021
51
90.050843
0
LINE
8
DEFAULT_255_1_388
10
12.1346188
20
70.9260153
11
12.1346188
21
70.8772229
0
LINE
8
DEFAULT_255_1_388
10
11.5247128
20
70.1353964
11
11.4921845
21
70.1353964
0
LINE
8
DEFAULT_255_1_388
10
11.4921845
20
70.1353964
11
11.4921845
21
70.2763525
0
LINE
8
DEFAULT_255_1_388
10
11.4921845
20
70.2763525
11
11.5274235
21
70.2763525
0
LINE
8
DEFAULT_255_1_388
10
11.9674594
20
70.893487
11
11.9674594
21
70.9603508
0
ARC
8
DEFAULT_255_1_388
10
11.6531686
20
70.9773877
40
0.4089973
50
297.4036461
51
320.0168133
0
ARC
8
DEFAULT_255_1_388
10
11.6857866
20
70.9147072
40
0.3383378
50
270.2631886
51
297.3852322
0
ARC
8
DEFAULT_255_1_388
10
11.6819542
20
70.9684343
40
0.3920983
50
269.9969069
51
270.7871389
0
ARC
8
DEFAULT_255_1_388
10
11.6790866
20
70.9666737
40
0.3903482
50
254.5997295
51
270.4178147
0
ARC
8
DEFAULT_255_1_388
10
11.6630397
20
70.9031693
40
0.3248657
50
236.4717231
51
254.3539376
0
ARC
8
DEFAULT_255_1_388
10
11.6806129
20
70.9267999
40
0.3542746
50
208.4727261
51
236.2134628
0
ARC
8
DEFAULT_255_1_388
10
11.7524892
20
70.9707676
40
0.4384402
50
204.3450776
51
209.0455365
0
ARC
8
DEFAULT_255_1_388
10
11.8289268
20
71.00318
40
0.5214459
50
183.9375459
51
204.1275509
0
ARC
8
DEFAULT_255_1_388
10
11.9311574
20
71.0141863
40
0.6242037
50
179.9652726
51
184.3010611
0
ARC
8
DEFAULT_255_1_388
10
11.904112
20
71.0179004
40
0.5971675
50
166.7585952
51
180.3200491
0
ARC
8
DEFAULT_255_1_388
10
11.8088928
20
71.0385979
40
0.4997418
50
154.6954866
51
166.5679151
0
ARC
8
DEFAULT_255_1_388
10
11.7129168
20
71.0869411
40
0.3923208
50
136.3325251
51
155.0871367
0
ARC
8
DEFAULT_255_1_388
10
11.6813087
20
71.1140271
40
0.3507618
50
121.2365985
51
135.9680081
0
ARC
8
DEFAULT_255_1_388
10
11.6971152
20
71.0847541
40
0.3839917
50
96.8454764
51
120.9881329
0
ARC
8
DEFAULT_255_1_388
10
11.7134958
20
70.9794942
40
0.4904679
50
89.887204
51
97.2797758
0
ARC
8
DEFAULT_255_1_388
10
11.7193931
20
71.0512652
40
0.418725
50
70.6505767
51
90.6748382
0
ARC
8
DEFAULT_255_1_388
10
11.7341628
20
71.1090091
40
0.3593866
50
36.7493297
51
69.8220487
0
ARC
8
DEFAULT_255_1_388
10
11.6217975
20
71.0214446
40
0.5018201
50
15.3958155
51
37.0841102
0
ARC
8
DEFAULT_255_1_388
10
11.382226
20
70.9516111
40
0.7513436
50
3.9487796
51
15.6798517
0
ARC
8
DEFAULT_255_1_388
10
11.1120902
20
70.927281
40
1.0225293
50
359.9290791
51
4.266464
0
ARC
8
DEFAULT_255_1_388
10
10.5939819
20
70.8697372
40
1.5406551
50
352.8365702
51
0.2783851
0
ARC
8
DEFAULT_255_1_388
10
11.188805
20
70.7924664
40
0.9408425
50
341.8359339
51
352.9884057
0
ARC
8
DEFAULT_255_1_388
10
11.5509037
20
70.6704144
40
0.5587481
50
322.8579243
51
342.1527461
0
ARC
8
DEFAULT_255_1_388
10
11.6480729
20
70.604135
40
0.4413099
50
319.3348471
51
322.100194
0
ARC
8
DEFAULT_255_1_388
10
11.613266
20
70.6390814
40
0.4904992
50
285.954114
51
318.8878716
0
ARC
8
DEFAULT_255_1_388
10
11.5315098
20
70.8989865
40
0.7628991
50
272.9280841
51
286.4924389
0
ARC
8
DEFAULT_255_1_388
10
11.5101402
20
71.152424
40
1.017132
50
270.8209173
51
273.4010121
0
ARC
8
DEFAULT_255_1_388
10
11.5201425
20
70.9476073
40
0.6712943
50
270.6214576
51
281.4062333
0
ARC
8
DEFAULT_255_1_388
10
11.5685149
20
70.716325
40
0.4350167
50
281.1852583
51
299.0622058
0
ARC
8
DEFAULT_255_1_388
10
11.6105394
20
70.6352138
40
0.3437146
50
299.5068171
51
313.1200142
0
ARC
8
DEFAULT_255_1_388
10
11.6130132
20
70.6262959
40
0.3355418
50
313.8525725
51
338.5989631
0
ARC
8
DEFAULT_255_1_388
10
11.430326
20
70.7013576
40
0.5330317
50
338.2523315
51
351.2431701
0
ARC
8
DEFAULT_255_1_388
10
11.1591011
20
70.7474494
40
0.8081235
50
350.940933
51
357.6690137
0
ARC
8
DEFAULT_255_1_388
10
11.7092891
20
70.9727048
40
0.2581236
50
269.9447107
51
306.8249644
0
ARC
8
DEFAULT_255_1_388
10
11.6826193
20
71.020306
40
0.3122948
50
305.5071046
51
327.0773808
0
ARC
8
DEFAULT_255_1_388
10
11.6959244
20
71.0096445
40
0.2953369
50
327.4106457
51
336.8396801
0
ARC
8
DEFAULT_255_1_388
10
11.3478958
20
70.9639932
40
0.6195743
50
359.663158
51
10.1176387
0
ARC
8
DEFAULT_255_1_388
10
11.5451721
20
71.0004922
40
0.4189561
50
9.9431549
51
26.7699242
0
ARC
8
DEFAULT_255_1_388
10
11.6123707
20
71.0314796
40
0.3450125
50
27.2018067
51
34.6833639
0
ARC
8
DEFAULT_255_1_388
10
11.667432
20
71.072856
40
0.2762035
50
34.124913
51
50.30709
0
ARC
8
DEFAULT_255_1_388
10
11.7176803
20
71.1329741
40
0.1978518
50
50.3850304
51
90.6705051
0
ARC
8
DEFAULT_255_1_388
10
11.7124196
20
71.0987074
40
0.2321235
50
89.2729817
51
111.9140267
0
ARC
8
DEFAULT_255_1_388
10
11.7102284
20
71.1145308
40
0.2166604
50
112.9381864
51
142.5320936
0
ARC
8
DEFAULT_255_1_388
10
11.7716773
20
71.0646392
40
0.2957902
50
142.1024021
51
166.3835244
0
ARC
8
DEFAULT_255_1_388
10
11.9045743
20
71.0303213
40
0.4330361
50
166.1100968
51
178.6653563
0
ARC
8
DEFAULT_255_1_388
10
12.0227668
20
71.0237061
40
0.5513642
50
178.2641888
51
180.010994
0
ARC
8
DEFAULT_255_1_388
10
11.932217
20
71.0205136
40
0.4608248
50
179.6162225
51
191.8786013
0
ARC
8
DEFAULT_255_1_388
10
11.794948
20
70.990159
40
0.3202502
50
191.6192934
51
215.2970746
0
ARC
8
DEFAULT_255_1_388
10
11.7710135
20
70.9758963
40
0.2924827
50
215.7258926
51
216.5355437
0
ARC
8
DEFAULT_255_1_388
10
11.7121755
20
70.9285919
40
0.2170661
50
215.7486606
51
239.9728403
0
ARC
8
DEFAULT_255_1_388
10
11.7042921
20
70.9228838
40
0.208217
50
241.065081
51
269.280972
0
ARC
8
DEFAULT_255_1_388
10
11.7090079
20
70.9784327
40
0.2638514
50
268.4083352
51
270.0069622
0
LINE
8
DEFAULT_255_1_388
10
13.6598356
20
70.5537468
11
13.8342236
21
70.5537468
0
LINE
8
DEFAULT_255_1_388
10
12.8213278
20
70.7326525
11
12.8213278
21
70.8591516
0
LINE
8
DEFAULT_255_1_388
10
13.8342236
20
71.0290217
11
13.6598356
21
71.0290217
0
LINE
8
DEFAULT_255_1_388
10
12.9957158
20
70.8546337
11
12.9957158
21
70.7272312
0
ARC
8
DEFAULT_255_1_388
10
13.217647
20
70.6209329
40
0.6202263
50
340.1774904
51
353.7812217
0
ARC
8
DEFAULT_255_1_388
10
13.3944323
20
70.5550893
40
0.4315926
50
311.4560052
51
340.4420756
0
ARC
8
DEFAULT_255_1_388
10
13.3906862
20
70.5675665
40
0.4434573
50
282.4332229
51
310.7514507
0
ARC
8
DEFAULT_255_1_388
10
13.341268
20
70.7717703
40
0.6535262
50
269.9358869
51
282.8096729
0
ARC
8
DEFAULT_255_1_388
10
13.335462
20
70.9230329
40
0.8048043
50
269.9995752
51
270.3612856
0
ARC
8
DEFAULT_255_1_388
10
13.329511
20
70.6431781
40
0.5249831
50
250.7885263
51
270.6488451
0
ARC
8
DEFAULT_255_1_388
10
13.3105934
20
70.5714853
40
0.4510942
50
219.3628377
51
250.0611024
0
ARC
8
DEFAULT_255_1_388
10
13.4038809
20
70.6507653
40
0.5735046
50
193.5480293
51
219.5755675
0
ARC
8
DEFAULT_255_1_388
10
13.6707018
20
70.720052
40
0.849146
50
181.1220183
51
193.8754971
0
ARC
8
DEFAULT_255_1_388
10
13.9030251
20
70.7324914
40
1.0816971
50
179.9914644
51
181.5398227
0
ARC
8
DEFAULT_255_1_388
10
13.6953561
20
70.8633586
40
0.8740384
50
169.5837606
51
180.275782
0
ARC
8
DEFAULT_255_1_388
10
13.4886909
20
70.9015439
40
0.6638751
50
155.0367033
51
169.6002779
0
ARC
8
DEFAULT_255_1_388
10
13.3609368
20
70.9631336
40
0.5220662
50
136.7831557
51
155.2472983
0
ARC
8
DEFAULT_255_1_388
10
13.3171158
20
71.0003577
40
0.4646502
50
121.7633063
51
136.4281161
0
ARC
8
DEFAULT_255_1_388
10
13.3322998
20
70.9723049
40
0.4964979
50
95.6460018
51
121.5489589
0
ARC
8
DEFAULT_255_1_388
10
13.3499973
20
70.8475704
40
0.6223912
50
89.9245727
51
96.1375919
0
ARC
8
DEFAULT_255_1_388
10
13.3556678
20
70.8609721
40
0.6090084
50
76.6779212
51
90.456405
0
ARC
8
DEFAULT_255_1_388
10
13.3999491
20
71.039906
40
0.42469
50
47.4858803
51
76.9287069
0
ARC
8
DEFAULT_255_1_388
10
13.3834104
20
71.0286623
40
0.4441778
50
16.5424081
51
46.8934505
0
ARC
8
DEFAULT_255_1_388
10
13.2025154
20
70.9692265
40
0.6345318
50
5.4072971
51
17.0363711
0
ARC
8
DEFAULT_255_1_388
10
13.0406879
20
70.9432304
40
0.6250632
50
7.8888693
51
15.9242022
0
ARC
8
DEFAULT_255_1_388
10
13.2641865
20
71.0081309
40
0.3923364
50
15.7650676
51
27.9410069
0
ARC
8
DEFAULT_255_1_388
10
13.3884034
20
71.0746317
40
0.2514401
50
27.8167196
51
46.4007942
0
ARC
8
DEFAULT_255_1_388
10
13.3939875
20
71.0739882
40
0.2480958
50
47.4372362
51
75.0695672
0
ARC
8
DEFAULT_255_1_388
10
13.3592711
20
70.9531277
40
0.3738281
50
74.7009379
51
87.8124314
0
ARC
8
DEFAULT_255_1_388
10
13.3510328
20
70.8347659
40
0.4924321
50
87.3802571
51
90.0251599
0
ARC
8
DEFAULT_255_1_388
10
13.3466976
20
70.9667997
40
0.3604218
50
89.3451886
51
108.5744412
0
ARC
8
DEFAULT_255_1_388
10
13.3312968
20
71.0245836
40
0.3007661
50
109.2998307
51
143.3037387
0
ARC
8
DEFAULT_255_1_388
10
13.4170258
20
70.9586584
40
0.4089031
50
143.075267
51
163.1918576
0
ARC
8
DEFAULT_255_1_388
10
13.6366092
20
70.8893652
40
0.6391492
50
162.9375929
51
174.6208776
0
ARC
8
DEFAULT_255_1_388
10
13.9320474
20
70.8569711
40
0.9363344
50
174.342123
51
180.1430283
0
ARC
8
DEFAULT_255_1_388
10
13.8273015
20
70.7226117
40
0.8315986
50
179.6817261
51
189.150555
0
ARC
8
DEFAULT_255_1_388
10
13.5459764
20
70.6757559
40
0.5464044
50
188.9911061
51
203.5772363
0
ARC
8
DEFAULT_255_1_388
10
13.4245056
20
70.6253539
40
0.4149206
50
203.9075402
51
215.1312435
0
ARC
8
DEFAULT_255_1_388
10
13.3206853
20
70.5448907
40
0.2837747
50
213.9071511
51
263.8848919
0
ARC
8
DEFAULT_255_1_388
10
13.3347847
20
70.6331519
40
0.3730641
50
263.1757928
51
270.1031044
0
ARC
8
DEFAULT_255_1_388
10
13.3383926
20
70.7734511
40
0.5133712
50
269.6722503
51
279.0606936
0
ARC
8
DEFAULT_255_1_388
10
13.3684082
20
70.592015
40
0.3294739
50
278.8749101
51
293.6349581
0
ARC
8
DEFAULT_255_1_388
10
13.4044285
20
70.5074251
40
0.2375405
50
293.8553806
51
310.0518171
0
ARC
8
DEFAULT_255_1_388
10
13.4049794
20
70.5004021
40
0.2318463
50
311.0644687
51
332.0111037
0
ARC
8
DEFAULT_255_1_388
10
13.2708468
20
70.5743702
40
0.3850112
50
331.6586806
51
343.2877423
0
ARC
8
DEFAULT_255_1_388
10
13.0387933
20
70.6456806
40
0.6277712
50
343.1446576
51
351.0103568
0
ARC
8
DEFAULT_255_1_388
10
12.8755256
20
70.6756873
40
0.7937327
50
350.71248
51
351.1626997
0
LINE
8
DEFAULT_255_1_388
10
14.0004794
20
70.6224177
11
14.0004794
21
70.634164
0
LINE
8
DEFAULT_255_1_388
10
14.8904904
20
70.6260319
11
14.8904904
21
70.6142856
0
ARC
8
DEFAULT_255_1_388
10
14.6289239
20
70.637804
40
0.628455
50
166.3005265
51
180.3318609
0
ARC
8
DEFAULT_255_1_388
10
14.5318589
20
70.6595267
40
0.52901
50
153.8608648
51
166.0965672
0
ARC
8
DEFAULT_255_1_388
10
14.4569755
20
70.6996652
40
0.4441126
50
135.1317053
51
154.2534962
0
ARC
8
DEFAULT_255_1_388
10
14.4256405
20
70.7273431
40
0.4023863
50
121.7042632
51
134.7771455
0
ARC
8
DEFAULT_255_1_388
10
14.4331837
20
70.7128469
40
0.4186852
50
93.4001111
51
121.5399523
0
ARC
8
DEFAULT_255_1_388
10
14.4438671
20
70.6198759
40
0.5121521
50
89.9706387
51
93.9763381
0
ARC
8
DEFAULT_255_1_388
10
14.4491656
20
70.6638563
40
0.4681988
50
71.3321659
51
90.6162917
0
ARC
8
DEFAULT_255_1_388
10
14.467469
20
70.7316003
40
0.3981841
50
41.1813875
51
70.7072086
0
ARC
8
DEFAULT_255_1_388
10
14.4137406
20
70.682813
40
0.4707474
50
12.1971434
51
41.3446641
0
ARC
8
DEFAULT_255_1_388
10
14.197067
20
70.6312328
40
0.6934429
50
359.5702713
51
12.5803533
0
ARC
8
DEFAULT_255_1_388
10
14.2502986
20
70.6107207
40
0.6402018
50
347.0196754
51
0.3190452
0
ARC
8
DEFAULT_255_1_388
10
14.3581039
20
70.5875189
40
0.5299421
50
334.350439
51
346.8460534
0
ARC
8
DEFAULT_255_1_388
10
14.4532285
20
70.5381244
40
0.4228234
50
310.4228125
51
334.8045131
0
ARC
8
DEFAULT_255_1_388
10
14.4624264
20
70.5309301
40
0.4113892
50
301.8488154
51
310.0972985
0
ARC
8
DEFAULT_255_1_388
10
14.4588004
20
70.5394573
40
0.4205483
50
274.3078723
51
301.6554173
0
ARC
8
DEFAULT_255_1_388
10
14.446346
20
70.6381943
40
0.5199658
50
269.954904
51
274.859116
0
ARC
8
DEFAULT_255_1_388
10
14.4408284
20
70.5818239
40
0.4636233
50
250.8887647
51
270.6313164
0
ARC
8
DEFAULT_255_1_388
10
14.4239444
20
70.5189405
40
0.398705
50
221.1701369
51
250.2227012
0
ARC
8
DEFAULT_255_1_388
10
14.478411
20
70.5685716
40
0.4723796
50
191.6263861
51
221.3526879
0
ARC
8
DEFAULT_255_1_388
10
14.6907955
20
70.6177203
40
0.6903321
50
179.6101251
51
192.0694841
0
ARC
8
DEFAULT_255_1_388
10
14.7384303
20
70.6106681
40
0.5698993
50
179.636304
51
190.6161344
0
ARC
8
DEFAULT_255_1_388
10
14.5536634
20
70.5746635
40
0.3816643
50
190.4136062
51
208.7168709
0
ARC
8
DEFAULT_255_1_388
10
14.4962669
20
70.5461905
40
0.3176572
50
209.187109
51
217.4221816
0
ARC
8
DEFAULT_255_1_388
10
14.4367139
20
70.4937729
40
0.2385702
50
216.1156863
51
265.2575395
0
ARC
8
DEFAULT_255_1_388
10
14.4456175
20
70.5582608
40
0.3035941
50
264.5891546
51
270.0602378
0
ARC
8
DEFAULT_255_1_388
10
14.4493372
20
70.5155539
40
0.2609091
50
269.2532353
51
291.8793864
0
ARC
8
DEFAULT_255_1_388
10
14.4526251
20
70.4955359
40
0.241148
50
292.9269367
51
323.1777736
0
ARC
8
DEFAULT_255_1_388
10
14.4055536
20
70.5368762
40
0.3036446
50
322.25666
51
323.087958
0
ARC
8
DEFAULT_255_1_388
10
14.3752794
20
70.5551332
40
0.3388345
50
323.6941379
51
343.8493587
0
ARC
8
DEFAULT_255_1_388
10
14.197723
20
70.6091698
40
0.5244204
50
343.5746655
51
355.008149
0
ARC
8
DEFAULT_255_1_388
10
13.9718922
20
70.6325797
40
0.7514406
50
354.728272
51
0.1208026
0
ARC
8
DEFAULT_255_1_388
10
14.1707947
20
70.6377947
40
0.5525482
50
359.6235211
51
11.2016685
0
ARC
8
DEFAULT_255_1_388
10
14.3433775
20
70.6733284
40
0.3763527
50
10.9991302
51
30.8317616
0
ARC
8
DEFAULT_255_1_388
10
14.3879078
20
70.6967988
40
0.3260975
50
31.3007463
51
37.395541
0
ARC
8
DEFAULT_255_1_388
10
14.4437798
20
70.7439773
40
0.253082
50
36.5918894
51
62.2439906
0
ARC
8
DEFAULT_255_1_388
10
14.4490089
20
70.7436378
40
0.2509927
50
63.3364883
51
89.7193846
0
ARC
8
DEFAULT_255_1_388
10
14.4441543
20
70.6788375
40
0.3158485
50
88.8962924
51
90.004475
0
ARC
8
DEFAULT_255_1_388
10
14.440597
20
70.7441071
40
0.250604
50
89.1923115
51
114.7099029
0
ARC
8
DEFAULT_255_1_388
10
14.4438312
20
70.7483675
40
0.2481307
50
115.7996284
51
142.2901353
0
ARC
8
DEFAULT_255_1_388
10
14.4906583
20
70.7064752
40
0.310833
50
141.4607507
51
142.383894
0
ARC
8
DEFAULT_255_1_388
10
14.5054434
20
70.6996449
40
0.3267335
50
143.0176473
51
163.2340089
0
ARC
8
DEFAULT_255_1_388
10
14.6829723
20
70.6434553
40
0.5129308
50
162.9446504
51
174.3733893
0
ARC
8
DEFAULT_255_1_388
10
14.9243695
20
70.6163483
40
0.75583
50
174.1225809
51
180.1563667
0
LINE
8
DEFAULT_255_1_388
10
15.0992138
20
71.1139567
11
15.2573376
21
71.1139567
0
LINE
8
DEFAULT_255_1_388
10
15.2573376
20
71.1139567
11
15.2618554
21
71.005529
0
LINE
8
DEFAULT_255_1_388
10
16.4699211
20
70.7913842
11
16.4699211
21
70.1363
0
LINE
8
DEFAULT_255_1_388
10
16.4699211
20
70.1363
11
16.3027617
21
70.1363
0
LINE
8
DEFAULT_255_1_388
10
16.3027617
20
70.1363
11
16.3027617
21
70.781445
0
LINE
8
DEFAULT_255_1_388
10
15.8681472
20
70.7850593
11
15.8681472
21
70.1363
0
LINE
8
DEFAULT_255_1_388
10
15.8681472
20
70.1363
11
15.7000842
21
70.1363
0
LINE
8
DEFAULT_255_1_388
10
15.7000842
20
70.1363
11
15.7000842
21
70.7769272
0
LINE
8
DEFAULT_255_1_388
10
15.2663732
20
70.8501159
11
15.2663732
21
70.1363
0
LINE
8
DEFAULT_255_1_388
10
15.2663732
20
70.1363
11
15.0992138
21
70.1363
0
LINE
8
DEFAULT_255_1_388
10
15.0992138
20
70.1363
11
15.0992138
21
71.1139567
0
ARC
8
DEFAULT_255_1_388
10
15.5314751
20
70.7785947
40
0.3524116
50
93.0261693
51
139.913241
0
ARC
8
DEFAULT_255_1_388
10
15.5514826
20
70.6387673
40
0.493261
50
89.9515559
51
94.4896559
0
ARC
8
DEFAULT_255_1_388
10
15.5562303
20
70.7190293
40
0.4130214
50
75.8912256
51
90.6007843
0
ARC
8
DEFAULT_255_1_388
10
15.59736
20
70.8707686
40
0.2558497
50
23.9940553
51
76.5407673
0
ARC
8
DEFAULT_255_1_388
10
16.1352035
20
70.7634138
40
0.3703589
50
118.5760068
51
145.1952627
0
ARC
8
DEFAULT_255_1_388
10
16.1208088
20
70.7909672
40
0.3392772
50
99.1481537
51
118.6669021
0
ARC
8
DEFAULT_255_1_388
10
16.1410801
20
70.6777244
40
0.454307
50
89.7792127
51
99.4015557
0
ARC
8
DEFAULT_255_1_388
10
16.1497914
20
70.6963109
40
0.4357727
50
73.2646335
51
90.9152299
0
ARC
8
DEFAULT_255_1_388
10
16.199199
20
70.8641955
40
0.2607739
50
10.756495
51
73.0388383
0
ARC
8
DEFAULT_255_1_388
10
15.9302558
20
70.7884448
40
0.5396733
50
0.3120729
51
13.3293082
0
ARC
8
DEFAULT_255_1_388
10
15.9365036
20
70.7835363
40
0.366264
50
359.6728567
51
8.7129231
0
ARC
8
DEFAULT_255_1_388
10
16.0711951
20
70.8049524
40
0.2298841
50
8.5221448
51
22.6803231
0
ARC
8
DEFAULT_255_1_388
10
16.139565
20
70.8333786
40
0.1558403
50
22.7298708
51
42.2763259
0
ARC
8
DEFAULT_255_1_388
10
16.1534352
20
70.8421235
40
0.1397242
50
43.4492352
51
69.272112
0
ARC
8
DEFAULT_255_1_388
10
16.1188582
20
70.7557568
40
0.2327451
50
68.836098
51
81.9786568
0
ARC
8
DEFAULT_255_1_388
10
16.0963018
20
70.6047247
40
0.385449
50
81.7913044
51
90.3003404
0
LINE
8
DEFAULT_255_1_388
10
16.0942813
20
70.9901683
11
16.0940383
21
70.9901684
0
ARC
8
DEFAULT_255_1_388
10
16.0917192
20
70.7341083
40
0.2560706
50
89.4810922
51
106.5055613
0
ARC
8
DEFAULT_255_1_388
10
16.0789101
20
70.7812872
40
0.2071998
50
106.8160071
51
132.2750747
0
ARC
8
DEFAULT_255_1_388
10
16.0837623
20
70.7761017
40
0.2143007
50
132.3023562
51
166.9931148
0
ARC
8
DEFAULT_255_1_388
10
16.1565862
20
70.7552518
40
0.2899752
50
166.2176327
51
174.0999541
0
ARC
8
DEFAULT_255_1_388
10
15.3850991
20
70.781209
40
0.3150142
50
359.2211859
51
14.4876062
0
ARC
8
DEFAULT_255_1_388
10
15.5329213
20
70.8237235
40
0.1613108
50
13.0021013
51
76.7082612
0
ARC
8
DEFAULT_255_1_388
10
15.4952414
20
70.6906286
40
0.299565
50
75.5470628
51
90.7422407
0
ARC
8
DEFAULT_255_1_388
10
15.487604
20
70.6940964
40
0.2960958
50
89.2730201
51
106.8379289
0
ARC
8
DEFAULT_255_1_388
10
15.4653445
20
70.7748973
40
0.2123216
50
107.4046439
51
156.621812
0
ARC
8
DEFAULT_255_1_388
10
15.5418259
20
70.7310952
40
0.3000669
50
154.7390611
51
156.6312403
0
LINE
8
DEFAULT_255_1_388
10
17.5478735
20
70.6296462
11
17.5478735
21
70.6142856
0
LINE
8
DEFAULT_255_1_388
10
16.889175
20
70.2311743
11
16.889175
21
69.7604172
0
LINE
8
DEFAULT_255_1_388
10
16.889175
20
69.7604172
11
16.7220156
21
69.7604172
0
LINE
8
DEFAULT_255_1_388
10
16.7220156
20
69.7604172
11
16.7220156
21
71.1139567
0
LINE
8
DEFAULT_255_1_388
10
16.7220156
20
71.1139567
11
16.874718
21
71.1139567
0
LINE
8
DEFAULT_255_1_388
10
16.874718
20
71.1139567
11
16.88285
21
71.005529
0
LINE
8
DEFAULT_255_1_388
10
16.889175
20
70.8555373
11
16.889175
21
70.3883945
0
ARC
8
DEFAULT_255_1_388
10
16.7525971
20
70.6093831
40
0.7952914
50
349.5457689
51
0.3531959
0
ARC
8
DEFAULT_255_1_388
10
17.0084749
20
70.5602711
40
0.5347531
50
331.7801944
51
349.7458841
0
ARC
8
DEFAULT_255_1_388
10
17.0901068
20
70.5205052
40
0.4440347
50
323.2239993
51
331.320727
0
ARC
8
DEFAULT_255_1_388
10
17.1827555
20
70.4419189
40
0.3228626
50
275.1519108
51
324.5512858
0
ARC
8
DEFAULT_255_1_388
10
17.1697928
20
70.5320763
40
0.4138479
50
269.929002
51
275.8184771
0
ARC
8
DEFAULT_255_1_388
10
17.165129
20
70.5696586
40
0.451449
50
255.0666642
51
270.5268285
0
ARC
8
DEFAULT_255_1_388
10
17.1333782
20
70.4508476
40
0.3284686
50
221.9730059
51
255.0773797
0
ARC
8
DEFAULT_255_1_388
10
17.1427941
20
70.7977287
40
0.3327941
50
94.4346057
51
141.3610235
0
ARC
8
DEFAULT_255_1_388
10
17.1658472
20
70.6551867
40
0.4768419
50
89.913234
51
95.8721355
0
ARC
8
DEFAULT_255_1_388
10
17.1710009
20
70.7560946
40
0.3759596
50
70.3260364
51
90.6753935
0
ARC
8
DEFAULT_255_1_388
10
17.1823452
20
70.8027349
40
0.328261
50
36.7636238
51
69.44976
0
ARC
8
DEFAULT_255_1_388
10
17.0862062
20
70.7277455
40
0.4501685
50
16.0027939
51
37.086172
0
ARC
8
DEFAULT_255_1_388
10
16.8567828
20
70.6585013
40
0.6897988
50
4.5018317
51
16.2779312
0
ARC
8
DEFAULT_255_1_388
10
16.5785976
20
70.631276
40
0.9692771
50
359.9036593
51
4.8154966
0
ARC
8
DEFAULT_255_1_388
10
16.7521267
20
70.6367646
40
0.6285971
50
359.6805954
51
9.1297647
0
ARC
8
DEFAULT_255_1_388
10
16.9668363
20
70.6725143
40
0.4109369
50
8.9584658
51
23.6939885
0
ARC
8
DEFAULT_255_1_388
10
17.060812
20
70.7118721
40
0.3090717
50
24.0136272
51
36.1951724
0
ARC
8
DEFAULT_255_1_388
10
17.1273717
20
70.7661253
40
0.2233637
50
35.0467028
51
84.5489768
0
ARC
8
DEFAULT_255_1_388
10
17.1172911
20
70.6994397
40
0.2907289
50
83.8197232
51
90.0823413
0
ARC
8
DEFAULT_255_1_388
10
17.1129042
20
70.7216874
40
0.2685104
50
89.1530367
51
112.3459134
0
ARC
8
DEFAULT_255_1_388
10
17.1078129
20
70.7475252
40
0.2427311
50
113.5532703
51
146.2373945
0
ARC
8
DEFAULT_255_1_388
10
17.1800756
20
70.6920111
40
0.3337124
50
145.2086902
51
150.6580233
0
ARC
8
DEFAULT_255_1_388
10
17.1298233
20
70.5188753
40
0.273746
50
208.46678
51
230.7447697
0
ARC
8
DEFAULT_255_1_388
10
17.1058774
20
70.4973351
40
0.2419641
50
231.9080157
51
266.0622442
0
ARC
8
DEFAULT_255_1_388
10
17.1183285
20
70.5865434
40
0.3318765
50
264.9752933
51
270.060741
0
ARC
8
DEFAULT_255_1_388
10
17.1218886
20
70.4980683
40
0.2434225
50
269.2448363
51
292.3382162
0
ARC
8
DEFAULT_255_1_388
10
17.12382
20
70.4822065
40
0.2280566
50
293.4040635
51
323.0231773
0
ARC
8
DEFAULT_255_1_388
10
17.0780449
20
70.5224037
40
0.2888399
50
322.1147526
51
323.3512864
0
ARC
8
DEFAULT_255_1_388
10
17.0599861
20
70.5312269
40
0.3086176
50
324.0383098
51
342.5340044
0
ARC
8
DEFAULT_255_1_388
10
16.8727857
20
70.5925984
40
0.5056129
50
342.2670619
51
353.2817647
0
ARC
8
DEFAULT_255_1_388
10
16.5768514
20
70.629797
40
0.8038702
50
353.1162085
51
0.2468587
0
LINE
8
DEFAULT_255_1_388
10
18.5390837
20
70.1363
11
18.3637922
21
70.1363
0
LINE
8
DEFAULT_255_1_388
10
18.1749472
20
70.7290383
11
18.3375888
21
70.7290383
0
LINE
8
DEFAULT_255_1_388
10
18.3375888
20
70.7290383
11
18.3375888
21
70.8058413
0
LINE
8
DEFAULT_255_1_388
10
17.920142
20
70.8428874
11
17.7520791
21
70.8428874
0
LINE
8
DEFAULT_255_1_388
10
18.5047482
20
70.8148769
11
18.5047482
21
70.3649018
0
LINE
8
DEFAULT_255_1_388
10
18.5390837
20
70.150757
11
18.5390837
21
70.1363
0
LINE
8
DEFAULT_255_1_388
10
18.3375888
20
70.41008
11
18.3375888
21
70.6106713
0
LINE
8
DEFAULT_255_1_388
10
18.3375888
20
70.6106713
11
18.206572
21
70.6106713
0
ARC
8
DEFAULT_255_1_388
10
18.4807071
20
70.19301
40
0.1299428
50
197.0784902
51
205.8758668
0
ARC
8
DEFAULT_255_1_388
10
18.6201658
20
70.2371959
40
0.2762313
50
192.2927663
51
197.3441989
0
ARC
8
DEFAULT_255_1_388
10
18.8397163
20
70.285976
40
0.5011345
50
189.1573793
51
192.3977084
0
ARC
8
DEFAULT_255_1_388
10
19.1562009
20
70.3375878
40
0.8217995
50
186.8686098
51
189.1982636
0
ARC
8
DEFAULT_255_1_388
10
18.05071
20
70.511626
40
0.3975173
50
294.0079259
51
316.7603918
0
ARC
8
DEFAULT_255_1_388
10
18.0652283
20
70.4911902
40
0.3729755
50
269.5043226
51
293.2478373
0
ARC
8
DEFAULT_255_1_388
10
18.0585335
20
70.5362915
40
0.4180772
50
255.4034155
51
270.4753052
0
ARC
8
DEFAULT_255_1_388
10
18.0326548
20
70.4358652
40
0.3143705
50
228.6141063
51
255.3550831
0
ARC
8
DEFAULT_255_1_388
10
17.995253
20
70.400054
40
0.2628114
50
181.8954381
51
229.5703134
0
ARC
8
DEFAULT_255_1_388
10
18.0617466
20
70.4072824
40
0.329546
50
179.9848815
51
182.7691528
0
ARC
8
DEFAULT_255_1_388
10
18.0524533
20
70.4111827
40
0.3202753
50
161.0342928
51
180.6822077
0
ARC
8
DEFAULT_255_1_388
10
18.0030147
20
70.4240422
40
0.2693695
50
125.0525065
51
160.2034058
0
ARC
8
DEFAULT_255_1_388
10
18.0774869
20
70.3224275
40
0.3953338
50
106.2670809
51
125.4300189
0
ARC
8
DEFAULT_255_1_388
10
18.141891
20
70.1119795
40
0.6154041
50
95.4857579
51
106.5348562
0
ARC
8
DEFAULT_255_1_388
10
18.1726198
20
69.8307993
40
0.8982419
50
89.8515405
51
95.7222579
0
ARC
8
DEFAULT_255_1_388
10
18.1006779
20
70.8078925
40
0.2369198
50
359.5039339
51
14.3181205
0
ARC
8
DEFAULT_255_1_388
10
18.1652784
20
70.8246862
40
0.170173
50
14.2184556
51
45.2028524
0
ARC
8
DEFAULT_255_1_388
10
18.1693479
20
70.8262862
40
0.1661795
50
45.8098216
51
73.0032926
0
ARC
8
DEFAULT_255_1_388
10
18.1413306
20
70.740626
40
0.2562942
50
72.6112517
51
85.7231489
0
ARC
8
DEFAULT_255_1_388
10
18.131209
20
70.6379339
40
0.3594635
50
85.335019
51
90.0855069
0
ARC
8
DEFAULT_255_1_388
10
18.1285524
20
70.7043472
40
0.2930574
50
89.5854741
51
103.459124
0
ARC
8
DEFAULT_255_1_388
10
18.1114062
20
70.7758134
40
0.2195632
50
103.448332
51
126.5403399
0
ARC
8
DEFAULT_255_1_388
10
18.0845039
20
70.8102224
40
0.1759039
50
126.1730306
51
141.5008224
0
ARC
8
DEFAULT_255_1_388
10
18.0419354
20
70.8436266
40
0.1217955
50
141.3332087
51
180.3477313
0
ARC
8
DEFAULT_255_1_388
10
17.9660777
20
70.8416904
40
0.214002
50
151.6373605
51
179.6795088
0
ARC
8
DEFAULT_255_1_388
10
18.0338013
20
70.8079768
40
0.2896224
50
142.4981529
51
152.1330509
0
ARC
8
DEFAULT_255_1_388
10
18.0696017
20
70.7798781
40
0.3351307
50
120.8284906
51
142.4132156
0
ARC
8
DEFAULT_255_1_388
10
18.1163993
20
70.7066185
40
0.4220297
50
113.9634885
51
121.1871733
0
ARC
8
DEFAULT_255_1_388
10
18.1317302
20
70.6692705
40
0.4623867
50
93.3784336
51
113.8197902
0
ARC
8
DEFAULT_255_1_388
10
18.1403684
20
70.5831549
40
0.5488732
50
89.9745993
51
93.7488475
0
ARC
8
DEFAULT_255_1_388
10
18.1442931
20
70.5872587
40
0.5447818
50
79.1327128
51
90.3871707
0
ARC
8
DEFAULT_255_1_388
10
18.1808694
20
70.7700597
40
0.3583662
50
60.1434453
51
79.365517
0
ARC
8
DEFAULT_255_1_388
10
18.2097461
20
70.8255195
40
0.2959028
50
48.6191018
51
59.6466565
0
ARC
8
DEFAULT_255_1_388
10
18.2151172
20
70.8326356
40
0.2870136
50
9.0349502
51
48.4845487
0
ARC
8
DEFAULT_255_1_388
10
18.0940471
20
70.8062084
40
0.4107927
50
1.2091359
51
10.0234369
0
ARC
8
DEFAULT_255_1_388
10
19.3637919
20
70.3621422
40
0.8590481
50
179.8159449
51
185.3205667
0
ARC
8
DEFAULT_255_1_388
10
19.0605765
20
70.3331945
40
0.5544553
50
185.2475628
51
192.7952551
0
ARC
8
DEFAULT_255_1_388
10
18.8623588
20
70.2877024
40
0.3510853
50
192.7195981
51
202.9584216
0
ARC
8
DEFAULT_255_1_388
10
18.0863624
20
70.5574895
40
0.2937869
50
270.006916
51
300.503478
0
ARC
8
DEFAULT_255_1_388
10
18.1001559
20
70.5430888
40
0.2744162
50
299.5482616
51
315.609538
0
ARC
8
DEFAULT_255_1_388
10
18.1327855
20
70.5097072
40
0.2277499
50
315.8682065
51
334.0592465
0
ARC
8
DEFAULT_255_1_388
10
18.2016829
20
69.82609
40
0.7845965
50
89.64297
51
97.2867877
0
ARC
8
DEFAULT_255_1_388
10
18.1520426
20
70.1977936
40
0.4096042
50
96.9938706
51
109.7783917
0
ARC
8
DEFAULT_255_1_388
10
18.0771889
20
70.3981851
40
0.1957225
50
109.0087985
51
135.3265591
0
ARC
8
DEFAULT_255_1_388
10
18.0464308
20
70.4362764
40
0.1471704
50
137.4537784
51
182.1083946
0
ARC
8
DEFAULT_255_1_388
10
18.0885008
20
70.4290101
40
0.1891498
50
179.4390335
51
195.7201623
0
ARC
8
DEFAULT_255_1_388
10
18.0422043
20
70.4163585
40
0.1411576
50
195.8683556
51
230.157074
0
ARC
8
DEFAULT_255_1_388
10
18.0694766
20
70.4490228
40
0.1837102
50
230.1532486
51
259.7486257
0
ARC
8
DEFAULT_255_1_388
10
18.0850808
20
70.5225472
40
0.258848
50
259.2461118
51
270.2915316
0
LINE
8
DEFAULT_255_1_388
10
19.3893378
20
70.4444155
11
19.5474616
21
70.4444155
0
LINE
8
DEFAULT_255_1_388
10
18.7234108
20
70.6160927
11
18.7234108
21
70.6441032
0
LINE
8
DEFAULT_255_1_388
10
19.5474616
20
70.7778308
11
19.3893378
21
70.7778308
0
LINE
8
DEFAULT_255_1_388
10
18.8905703
20
70.6377783
11
18.8905703
21
70.6061535
0
ARC
8
DEFAULT_255_1_388
10
19.1629935
20
70.4954109
40
0.2407783
50
269.0327343
51
309.2224588
0
ARC
8
DEFAULT_255_1_388
10
19.1865939
20
70.471219
40
0.207135
50
308.3965377
51
329.6987678
0
ARC
8
DEFAULT_255_1_388
10
19.2020997
20
70.4594899
40
0.1878439
50
330.4013397
51
355.3970937
0
ARC
8
DEFAULT_255_1_388
10
19.2534982
20
70.4614312
40
0.2944555
50
329.2357424
51
356.6872018
0
ARC
8
DEFAULT_255_1_388
10
19.1916876
20
70.4941153
40
0.3643032
50
324.8702872
51
329.7911998
0
ARC
8
DEFAULT_255_1_388
10
19.1828159
20
70.5017113
40
0.3759315
50
298.8769973
51
324.7015261
0
ARC
8
DEFAULT_255_1_388
10
19.1454702
20
70.561229
40
0.4461015
50
296.902888
51
299.3854973
0
ARC
8
DEFAULT_255_1_388
10
19.16007
20
70.5288595
40
0.4106323
50
269.8407861
51
297.1298875
0
ARC
8
DEFAULT_255_1_388
10
19.1540695
20
70.6006354
40
0.4824312
50
253.3156606
51
270.5771301
0
ARC
8
DEFAULT_255_1_388
10
19.1262873
20
70.5000943
40
0.3781531
50
221.1002518
51
252.9743523
0
ARC
8
DEFAULT_255_1_388
10
19.1780344
20
70.5445131
40
0.4463481
50
194.5394284
51
221.0302764
0
ARC
8
DEFAULT_255_1_388
10
19.3860164
20
70.6024897
40
0.6622359
50
182.0498004
51
194.8774376
0
ARC
8
DEFAULT_255_1_388
10
19.5853254
20
70.6157778
40
0.8619146
50
179.9790673
51
182.4586753
0
ARC
8
DEFAULT_255_1_388
10
19.3896568
20
70.6474412
40
0.6662543
50
168.615001
51
180.2870547
0
ARC
8
DEFAULT_255_1_388
10
19.2544476
20
70.6739636
40
0.5284705
50
154.9162417
51
168.5402053
0
ARC
8
DEFAULT_255_1_388
10
19.1507752
20
70.7251942
40
0.4128641
50
133.5745308
51
155.2559538
0
ARC
8
DEFAULT_255_1_388
10
19.1324595
20
70.7408116
40
0.3889328
50
122.0165845
51
133.2056002
0
ARC
8
DEFAULT_255_1_388
10
19.1364919
20
70.7308977
40
0.3994808
50
97.8732516
51
121.753124
0
ARC
8
DEFAULT_255_1_388
10
19.1566378
20
70.611959
40
0.5200708
50
89.8471322
51
98.2768545
0
ARC
8
DEFAULT_255_1_388
10
19.1621226
20
70.6805809
40
0.4514657
50
73.3760755
51
90.5199878
0
ARC
8
DEFAULT_255_1_388
10
19.1842142
20
70.761855
40
0.3672743
50
47.7085939
51
73.0510707
0
ARC
8
DEFAULT_255_1_388
10
19.1988244
20
70.7745231
40
0.3480795
50
3.7442743
51
48.0844373
0
ARC
8
DEFAULT_255_1_388
10
19.0876238
20
70.7567946
40
0.4603187
50
2.6192831
51
5.0424684
0
ARC
8
DEFAULT_255_1_388
10
19.139171
20
70.7612986
40
0.2507126
50
3.78087
51
23.9354314
0
ARC
8
DEFAULT_255_1_388
10
19.1648969
20
70.7703644
40
0.2235311
50
24.4867863
51
46.9439952
0
ARC
8
DEFAULT_255_1_388
10
19.1649915
20
70.7729874
40
0.2215567
50
46.4987715
51
89.3298168
0
ARC
8
DEFAULT_255_1_388
10
19.1580573
20
70.7063742
40
0.2883121
50
88.1066411
51
90.0063536
0
ARC
8
DEFAULT_255_1_388
10
19.1549549
20
70.7121548
40
0.2825481
50
89.3773571
51
107.2070287
0
ARC
8
DEFAULT_255_1_388
10
19.1388818
20
70.7703667
40
0.2221946
50
107.688418
51
143.3582986
0
ARC
8
DEFAULT_255_1_388
10
19.2027112
20
70.7224064
40
0.3020337
50
143.2845866
51
162.9352432
0
ARC
8
DEFAULT_255_1_388
10
19.3721128
20
70.6680401
40
0.4799362
50
162.6652705
51
174.0802646
0
ARC
8
DEFAULT_255_1_388
10
19.6131609
20
70.6400287
40
0.7225942
50
173.8422673
51
180.1784414
0
ARC
8
DEFAULT_255_1_388
10
19.5515279
20
70.6027276
40
0.6609665
50
179.7030218
51
188.2277356
0
ARC
8
DEFAULT_255_1_388
10
19.3150887
20
70.5673143
40
0.4218948
50
188.0630838
51
201.115837
0
ARC
8
DEFAULT_255_1_388
10
19.1915771
20
70.520173
40
0.2896941
50
201.2186162
51
216.9761863
0
ARC
8
DEFAULT_255_1_388
10
19.1407929
20
70.4821225
40
0.2262366
50
217.0136373
51
265.2055518
0
ARC
8
DEFAULT_255_1_388
10
19.1583266
20
70.5858503
40
0.3311837
50
263.6824874
51
270.1042034
0
LINE
8
DEFAULT_255_1_388
10
19.7950383
20
71.3506906
11
19.9621977
21
71.3506906
0
LINE
8
DEFAULT_255_1_388
10
19.9621977
20
71.3506906
11
19.9621977
21
71.1139567
0
LINE
8
DEFAULT_255_1_388
10
19.9621977
20
71.1139567
11
20.1447177
21
71.1139567
0
LINE
8
DEFAULT_255_1_388
10
20.1447177
20
71.1139567
11
20.1447177
21
70.984747
0
LINE
8
DEFAULT_255_1_388
10
20.1447177
20
70.984747
11
19.9621977
21
70.984747
0
LINE
8
DEFAULT_255_1_388
10
19.9621977
20
70.984747
11
19.9621977
21
70.3784553
0
LINE
8
DEFAULT_255_1_388
10
20.1492355
20
70.2718347
11
20.1492355
21
70.1363
0
LINE
8
DEFAULT_255_1_388
10
19.7950383
20
70.3784553
11
19.7950383
21
70.984747
0
LINE
8
DEFAULT_255_1_388
10
19.7950383
20
70.984747
11
19.6170361
21
70.984747
0
LINE
8
DEFAULT_255_1_388
10
19.6170361
20
70.984747
11
19.6170361
21
71.1139567
0
LINE
8
DEFAULT_255_1_388
10
19.6170361
20
71.1139567
11
19.7950383
21
71.1139567
0
LINE
8
DEFAULT_255_1_388
10
19.7950383
20
71.1139567
11
19.7950383
21
71.3506906
0
ARC
8
DEFAULT_255_1_388
10
20.1880485
20
70.3772842
40
0.2258538
50
179.7029045
51
187.9180047
0
ARC
8
DEFAULT_255_1_388
10
20.1041058
20
70.3652019
40
0.1410477
50
187.7540838
51
200.2454047
0
ARC
8
DEFAULT_255_1_388
10
20.0567964
20
70.3475591
40
0.0905561
50
200.1304287
51
219.1733455
0
ARC
8
DEFAULT_255_1_388
10
20.0415131
20
70.3371695
40
0.0721626
50
220.4434631
51
249.6169985
0
ARC
8
DEFAULT_255_1_388
10
20.0589357
20
70.3809919
40
0.1193141
50
249.1038184
51
262.7745376
0
ARC
8
DEFAULT_255_1_388
10
20.0688539
20
70.4517481
40
0.1907583
50
262.4921618
51
270.2607019
0
ARC
8
DEFAULT_255_1_388
10
20.0685621
20
70.4759817
40
0.2149929
50
270.309081
51
275.6615459
0
ARC
8
DEFAULT_255_1_388
10
20.0525029
20
70.6448342
40
0.3846066
50
275.5607354
51
279.087751
0
ARC
8
DEFAULT_255_1_388
10
20.0152961
20
70.8809428
40
0.6236283
50
279.0369545
51
281.5000133
0
ARC
8
DEFAULT_255_1_388
10
19.9762229
20
71.0786499
40
0.825157
50
281.4217093
51
282.1031556
0
ARC
8
DEFAULT_255_1_388
10
20.0138204
20
70.6243229
40
0.5064619
50
275.2597791
51
285.5081125
0
ARC
8
DEFAULT_255_1_388
10
20.0207218
20
70.5617452
40
0.4435166
50
270.0268175
51
275.1130565
0
ARC
8
DEFAULT_255_1_388
10
20.0184669
20
70.4124367
40
0.2942182
50
257.3572424
51
270.4795428
0
ARC
8
DEFAULT_255_1_388
10
19.994494
20
70.3113952
40
0.1903838
50
230.8036715
51
257.7414447
0
ARC
8
DEFAULT_255_1_388
10
19.9868436
20
70.2990723
40
0.1760087
50
219.9745381
51
230.1985446
0
ARC
8
DEFAULT_255_1_388
10
20.0241723
20
70.3276116
40
0.2229598
50
196.5081334
51
219.4319996
0
ARC
8
DEFAULT_255_1_388
10
20.1384334
20
70.3634617
40
0.3427033
50
184.6408645
51
196.8266009
0
ARC
8
DEFAULT_255_1_388
10
20.278524
20
70.377601
40
0.4834863
50
179.8987586
51
184.9677262
0
LINE
8
DEFAULT_255_1_388
10
4.5145882
20
69.2415987
11
4.5145882
21
68.8575838
0
LINE
8
DEFAULT_255_1_388
10
4.5145882
20
68.8575838
11
4.8814354
21
68.8575838
0
LINE
8
DEFAULT_255_1_388
10
4.8814354
20
68.8575838
11
4.8814354
21
68.6994601
0
LINE
8
DEFAULT_255_1_388
10
4.8814354
20
68.6994601
11
4.5145882
21
68.6994601
0
LINE
8
DEFAULT_255_1_388
10
4.5145882
20
68.6994601
11
4.5145882
21
68.2838204
0
LINE
8
DEFAULT_255_1_388
10
4.5145882
20
68.2838204
11
4.3465252
21
68.2838204
0
LINE
8
DEFAULT_255_1_388
10
4.3465252
20
68.2838204
11
4.3465252
21
68.6994601
0
LINE
8
DEFAULT_255_1_388
10
4.3465252
20
68.6994601
11
3.979678
21
68.6994601
0
LINE
8
DEFAULT_255_1_388
10
3.979678
20
68.6994601
11
3.979678
21
68.8575838
0
LINE
8
DEFAULT_255_1_388
10
3.979678
20
68.8575838
11
4.3465252
21
68.8575838
0
LINE
8
DEFAULT_255_1_388
10
4.3465252
20
68.8575838
11
4.3465252
21
69.2415987
0
LINE
8
DEFAULT_255_1_388
10
4.3465252
20
69.2415987
11
4.5145882
21
69.2415987
0
LINE
8
DEFAULT_255_1_388
10
5.9295701
20
68.2883382
11
5.9295701
21
68.1519
0
LINE
8
DEFAULT_255_1_388
10
5.9295701
20
68.1519
11
5.0675696
21
68.1519
0
LINE
8
DEFAULT_255_1_388
10
5.0675696
20
68.1519
11
5.0675696
21
68.2720741
0
LINE
8
DEFAULT_255_1_388
10
5.0675696
20
68.2720741
11
5.5229661
21
68.7780702
0
LINE
8
DEFAULT_255_1_388
10
5.2094292
20
69.0798607
11
5.0422698
21
69.0798607
0
LINE
8
DEFAULT_255_1_388
10
5.6214546
20
68.670546
11
5.2690645
21
68.2883382
0
LINE
8
DEFAULT_255_1_388
10
5.2690645
20
68.2883382
11
5.9295701
21
68.2883382
0
ARC
8
DEFAULT_255_1_388
10
4.0053721
20
70.1200983
40
2.0258655
50
318.5132526
51
320.7829045
0
ARC
8
DEFAULT_255_1_388
10
4.6001678
20
69.6359929
40
1.2589638
50
320.7372878
51
323.9739031
0
ARC
8
DEFAULT_255_1_388
10
5.0410609
20
69.3165554
40
0.7145141
50
323.8962701
51
328.64194
0
ARC
8
DEFAULT_255_1_388
10
5.2712867
20
69.1745545
40
0.4440242
50
328.8294576
51
331.7891185
0
ARC
8
DEFAULT_255_1_388
10
5.3835187
20
69.1166374
40
0.3177517
50
331.4254512
51
352.9365785
0
ARC
8
DEFAULT_255_1_388
10
5.3988187
20
69.113205
40
0.3021496
50
353.2257659
51
0.0166158
0
ARC
8
DEFAULT_255_1_388
10
5.4224948
20
69.1157894
40
0.2784847
50
359.486299
51
15.9343185
0
ARC
8
DEFAULT_255_1_388
10
5.4795214
20
69.1311269
40
0.2194403
50
16.1712913
51
43.5286088
0
ARC
8
DEFAULT_255_1_388
10
5.4882159
20
69.1398191
40
0.2071504
50
43.4417391
51
83.1661095
0
ARC
8
DEFAULT_255_1_388
10
5.473132
20
69.0569316
40
0.2912888
50
82.160179
51
90.1505708
0
ARC
8
DEFAULT_255_1_388
10
5.4695802
20
68.9965279
40
0.3517025
50
89.5460741
51
102.5418361
0
ARC
8
DEFAULT_255_1_388
10
5.4422522
20
69.1124933
40
0.2325748
50
102.1738499
51
129.206123
0
ARC
8
DEFAULT_255_1_388
10
5.4333975
20
69.1264664
40
0.2161591
50
129.72865
51
135.753947
0
ARC
8
DEFAULT_255_1_388
10
5.4470457
20
69.1155728
40
0.2335433
50
136.1757367
51
166.3673339
0
ARC
8
DEFAULT_255_1_388
10
5.5603146
20
69.0852148
40
0.3507873
50
165.9090694
51
178.8684636
0
ARC
8
DEFAULT_255_1_388
10
5.6578917
20
69.0799263
40
0.4484624
50
178.4391136
51
180.0083808
0
ARC
8
DEFAULT_255_1_388
10
5.4999619
20
69.0843197
40
0.4577138
50
163.2878482
51
180.5581842
0
ARC
8
DEFAULT_255_1_388
10
5.409766
20
69.1091393
40
0.3641968
50
133.4540601
51
162.947111
0
ARC
8
DEFAULT_255_1_388
10
5.4298542
20
69.0877789
40
0.3935189
50
100.7869829
51
133.4382499
0
ARC
8
DEFAULT_255_1_388
10
5.4689787
20
68.9135399
40
0.5720313
50
89.660664
51
101.3702276
0
ARC
8
DEFAULT_255_1_388
10
5.4764395
20
68.9204263
40
0.5651495
50
78.2172678
51
90.412935
0
ARC
8
DEFAULT_255_1_388
10
5.5163861
20
69.1031511
40
0.378122
50
55.9269121
51
78.4888449
0
ARC
8
DEFAULT_255_1_388
10
5.5384576
20
69.1412187
40
0.3342379
50
47.929771
51
55.4049217
0
ARC
8
DEFAULT_255_1_388
10
5.5499107
20
69.1528618
40
0.3179217
50
4.334829
51
48.0560205
0
ARC
8
DEFAULT_255_1_388
10
5.4266908
20
69.1337487
40
0.442341
50
359.9251713
51
5.5971671
0
ARC
8
DEFAULT_255_1_388
10
5.4749063
20
69.1400728
40
0.3941854
50
337.8914027
51
358.9967534
0
ARC
8
DEFAULT_255_1_388
10
5.1696633
20
69.2578295
40
0.7213271
50
326.9132501
51
338.3508308
0
ARC
8
DEFAULT_255_1_388
10
4.7212745
20
69.5452105
40
1.2538973
50
319.6471833
51
327.0959558
0
ARC
8
DEFAULT_255_1_388
10
4.2899403
20
69.901005
40
1.8129975
50
317.2588228
51
319.9045804
0
LINE
8
DEFAULT_255_1_388
10
6.8123526
20
69.4674898
11
6.8123526
21
68.593743
0
LINE
8
DEFAULT_255_1_388
10
6.8123526
20
68.593743
11
6.9948726
21
68.593743
0
LINE
8
DEFAULT_255_1_388
10
6.9948726
20
68.593743
11
6.9948726
21
68.4573048
0
LINE
8
DEFAULT_255_1_388
10
6.9948726
20
68.4573048
11
6.8123526
21
68.4573048
0
LINE
8
DEFAULT_255_1_388
10
6.8123526
20
68.4573048
11
6.8123526
21
68.1519
0
LINE
8
DEFAULT_255_1_388
10
6.8123526
20
68.1519
11
6.6442896
21
68.1519
0
LINE
8
DEFAULT_255_1_388
10
6.6442896
20
68.1519
11
6.6442896
21
68.4573048
0
LINE
8
DEFAULT_255_1_388
10
6.6442896
20
68.4573048
11
6.0452264
21
68.4573048
0
LINE
8
DEFAULT_255_1_388
10
6.0452264
20
68.4573048
11
6.0452264
21
68.5557933
0
LINE
8
DEFAULT_255_1_388
10
6.0452264
20
68.5557933
11
6.6343504
21
69.4674898
0
LINE
8
DEFAULT_255_1_388
10
6.6343504
20
69.4674898
11
6.8123526
21
69.4674898
0
LINE
8
DEFAULT_255_1_388
10
6.6244112
20
69.2027455
11
6.2349749
21
68.593743
0
LINE
8
DEFAULT_255_1_388
10
6.2349749
20
68.593743
11
6.6442896
21
68.593743
0
LINE
8
DEFAULT_255_1_388
10
6.6442896
20
68.593743
11
6.6442896
21
69.238888
0
LINE
8
DEFAULT_255_1_388
10
6.6442896
20
69.238888
11
6.6244112
21
69.2027455
0
LINE
8
DEFAULT_255_1_388
10
7.2505813
20
69.4674898
11
7.624657
21
68.3823089
0
LINE
8
DEFAULT_255_1_388
10
7.624657
20
68.3823089
11
8.0005398
21
69.4674898
0
LINE
8
DEFAULT_255_1_388
10
8.0005398
20
69.4674898
11
8.1902884
21
69.4674898
0
LINE
8
DEFAULT_255_1_388
10
8.1902884
20
69.4674898
11
7.7023636
21
68.1519
0
LINE
8
DEFAULT_255_1_388
10
7.7023636
20
68.1519
11
7.5487576
21
68.1519
0
LINE
8
DEFAULT_255_1_388
10
7.5487576
20
68.1519
11
7.0617364
21
69.4674898
0
LINE
8
DEFAULT_255_1_388
10
7.0617364
20
69.4674898
11
7.2505813
21
69.4674898
0
LINE
8
DEFAULT_255_1_388
10
4.1845367
20
5.9674898
11
4.1845367
21
4.6519
0
LINE
8
DEFAULT_255_1_388
10
4.1845367
20
4.6519
11
4.0110523
21
4.6519
0
LINE
8
DEFAULT_255_1_388
10
4.0110523
20
4.6519
11
4.0110523
21
5.9674898
0
LINE
8
DEFAULT_255_1_388
10
4.0110523
20
5.9674898
11
4.1845367
21
5.9674898
0
LINE
8
DEFAULT_255_1_388
10
5.5127764
20
5.9674898
11
5.5127764
21
4.6519
0
LINE
8
DEFAULT_255_1_388
10
5.5127764
20
4.6519
11
5.3383885
21
4.6519
0
LINE
8
DEFAULT_255_1_388
10
5.3383885
20
4.6519
11
4.6760757
21
5.6656993
0
LINE
8
DEFAULT_255_1_388
10
4.6760757
20
5.6656993
11
4.6760757
21
4.6519
0
LINE
8
DEFAULT_255_1_388
10
4.6760757
20
4.6519
11
4.5016878
21
4.6519
0
LINE
8
DEFAULT_255_1_388
10
4.5016878
20
4.6519
11
4.5016878
21
5.9674898
0
LINE
8
DEFAULT_255_1_388
10
4.5016878
20
5.9674898
11
4.6760757
21
5.9674898
0
LINE
8
DEFAULT_255_1_388
10
4.6760757
20
5.9674898
11
5.3401956
21
4.9491727
0
LINE
8
DEFAULT_255_1_388
10
5.3401956
20
4.9491727
11
5.3401956
21
5.9674898
0
LINE
8
DEFAULT_255_1_388
10
5.3401956
20
5.9674898
11
5.5127764
21
5.9674898
0
LINE
8
DEFAULT_255_1_388
10
6.6268714
20
5.9674898
11
6.6268714
21
5.8735191
0
LINE
8
DEFAULT_255_1_388
10
6.6268714
20
5.8735191
11
6.082022
21
4.6519
0
LINE
8
DEFAULT_255_1_388
10
6.082022
20
4.6519
11
5.9067305
21
4.6519
0
LINE
8
DEFAULT_255_1_388
10
5.9067305
20
4.6519
11
6.4497728
21
5.830148
0
LINE
8
DEFAULT_255_1_388
10
6.4497728
20
5.830148
11
5.737764
21
5.830148
0
LINE
8
DEFAULT_255_1_388
10
5.737764
20
5.830148
11
5.737764
21
5.9674898
0
LINE
8
DEFAULT_255_1_388
10
5.737764
20
5.9674898
11
6.6268714
21
5.9674898
0
LINE
8
DEFAULT_255_1_388
10
4.1845367
20
13.9049898
11
4.1845367
21
12.5894
0
LINE
8
DEFAULT_255_1_388
10
4.1845367
20
12.5894
11
4.0110523
21
12.5894
0
LINE
8
DEFAULT_255_1_388
10
4.0110523
20
12.5894
11
4.0110523
21
13.9049898
0
LINE
8
DEFAULT_255_1_388
10
4.0110523
20
13.9049898
11
4.1845367
21
13.9049898
0
LINE
8
DEFAULT_255_1_388
10
5.5127764
20
13.9049898
11
5.5127764
21
12.5894
0
LINE
8
DEFAULT_255_1_388
10
5.5127764
20
12.5894
11
5.3383885
21
12.5894
0
LINE
8
DEFAULT_255_1_388
10
5.3383885
20
12.5894
11
4.6760757
21
13.6031993
0
LINE
8
DEFAULT_255_1_388
10
4.6760757
20
13.6031993
11
4.6760757
21
12.5894
0
LINE
8
DEFAULT_255_1_388
10
4.6760757
20
12.5894
11
4.5016878
21
12.5894
0
LINE
8
DEFAULT_255_1_388
10
4.5016878
20
12.5894
11
4.5016878
21
13.9049898
0
LINE
8
DEFAULT_255_1_388
10
4.5016878
20
13.9049898
11
4.6760757
21
13.9049898
0
LINE
8
DEFAULT_255_1_388
10
4.6760757
20
13.9049898
11
5.3401956
21
12.8866727
0
LINE
8
DEFAULT_255_1_388
10
5.3401956
20
12.8866727
11
5.3401956
21
13.9049898
0
LINE
8
DEFAULT_255_1_388
10
5.3401956
20
13.9049898
11
5.5127764
21
13.9049898
0
LINE
8
DEFAULT_255_1_388
10
6.403691
20
13.9058934
11
6.4335086
21
13.9058934
0
LINE
8
DEFAULT_255_1_388
10
6.4335086
20
13.9058934
11
6.4335086
21
13.7640338
0
LINE
8
DEFAULT_255_1_388
10
6.4335086
20
13.7640338
11
6.4027874
21
13.7640338
0
LINE
8
DEFAULT_255_1_388
10
5.78746
20
13.0899747
11
5.78746
21
13.1541278
0
LINE
8
DEFAULT_255_1_388
10
5.955523
20
13.1324422
11
5.955523
21
13.0709999
0
ARC
8
DEFAULT_255_1_388
10
6.4086766
20
13.2017826
40
0.562282
50
90.6001079
51
104.5146616
0
ARC
8
DEFAULT_255_1_388
10
6.3649725
20
13.36431
40
0.3939917
50
104.2855758
51
133.8630124
0
ARC
8
DEFAULT_255_1_388
10
6.3833978
20
13.3521243
40
0.4155734
50
134.5304124
51
161.6210222
0
ARC
8
DEFAULT_255_1_388
10
6.569391
20
13.2865421
40
0.6127682
50
161.2850533
51
174.2074364
0
ARC
8
DEFAULT_255_1_388
10
6.7283477
20
13.2646437
40
0.7731446
50
173.7817938
51
174.9251711
0
ARC
8
DEFAULT_255_1_388
10
6.215767
20
13.109127
40
0.3412588
50
95.8332067
51
138.995412
0
ARC
8
DEFAULT_255_1_388
10
6.2408951
20
12.9652695
40
0.4870358
50
89.8755506
51
97.0540979
0
ARC
8
DEFAULT_255_1_388
10
6.246234
20
13.0592841
40
0.3930432
50
71.6407016
51
90.6240821
0
ARC
8
DEFAULT_255_1_388
10
6.2631733
20
13.1216433
40
0.3285421
50
39.6368051
51
71.0190743
0
ARC
8
DEFAULT_255_1_388
10
6.1915641
20
13.0597586
40
0.4231706
50
10.6588054
51
39.9044509
0
ARC
8
DEFAULT_255_1_388
10
6.0174186
20
13.0219223
40
0.60133
50
359.6827842
51
11.1326896
0
ARC
8
DEFAULT_255_1_388
10
6.0129522
20
13.0139715
40
0.6058047
50
347.2485908
51
0.4371098
0
ARC
8
DEFAULT_255_1_388
10
6.2005308
20
12.9688379
40
0.4128987
50
318.1408565
51
347.6118497
0
ARC
8
DEFAULT_255_1_388
10
6.2370904
20
12.9387903
40
0.3656244
50
275.6342406
51
317.824739
0
ARC
8
DEFAULT_255_1_388
10
6.2122425
20
13.0849827
40
0.513655
50
269.8872513
51
276.7916069
0
ARC
8
DEFAULT_255_1_388
10
6.2060618
20
12.9696181
40
0.398323
50
246.9139443
51
270.7436787
0
ARC
8
DEFAULT_255_1_388
10
6.2067814
20
12.9536044
40
0.3839368
50
218.1665534
51
245.8780431
0
ARC
8
DEFAULT_255_1_388
10
6.3057186
20
13.0363903
40
0.5128958
50
191.4115343
51
218.6077624
0
ARC
8
DEFAULT_255_1_388
10
6.5237502
20
13.0852777
40
0.7363054
50
179.6344971
51
191.7836758
0
ARC
8
DEFAULT_255_1_388
10
7.1517377
20
13.1616495
40
1.3642984
50
171.4523743
51
180.3158856
0
ARC
8
DEFAULT_255_1_388
10
6.6573104
20
13.2385895
40
0.8639311
50
157.9802296
51
171.6246761
0
ARC
8
DEFAULT_255_1_388
10
6.4082454
20
13.3379038
40
0.5958004
50
141.4299236
51
157.8541251
0
ARC
8
DEFAULT_255_1_388
10
6.3360538
20
13.3889746
40
0.5075416
50
102.871586
51
140.8564533
0
ARC
8
DEFAULT_255_1_388
10
6.408909
20
13.1144943
40
0.7914163
50
90.377773
51
103.5868422
0
ARC
8
DEFAULT_255_1_388
10
6.2133612
20
13.0464543
40
0.2667015
50
89.8751238
51
126.2072139
0
ARC
8
DEFAULT_255_1_388
10
6.2185083
20
13.0290847
40
0.2838229
50
124.9742447
51
144.8960197
0
ARC
8
DEFAULT_255_1_388
10
6.1987328
20
13.0451981
40
0.2583845
50
145.2974778
51
160.2660922
0
ARC
8
DEFAULT_255_1_388
10
6.5443816
20
13.0674151
40
0.5888695
50
179.6512124
51
190.285571
0
ARC
8
DEFAULT_255_1_388
10
6.3538296
20
13.0314968
40
0.3949683
50
190.0944895
51
207.5099647
0
ARC
8
DEFAULT_255_1_388
10
6.2901877
20
13.0012177
40
0.3245464
50
207.9585471
51
216.325377
0
ARC
8
DEFAULT_255_1_388
10
6.2519515
20
12.9697712
40
0.2751259
50
215.7661336
51
232.5457193
0
ARC
8
DEFAULT_255_1_388
10
6.208863
20
12.9150273
40
0.2054668
50
232.8005815
51
270.6605497
0
ARC
8
DEFAULT_255_1_388
10
6.2140055
20
12.9559853
40
0.2464268
50
269.3550767
51
288.474612
0
ARC
8
DEFAULT_255_1_388
10
6.2244562
20
12.9166721
40
0.2058436
50
289.1831976
51
322.9685307
0
ARC
8
DEFAULT_255_1_388
10
6.1556663
20
12.9709279
40
0.2934408
50
322.6007085
51
346.5183319
0
ARC
8
DEFAULT_255_1_388
10
6.0254419
20
13.0041434
40
0.4278249
50
346.2584622
51
358.7739592
0
ARC
8
DEFAULT_255_1_388
10
5.9102995
20
13.0103829
40
0.5430876
50
358.3757628
51
0.0082477
0
ARC
8
DEFAULT_255_1_388
10
5.9959813
20
13.0134856
40
0.4574157
50
359.6211417
51
11.28403
0
ARC
8
DEFAULT_255_1_388
10
6.1396419
20
13.0434535
40
0.3106708
50
11.0483152
51
31.8145585
0
ARC
8
DEFAULT_255_1_388
10
6.1744125
20
13.0623045
40
0.2711963
50
32.3028554
51
38.0820598
0
ARC
8
DEFAULT_255_1_388
10
6.2217358
20
13.1051717
40
0.2075566
50
36.8249851
51
85.741667
0
ARC
8
DEFAULT_255_1_388
10
6.214177
20
13.0488065
40
0.2643487
50
85.0150021
51
90.050843
0
LINE
8
DEFAULT_255_1_388
10
4.1845367
20
21.8424898
11
4.1845367
21
20.5269
0
LINE
8
DEFAULT_255_1_388
10
4.1845367
20
20.5269
11
4.0110523
21
20.5269
0
LINE
8
DEFAULT_255_1_388
10
4.0110523
20
20.5269
11
4.0110523
21
21.8424898
0
LINE
8
DEFAULT_255_1_388
10
4.0110523
20
21.8424898
11
4.1845367
21
21.8424898
0
LINE
8
DEFAULT_255_1_388
10
5.5127764
20
21.8424898
11
5.5127764
21
20.5269
0
LINE
8
DEFAULT_255_1_388
10
5.5127764
20
20.5269
11
5.3383885
21
20.5269
0
LINE
8
DEFAULT_255_1_388
10
5.3383885
20
20.5269
11
4.6760757
21
21.5406993
0
LINE
8
DEFAULT_255_1_388
10
4.6760757
20
21.5406993
11
4.6760757
21
20.5269
0
LINE
8
DEFAULT_255_1_388
10
4.6760757
20
20.5269
11
4.5016878
21
20.5269
0
LINE
8
DEFAULT_255_1_388
10
4.5016878
20
20.5269
11
4.5016878
21
21.8424898
0
LINE
8
DEFAULT_255_1_388
10
4.5016878
20
21.8424898
11
4.6760757
21
21.8424898
0
LINE
8
DEFAULT_255_1_388
10
4.6760757
20
21.8424898
11
5.3401956
21
20.8241727
0
LINE
8
DEFAULT_255_1_388
10
5.3401956
20
20.8241727
11
5.3401956
21
21.8424898
0
LINE
8
DEFAULT_255_1_388
10
5.3401956
20
21.8424898
11
5.5127764
21
21.8424898
0
LINE
8
DEFAULT_255_1_388
10
5.9880513
20
21.1521666
11
5.8543238
21
21.1865021
0
LINE
8
DEFAULT_255_1_388
10
5.8543238
20
21.1865021
11
5.9211875
21
21.8424898
0
LINE
8
DEFAULT_255_1_388
10
5.9211875
20
21.8424898
11
6.5952466
21
21.8424898
0
LINE
8
DEFAULT_255_1_388
10
6.5952466
20
21.8424898
11
6.5952466
21
21.6879803
0
LINE
8
DEFAULT_255_1_388
10
6.5952466
20
21.6879803
11
6.0630472
21
21.6879803
0
LINE
8
DEFAULT_255_1_388
10
6.0630472
20
21.6879803
11
6.0232903
21
21.3292652
0
LINE
8
DEFAULT_255_1_388
10
5.8073384
20
20.8729652
11
5.9654622
21
20.8729652
0
LINE
8
DEFAULT_255_1_388
10
6.032326
20
21.1883092
11
5.9880513
21
21.1521666
0
ARC
8
DEFAULT_255_1_388
10
6.2319517
20
20.9715241
40
0.4141476
50
93.7181681
51
120.253934
0
ARC
8
DEFAULT_255_1_388
10
6.2425569
20
20.8806284
40
0.5055616
50
89.9660471
51
94.2495185
0
ARC
8
DEFAULT_255_1_388
10
6.2471391
20
20.9469154
40
0.4392953
50
73.8045384
51
90.5585736
0
ARC
8
DEFAULT_255_1_388
10
6.2735649
20
21.043452
40
0.3392225
50
41.3071072
51
73.543002
0
ARC
8
DEFAULT_255_1_388
10
6.2267469
20
21.0031461
40
0.4009977
50
13.5075837
51
41.2174839
0
ARC
8
DEFAULT_255_1_388
10
6.0420566
20
20.9547907
40
0.5918864
50
1.1330171
51
13.8830737
0
ARC
8
DEFAULT_255_1_388
10
5.8824212
20
20.9462522
40
0.7516787
50
359.9925091
51
1.5431298
0
ARC
8
DEFAULT_255_1_388
10
6.0268827
20
20.9416027
40
0.6072343
50
347.8572712
51
0.4294349
0
ARC
8
DEFAULT_255_1_388
10
6.2237961
20
20.8969898
40
0.4053482
50
323.6727442
51
348.1674594
0
ARC
8
DEFAULT_255_1_388
10
6.2568926
20
20.8768175
40
0.3667495
50
316.8171818
51
323.1486802
0
ARC
8
DEFAULT_255_1_388
10
6.263805
20
20.8726612
40
0.358869
50
281.839603
51
316.5458142
0
ARC
8
DEFAULT_255_1_388
10
6.2215337
20
21.0476363
40
0.5388223
50
269.5770964
51
282.4214641
0
ARC
8
DEFAULT_255_1_388
10
6.2135258
20
21.023593
40
0.5147801
50
256.2425863
51
270.4486481
0
ARC
8
DEFAULT_255_1_388
10
6.1798786
20
20.8886124
40
0.3756708
50
228.9024379
51
256.33135
0
ARC
8
DEFAULT_255_1_388
10
6.1715766
20
20.8755054
40
0.360344
50
193.7536029
51
228.5272638
0
ARC
8
DEFAULT_255_1_388
10
6.3108331
20
20.9163463
40
0.5053599
50
184.9244437
51
194.4976052
0
ARC
8
DEFAULT_255_1_388
10
6.3324972
20
20.9203722
40
0.3700839
50
187.3596909
51
198.6733728
0
ARC
8
DEFAULT_255_1_388
10
6.2144216
20
20.8794373
40
0.2451195
50
198.4453795
51
217.7945479
0
ARC
8
DEFAULT_255_1_388
10
6.1811388
20
20.8558563
40
0.2043754
50
218.2887146
51
228.5613203
0
ARC
8
DEFAULT_255_1_388
10
6.1921395
20
20.8706902
40
0.2227819
50
228.9652423
51
258.1237049
0
ARC
8
DEFAULT_255_1_388
10
6.2152832
20
20.9697964
40
0.3245374
50
257.7260585
51
270.4013717
0
ARC
8
DEFAULT_255_1_388
10
6.220333
20
20.9197255
40
0.2744726
50
269.4204315
51
286.420998
0
ARC
8
DEFAULT_255_1_388
10
6.2370386
20
20.8590705
40
0.2115721
50
286.7250065
51
320.6004665
0
ARC
8
DEFAULT_255_1_388
10
6.1939302
20
20.8940527
40
0.2670878
50
320.6712228
51
344.5440474
0
ARC
8
DEFAULT_255_1_388
10
6.0638015
20
20.9322394
40
0.4026927
50
344.241448
51
356.735803
0
ARC
8
DEFAULT_255_1_388
10
5.9234323
20
20.9438656
40
0.5435085
50
356.3547471
51
0.0507222
0
ARC
8
DEFAULT_255_1_388
10
6.0736588
20
20.9473812
40
0.3932934
50
359.5579289
51
12.9534322
0
ARC
8
DEFAULT_255_1_388
10
6.1923428
20
20.9761586
40
0.2711827
50
12.6489751
51
41.608121
0
ARC
8
DEFAULT_255_1_388
10
6.2182588
20
20.9981946
40
0.2371737
50
41.7851122
51
85.9892156
0
ARC
8
DEFAULT_255_1_388
10
6.2043898
20
20.9066738
40
0.3295244
50
84.6965848
51
90.0672125
0
ARC
8
DEFAULT_255_1_388
10
6.2017465
20
20.8315118
40
0.4046926
50
89.6804991
51
99.161352
0
ARC
8
DEFAULT_255_1_388
10
6.1786474
20
20.9695848
40
0.2647044
50
98.9836248
51
113.8905702
0
ARC
8
DEFAULT_255_1_388
10
6.1528149
20
21.0305118
40
0.1985386
50
114.195234
51
127.3641866
0
LINE
8
DEFAULT_255_1_388
10
4.3168367
20
29.7799898
11
4.3168367
21
28.4644
0
LINE
8
DEFAULT_255_1_388
10
4.3168367
20
28.4644
11
4.1433523
21
28.4644
0
LINE
8
DEFAULT_255_1_388
10
4.1433523
20
28.4644
11
4.1433523
21
29.7799898
0
LINE
8
DEFAULT_255_1_388
10
4.1433523
20
29.7799898
11
4.3168367
21
29.7799898
0
LINE
8
DEFAULT_255_1_388
10
5.6450764
20
29.7799898
11
5.6450764
21
28.4644
0
LINE
8
DEFAULT_255_1_388
10
5.6450764
20
28.4644
11
5.4706885
21
28.4644
0
LINE
8
DEFAULT_255_1_388
10
5.4706885
20
28.4644
11
4.8083757
21
29.4781993
0
LINE
8
DEFAULT_255_1_388
10
4.8083757
20
29.4781993
11
4.8083757
21
28.4644
0
LINE
8
DEFAULT_255_1_388
10
4.8083757
20
28.4644
11
4.6339878
21
28.4644
0
LINE
8
DEFAULT_255_1_388
10
4.6339878
20
28.4644
11
4.6339878
21
29.7799898
0
LINE
8
DEFAULT_255_1_388
10
4.6339878
20
29.7799898
11
4.8083757
21
29.7799898
0
LINE
8
DEFAULT_255_1_388
10
4.8083757
20
29.7799898
11
5.4724956
21
28.7616727
0
LINE
8
DEFAULT_255_1_388
10
5.4724956
20
28.7616727
11
5.4724956
21
29.7799898
0
LINE
8
DEFAULT_255_1_388
10
5.4724956
20
29.7799898
11
5.6450764
21
29.7799898
0
LINE
8
DEFAULT_255_1_388
10
6.6155046
20
29.7799898
11
6.6155046
21
28.906243
0
LINE
8
DEFAULT_255_1_388
10
6.6155046
20
28.906243
11
6.7980247
21
28.906243
0
LINE
8
DEFAULT_255_1_388
10
6.7980247
20
28.906243
11
6.7980247
21
28.7698048
0
LINE
8
DEFAULT_255_1_388
10
6.7980247
20
28.7698048
11
6.6155046
21
28.7698048
0
LINE
8
DEFAULT_255_1_388
10
6.6155046
20
28.7698048
11
6.6155046
21
28.4644
0
LINE
8
DEFAULT_255_1_388
10
6.6155046
20
28.4644
11
6.4474417
21
28.4644
0
LINE
8
DEFAULT_255_1_388
10
6.4474417
20
28.4644
11
6.4474417
21
28.7698048
0
LINE
8
DEFAULT_255_1_388
10
6.4474417
20
28.7698048
11
5.8483784
21
28.7698048
0
LINE
8
DEFAULT_255_1_388
10
5.8483784
20
28.7698048
11
5.8483784
21
28.8682933
0
LINE
8
DEFAULT_255_1_388
10
5.8483784
20
28.8682933
11
6.4375024
21
29.7799898
0
LINE
8
DEFAULT_255_1_388
10
6.4375024
20
29.7799898
11
6.6155046
21
29.7799898
0
LINE
8
DEFAULT_255_1_388
10
6.4275632
20
29.5152455
11
6.038127
21
28.906243
0
LINE
8
DEFAULT_255_1_388
10
6.038127
20
28.906243
11
6.4474417
21
28.906243
0
LINE
8
DEFAULT_255_1_388
10
6.4474417
20
28.906243
11
6.4474417
21
29.551388
0
LINE
8
DEFAULT_255_1_388
10
6.4474417
20
29.551388
11
6.4275632
21
29.5152455
0
LINE
8
DEFAULT_255_1_388
10
4.1845367
20
37.7174898
11
4.1845367
21
36.4019
0
LINE
8
DEFAULT_255_1_388
10
4.1845367
20
36.4019
11
4.0110523
21
36.4019
0
LINE
8
DEFAULT_255_1_388
10
4.0110523
20
36.4019
11
4.0110523
21
37.7174898
0
LINE
8
DEFAULT_255_1_388
10
4.0110523
20
37.7174898
11
4.1845367
21
37.7174898
0
LINE
8
DEFAULT_255_1_388
10
5.5127764
20
37.7174898
11
5.5127764
21
36.4019
0
LINE
8
DEFAULT_255_1_388
10
5.5127764
20
36.4019
11
5.3383885
21
36.4019
0
LINE
8
DEFAULT_255_1_388
10
5.3383885
20
36.4019
11
4.6760757
21
37.4156993
0
LINE
8
DEFAULT_255_1_388
10
4.6760757
20
37.4156993
11
4.6760757
21
36.4019
0
LINE
8
DEFAULT_255_1_388
10
4.6760757
20
36.4019
11
4.5016878
21
36.4019
0
LINE
8
DEFAULT_255_1_388
10
4.5016878
20
36.4019
11
4.5016878
21
37.7174898
0
LINE
8
DEFAULT_255_1_388
10
4.5016878
20
37.7174898
11
4.6760757
21
37.7174898
0
LINE
8
DEFAULT_255_1_388
10
4.6760757
20
37.7174898
11
5.3401956
21
36.6991727
0
LINE
8
DEFAULT_255_1_388
10
5.3401956
20
36.6991727
11
5.3401956
21
37.7174898
0
LINE
8
DEFAULT_255_1_388
10
5.3401956
20
37.7174898
11
5.5127764
21
37.7174898
0
LINE
8
DEFAULT_255_1_388
10
6.0205796
20
37.0045775
11
6.0205796
21
37.1410157
0
LINE
8
DEFAULT_255_1_388
10
6.0205796
20
37.1410157
11
6.1461751
21
37.1410157
0
LINE
8
DEFAULT_255_1_388
10
5.9320303
20
37.3723282
11
5.7648709
21
37.3723282
0
LINE
8
DEFAULT_255_1_388
10
5.7531246
20
36.7488688
11
5.9211875
21
36.7488688
0
LINE
8
DEFAULT_255_1_388
10
6.1461751
20
37.0045775
11
6.0205796
21
37.0045775
0
ARC
8
DEFAULT_255_1_388
10
6.1428977
20
37.5226922
40
0.3816905
50
270.491971
51
281.8953028
0
ARC
8
DEFAULT_255_1_388
10
6.1700404
20
37.3987199
40
0.2547877
50
281.6690378
51
301.2943765
0
ARC
8
DEFAULT_255_1_388
10
6.1891856
20
37.3636926
40
0.2149197
50
301.7834992
51
311.754567
0
ARC
8
DEFAULT_255_1_388
10
6.1994897
20
37.352265
40
0.1995326
50
311.7325027
51
354.2803031
0
ARC
8
DEFAULT_255_1_388
10
6.1177313
20
37.366328
40
0.2823461
50
353.0941646
51
0.1174696
0
ARC
8
DEFAULT_255_1_388
10
6.0658871
20
37.3716874
40
0.3342238
50
359.1804452
51
15.0452323
0
ARC
8
DEFAULT_255_1_388
10
6.2172929
20
37.4158546
40
0.1765747
50
13.957816
51
77.6713812
0
ARC
8
DEFAULT_255_1_388
10
6.1738165
20
37.2600464
40
0.3381982
50
76.111571
51
90.7028736
0
ARC
8
DEFAULT_255_1_388
10
6.1671577
20
37.290825
40
0.3074046
50
89.5321574
51
103.5319393
0
ARC
8
DEFAULT_255_1_388
10
6.1445961
20
37.3807443
40
0.2147041
50
103.2930114
51
133.5619756
0
ARC
8
DEFAULT_255_1_388
10
6.1395902
20
37.3874351
40
0.2064084
50
133.8349761
51
173.5343225
0
ARC
8
DEFAULT_255_1_388
10
6.220956
20
37.3730144
40
0.2889266
50
172.5097183
51
180.1360699
0
ARC
8
DEFAULT_255_1_388
10
6.1139324
20
37.376888
40
0.3490913
50
155.3483706
51
180.7484035
0
ARC
8
DEFAULT_255_1_388
10
6.1084299
20
37.3736519
40
0.3454798
50
131.5745177
51
154.4799474
0
ARC
8
DEFAULT_255_1_388
10
6.1436582
20
37.3380422
40
0.3955058
50
96.9874487
51
131.9690874
0
ARC
8
DEFAULT_255_1_388
10
6.1683475
20
37.1979407
40
0.537622
50
89.8592909
51
97.7827481
0
ARC
8
DEFAULT_255_1_388
10
6.1737584
20
37.168436
40
0.5671399
50
78.3654493
51
90.4132586
0
ARC
8
DEFAULT_255_1_388
10
6.2140225
20
37.3550918
40
0.3762034
50
56.6229818
51
78.6387103
0
ARC
8
DEFAULT_255_1_388
10
6.2382054
20
37.3973846
40
0.3275964
50
47.0254604
51
56.085558
0
ARC
8
DEFAULT_255_1_388
10
6.2404305
20
37.4018189
40
0.3228382
50
10.9207523
51
46.777927
0
ARC
8
DEFAULT_255_1_388
10
6.0869899
20
37.3663401
40
0.4802559
50
359.6364235
51
11.6087615
0
ARC
8
DEFAULT_255_1_388
10
6.2934065
20
37.3646404
40
0.273833
50
332.3549969
51
359.7179765
0
ARC
8
DEFAULT_255_1_388
10
6.2202465
20
37.3993285
40
0.3547505
50
325.2332381
51
332.8746682
0
ARC
8
DEFAULT_255_1_388
10
6.2374048
20
37.3873763
40
0.3338396
50
292.9803892
51
325.2391113
0
ARC
8
DEFAULT_255_1_388
10
6.2063244
20
37.4478679
40
0.4016959
50
292.542178
51
293.6931461
0
ARC
8
DEFAULT_255_1_388
10
6.2506816
20
36.7213036
40
0.372079
50
57.643292
51
72.8626085
0
ARC
8
DEFAULT_255_1_388
10
6.290565
20
36.7859273
40
0.2961455
50
36.7246661
51
57.4701329
0
ARC
8
DEFAULT_255_1_388
10
6.2892807
20
36.787347
40
0.2963321
50
8.054535
51
36.3561529
0
ARC
8
DEFAULT_255_1_388
10
6.192248
20
36.7699073
40
0.3948682
50
359.8316595
51
8.5873361
0
ARC
8
DEFAULT_255_1_388
10
6.1499954
20
36.764497
40
0.4371398
50
343.9831631
51
0.557075
0
ARC
8
DEFAULT_255_1_388
10
6.2497004
20
36.7371963
40
0.3337749
50
311.6358204
51
343.7652116
0
ARC
8
DEFAULT_255_1_388
10
6.2071257
20
36.7851955
40
0.3979351
50
279.7829743
51
311.625622
0
ARC
8
DEFAULT_255_1_388
10
6.1732392
20
36.9468642
40
0.5630417
50
269.7285092
51
280.3857694
0
ARC
8
DEFAULT_255_1_388
10
6.1662705
20
36.9422241
40
0.5584119
50
256.6827433
51
270.4412869
0
ARC
8
DEFAULT_255_1_388
10
6.1281692
20
36.7864698
40
0.3980715
50
229.4223821
51
256.8554507
0
ARC
8
DEFAULT_255_1_388
10
6.0815245
20
36.7339683
40
0.3278564
50
181.8183354
51
229.6455015
0
ARC
8
DEFAULT_255_1_388
10
6.1984855
20
36.7486825
40
0.4453611
50
179.9760419
51
183.2330638
0
ARC
8
DEFAULT_255_1_388
10
6.1791407
20
36.7463781
40
0.2579652
50
179.4467996
51
196.2871626
0
ARC
8
DEFAULT_255_1_388
10
6.1242861
20
36.7313709
40
0.2011057
50
196.5661293
51
227.7059371
0
ARC
8
DEFAULT_255_1_388
10
6.1427468
20
36.7520155
40
0.2287994
50
227.7653015
51
257.8763321
0
ARC
8
DEFAULT_255_1_388
10
6.1680551
20
36.8580961
40
0.3378385
50
257.4583525
51
270.4267406
0
ARC
8
DEFAULT_255_1_388
10
6.1731801
20
36.890723
40
0.3704652
50
269.5965319
51
280.8788143
0
ARC
8
DEFAULT_255_1_388
10
6.1990029
20
36.7617529
40
0.2389415
50
280.6347277
51
299.8594068
0
ARC
8
DEFAULT_255_1_388
10
6.2204798
20
36.7209736
40
0.19289
50
300.3575552
51
314.5515667
0
ARC
8
DEFAULT_255_1_388
10
6.2111474
20
36.7278025
40
0.204312
50
315.0730962
51
345.0429362
0
ARC
8
DEFAULT_255_1_388
10
6.1072982
20
36.7580539
40
0.31246
50
344.598526
51
357.9270698
0
ARC
8
DEFAULT_255_1_388
10
6.0063286
20
36.7649705
40
0.4136265
50
357.4755098
51
0.0224936
0
ARC
8
DEFAULT_255_1_388
10
6.1216164
20
36.7677099
40
0.2983498
50
359.5051035
51
13.4236939
0
ARC
8
DEFAULT_255_1_388
10
6.2191254
20
36.7926637
40
0.1977186
50
12.9497905
51
48.7550905
0
ARC
8
DEFAULT_255_1_388
10
6.1986176
20
36.7646373
40
0.2323321
50
49.509109
51
72.1832965
0
ARC
8
DEFAULT_255_1_388
10
6.1583644
20
36.6451632
40
0.358397
50
71.9008458
51
84.3555134
0
ARC
8
DEFAULT_255_1_388
10
6.1402039
20
36.4919712
40
0.512641
50
84.019632
51
89.3326067
0
LINE
8
DEFAULT_255_1_388
10
4.1845367
20
45.6549898
11
4.1845367
21
44.3394
0
LINE
8
DEFAULT_255_1_388
10
4.1845367
20
44.3394
11
4.0110523
21
44.3394
0
LINE
8
DEFAULT_255_1_388
10
4.0110523
20
44.3394
11
4.0110523
21
45.6549898
0
LINE
8
DEFAULT_255_1_388
10
4.0110523
20
45.6549898
11
4.1845367
21
45.6549898
0
LINE
8
DEFAULT_255_1_388
10
5.5127764
20
45.6549898
11
5.5127764
21
44.3394
0
LINE
8
DEFAULT_255_1_388
10
5.5127764
20
44.3394
11
5.3383885
21
44.3394
0
LINE
8
DEFAULT_255_1_388
10
5.3383885
20
44.3394
11
4.6760757
21
45.3531993
0
LINE
8
DEFAULT_255_1_388
10
4.6760757
20
45.3531993
11
4.6760757
21
44.3394
0
LINE
8
DEFAULT_255_1_388
10
4.6760757
20
44.3394
11
4.5016878
21
44.3394
0
LINE
8
DEFAULT_255_1_388
10
4.5016878
20
44.3394
11
4.5016878
21
45.6549898
0
LINE
8
DEFAULT_255_1_388
10
4.5016878
20
45.6549898
11
4.6760757
21
45.6549898
0
LINE
8
DEFAULT_255_1_388
10
4.6760757
20
45.6549898
11
5.3401956
21
44.6366727
0
LINE
8
DEFAULT_255_1_388
10
5.3401956
20
44.6366727
11
5.3401956
21
45.6549898
0
LINE
8
DEFAULT_255_1_388
10
5.3401956
20
45.6549898
11
5.5127764
21
45.6549898
0
LINE
8
DEFAULT_255_1_388
10
6.6395213
20
44.4758382
11
6.6395213
21
44.3394
0
LINE
8
DEFAULT_255_1_388
10
6.6395213
20
44.3394
11
5.7775208
21
44.3394
0
LINE
8
DEFAULT_255_1_388
10
5.7775208
20
44.3394
11
5.7775208
21
44.4595741
0
LINE
8
DEFAULT_255_1_388
10
5.7775208
20
44.4595741
11
6.2329173
21
44.9655702
0
LINE
8
DEFAULT_255_1_388
10
5.9193804
20
45.2673607
11
5.752221
21
45.2673607
0
LINE
8
DEFAULT_255_1_388
10
6.3314058
20
44.858046
11
5.9790157
21
44.4758382
0
LINE
8
DEFAULT_255_1_388
10
5.9790157
20
44.4758382
11
6.6395213
21
44.4758382
0
ARC
8
DEFAULT_255_1_388
10
4.7153232
20
46.3075983
40
2.0258655
50
318.5132526
51
320.7829045
0
ARC
8
DEFAULT_255_1_388
10
5.3101189
20
45.8234929
40
1.2589638
50
320.7372878
51
323.9739031
0
ARC
8
DEFAULT_255_1_388
10
5.7510121
20
45.5040554
40
0.7145141
50
323.8962701
51
328.64194
0
ARC
8
DEFAULT_255_1_388
10
5.9812379
20
45.3620545
40
0.4440242
50
328.8294576
51
331.7891185
0
ARC
8
DEFAULT_255_1_388
10
6.0934699
20
45.3041374
40
0.3177517
50
331.4254512
51
352.9365785
0
ARC
8
DEFAULT_255_1_388
10
6.1087699
20
45.300705
40
0.3021496
50
353.2257659
51
0.0166158
0
ARC
8
DEFAULT_255_1_388
10
6.1324459
20
45.3032894
40
0.2784847
50
359.486299
51
15.9343185
0
ARC
8
DEFAULT_255_1_388
10
6.1894726
20
45.3186269
40
0.2194403
50
16.1712913
51
43.5286088
0
ARC
8
DEFAULT_255_1_388
10
6.1981671
20
45.3273191
40
0.2071504
50
43.4417391
51
83.1661095
0
ARC
8
DEFAULT_255_1_388
10
6.1830832
20
45.2444316
40
0.2912888
50
82.160179
51
90.1505708
0
ARC
8
DEFAULT_255_1_388
10
6.1795313
20
45.1840279
40
0.3517025
50
89.5460741
51
102.5418361
0
ARC
8
DEFAULT_255_1_388
10
6.1522033
20
45.2999933
40
0.2325748
50
102.1738499
51
129.206123
0
ARC
8
DEFAULT_255_1_388
10
6.1433487
20
45.3139664
40
0.2161591
50
129.72865
51
135.753947
0
ARC
8
DEFAULT_255_1_388
10
6.1569969
20
45.3030728
40
0.2335433
50
136.1757367
51
166.3673339
0
ARC
8
DEFAULT_255_1_388
10
6.2702657
20
45.2727148
40
0.3507873
50
165.9090694
51
178.8684636
0
ARC
8
DEFAULT_255_1_388
10
6.3678429
20
45.2674263
40
0.4484624
50
178.4391136
51
180.0083808
0
ARC
8
DEFAULT_255_1_388
10
6.209913
20
45.2718197
40
0.4577138
50
163.2878482
51
180.5581842
0
ARC
8
DEFAULT_255_1_388
10
6.1197171
20
45.2966393
40
0.3641968
50
133.4540601
51
162.947111
0
ARC
8
DEFAULT_255_1_388
10
6.1398053
20
45.2752789
40
0.3935189
50
100.7869829
51
133.4382499
0
ARC
8
DEFAULT_255_1_388
10
6.1789298
20
45.1010399
40
0.5720313
50
89.660664
51
101.3702276
0
ARC
8
DEFAULT_255_1_388
10
6.1863907
20
45.1079263
40
0.5651495
50
78.2172678
51
90.412935
0
ARC
8
DEFAULT_255_1_388
10
6.2263373
20
45.2906511
40
0.378122
50
55.9269121
51
78.4888449
0
ARC
8
DEFAULT_255_1_388
10
6.2484088
20
45.3287187
40
0.3342379
50
47.929771
51
55.4049217
0
ARC
8
DEFAULT_255_1_388
10
6.2598618
20
45.3403618
40
0.3179217
50
4.334829
51
48.0560205
0
ARC
8
DEFAULT_255_1_388
10
6.136642
20
45.3212487
40
0.442341
50
359.9251713
51
5.5971671
0
ARC
8
DEFAULT_255_1_388
10
6.1848575
20
45.3275728
40
0.3941854
50
337.8914027
51
358.9967534
0
ARC
8
DEFAULT_255_1_388
10
5.8796145
20
45.4453295
40
0.7213271
50
326.9132501
51
338.3508308
0
ARC
8
DEFAULT_255_1_388
10
5.4312257
20
45.7327105
40
1.2538973
50
319.6471833
51
327.0959558
0
ARC
8
DEFAULT_255_1_388
10
4.9998915
20
46.088505
40
1.8129975
50
317.2588228
51
319.9045804
0
LINE
8
DEFAULT_255_1_388
10
4.1758367
20
53.5924898
11
4.1758367
21
52.2769
0
LINE
8
DEFAULT_255_1_388
10
4.1758367
20
52.2769
11
4.0023523
21
52.2769
0
LINE
8
DEFAULT_255_1_388
10
4.0023523
20
52.2769
11
4.0023523
21
53.5924898
0
LINE
8
DEFAULT_255_1_388
10
4.0023523
20
53.5924898
11
4.1758367
21
53.5924898
0
LINE
8
DEFAULT_255_1_388
10
5.5040764
20
53.5924898
11
5.5040764
21
52.2769
0
LINE
8
DEFAULT_255_1_388
10
5.5040764
20
52.2769
11
5.3296885
21
52.2769
0
LINE
8
DEFAULT_255_1_388
10
5.3296885
20
52.2769
11
4.6673757
21
53.2906993
0
LINE
8
DEFAULT_255_1_388
10
4.6673757
20
53.2906993
11
4.6673757
21
52.2769
0
LINE
8
DEFAULT_255_1_388
10
4.6673757
20
52.2769
11
4.4929878
21
52.2769
0
LINE
8
DEFAULT_255_1_388
10
4.4929878
20
52.2769
11
4.4929878
21
53.5924898
0
LINE
8
DEFAULT_255_1_388
10
4.4929878
20
53.5924898
11
4.6673757
21
53.5924898
0
LINE
8
DEFAULT_255_1_388
10
4.6673757
20
53.5924898
11
5.3314956
21
52.5741727
0
LINE
8
DEFAULT_255_1_388
10
5.3314956
20
52.5741727
11
5.3314956
21
53.5924898
0
LINE
8
DEFAULT_255_1_388
10
5.3314956
20
53.5924898
11
5.5040764
21
53.5924898
0
LINE
8
DEFAULT_255_1_388
10
6.318188
20
53.5988148
11
6.318188
21
52.2769
0
LINE
8
DEFAULT_255_1_388
10
6.318188
20
52.2769
11
6.150125
21
52.2769
0
LINE
8
DEFAULT_255_1_388
10
6.150125
20
52.2769
11
6.150125
21
53.390995
0
LINE
8
DEFAULT_255_1_388
10
6.150125
20
53.390995
11
5.8130955
21
53.2672066
0
LINE
8
DEFAULT_255_1_388
10
5.8130955
20
53.2672066
11
5.8130955
21
53.4190055
0
LINE
8
DEFAULT_255_1_388
10
5.8130955
20
53.4190055
11
6.2919846
21
53.5988148
0
LINE
8
DEFAULT_255_1_388
10
6.2919846
20
53.5988148
11
6.318188
21
53.5988148
0
LINE
8
DEFAULT_255_1_388
10
4.1845367
20
61.5299898
11
4.1845367
21
60.2144
0
LINE
8
DEFAULT_255_1_388
10
4.1845367
20
60.2144
11
4.0110523
21
60.2144
0
LINE
8
DEFAULT_255_1_388
10
4.0110523
20
60.2144
11
4.0110523
21
61.5299898
0
LINE
8
DEFAULT_255_1_388
10
4.0110523
20
61.5299898
11
4.1845367
21
61.5299898
0
LINE
8
DEFAULT_255_1_388
10
5.5127764
20
61.5299898
11
5.5127764
21
60.2144
0
LINE
8
DEFAULT_255_1_388
10
5.5127764
20
60.2144
11
5.3383885
21
60.2144
0
LINE
8
DEFAULT_255_1_388
10
5.3383885
20
60.2144
11
4.6760757
21
61.2281993
0
LINE
8
DEFAULT_255_1_388
10
4.6760757
20
61.2281993
11
4.6760757
21
60.2144
0
LINE
8
DEFAULT_255_1_388
10
4.6760757
20
60.2144
11
4.5016878
21
60.2144
0
LINE
8
DEFAULT_255_1_388
10
4.5016878
20
60.2144
11
4.5016878
21
61.5299898
0
LINE
8
DEFAULT_255_1_388
10
4.5016878
20
61.5299898
11
4.6760757
21
61.5299898
0
LINE
8
DEFAULT_255_1_388
10
4.6760757
20
61.5299898
11
5.3401956
21
60.5116727
0
LINE
8
DEFAULT_255_1_388
10
5.3401956
20
60.5116727
11
5.3401956
21
61.5299898
0
LINE
8
DEFAULT_255_1_388
10
5.3401956
20
61.5299898
11
5.5127764
21
61.5299898
0
LINE
8
DEFAULT_255_1_388
10
6.6024751
20
60.992369
11
6.6024751
21
60.7755135
0
LINE
8
DEFAULT_255_1_388
10
5.7720994
20
60.7529244
11
5.7720994
21
60.9761048
0
LINE
8
DEFAULT_255_1_388
10
6.4353157
20
60.7303353
11
6.4353157
21
61.0041153
0
LINE
8
DEFAULT_255_1_388
10
5.9392588
20
61.0167652
11
5.9392588
21
60.7493102
0
ARC
8
DEFAULT_255_1_388
10
5.2247085
20
60.7700118
40
1.3777776
50
353.8440855
51
0.2287917
0
ARC
8
DEFAULT_255_1_388
10
5.7466103
20
60.7117414
40
0.852639
50
344.4934746
51
353.9763743
0
ARC
8
DEFAULT_255_1_388
10
6.083291
20
60.6160191
40
0.5026273
50
329.2803599
51
344.7473406
0
ARC
8
DEFAULT_255_1_388
10
6.1948406
20
60.5548038
40
0.3754848
50
324.9361395
51
328.6153007
0
ARC
8
DEFAULT_255_1_388
10
6.2374056
20
60.5250586
40
0.3235566
50
280.5801797
51
324.9173226
0
ARC
8
DEFAULT_255_1_388
10
6.1922684
20
60.7130236
40
0.5167077
50
269.5979457
51
281.6732777
0
ARC
8
DEFAULT_255_1_388
10
6.1841588
20
60.6995113
40
0.5032026
50
256.6228565
51
270.5105488
0
ARC
8
DEFAULT_255_1_388
10
6.138933
20
60.5253345
40
0.3233092
50
215.8618351
51
257.2787793
0
ARC
8
DEFAULT_255_1_388
10
6.2538037
20
60.6024106
40
0.4615831
50
197.9695203
51
215.2622745
0
ARC
8
DEFAULT_255_1_388
10
6.5333713
20
60.6967641
40
0.7566307
50
187.8816486
51
198.2346584
0
ARC
8
DEFAULT_255_1_388
10
6.9786951
20
60.7610453
40
1.2065653
50
180.8977266
51
188.0054894
0
ARC
8
DEFAULT_255_1_388
10
7.2837165
20
60.77254
40
1.5117443
50
180.7434591
51
181.152202
0
ARC
8
DEFAULT_255_1_388
10
7.1162161
20
60.9815371
40
1.3441277
50
173.7674302
51
180.2315596
0
ARC
8
DEFAULT_255_1_388
10
6.608003
20
61.0389779
40
0.8326847
50
164.3058537
51
173.9000553
0
ARC
8
DEFAULT_255_1_388
10
6.280403
20
61.1333652
40
0.4917711
50
148.7922028
51
164.5682288
0
ARC
8
DEFAULT_255_1_388
10
6.1734767
20
61.1930457
40
0.3694204
50
144.5883979
51
148.1161588
0
ARC
8
DEFAULT_255_1_388
10
6.1347513
20
61.2200667
40
0.322202
50
101.6440149
51
144.5142619
0
ARC
8
DEFAULT_255_1_388
10
6.1825705
20
61.0300337
40
0.5180451
50
89.528284
51
102.5820197
0
ARC
8
DEFAULT_255_1_388
10
6.1914697
20
61.0256376
40
0.5224441
50
77.0437914
51
90.508231
0
ARC
8
DEFAULT_255_1_388
10
6.236695
20
61.2104272
40
0.3322297
50
48.2777708
51
77.4996087
0
ARC
8
DEFAULT_255_1_388
10
6.244869
20
61.2249557
40
0.315966
50
36.3141586
51
47.6307332
0
ARC
8
DEFAULT_255_1_388
10
6.1471413
20
61.1591159
40
0.4337313
50
18.2931065
51
35.6770203
0
ARC
8
DEFAULT_255_1_388
10
5.8610253
20
61.0609107
40
0.7362203
50
8.0246996
51
18.5605636
0
ARC
8
DEFAULT_255_1_388
10
5.3926609
20
60.9917432
40
1.2096583
50
1.127539
51
8.1718423
0
ARC
8
DEFAULT_255_1_388
10
5.0277742
20
60.9774374
40
1.5747719
50
0.5432713
51
1.38669
0
ARC
8
DEFAULT_255_1_388
10
5.2335121
20
61.0081163
40
1.2018103
50
359.8092569
51
4.9408001
0
ARC
8
DEFAULT_255_1_388
10
5.7071702
20
61.05039
40
0.7262727
50
4.8364937
51
12.2906017
0
ARC
8
DEFAULT_255_1_388
10
6.0171167
20
61.1194485
40
0.4087324
50
12.0806994
51
23.8171225
0
ARC
8
DEFAULT_255_1_388
10
6.1491563
20
61.1753508
40
0.2653719
50
24.2874621
51
31.3934353
0
ARC
8
DEFAULT_255_1_388
10
6.2081999
20
61.2139822
40
0.1948607
50
30.7407708
51
82.4658033
0
ARC
8
DEFAULT_255_1_388
10
6.187966
20
61.1146017
40
0.2961198
50
81.1057101
51
90.2187368
0
ARC
8
DEFAULT_255_1_388
10
6.1839472
20
61.1436421
40
0.2670929
50
89.380395
51
105.6763916
0
ARC
8
DEFAULT_255_1_388
10
6.1633194
20
61.218632
40
0.1893189
50
105.7980655
51
149.7387869
0
ARC
8
DEFAULT_255_1_388
10
6.2830334
20
61.1466719
40
0.3289892
50
149.4208441
51
163.628295
0
ARC
8
DEFAULT_255_1_388
10
6.5182563
20
61.0749345
40
0.5749004
50
163.3764549
51
172.141138
0
ARC
8
DEFAULT_255_1_388
10
6.8895285
20
61.0217582
40
0.9499585
50
172.0258462
51
178.0705453
0
ARC
8
DEFAULT_255_1_388
10
7.2316838
20
61.0055682
40
1.2924734
50
177.8639301
51
179.5036263
0
ARC
8
DEFAULT_255_1_388
10
7.1097856
20
60.7452151
40
1.170534
50
179.7995545
51
185.246089
0
ARC
8
DEFAULT_255_1_388
10
6.6549449
20
60.7021404
40
0.7136613
50
185.1411911
51
193.0082205
0
ARC
8
DEFAULT_255_1_388
10
6.357571
20
60.6318441
40
0.4080987
50
192.7897338
51
205.2507384
0
ARC
8
DEFAULT_255_1_388
10
6.239792
20
60.5792538
40
0.2791522
50
205.8001921
51
211.2545876
0
ARC
8
DEFAULT_255_1_388
10
6.1809459
20
60.5398132
40
0.2084074
50
210.3789935
51
238.4007996
0
ARC
8
DEFAULT_255_1_388
10
6.1787545
20
60.5450786
40
0.2117943
50
239.6521916
51
265.9793852
0
ARC
8
DEFAULT_255_1_388
10
6.1883394
20
60.6207358
40
0.2879689
50
265.1324455
51
270.0603288
0
ARC
8
DEFAULT_255_1_388
10
6.1915771
20
60.5842418
40
0.2514919
50
269.3314378
51
287.2180039
0
ARC
8
DEFAULT_255_1_388
10
6.2070853
20
60.5276291
40
0.1928357
50
287.7957942
51
329.0808983
0
ARC
8
DEFAULT_255_1_388
10
6.099361
20
60.5948651
40
0.319808
50
328.6635261
51
343.3325043
0
ARC
8
DEFAULT_255_1_388
10
5.8549069
20
60.6710195
40
0.5758408
50
343.0498092
51
351.9392499
0
ARC
8
DEFAULT_255_1_388
10
5.4648391
20
60.7285205
40
0.9701202
50
351.8071632
51
357.7957897
0
ARC
8
DEFAULT_255_1_388
10
5.1013868
20
60.7473724
40
1.3340376
50
357.5870923
51
359.2682493
0
LINE
8
DEFAULT_255_1_388
10
23.1190856
20
68.929869
11
23.1190856
21
68.7130135
0
LINE
8
DEFAULT_255_1_388
10
22.2887099
20
68.6904244
11
22.2887099
21
68.9136048
0
LINE
8
DEFAULT_255_1_388
10
22.9519262
20
68.6678353
11
22.9519262
21
68.9416153
0
LINE
8
DEFAULT_255_1_388
10
22.4558693
20
68.9542652
11
22.4558693
21
68.6868102
0
ARC
8
DEFAULT_255_1_388
10
21.741319
20
68.7075118
40
1.3777776
50
353.8440855
51
0.2287917
0
ARC
8
DEFAULT_255_1_388
10
22.2632208
20
68.6492414
40
0.852639
50
344.4934746
51
353.9763743
0
ARC
8
DEFAULT_255_1_388
10
22.5999015
20
68.5535191
40
0.5026273
50
329.2803599
51
344.7473406
0
ARC
8
DEFAULT_255_1_388
10
22.7114511
20
68.4923038
40
0.3754848
50
324.9361395
51
328.6153007
0
ARC
8
DEFAULT_255_1_388
10
22.7540161
20
68.4625586
40
0.3235566
50
280.5801797
51
324.9173226
0
ARC
8
DEFAULT_255_1_388
10
22.7088789
20
68.6505236
40
0.5167077
50
269.5979457
51
281.6732777
0
ARC
8
DEFAULT_255_1_388
10
22.7007693
20
68.6370113
40
0.5032026
50
256.6228565
51
270.5105488
0
ARC
8
DEFAULT_255_1_388
10
22.6555435
20
68.4628345
40
0.3233092
50
215.8618351
51
257.2787793
0
ARC
8
DEFAULT_255_1_388
10
22.7704142
20
68.5399106
40
0.4615831
50
197.9695203
51
215.2622745
0
ARC
8
DEFAULT_255_1_388
10
23.0499818
20
68.6342641
40
0.7566307
50
187.8816486
51
198.2346584
0
ARC
8
DEFAULT_255_1_388
10
23.4953056
20
68.6985453
40
1.2065653
50
180.8977266
51
188.0054894
0
ARC
8
DEFAULT_255_1_388
10
23.800327
20
68.71004
40
1.5117443
50
180.7434591
51
181.152202
0
ARC
8
DEFAULT_255_1_388
10
23.6328266
20
68.9190371
40
1.3441277
50
173.7674302
51
180.2315596
0
ARC
8
DEFAULT_255_1_388
10
23.1246135
20
68.9764779
40
0.8326847
50
164.3058537
51
173.9000553
0
ARC
8
DEFAULT_255_1_388
10
22.7970135
20
69.0708652
40
0.4917711
50
148.7922028
51
164.5682288
0
ARC
8
DEFAULT_255_1_388
10
22.6900872
20
69.1305457
40
0.3694204
50
144.5883979
51
148.1161588
0
ARC
8
DEFAULT_255_1_388
10
22.6513618
20
69.1575667
40
0.322202
50
101.6440149
51
144.5142619
0
ARC
8
DEFAULT_255_1_388
10
22.699181
20
68.9675337
40
0.5180451
50
89.528284
51
102.5820197
0
ARC
8
DEFAULT_255_1_388
10
22.7080802
20
68.9631376
40
0.5224441
50
77.0437914
51
90.508231
0
ARC
8
DEFAULT_255_1_388
10
22.7533055
20
69.1479272
40
0.3322297
50
48.2777708
51
77.4996087
0
ARC
8
DEFAULT_255_1_388
10
22.7614795
20
69.1624557
40
0.315966
50
36.3141586
51
47.6307332
0
ARC
8
DEFAULT_255_1_388
10
22.6637518
20
69.0966159
40
0.4337313
50
18.2931065
51
35.6770203
0
ARC
8
DEFAULT_255_1_388
10
22.3776358
20
68.9984107
40
0.7362203
50
8.0246996
51
18.5605636
0
ARC
8
DEFAULT_255_1_388
10
21.9092714
20
68.9292432
40
1.2096583
50
1.127539
51
8.1718423
0
ARC
8
DEFAULT_255_1_388
10
21.5443847
20
68.9149374
40
1.5747719
50
0.5432713
51
1.38669
0
ARC
8
DEFAULT_255_1_388
10
21.7501226
20
68.9456163
40
1.2018103
50
359.8092569
51
4.9408001
0
ARC
8
DEFAULT_255_1_388
10
22.2237807
20
68.98789
40
0.7262727
50
4.8364937
51
12.2906017
0
ARC
8
DEFAULT_255_1_388
10
22.5337272
20
69.0569485
40
0.4087324
50
12.0806994
51
23.8171225
0
ARC
8
DEFAULT_255_1_388
10
22.6657668
20
69.1128508
40
0.2653719
50
24.2874621
51
31.3934353
0
ARC
8
DEFAULT_255_1_388
10
22.7248104
20
69.1514822
40
0.1948607
50
30.7407708
51
82.4658033
0
ARC
8
DEFAULT_255_1_388
10
22.7045765
20
69.0521017
40
0.2961198
50
81.1057101
51
90.2187368
0
ARC
8
DEFAULT_255_1_388
10
22.7005577
20
69.0811421
40
0.2670929
50
89.380395
51
105.6763916
0
ARC
8
DEFAULT_255_1_388
10
22.6799299
20
69.156132
40
0.1893189
50
105.7980655
51
149.7387869
0
ARC
8
DEFAULT_255_1_388
10
22.7996439
20
69.0841719
40
0.3289892
50
149.4208441
51
163.628295
0
ARC
8
DEFAULT_255_1_388
10
23.0348668
20
69.0124345
40
0.5749004
50
163.3764549
51
172.141138
0
ARC
8
DEFAULT_255_1_388
10
23.406139
20
68.9592582
40
0.9499585
50
172.0258462
51
178.0705453
0
ARC
8
DEFAULT_255_1_388
10
23.7482943
20
68.9430682
40
1.2924734
50
177.8639301
51
179.5036263
0
ARC
8
DEFAULT_255_1_388
10
23.6263961
20
68.6827151
40
1.170534
50
179.7995545
51
185.246089
0
ARC
8
DEFAULT_255_1_388
10
23.1715554
20
68.6396404
40
0.7136613
50
185.1411911
51
193.0082205
0
ARC
8
DEFAULT_255_1_388
10
22.8741815
20
68.5693441
40
0.4080987
50
192.7897338
51
205.2507384
0
ARC
8
DEFAULT_255_1_388
10
22.7564025
20
68.5167538
40
0.2791522
50
205.8001921
51
211.2545876
0
ARC
8
DEFAULT_255_1_388
10
22.6975564
20
68.4773132
40
0.2084074
50
210.3789935
51
238.4007996
0
ARC
8
DEFAULT_255_1_388
10
22.695365
20
68.4825786
40
0.2117943
50
239.6521916
51
265.9793852
0
ARC
8
DEFAULT_255_1_388
10
22.7049499
20
68.5582358
40
0.2879689
50
265.1324455
51
270.0603288
0
ARC
8
DEFAULT_255_1_388
10
22.7081876
20
68.5217418
40
0.2514919
50
269.3314378
51
287.2180039
0
ARC
8
DEFAULT_255_1_388
10
22.7236958
20
68.4651291
40
0.1928357
50
287.7957942
51
329.0808983
0
ARC
8
DEFAULT_255_1_388
10
22.6159715
20
68.5323651
40
0.319808
50
328.6635261
51
343.3325043
0
ARC
8
DEFAULT_255_1_388
10
22.3715174
20
68.6085195
40
0.5758408
50
343.0498092
51
351.9392499
0
ARC
8
DEFAULT_255_1_388
10
21.9814496
20
68.6660205
40
0.9701202
50
351.8071632
51
357.7957897
0
ARC
8
DEFAULT_255_1_388
10
21.6179973
20
68.6848724
40
1.3340376
50
357.5870923
51
359.2682493
0
LINE
8
DEFAULT_255_1_388
10
23.4380439
20
69.4674898
11
23.8121196
21
68.3823089
0
LINE
8
DEFAULT_255_1_388
10
23.8121196
20
68.3823089
11
24.1880024
21
69.4674898
0
LINE
8
DEFAULT_255_1_388
10
24.1880024
20
69.4674898
11
24.3777509
21
69.4674898
0
LINE
8
DEFAULT_255_1_388
10
24.3777509
20
69.4674898
11
23.8898261
21
68.1519
0
LINE
8
DEFAULT_255_1_388
10
23.8898261
20
68.1519
11
23.7362202
21
68.1519
0
LINE
8
DEFAULT_255_1_388
10
23.7362202
20
68.1519
11
23.2491989
21
69.4674898
0
LINE
8
DEFAULT_255_1_388
10
23.2491989
20
69.4674898
11
23.4380439
21
69.4674898
0
LINE
8
DEFAULT_255_1_388
10
21.0131946
20
37.1003553
11
21.0131946
21
37.0172274
0
LINE
8
DEFAULT_255_1_388
10
19.9551206
20
37.0054811
11
19.9551206
21
37.1003553
0
LINE
8
DEFAULT_255_1_388
10
20.8406138
20
37.0045775
11
20.8406138
21
37.1021625
0
LINE
8
DEFAULT_255_1_388
10
20.1277014
20
37.1139088
11
20.1277014
21
37.0172274
0
ARC
8
DEFAULT_255_1_388
10
20.0409684
20
37.0127726
40
0.9722364
50
350.4878118
51
0.2625322
0
ARC
8
DEFAULT_255_1_388
10
20.2989644
20
36.9683994
40
0.7104556
50
336.0277991
51
350.5787241
0
ARC
8
DEFAULT_255_1_388
10
20.4502751
20
36.9000243
40
0.544417
50
319.887443
51
336.1331163
0
ARC
8
DEFAULT_255_1_388
10
20.5180563
20
36.8457733
40
0.4576311
50
302.4806296
51
319.6144102
0
ARC
8
DEFAULT_255_1_388
10
20.5051184
20
36.8707067
40
0.4856183
50
275.8196423
51
302.1885521
0
ARC
8
DEFAULT_255_1_388
10
20.4864046
20
36.9992466
40
0.6154183
50
269.9169897
51
276.339506
0
ARC
8
DEFAULT_255_1_388
10
20.4813646
20
36.922068
40
0.5382553
50
252.5221437
51
270.441579
0
ARC
8
DEFAULT_255_1_388
10
20.4651897
20
36.8614046
40
0.4755426
50
237.5349961
51
252.1858334
0
ARC
8
DEFAULT_255_1_388
10
20.4752273
20
36.874212
40
0.4917393
50
209.0632754
51
237.3492577
0
ARC
8
DEFAULT_255_1_388
10
20.5731599
20
36.9357104
40
0.6072464
50
205.118533
51
209.6465345
0
ARC
8
DEFAULT_255_1_388
10
20.6627601
20
36.9737174
40
0.7045164
50
188.7216633
51
204.8239753
0
ARC
8
DEFAULT_255_1_388
10
20.8874376
20
37.0115387
40
0.9323368
50
180.3722704
51
188.9253909
0
ARC
8
DEFAULT_255_1_388
10
20.8843938
20
37.1048416
40
0.929284
50
169.5253055
51
180.2766048
0
ARC
8
DEFAULT_255_1_388
10
20.6703737
20
37.1442024
40
0.7116745
50
155.8314601
51
169.5088611
0
ARC
8
DEFAULT_255_1_388
10
20.52632
20
37.2110312
40
0.5528904
50
139.6259579
51
156.0379072
0
ARC
8
DEFAULT_255_1_388
10
20.4599733
20
37.2644143
40
0.4677708
50
122.6414784
51
139.3431662
0
ARC
8
DEFAULT_255_1_388
10
20.4712988
20
37.2437787
40
0.4912586
50
93.0224537
51
122.4556091
0
ARC
8
DEFAULT_255_1_388
10
20.4834509
20
37.1351776
40
0.6003837
50
89.9756766
51
93.6340839
0
ARC
8
DEFAULT_255_1_388
10
20.4878107
20
37.1800879
40
0.5554884
50
73.7463329
51
90.4234008
0
ARC
8
DEFAULT_255_1_388
10
20.507558
20
37.2565772
40
0.4765353
50
57.663051
51
73.4516911
0
ARC
8
DEFAULT_255_1_388
10
20.5066618
20
37.2590108
40
0.4749629
50
29.1441355
51
57.4146687
0
ARC
8
DEFAULT_255_1_388
10
20.4014429
20
37.1933046
40
0.5988917
50
24.0985653
51
29.732054
0
ARC
8
DEFAULT_255_1_388
10
20.2852061
20
37.1451154
40
0.7246823
50
8.6654943
51
23.8241215
0
ARC
8
DEFAULT_255_1_388
10
20.0338479
20
37.1041037
40
0.9793537
50
359.7807044
51
8.8218476
0
ARC
8
DEFAULT_255_1_388
10
19.9048184
20
37.1069731
40
0.9358078
50
359.7054632
51
8.0359751
0
ARC
8
DEFAULT_255_1_388
10
20.2423235
20
37.1561252
40
0.5947474
50
7.8926278
51
20.2962188
0
ARC
8
DEFAULT_255_1_388
10
20.4254085
20
37.2236367
40
0.3996117
50
20.3231056
51
36.4990255
0
ARC
8
DEFAULT_255_1_388
10
20.5025383
20
37.2830399
40
0.3022818
50
36.1436715
51
85.6627846
0
ARC
8
DEFAULT_255_1_388
10
20.4842638
20
37.1660881
40
0.4203853
50
84.3845912
51
90.076054
0
ARC
8
DEFAULT_255_1_388
10
20.4794993
20
37.2403416
40
0.346157
50
89.3037228
51
109.9046209
0
ARC
8
DEFAULT_255_1_388
10
20.4690826
20
37.2833379
40
0.3022217
50
110.8229774
51
143.917961
0
ARC
8
DEFAULT_255_1_388
10
20.5741185
20
37.2031455
40
0.434348
50
143.5289166
51
163.2980252
0
ARC
8
DEFAULT_255_1_388
10
20.7887472
20
37.1356685
40
0.659321
50
163.0418884
51
174.3139873
0
ARC
8
DEFAULT_255_1_388
10
21.0592437
20
37.1044378
40
0.9315905
50
174.050934
51
179.4174954
0
ARC
8
DEFAULT_255_1_388
10
21.0024381
20
37.0125382
40
0.8747493
50
179.6928582
51
188.7908948
0
ARC
8
DEFAULT_255_1_388
10
20.7028181
20
36.9646086
40
0.5713262
50
188.6328449
51
202.5630732
0
ARC
8
DEFAULT_255_1_388
10
20.5617018
20
36.9079142
40
0.4192612
50
202.8078931
51
216.1195888
0
ARC
8
DEFAULT_255_1_388
10
20.4706535
20
36.8346479
40
0.3025752
50
215.0755613
51
264.6379773
0
ARC
8
DEFAULT_255_1_388
10
20.4849372
20
36.9281376
40
0.3970284
50
263.8464302
51
270.0830805
0
ARC
8
DEFAULT_255_1_388
10
20.4895917
20
36.8990808
40
0.3679937
50
269.3649295
51
287.5149684
0
ARC
8
DEFAULT_255_1_388
10
20.5096358
20
36.8262714
40
0.2925408
50
288.0629019
51
323.8115617
0
ARC
8
DEFAULT_255_1_388
10
20.4116334
20
36.8993754
40
0.4148018
50
323.6546541
51
342.6591359
0
ARC
8
DEFAULT_255_1_388
10
20.1830992
20
36.973728
40
0.6551163
50
342.4092446
51
353.6451501
0
ARC
8
DEFAULT_255_1_388
10
19.8645785
20
37.0133565
40
0.9760748
50
353.4027553
51
359.4846611
0
LINE
8
DEFAULT_255_1_388
10
22.0251868
20
37.7174898
11
22.1995747
21
37.7174898
0
LINE
8
DEFAULT_255_1_388
10
22.1995747
20
37.7174898
11
22.1995747
21
36.822961
0
LINE
8
DEFAULT_255_1_388
10
21.7676709
20
36.3856358
11
21.7215891
21
36.3838287
0
LINE
8
DEFAULT_255_1_388
10
21.2472178
20
36.8211539
11
21.2472178
21
37.7174898
0
LINE
8
DEFAULT_255_1_388
10
21.2472178
20
37.7174898
11
21.418895
21
37.7174898
0
LINE
8
DEFAULT_255_1_388
10
21.418895
20
37.7174898
11
21.418895
21
36.8265753
0
LINE
8
DEFAULT_255_1_388
10
22.0251868
20
36.8256717
11
22.0251868
21
37.7174898
0
ARC
8
DEFAULT_255_1_388
10
21.7098546
20
36.820727
40
0.4897252
50
343.0897723
51
0.2613727
0
ARC
8
DEFAULT_255_1_388
10
21.8030517
20
36.794727
40
0.3930016
50
315.3344451
51
342.7642569
0
ARC
8
DEFAULT_255_1_388
10
21.7779012
20
36.8208085
40
0.4292244
50
284.6605441
51
315.2183439
0
ARC
8
DEFAULT_255_1_388
10
21.7266792
20
36.9947508
40
0.6104926
50
273.8500371
51
285.1796441
0
ARC
8
DEFAULT_255_1_388
10
21.7167857
20
37.0331762
40
0.6493653
50
257.6315393
51
270.4238259
0
ARC
8
DEFAULT_255_1_388
10
21.668994
20
36.8282915
40
0.4390079
50
230.6086859
51
257.9965362
0
ARC
8
DEFAULT_255_1_388
10
21.6543998
20
36.8053643
40
0.4120404
50
227.745033
51
230.1538266
0
ARC
8
DEFAULT_255_1_388
10
21.6390528
20
36.7869253
40
0.3880742
50
189.2524335
51
227.5915299
0
ARC
8
DEFAULT_255_1_388
10
21.8102399
20
36.8237735
40
0.5630282
50
180.2665782
51
190.1525221
0
ARC
8
DEFAULT_255_1_388
10
21.8352127
20
36.8234254
40
0.4163296
50
179.566507
51
191.9954402
0
ARC
8
DEFAULT_255_1_388
10
21.6970816
20
36.7926151
40
0.274815
50
191.6974619
51
215.1403758
0
ARC
8
DEFAULT_255_1_388
10
21.6703208
20
36.7766689
40
0.2437647
50
215.6958251
51
224.8509274
0
ARC
8
DEFAULT_255_1_388
10
21.6765684
20
36.7856016
40
0.2545012
50
225.2846515
51
255.0110023
0
ARC
8
DEFAULT_255_1_388
10
21.713013
20
36.9109017
40
0.384974
50
254.5945979
51
267.9129427
0
ARC
8
DEFAULT_255_1_388
10
21.7213823
20
37.0326444
40
0.506956
50
267.4687563
51
270.0233681
0
ARC
8
DEFAULT_255_1_388
10
21.7247819
20
36.9666288
40
0.440952
50
269.5851384
51
281.1845308
0
ARC
8
DEFAULT_255_1_388
10
21.7561423
20
36.8144469
40
0.2855802
50
280.9345159
51
300.9740496
0
ARC
8
DEFAULT_255_1_388
10
21.7800603
20
36.7704128
40
0.2355257
50
301.4982546
51
315.1468616
0
ARC
8
DEFAULT_255_1_388
10
21.7638099
20
36.7837488
40
0.2564594
50
315.5952932
51
345.6679188
0
ARC
8
DEFAULT_255_1_388
10
21.6378656
20
36.8188235
40
0.3871766
50
345.2525685
51
358.6303941
0
ARC
8
DEFAULT_255_1_388
10
21.5235047
20
36.8255695
40
0.5016822
50
358.1723541
51
0.0116795
0
LINE
8
DEFAULT_255_1_388
10
23.3823406
20
37.7174898
11
23.3823406
21
37.5747267
0
LINE
8
DEFAULT_255_1_388
10
23.3823406
20
37.5747267
11
22.9594724
21
37.5747267
0
LINE
8
DEFAULT_255_1_388
10
22.9594724
20
37.5747267
11
22.9594724
21
36.4019
0
LINE
8
DEFAULT_255_1_388
10
22.9594724
20
36.4019
11
22.7868916
21
36.4019
0
LINE
8
DEFAULT_255_1_388
10
22.7868916
20
36.4019
11
22.7868916
21
37.5747267
0
LINE
8
DEFAULT_255_1_388
10
22.7868916
20
37.5747267
11
22.364927
21
37.5747267
0
LINE
8
DEFAULT_255_1_388
10
22.364927
20
37.5747267
11
22.364927
21
37.7174898
0
LINE
8
DEFAULT_255_1_388
10
22.364927
20
37.7174898
11
23.3823406
21
37.7174898
0
LINE
8
DEFAULT_255_1_388
10
23.7771982
20
37.0045775
11
23.7771982
21
37.1410157
0
LINE
8
DEFAULT_255_1_388
10
23.7771982
20
37.1410157
11
23.9027937
21
37.1410157
0
LINE
8
DEFAULT_255_1_388
10
23.6886489
20
37.3723282
11
23.5214895
21
37.3723282
0
LINE
8
DEFAULT_255_1_388
10
23.5097432
20
36.7488688
11
23.6778062
21
36.7488688
0
LINE
8
DEFAULT_255_1_388
10
23.9027937
20
37.0045775
11
23.7771982
21
37.0045775
0
ARC
8
DEFAULT_255_1_388
10
23.8995164
20
37.5226922
40
0.3816905
50
270.491971
51
281.8953028
0
ARC
8
DEFAULT_255_1_388
10
23.926659
20
37.3987199
40
0.2547877
50
281.6690378
51
301.2943765
0
ARC
8
DEFAULT_255_1_388
10
23.9458042
20
37.3636926
40
0.2149197
50
301.7834992
51
311.754567
0
ARC
8
DEFAULT_255_1_388
10
23.9561083
20
37.352265
40
0.1995326
50
311.7325027
51
354.2803031
0
ARC
8
DEFAULT_255_1_388
10
23.8743499
20
37.366328
40
0.2823461
50
353.0941646
51
0.1174696
0
ARC
8
DEFAULT_255_1_388
10
23.8225057
20
37.3716874
40
0.3342238
50
359.1804452
51
15.0452323
0
ARC
8
DEFAULT_255_1_388
10
23.9739115
20
37.4158546
40
0.1765747
50
13.957816
51
77.6713812
0
ARC
8
DEFAULT_255_1_388
10
23.9304351
20
37.2600464
40
0.3381982
50
76.111571
51
90.7028736
0
ARC
8
DEFAULT_255_1_388
10
23.9237763
20
37.290825
40
0.3074046
50
89.5321574
51
103.5319393
0
ARC
8
DEFAULT_255_1_388
10
23.9012147
20
37.3807443
40
0.2147041
50
103.2930114
51
133.5619756
0
ARC
8
DEFAULT_255_1_388
10
23.8962088
20
37.3874351
40
0.2064084
50
133.8349761
51
173.5343225
0
ARC
8
DEFAULT_255_1_388
10
23.9775746
20
37.3730144
40
0.2889266
50
172.5097183
51
180.1360699
0
ARC
8
DEFAULT_255_1_388
10
23.870551
20
37.376888
40
0.3490913
50
155.3483706
51
180.7484035
0
ARC
8
DEFAULT_255_1_388
10
23.8650486
20
37.3736519
40
0.3454798
50
131.5745177
51
154.4799474
0
ARC
8
DEFAULT_255_1_388
10
23.9002768
20
37.3380422
40
0.3955058
50
96.9874487
51
131.9690874
0
ARC
8
DEFAULT_255_1_388
10
23.9249661
20
37.1979407
40
0.537622
50
89.8592909
51
97.7827481
0
ARC
8
DEFAULT_255_1_388
10
23.930377
20
37.168436
40
0.5671399
50
78.3654493
51
90.4132586
0
ARC
8
DEFAULT_255_1_388
10
23.9706411
20
37.3550918
40
0.3762034
50
56.6229818
51
78.6387103
0
ARC
8
DEFAULT_255_1_388
10
23.994824
20
37.3973846
40
0.3275964
50
47.0254604
51
56.085558
0
ARC
8
DEFAULT_255_1_388
10
23.9970491
20
37.4018189
40
0.3228382
50
10.9207523
51
46.777927
0
ARC
8
DEFAULT_255_1_388
10
23.8436085
20
37.3663401
40
0.4802559
50
359.6364235
51
11.6087615
0
ARC
8
DEFAULT_255_1_388
10
24.0500251
20
37.3646404
40
0.273833
50
332.3549969
51
359.7179765
0
ARC
8
DEFAULT_255_1_388
10
23.9768651
20
37.3993285
40
0.3547505
50
325.2332381
51
332.8746682
0
ARC
8
DEFAULT_255_1_388
10
23.9940234
20
37.3873763
40
0.3338396
50
292.9803892
51
325.2391113
0
ARC
8
DEFAULT_255_1_388
10
23.962943
20
37.4478679
40
0.4016959
50
292.542178
51
293.6931461
0
ARC
8
DEFAULT_255_1_388
10
24.0073002
20
36.7213036
40
0.372079
50
57.643292
51
72.8626085
0
ARC
8
DEFAULT_255_1_388
10
24.0471836
20
36.7859273
40
0.2961455
50
36.7246661
51
57.4701329
0
ARC
8
DEFAULT_255_1_388
10
24.0458993
20
36.787347
40
0.2963321
50
8.054535
51
36.3561529
0
ARC
8
DEFAULT_255_1_388
10
23.9488666
20
36.7699073
40
0.3948682
50
359.8316595
51
8.5873361
0
ARC
8
DEFAULT_255_1_388
10
23.906614
20
36.764497
40
0.4371398
50
343.9831631
51
0.557075
0
ARC
8
DEFAULT_255_1_388
10
24.006319
20
36.7371963
40
0.3337749
50
311.6358204
51
343.7652116
0
ARC
8
DEFAULT_255_1_388
10
23.9637443
20
36.7851955
40
0.3979351
50
279.7829743
51
311.625622
0
ARC
8
DEFAULT_255_1_388
10
23.9298579
20
36.9468642
40
0.5630417
50
269.7285092
51
280.3857694
0
ARC
8
DEFAULT_255_1_388
10
23.9228891
20
36.9422241
40
0.5584119
50
256.6827433
51
270.4412869
0
ARC
8
DEFAULT_255_1_388
10
23.8847878
20
36.7864698
40
0.3980715
50
229.4223821
51
256.8554507
0
ARC
8
DEFAULT_255_1_388
10
23.8381431
20
36.7339683
40
0.3278564
50
181.8183354
51
229.6455015
0
ARC
8
DEFAULT_255_1_388
10
23.9551041
20
36.7486825
40
0.4453611
50
179.9760419
51
183.2330638
0
ARC
8
DEFAULT_255_1_388
10
23.9357593
20
36.7463781
40
0.2579652
50
179.4467996
51
196.2871626
0
ARC
8
DEFAULT_255_1_388
10
23.8809047
20
36.7313709
40
0.2011057
50
196.5661293
51
227.7059371
0
ARC
8
DEFAULT_255_1_388
10
23.8993654
20
36.7520155
40
0.2287994
50
227.7653015
51
257.8763321
0
ARC
8
DEFAULT_255_1_388
10
23.9246737
20
36.8580961
40
0.3378385
50
257.4583525
51
270.4267406
0
ARC
8
DEFAULT_255_1_388
10
23.9297987
20
36.890723
40
0.3704652
50
269.5965319
51
280.8788143
0
ARC
8
DEFAULT_255_1_388
10
23.9556215
20
36.7617529
40
0.2389415
50
280.6347277
51
299.8594068
0
ARC
8
DEFAULT_255_1_388
10
23.9770985
20
36.7209736
40
0.19289
50
300.3575552
51
314.5515667
0
ARC
8
DEFAULT_255_1_388
10
23.967766
20
36.7278025
40
0.204312
50
315.0730962
51
345.0429362
0
ARC
8
DEFAULT_255_1_388
10
23.8639168
20
36.7580539
40
0.31246
50
344.598526
51
357.9270698
0
ARC
8
DEFAULT_255_1_388
10
23.7629472
20
36.7649705
40
0.4136265
50
357.4755098
51
0.0224936
0
ARC
8
DEFAULT_255_1_388
10
23.878235
20
36.7677099
40
0.2983498
50
359.5051035
51
13.4236939
0
ARC
8
DEFAULT_255_1_388
10
23.975744
20
36.7926637
40
0.1977186
50
12.9497905
51
48.7550905
0
ARC
8
DEFAULT_255_1_388
10
23.9552362
20
36.7646373
40
0.2323321
50
49.509109
51
72.1832965
0
ARC
8
DEFAULT_255_1_388
10
23.914983
20
36.6451632
40
0.358397
50
71.9008458
51
84.3555134
0
ARC
8
DEFAULT_255_1_388
10
23.8968225
20
36.4919712
40
0.512641
50
84.019632
51
89.3326067
0
LINE
8
DEFAULT_255_1_388
10
21.0131946
20
45.0378553
11
21.0131946
21
44.9547274
0
LINE
8
DEFAULT_255_1_388
10
19.9551206
20
44.9429811
11
19.9551206
21
45.0378553
0
LINE
8
DEFAULT_255_1_388
10
20.8406138
20
44.9420775
11
20.8406138
21
45.0396625
0
LINE
8
DEFAULT_255_1_388
10
20.1277014
20
45.0514088
11
20.1277014
21
44.9547274
0
ARC
8
DEFAULT_255_1_388
10
20.0409684
20
44.9502726
40
0.9722364
50
350.4878118
51
0.2625322
0
ARC
8
DEFAULT_255_1_388
10
20.2989644
20
44.9058994
40
0.7104556
50
336.0277991
51
350.5787241
0
ARC
8
DEFAULT_255_1_388
10
20.4502751
20
44.8375243
40
0.544417
50
319.887443
51
336.1331163
0
ARC
8
DEFAULT_255_1_388
10
20.5180563
20
44.7832733
40
0.4576311
50
302.4806296
51
319.6144102
0
ARC
8
DEFAULT_255_1_388
10
20.5051184
20
44.8082067
40
0.4856183
50
275.8196423
51
302.1885521
0
ARC
8
DEFAULT_255_1_388
10
20.4864046
20
44.9367466
40
0.6154183
50
269.9169897
51
276.339506
0
ARC
8
DEFAULT_255_1_388
10
20.4813646
20
44.859568
40
0.5382553
50
252.5221437
51
270.441579
0
ARC
8
DEFAULT_255_1_388
10
20.4651897
20
44.7989046
40
0.4755426
50
237.5349961
51
252.1858334
0
ARC
8
DEFAULT_255_1_388
10
20.4752273
20
44.811712
40
0.4917393
50
209.0632754
51
237.3492577
0
ARC
8
DEFAULT_255_1_388
10
20.5731599
20
44.8732104
40
0.6072464
50
205.118533
51
209.6465345
0
ARC
8
DEFAULT_255_1_388
10
20.6627601
20
44.9112174
40
0.7045164
50
188.7216633
51
204.8239753
0
ARC
8
DEFAULT_255_1_388
10
20.8874376
20
44.9490387
40
0.9323368
50
180.3722704
51
188.9253909
0
ARC
8
DEFAULT_255_1_388
10
20.8843938
20
45.0423416
40
0.929284
50
169.5253055
51
180.2766048
0
ARC
8
DEFAULT_255_1_388
10
20.6703737
20
45.0817024
40
0.7116745
50
155.8314601
51
169.5088611
0
ARC
8
DEFAULT_255_1_388
10
20.52632
20
45.1485312
40
0.5528904
50
139.6259579
51
156.0379072
0
ARC
8
DEFAULT_255_1_388
10
20.4599733
20
45.2019143
40
0.4677708
50
122.6414784
51
139.3431662
0
ARC
8
DEFAULT_255_1_388
10
20.4712988
20
45.1812787
40
0.4912586
50
93.0224537
51
122.4556091
0
ARC
8
DEFAULT_255_1_388
10
20.4834509
20
45.0726776
40
0.6003837
50
89.9756766
51
93.6340839
0
ARC
8
DEFAULT_255_1_388
10
20.4878107
20
45.1175879
40
0.5554884
50
73.7463329
51
90.4234008
0
ARC
8
DEFAULT_255_1_388
10
20.507558
20
45.1940772
40
0.4765353
50
57.663051
51
73.4516911
0
ARC
8
DEFAULT_255_1_388
10
20.5066618
20
45.1965108
40
0.4749629
50
29.1441355
51
57.4146687
0
ARC
8
DEFAULT_255_1_388
10
20.4014429
20
45.1308046
40
0.5988917
50
24.0985653
51
29.732054
0
ARC
8
DEFAULT_255_1_388
10
20.2852061
20
45.0826154
40
0.7246823
50
8.6654943
51
23.8241215
0
ARC
8
DEFAULT_255_1_388
10
20.0338479
20
45.0416037
40
0.9793537
50
359.7807044
51
8.8218476
0
ARC
8
DEFAULT_255_1_388
10
19.9048184
20
45.0444731
40
0.9358078
50
359.7054632
51
8.0359751
0
ARC
8
DEFAULT_255_1_388
10
20.2423235
20
45.0936252
40
0.5947474
50
7.8926278
51
20.2962188
0
ARC
8
DEFAULT_255_1_388
10
20.4254085
20
45.1611367
40
0.3996117
50
20.3231056
51
36.4990255
0
ARC
8
DEFAULT_255_1_388
10
20.5025383
20
45.2205399
40
0.3022818
50
36.1436715
51
85.6627846
0
ARC
8
DEFAULT_255_1_388
10
20.4842638
20
45.1035881
40
0.4203853
50
84.3845912
51
90.076054
0
ARC
8
DEFAULT_255_1_388
10
20.4794993
20
45.1778416
40
0.346157
50
89.3037228
51
109.9046209
0
ARC
8
DEFAULT_255_1_388
10
20.4690826
20
45.2208379
40
0.3022217
50
110.8229774
51
143.917961
0
ARC
8
DEFAULT_255_1_388
10
20.5741185
20
45.1406455
40
0.434348
50
143.5289166
51
163.2980252
0
ARC
8
DEFAULT_255_1_388
10
20.7887472
20
45.0731685
40
0.659321
50
163.0418884
51
174.3139873
0
ARC
8
DEFAULT_255_1_388
10
21.0592437
20
45.0419378
40
0.9315905
50
174.050934
51
179.4174954
0
ARC
8
DEFAULT_255_1_388
10
21.0024381
20
44.9500382
40
0.8747493
50
179.6928582
51
188.7908948
0
ARC
8
DEFAULT_255_1_388
10
20.7028181
20
44.9021086
40
0.5713262
50
188.6328449
51
202.5630732
0
ARC
8
DEFAULT_255_1_388
10
20.5617018
20
44.8454142
40
0.4192612
50
202.8078931
51
216.1195888
0
ARC
8
DEFAULT_255_1_388
10
20.4706535
20
44.7721479
40
0.3025752
50
215.0755613
51
264.6379773
0
ARC
8
DEFAULT_255_1_388
10
20.4849372
20
44.8656376
40
0.3970284
50
263.8464302
51
270.0830805
0
ARC
8
DEFAULT_255_1_388
10
20.4895917
20
44.8365808
40
0.3679937
50
269.3649295
51
287.5149684
0
ARC
8
DEFAULT_255_1_388
10
20.5096358
20
44.7637714
40
0.2925408
50
288.0629019
51
323.8115617
0
ARC
8
DEFAULT_255_1_388
10
20.4116334
20
44.8368754
40
0.4148018
50
323.6546541
51
342.6591359
0
ARC
8
DEFAULT_255_1_388
10
20.1830992
20
44.911228
40
0.6551163
50
342.4092446
51
353.6451501
0
ARC
8
DEFAULT_255_1_388
10
19.8645785
20
44.9508565
40
0.9760748
50
353.4027553
51
359.4846611
0
LINE
8
DEFAULT_255_1_388
10
22.0251868
20
45.6549898
11
22.1995747
21
45.6549898
0
LINE
8
DEFAULT_255_1_388
10
22.1995747
20
45.6549898
11
22.1995747
21
44.760461
0
LINE
8
DEFAULT_255_1_388
10
21.7676709
20
44.3231358
11
21.7215891
21
44.3213287
0
LINE
8
DEFAULT_255_1_388
10
21.2472178
20
44.7586539
11
21.2472178
21
45.6549898
0
LINE
8
DEFAULT_255_1_388
10
21.2472178
20
45.6549898
11
21.418895
21
45.6549898
0
LINE
8
DEFAULT_255_1_388
10
21.418895
20
45.6549898
11
21.418895
21
44.7640753
0
LINE
8
DEFAULT_255_1_388
10
22.0251868
20
44.7631717
11
22.0251868
21
45.6549898
0
ARC
8
DEFAULT_255_1_388
10
21.7098546
20
44.758227
40
0.4897252
50
343.0897723
51
0.2613727
0
ARC
8
DEFAULT_255_1_388
10
21.8030517
20
44.732227
40
0.3930016
50
315.3344451
51
342.7642569
0
ARC
8
DEFAULT_255_1_388
10
21.7779012
20
44.7583085
40
0.4292244
50
284.6605441
51
315.2183439
0
ARC
8
DEFAULT_255_1_388
10
21.7266792
20
44.9322508
40
0.6104926
50
273.8500371
51
285.1796441
0
ARC
8
DEFAULT_255_1_388
10
21.7167857
20
44.9706762
40
0.6493653
50
257.6315393
51
270.4238259
0
ARC
8
DEFAULT_255_1_388
10
21.668994
20
44.7657915
40
0.4390079
50
230.6086859
51
257.9965362
0
ARC
8
DEFAULT_255_1_388
10
21.6543998
20
44.7428643
40
0.4120404
50
227.745033
51
230.1538266
0
ARC
8
DEFAULT_255_1_388
10
21.6390528
20
44.7244253
40
0.3880742
50
189.2524335
51
227.5915299
0
ARC
8
DEFAULT_255_1_388
10
21.8102399
20
44.7612735
40
0.5630282
50
180.2665782
51
190.1525221
0
ARC
8
DEFAULT_255_1_388
10
21.8352127
20
44.7609254
40
0.4163296
50
179.566507
51
191.9954402
0
ARC
8
DEFAULT_255_1_388
10
21.6970816
20
44.7301151
40
0.274815
50
191.6974619
51
215.1403758
0
ARC
8
DEFAULT_255_1_388
10
21.6703208
20
44.7141689
40
0.2437647
50
215.6958251
51
224.8509274
0
ARC
8
DEFAULT_255_1_388
10
21.6765684
20
44.7231016
40
0.2545012
50
225.2846515
51
255.0110023
0
ARC
8
DEFAULT_255_1_388
10
21.713013
20
44.8484017
40
0.384974
50
254.5945979
51
267.9129427
0
ARC
8
DEFAULT_255_1_388
10
21.7213823
20
44.9701444
40
0.506956
50
267.4687563
51
270.0233681
0
ARC
8
DEFAULT_255_1_388
10
21.7247819
20
44.9041288
40
0.440952
50
269.5851384
51
281.1845308
0
ARC
8
DEFAULT_255_1_388
10
21.7561423
20
44.7519469
40
0.2855802
50
280.9345159
51
300.9740496
0
ARC
8
DEFAULT_255_1_388
10
21.7800603
20
44.7079128
40
0.2355257
50
301.4982546
51
315.1468616
0
ARC
8
DEFAULT_255_1_388
10
21.7638099
20
44.7212488
40
0.2564594
50
315.5952932
51
345.6679188
0
ARC
8
DEFAULT_255_1_388
10
21.6378656
20
44.7563235
40
0.3871766
50
345.2525685
51
358.6303941
0
ARC
8
DEFAULT_255_1_388
10
21.5235047
20
44.7630695
40
0.5016822
50
358.1723541
51
0.0116795
0
LINE
8
DEFAULT_255_1_388
10
23.3823406
20
45.6549898
11
23.3823406
21
45.5122267
0
LINE
8
DEFAULT_255_1_388
10
23.3823406
20
45.5122267
11
22.9594724
21
45.5122267
0
LINE
8
DEFAULT_255_1_388
10
22.9594724
20
45.5122267
11
22.9594724
21
44.3394
0
LINE
8
DEFAULT_255_1_388
10
22.9594724
20
44.3394
11
22.7868916
21
44.3394
0
LINE
8
DEFAULT_255_1_388
10
22.7868916
20
44.3394
11
22.7868916
21
45.5122267
0
LINE
8
DEFAULT_255_1_388
10
22.7868916
20
45.5122267
11
22.364927
21
45.5122267
0
LINE
8
DEFAULT_255_1_388
10
22.364927
20
45.5122267
11
22.364927
21
45.6549898
0
LINE
8
DEFAULT_255_1_388
10
22.364927
20
45.6549898
11
23.3823406
21
45.6549898
0
LINE
8
DEFAULT_255_1_388
10
24.3961399
20
44.4758382
11
24.3961399
21
44.3394
0
LINE
8
DEFAULT_255_1_388
10
24.3961399
20
44.3394
11
23.5341394
21
44.3394
0
LINE
8
DEFAULT_255_1_388
10
23.5341394
20
44.3394
11
23.5341394
21
44.4595741
0
LINE
8
DEFAULT_255_1_388
10
23.5341394
20
44.4595741
11
23.9895359
21
44.9655702
0
LINE
8
DEFAULT_255_1_388
10
23.675999
20
45.2673607
11
23.5088396
21
45.2673607
0
LINE
8
DEFAULT_255_1_388
10
24.0880244
20
44.858046
11
23.7356343
21
44.4758382
0
LINE
8
DEFAULT_255_1_388
10
23.7356343
20
44.4758382
11
24.3961399
21
44.4758382
0
ARC
8
DEFAULT_255_1_388
10
22.4719418
20
46.3075983
40
2.0258655
50
318.5132526
51
320.7829045
0
ARC
8
DEFAULT_255_1_388
10
23.0667375
20
45.8234929
40
1.2589638
50
320.7372878
51
323.9739031
0
ARC
8
DEFAULT_255_1_388
10
23.5076307
20
45.5040554
40
0.7145141
50
323.8962701
51
328.64194
0
ARC
8
DEFAULT_255_1_388
10
23.7378565
20
45.3620545
40
0.4440242
50
328.8294576
51
331.7891185
0
ARC
8
DEFAULT_255_1_388
10
23.8500885
20
45.3041374
40
0.3177517
50
331.4254512
51
352.9365785
0
ARC
8
DEFAULT_255_1_388
10
23.8653885
20
45.300705
40
0.3021496
50
353.2257659
51
0.0166158
0
ARC
8
DEFAULT_255_1_388
10
23.8890645
20
45.3032894
40
0.2784847
50
359.486299
51
15.9343185
0
ARC
8
DEFAULT_255_1_388
10
23.9460912
20
45.3186269
40
0.2194403
50
16.1712913
51
43.5286088
0
ARC
8
DEFAULT_255_1_388
10
23.9547857
20
45.3273191
40
0.2071504
50
43.4417391
51
83.1661095
0
ARC
8
DEFAULT_255_1_388
10
23.9397018
20
45.2444316
40
0.2912888
50
82.160179
51
90.1505708
0
ARC
8
DEFAULT_255_1_388
10
23.9361499
20
45.1840279
40
0.3517025
50
89.5460741
51
102.5418361
0
ARC
8
DEFAULT_255_1_388
10
23.9088219
20
45.2999933
40
0.2325748
50
102.1738499
51
129.206123
0
ARC
8
DEFAULT_255_1_388
10
23.8999673
20
45.3139664
40
0.2161591
50
129.72865
51
135.753947
0
ARC
8
DEFAULT_255_1_388
10
23.9136155
20
45.3030728
40
0.2335433
50
136.1757367
51
166.3673339
0
ARC
8
DEFAULT_255_1_388
10
24.0268843
20
45.2727148
40
0.3507873
50
165.9090694
51
178.8684636
0
ARC
8
DEFAULT_255_1_388
10
24.1244615
20
45.2674263
40
0.4484624
50
178.4391136
51
180.0083808
0
ARC
8
DEFAULT_255_1_388
10
23.9665316
20
45.2718197
40
0.4577138
50
163.2878482
51
180.5581842
0
ARC
8
DEFAULT_255_1_388
10
23.8763357
20
45.2966393
40
0.3641968
50
133.4540601
51
162.947111
0
ARC
8
DEFAULT_255_1_388
10
23.8964239
20
45.2752789
40
0.3935189
50
100.7869829
51
133.4382499
0
ARC
8
DEFAULT_255_1_388
10
23.9355484
20
45.1010399
40
0.5720313
50
89.660664
51
101.3702276
0
ARC
8
DEFAULT_255_1_388
10
23.9430093
20
45.1079263
40
0.5651495
50
78.2172678
51
90.412935
0
ARC
8
DEFAULT_255_1_388
10
23.9829559
20
45.2906511
40
0.378122
50
55.9269121
51
78.4888449
0
ARC
8
DEFAULT_255_1_388
10
24.0050274
20
45.3287187
40
0.3342379
50
47.929771
51
55.4049217
0
ARC
8
DEFAULT_255_1_388
10
24.0164804
20
45.3403618
40
0.3179217
50
4.334829
51
48.0560205
0
ARC
8
DEFAULT_255_1_388
10
23.8932606
20
45.3212487
40
0.442341
50
359.9251713
51
5.5971671
0
ARC
8
DEFAULT_255_1_388
10
23.9414761
20
45.3275728
40
0.3941854
50
337.8914027
51
358.9967534
0
ARC
8
DEFAULT_255_1_388
10
23.6362331
20
45.4453295
40
0.7213271
50
326.9132501
51
338.3508308
0
ARC
8
DEFAULT_255_1_388
10
23.1878443
20
45.7327105
40
1.2538973
50
319.6471833
51
327.0959558
0
ARC
8
DEFAULT_255_1_388
10
22.7565101
20
46.088505
40
1.8129975
50
317.2588228
51
319.9045804
0
LINE
8
DEFAULT_255_1_388
10
21.0210946
20
52.9753553
11
21.0210946
21
52.8922274
0
LINE
8
DEFAULT_255_1_388
10
19.9630206
20
52.8804811
11
19.9630206
21
52.9753553
0
LINE
8
DEFAULT_255_1_388
10
20.8485138
20
52.8795775
11
20.8485138
21
52.9771625
0
LINE
8
DEFAULT_255_1_388
10
20.1356014
20
52.9889088
11
20.1356014
21
52.8922274
0
ARC
8
DEFAULT_255_1_388
10
20.0488684
20
52.8877726
40
0.9722364
50
350.4878118
51
0.2625322
0
ARC
8
DEFAULT_255_1_388
10
20.3068644
20
52.8433994
40
0.7104556
50
336.0277991
51
350.5787241
0
ARC
8
DEFAULT_255_1_388
10
20.4581751
20
52.7750243
40
0.544417
50
319.887443
51
336.1331163
0
ARC
8
DEFAULT_255_1_388
10
20.5259563
20
52.7207733
40
0.4576311
50
302.4806296
51
319.6144102
0
ARC
8
DEFAULT_255_1_388
10
20.5130184
20
52.7457067
40
0.4856183
50
275.8196423
51
302.1885521
0
ARC
8
DEFAULT_255_1_388
10
20.4943046
20
52.8742466
40
0.6154183
50
269.9169897
51
276.339506
0
ARC
8
DEFAULT_255_1_388
10
20.4892646
20
52.797068
40
0.5382553
50
252.5221437
51
270.441579
0
ARC
8
DEFAULT_255_1_388
10
20.4730897
20
52.7364046
40
0.4755426
50
237.5349961
51
252.1858334
0
ARC
8
DEFAULT_255_1_388
10
20.4831273
20
52.749212
40
0.4917393
50
209.0632754
51
237.3492577
0
ARC
8
DEFAULT_255_1_388
10
20.5810599
20
52.8107104
40
0.6072464
50
205.118533
51
209.6465345
0
ARC
8
DEFAULT_255_1_388
10
20.6706601
20
52.8487174
40
0.7045164
50
188.7216633
51
204.8239753
0
ARC
8
DEFAULT_255_1_388
10
20.8953376
20
52.8865387
40
0.9323368
50
180.3722704
51
188.9253909
0
ARC
8
DEFAULT_255_1_388
10
20.8922938
20
52.9798416
40
0.929284
50
169.5253055
51
180.2766048
0
ARC
8
DEFAULT_255_1_388
10
20.6782737
20
53.0192024
40
0.7116745
50
155.8314601
51
169.5088611
0
ARC
8
DEFAULT_255_1_388
10
20.53422
20
53.0860312
40
0.5528904
50
139.6259579
51
156.0379072
0
ARC
8
DEFAULT_255_1_388
10
20.4678733
20
53.1394143
40
0.4677708
50
122.6414784
51
139.3431662
0
ARC
8
DEFAULT_255_1_388
10
20.4791988
20
53.1187787
40
0.4912586
50
93.0224537
51
122.4556091
0
ARC
8
DEFAULT_255_1_388
10
20.4913509
20
53.0101776
40
0.6003837
50
89.9756766
51
93.6340839
0
ARC
8
DEFAULT_255_1_388
10
20.4957107
20
53.0550879
40
0.5554884
50
73.7463329
51
90.4234008
0
ARC
8
DEFAULT_255_1_388
10
20.515458
20
53.1315772
40
0.4765353
50
57.663051
51
73.4516911
0
ARC
8
DEFAULT_255_1_388
10
20.5145618
20
53.1340108
40
0.4749629
50
29.1441355
51
57.4146687
0
ARC
8
DEFAULT_255_1_388
10
20.4093429
20
53.0683046
40
0.5988917
50
24.0985653
51
29.732054
0
ARC
8
DEFAULT_255_1_388
10
20.2931061
20
53.0201154
40
0.7246823
50
8.6654943
51
23.8241215
0
ARC
8
DEFAULT_255_1_388
10
20.0417479
20
52.9791037
40
0.9793537
50
359.7807044
51
8.8218476
0
ARC
8
DEFAULT_255_1_388
10
19.9127184
20
52.9819731
40
0.9358078
50
359.7054632
51
8.0359751
0
ARC
8
DEFAULT_255_1_388
10
20.2502235
20
53.0311252
40
0.5947474
50
7.8926278
51
20.2962188
0
ARC
8
DEFAULT_255_1_388
10
20.4333085
20
53.0986367
40
0.3996117
50
20.3231056
51
36.4990255
0
ARC
8
DEFAULT_255_1_388
10
20.5104383
20
53.1580399
40
0.3022818
50
36.1436715
51
85.6627846
0
ARC
8
DEFAULT_255_1_388
10
20.4921638
20
53.0410881
40
0.4203853
50
84.3845912
51
90.076054
0
ARC
8
DEFAULT_255_1_388
10
20.4873993
20
53.1153416
40
0.346157
50
89.3037228
51
109.9046209
0
ARC
8
DEFAULT_255_1_388
10
20.4769826
20
53.1583379
40
0.3022217
50
110.8229774
51
143.917961
0
ARC
8
DEFAULT_255_1_388
10
20.5820185
20
53.0781455
40
0.434348
50
143.5289166
51
163.2980252
0
ARC
8
DEFAULT_255_1_388
10
20.7966472
20
53.0106685
40
0.659321
50
163.0418884
51
174.3139873
0
ARC
8
DEFAULT_255_1_388
10
21.0671437
20
52.9794378
40
0.9315905
50
174.050934
51
179.4174954
0
ARC
8
DEFAULT_255_1_388
10
21.0103381
20
52.8875382
40
0.8747493
50
179.6928582
51
188.7908948
0
ARC
8
DEFAULT_255_1_388
10
20.7107181
20
52.8396086
40
0.5713262
50
188.6328449
51
202.5630732
0
ARC
8
DEFAULT_255_1_388
10
20.5696018
20
52.7829142
40
0.4192612
50
202.8078931
51
216.1195888
0
ARC
8
DEFAULT_255_1_388
10
20.4785535
20
52.7096479
40
0.3025752
50
215.0755613
51
264.6379773
0
ARC
8
DEFAULT_255_1_388
10
20.4928372
20
52.8031376
40
0.3970284
50
263.8464302
51
270.0830805
0
ARC
8
DEFAULT_255_1_388
10
20.4974917
20
52.7740808
40
0.3679937
50
269.3649295
51
287.5149684
0
ARC
8
DEFAULT_255_1_388
10
20.5175358
20
52.7012714
40
0.2925408
50
288.0629019
51
323.8115617
0
ARC
8
DEFAULT_255_1_388
10
20.4195334
20
52.7743754
40
0.4148018
50
323.6546541
51
342.6591359
0
ARC
8
DEFAULT_255_1_388
10
20.1909992
20
52.848728
40
0.6551163
50
342.4092446
51
353.6451501
0
ARC
8
DEFAULT_255_1_388
10
19.8724785
20
52.8883565
40
0.9760748
50
353.4027553
51
359.4846611
0
LINE
8
DEFAULT_255_1_388
10
22.0330868
20
53.5924898
11
22.2074747
21
53.5924898
0
LINE
8
DEFAULT_255_1_388
10
22.2074747
20
53.5924898
11
22.2074747
21
52.697961
0
LINE
8
DEFAULT_255_1_388
10
21.7755709
20
52.2606358
11
21.7294891
21
52.2588287
0
LINE
8
DEFAULT_255_1_388
10
21.2551178
20
52.6961539
11
21.2551178
21
53.5924898
0
LINE
8
DEFAULT_255_1_388
10
21.2551178
20
53.5924898
11
21.426795
21
53.5924898
0
LINE
8
DEFAULT_255_1_388
10
21.426795
20
53.5924898
11
21.426795
21
52.7015753
0
LINE
8
DEFAULT_255_1_388
10
22.0330868
20
52.7006717
11
22.0330868
21
53.5924898
0
ARC
8
DEFAULT_255_1_388
10
21.7177546
20
52.695727
40
0.4897252
50
343.0897723
51
0.2613727
0
ARC
8
DEFAULT_255_1_388
10
21.8109517
20
52.669727
40
0.3930016
50
315.3344451
51
342.7642569
0
ARC
8
DEFAULT_255_1_388
10
21.7858012
20
52.6958085
40
0.4292244
50
284.6605441
51
315.2183439
0
ARC
8
DEFAULT_255_1_388
10
21.7345792
20
52.8697508
40
0.6104926
50
273.8500371
51
285.1796441
0
ARC
8
DEFAULT_255_1_388
10
21.7246857
20
52.9081762
40
0.6493653
50
257.6315393
51
270.4238259
0
ARC
8
DEFAULT_255_1_388
10
21.676894
20
52.7032915
40
0.4390079
50
230.6086859
51
257.9965362
0
ARC
8
DEFAULT_255_1_388
10
21.6622998
20
52.6803643
40
0.4120404
50
227.745033
51
230.1538266
0
ARC
8
DEFAULT_255_1_388
10
21.6469528
20
52.6619253
40
0.3880742
50
189.2524335
51
227.5915299
0
ARC
8
DEFAULT_255_1_388
10
21.8181399
20
52.6987735
40
0.5630282
50
180.2665782
51
190.1525221
0
ARC
8
DEFAULT_255_1_388
10
21.8431127
20
52.6984254
40
0.4163296
50
179.566507
51
191.9954402
0
ARC
8
DEFAULT_255_1_388
10
21.7049816
20
52.6676151
40
0.274815
50
191.6974619
51
215.1403758
0
ARC
8
DEFAULT_255_1_388
10
21.6782208
20
52.6516689
40
0.2437647
50
215.6958251
51
224.8509274
0
ARC
8
DEFAULT_255_1_388
10
21.6844684
20
52.6606016
40
0.2545012
50
225.2846515
51
255.0110023
0
ARC
8
DEFAULT_255_1_388
10
21.720913
20
52.7859017
40
0.384974
50
254.5945979
51
267.9129427
0
ARC
8
DEFAULT_255_1_388
10
21.7292823
20
52.9076444
40
0.506956
50
267.4687563
51
270.0233681
0
ARC
8
DEFAULT_255_1_388
10
21.7326819
20
52.8416288
40
0.440952
50
269.5851384
51
281.1845308
0
ARC
8
DEFAULT_255_1_388
10
21.7640423
20
52.6894469
40
0.2855802
50
280.9345159
51
300.9740496
0
ARC
8
DEFAULT_255_1_388
10
21.7879603
20
52.6454128
40
0.2355257
50
301.4982546
51
315.1468616
0
ARC
8
DEFAULT_255_1_388
10
21.7717099
20
52.6587488
40
0.2564594
50
315.5952932
51
345.6679188
0
ARC
8
DEFAULT_255_1_388
10
21.6457656
20
52.6938235
40
0.3871766
50
345.2525685
51
358.6303941
0
ARC
8
DEFAULT_255_1_388
10
21.5314047
20
52.7005695
40
0.5016822
50
358.1723541
51
0.0116795
0
LINE
8
DEFAULT_255_1_388
10
23.3902406
20
53.5924898
11
23.3902406
21
53.4497267
0
LINE
8
DEFAULT_255_1_388
10
23.3902406
20
53.4497267
11
22.9673724
21
53.4497267
0
LINE
8
DEFAULT_255_1_388
10
22.9673724
20
53.4497267
11
22.9673724
21
52.2769
0
LINE
8
DEFAULT_255_1_388
10
22.9673724
20
52.2769
11
22.7947916
21
52.2769
0
LINE
8
DEFAULT_255_1_388
10
22.7947916
20
52.2769
11
22.7947916
21
53.4497267
0
LINE
8
DEFAULT_255_1_388
10
22.7947916
20
53.4497267
11
22.372827
21
53.4497267
0
LINE
8
DEFAULT_255_1_388
10
22.372827
20
53.4497267
11
22.372827
21
53.5924898
0
LINE
8
DEFAULT_255_1_388
10
22.372827
20
53.5924898
11
23.3902406
21
53.5924898
0
LINE
8
DEFAULT_255_1_388
10
24.0914066
20
53.5988148
11
24.0914066
21
52.2769
0
LINE
8
DEFAULT_255_1_388
10
24.0914066
20
52.2769
11
23.9233436
21
52.2769
0
LINE
8
DEFAULT_255_1_388
10
23.9233436
20
52.2769
11
23.9233436
21
53.390995
0
LINE
8
DEFAULT_255_1_388
10
23.9233436
20
53.390995
11
23.5863141
21
53.2672066
0
LINE
8
DEFAULT_255_1_388
10
23.5863141
20
53.2672066
11
23.5863141
21
53.4190055
0
LINE
8
DEFAULT_255_1_388
10
23.5863141
20
53.4190055
11
24.0652032
21
53.5988148
0
LINE
8
DEFAULT_255_1_388
10
24.0652032
20
53.5988148
11
24.0914066
21
53.5988148
0
LINE
8
DEFAULT_255_1_388
10
21.0131946
20
60.9128553
11
21.0131946
21
60.8297274
0
LINE
8
DEFAULT_255_1_388
10
19.9551206
20
60.8179811
11
19.9551206
21
60.9128553
0
LINE
8
DEFAULT_255_1_388
10
20.8406138
20
60.8170775
11
20.8406138
21
60.9146625
0
LINE
8
DEFAULT_255_1_388
10
20.1277014
20
60.9264088
11
20.1277014
21
60.8297274
0
ARC
8
DEFAULT_255_1_388
10
20.0409684
20
60.8252726
40
0.9722364
50
350.4878118
51
0.2625322
0
ARC
8
DEFAULT_255_1_388
10
20.2989644
20
60.7808994
40
0.7104556
50
336.0277991
51
350.5787241
0
ARC
8
DEFAULT_255_1_388
10
20.4502751
20
60.7125243
40
0.544417
50
319.887443
51
336.1331163
0
ARC
8
DEFAULT_255_1_388
10
20.5180563
20
60.6582733
40
0.4576311
50
302.4806296
51
319.6144102
0
ARC
8
DEFAULT_255_1_388
10
20.5051184
20
60.6832067
40
0.4856183
50
275.8196423
51
302.1885521
0
ARC
8
DEFAULT_255_1_388
10
20.4864046
20
60.8117466
40
0.6154183
50
269.9169897
51
276.339506
0
ARC
8
DEFAULT_255_1_388
10
20.4813646
20
60.734568
40
0.5382553
50
252.5221437
51
270.441579
0
ARC
8
DEFAULT_255_1_388
10
20.4651897
20
60.6739046
40
0.4755426
50
237.5349961
51
252.1858334
0
ARC
8
DEFAULT_255_1_388
10
20.4752273
20
60.686712
40
0.4917393
50
209.0632754
51
237.3492577
0
ARC
8
DEFAULT_255_1_388
10
20.5731599
20
60.7482104
40
0.6072464
50
205.118533
51
209.6465345
0
ARC
8
DEFAULT_255_1_388
10
20.6627601
20
60.7862174
40
0.7045164
50
188.7216633
51
204.8239753
0
ARC
8
DEFAULT_255_1_388
10
20.8874376
20
60.8240387
40
0.9323368
50
180.3722704
51
188.9253909
0
ARC
8
DEFAULT_255_1_388
10
20.8843938
20
60.9173416
40
0.929284
50
169.5253055
51
180.2766048
0
ARC
8
DEFAULT_255_1_388
10
20.6703737
20
60.9567024
40
0.7116745
50
155.8314601
51
169.5088611
0
ARC
8
DEFAULT_255_1_388
10
20.52632
20
61.0235312
40
0.5528904
50
139.6259579
51
156.0379072
0
ARC
8
DEFAULT_255_1_388
10
20.4599733
20
61.0769143
40
0.4677708
50
122.6414784
51
139.3431662
0
ARC
8
DEFAULT_255_1_388
10
20.4712988
20
61.0562787
40
0.4912586
50
93.0224537
51
122.4556091
0
ARC
8
DEFAULT_255_1_388
10
20.4834509
20
60.9476776
40
0.6003837
50
89.9756766
51
93.6340839
0
ARC
8
DEFAULT_255_1_388
10
20.4878107
20
60.9925879
40
0.5554884
50
73.7463329
51
90.4234008
0
ARC
8
DEFAULT_255_1_388
10
20.507558
20
61.0690772
40
0.4765353
50
57.663051
51
73.4516911
0
ARC
8
DEFAULT_255_1_388
10
20.5066618
20
61.0715108
40
0.4749629
50
29.1441355
51
57.4146687
0
ARC
8
DEFAULT_255_1_388
10
20.4014429
20
61.0058046
40
0.5988917
50
24.0985653
51
29.732054
0
ARC
8
DEFAULT_255_1_388
10
20.2852061
20
60.9576154
40
0.7246823
50
8.6654943
51
23.8241215
0
ARC
8
DEFAULT_255_1_388
10
20.0338479
20
60.9166037
40
0.9793537
50
359.7807044
51
8.8218476
0
ARC
8
DEFAULT_255_1_388
10
19.9048184
20
60.9194731
40
0.9358078
50
359.7054632
51
8.0359751
0
ARC
8
DEFAULT_255_1_388
10
20.2423235
20
60.9686252
40
0.5947474
50
7.8926278
51
20.2962188
0
ARC
8
DEFAULT_255_1_388
10
20.4254085
20
61.0361367
40
0.3996117
50
20.3231056
51
36.4990255
0
ARC
8
DEFAULT_255_1_388
10
20.5025383
20
61.0955399
40
0.3022818
50
36.1436715
51
85.6627846
0
ARC
8
DEFAULT_255_1_388
10
20.4842638
20
60.9785881
40
0.4203853
50
84.3845912
51
90.076054
0
ARC
8
DEFAULT_255_1_388
10
20.4794993
20
61.0528416
40
0.346157
50
89.3037228
51
109.9046209
0
ARC
8
DEFAULT_255_1_388
10
20.4690826
20
61.0958379
40
0.3022217
50
110.8229774
51
143.917961
0
ARC
8
DEFAULT_255_1_388
10
20.5741185
20
61.0156455
40
0.434348
50
143.5289166
51
163.2980252
0
ARC
8
DEFAULT_255_1_388
10
20.7887472
20
60.9481685
40
0.659321
50
163.0418884
51
174.3139873
0
ARC
8
DEFAULT_255_1_388
10
21.0592437
20
60.9169378
40
0.9315905
50
174.050934
51
179.4174954
0
ARC
8
DEFAULT_255_1_388
10
21.0024381
20
60.8250382
40
0.8747493
50
179.6928582
51
188.7908948
0
ARC
8
DEFAULT_255_1_388
10
20.7028181
20
60.7771086
40
0.5713262
50
188.6328449
51
202.5630732
0
ARC
8
DEFAULT_255_1_388
10
20.5617018
20
60.7204142
40
0.4192612
50
202.8078931
51
216.1195888
0
ARC
8
DEFAULT_255_1_388
10
20.4706535
20
60.6471479
40
0.3025752
50
215.0755613
51
264.6379773
0
ARC
8
DEFAULT_255_1_388
10
20.4849372
20
60.7406376
40
0.3970284
50
263.8464302
51
270.0830805
0
ARC
8
DEFAULT_255_1_388
10
20.4895917
20
60.7115808
40
0.3679937
50
269.3649295
51
287.5149684
0
ARC
8
DEFAULT_255_1_388
10
20.5096358
20
60.6387714
40
0.2925408
50
288.0629019
51
323.8115617
0
ARC
8
DEFAULT_255_1_388
10
20.4116334
20
60.7118754
40
0.4148018
50
323.6546541
51
342.6591359
0
ARC
8
DEFAULT_255_1_388
10
20.1830992
20
60.786228
40
0.6551163
50
342.4092446
51
353.6451501
0
ARC
8
DEFAULT_255_1_388
10
19.8645785
20
60.8258565
40
0.9760748
50
353.4027553
51
359.4846611
0
LINE
8
DEFAULT_255_1_388
10
22.0251868
20
61.5299898
11
22.1995747
21
61.5299898
0
LINE
8
DEFAULT_255_1_388
10
22.1995747
20
61.5299898
11
22.1995747
21
60.635461
0
LINE
8
DEFAULT_255_1_388
10
21.7676709
20
60.1981358
11
21.7215891
21
60.1963287
0
LINE
8
DEFAULT_255_1_388
10
21.2472178
20
60.6336539
11
21.2472178
21
61.5299898
0
LINE
8
DEFAULT_255_1_388
10
21.2472178
20
61.5299898
11
21.418895
21
61.5299898
0
LINE
8
DEFAULT_255_1_388
10
21.418895
20
61.5299898
11
21.418895
21
60.6390753
0
LINE
8
DEFAULT_255_1_388
10
22.0251868
20
60.6381717
11
22.0251868
21
61.5299898
0
ARC
8
DEFAULT_255_1_388
10
21.7098546
20
60.633227
40
0.4897252
50
343.0897723
51
0.2613727
0
ARC
8
DEFAULT_255_1_388
10
21.8030517
20
60.607227
40
0.3930016
50
315.3344451
51
342.7642569
0
ARC
8
DEFAULT_255_1_388
10
21.7779012
20
60.6333085
40
0.4292244
50
284.6605441
51
315.2183439
0
ARC
8
DEFAULT_255_1_388
10
21.7266792
20
60.8072508
40
0.6104926
50
273.8500371
51
285.1796441
0
ARC
8
DEFAULT_255_1_388
10
21.7167857
20
60.8456762
40
0.6493653
50
257.6315393
51
270.4238259
0
ARC
8
DEFAULT_255_1_388
10
21.668994
20
60.6407915
40
0.4390079
50
230.6086859
51
257.9965362
0
ARC
8
DEFAULT_255_1_388
10
21.6543998
20
60.6178643
40
0.4120404
50
227.745033
51
230.1538266
0
ARC
8
DEFAULT_255_1_388
10
21.6390528
20
60.5994253
40
0.3880742
50
189.2524335
51
227.5915299
0
ARC
8
DEFAULT_255_1_388
10
21.8102399
20
60.6362735
40
0.5630282
50
180.2665782
51
190.1525221
0
ARC
8
DEFAULT_255_1_388
10
21.8352127
20
60.6359254
40
0.4163296
50
179.566507
51
191.9954402
0
ARC
8
DEFAULT_255_1_388
10
21.6970816
20
60.6051151
40
0.274815
50
191.6974619
51
215.1403758
0
ARC
8
DEFAULT_255_1_388
10
21.6703208
20
60.5891689
40
0.2437647
50
215.6958251
51
224.8509274
0
ARC
8
DEFAULT_255_1_388
10
21.6765684
20
60.5981016
40
0.2545012
50
225.2846515
51
255.0110023
0
ARC
8
DEFAULT_255_1_388
10
21.713013
20
60.7234017
40
0.384974
50
254.5945979
51
267.9129427
0
ARC
8
DEFAULT_255_1_388
10
21.7213823
20
60.8451444
40
0.506956
50
267.4687563
51
270.0233681
0
ARC
8
DEFAULT_255_1_388
10
21.7247819
20
60.7791288
40
0.440952
50
269.5851384
51
281.1845308
0
ARC
8
DEFAULT_255_1_388
10
21.7561423
20
60.6269469
40
0.2855802
50
280.9345159
51
300.9740496
0
ARC
8
DEFAULT_255_1_388
10
21.7800603
20
60.5829128
40
0.2355257
50
301.4982546
51
315.1468616
0
ARC
8
DEFAULT_255_1_388
10
21.7638099
20
60.5962488
40
0.2564594
50
315.5952932
51
345.6679188
0
ARC
8
DEFAULT_255_1_388
10
21.6378656
20
60.6313235
40
0.3871766
50
345.2525685
51
358.6303941
0
ARC
8
DEFAULT_255_1_388
10
21.5235047
20
60.6380695
40
0.5016822
50
358.1723541
51
0.0116795
0
LINE
8
DEFAULT_255_1_388
10
23.3823406
20
61.5299898
11
23.3823406
21
61.3872267
0
LINE
8
DEFAULT_255_1_388
10
23.3823406
20
61.3872267
11
22.9594724
21
61.3872267
0
LINE
8
DEFAULT_255_1_388
10
22.9594724
20
61.3872267
11
22.9594724
21
60.2144
0
LINE
8
DEFAULT_255_1_388
10
22.9594724
20
60.2144
11
22.7868916
21
60.2144
0
LINE
8
DEFAULT_255_1_388
10
22.7868916
20
60.2144
11
22.7868916
21
61.3872267
0
LINE
8
DEFAULT_255_1_388
10
22.7868916
20
61.3872267
11
22.364927
21
61.3872267
0
LINE
8
DEFAULT_255_1_388
10
22.364927
20
61.3872267
11
22.364927
21
61.5299898
0
LINE
8
DEFAULT_255_1_388
10
22.364927
20
61.5299898
11
23.3823406
21
61.5299898
0
LINE
8
DEFAULT_255_1_388
10
24.3590938
20
60.992369
11
24.3590938
21
60.7755135
0
LINE
8
DEFAULT_255_1_388
10
23.528718
20
60.7529244
11
23.528718
21
60.9761048
0
LINE
8
DEFAULT_255_1_388
10
24.1919343
20
60.7303353
11
24.1919343
21
61.0041153
0
LINE
8
DEFAULT_255_1_388
10
23.6958774
20
61.0167652
11
23.6958774
21
60.7493102
0
ARC
8
DEFAULT_255_1_388
10
22.9813271
20
60.7700118
40
1.3777776
50
353.8440855
51
0.2287917
0
ARC
8
DEFAULT_255_1_388
10
23.5032289
20
60.7117414
40
0.852639
50
344.4934746
51
353.9763743
0
ARC
8
DEFAULT_255_1_388
10
23.8399096
20
60.6160191
40
0.5026273
50
329.2803599
51
344.7473406
0
ARC
8
DEFAULT_255_1_388
10
23.9514592
20
60.5548038
40
0.3754848
50
324.9361395
51
328.6153007
0
ARC
8
DEFAULT_255_1_388
10
23.9940242
20
60.5250586
40
0.3235566
50
280.5801797
51
324.9173226
0
ARC
8
DEFAULT_255_1_388
10
23.948887
20
60.7130236
40
0.5167077
50
269.5979457
51
281.6732777
0
ARC
8
DEFAULT_255_1_388
10
23.9407774
20
60.6995113
40
0.5032026
50
256.6228565
51
270.5105488
0
ARC
8
DEFAULT_255_1_388
10
23.8955516
20
60.5253345
40
0.3233092
50
215.8618351
51
257.2787793
0
ARC
8
DEFAULT_255_1_388
10
24.0104223
20
60.6024106
40
0.4615831
50
197.9695203
51
215.2622745
0
ARC
8
DEFAULT_255_1_388
10
24.2899899
20
60.6967641
40
0.7566307
50
187.8816486
51
198.2346584
0
ARC
8
DEFAULT_255_1_388
10
24.7353137
20
60.7610453
40
1.2065653
50
180.8977266
51
188.0054894
0
ARC
8
DEFAULT_255_1_388
10
25.0403351
20
60.77254
40
1.5117443
50
180.7434591
51
181.152202
0
ARC
8
DEFAULT_255_1_388
10
24.8728347
20
60.9815371
40
1.3441277
50
173.7674302
51
180.2315596
0
ARC
8
DEFAULT_255_1_388
10
24.3646216
20
61.0389779
40
0.8326847
50
164.3058537
51
173.9000553
0
ARC
8
DEFAULT_255_1_388
10
24.0370216
20
61.1333652
40
0.4917711
50
148.7922028
51
164.5682288
0
ARC
8
DEFAULT_255_1_388
10
23.9300953
20
61.1930457
40
0.3694204
50
144.5883979
51
148.1161588
0
ARC
8
DEFAULT_255_1_388
10
23.8913699
20
61.2200667
40
0.322202
50
101.6440149
51
144.5142619
0
ARC
8
DEFAULT_255_1_388
10
23.9391891
20
61.0300337
40
0.5180451
50
89.528284
51
102.5820197
0
ARC
8
DEFAULT_255_1_388
10
23.9480883
20
61.0256376
40
0.5224441
50
77.0437914
51
90.508231
0
ARC
8
DEFAULT_255_1_388
10
23.9933136
20
61.2104272
40
0.3322297
50
48.2777708
51
77.4996087
0
ARC
8
DEFAULT_255_1_388
10
24.0014876
20
61.2249557
40
0.315966
50
36.3141586
51
47.6307332
0
ARC
8
DEFAULT_255_1_388
10
23.9037599
20
61.1591159
40
0.4337313
50
18.2931065
51
35.6770203
0
ARC
8
DEFAULT_255_1_388
10
23.6176439
20
61.0609107
40
0.7362203
50
8.0246996
51
18.5605636
0
ARC
8
DEFAULT_255_1_388
10
23.1492795
20
60.9917432
40
1.2096583
50
1.127539
51
8.1718423
0
ARC
8
DEFAULT_255_1_388
10
22.7843928
20
60.9774374
40
1.5747719
50
0.5432713
51
1.38669
0
ARC
8
DEFAULT_255_1_388
10
22.9901307
20
61.0081163
40
1.2018103
50
359.8092569
51
4.9408001
0
ARC
8
DEFAULT_255_1_388
10
23.4637888
20
61.05039
40
0.7262727
50
4.8364937
51
12.2906017
0
ARC
8
DEFAULT_255_1_388
10
23.7737353
20
61.1194485
40
0.4087324
50
12.0806994
51
23.8171225
0
ARC
8
DEFAULT_255_1_388
10
23.9057749
20
61.1753508
40
0.2653719
50
24.2874621
51
31.3934353
0
ARC
8
DEFAULT_255_1_388
10
23.9648185
20
61.2139822
40
0.1948607
50
30.7407708
51
82.4658033
0
ARC
8
DEFAULT_255_1_388
10
23.9445846
20
61.1146017
40
0.2961198
50
81.1057101
51
90.2187368
0
ARC
8
DEFAULT_255_1_388
10
23.9405658
20
61.1436421
40
0.2670929
50
89.380395
51
105.6763916
0
ARC
8
DEFAULT_255_1_388
10
23.919938
20
61.218632
40
0.1893189
50
105.7980655
51
149.7387869
0
ARC
8
DEFAULT_255_1_388
10
24.039652
20
61.1466719
40
0.3289892
50
149.4208441
51
163.628295
0
ARC
8
DEFAULT_255_1_388
10
24.274875
20
61.0749345
40
0.5749004
50
163.3764549
51
172.141138
0
ARC
8
DEFAULT_255_1_388
10
24.6461471
20
61.0217582
40
0.9499585
50
172.0258462
51
178.0705453
0
ARC
8
DEFAULT_255_1_388
10
24.9883024
20
61.0055682
40
1.2924734
50
177.8639301
51
179.5036263
0
ARC
8
DEFAULT_255_1_388
10
24.8664042
20
60.7452151
40
1.170534
50
179.7995545
51
185.246089
0
ARC
8
DEFAULT_255_1_388
10
24.4115636
20
60.7021404
40
0.7136613
50
185.1411911
51
193.0082205
0
ARC
8
DEFAULT_255_1_388
10
24.1141896
20
60.6318441
40
0.4080987
50
192.7897338
51
205.2507384
0
ARC
8
DEFAULT_255_1_388
10
23.9964106
20
60.5792538
40
0.2791522
50
205.8001921
51
211.2545876
0
ARC
8
DEFAULT_255_1_388
10
23.9375645
20
60.5398132
40
0.2084074
50
210.3789935
51
238.4007996
0
ARC
8
DEFAULT_255_1_388
10
23.9353731
20
60.5450786
40
0.2117943
50
239.6521916
51
265.9793852
0
ARC
8
DEFAULT_255_1_388
10
23.944958
20
60.6207358
40
0.2879689
50
265.1324455
51
270.0603288
0
ARC
8
DEFAULT_255_1_388
10
23.9481957
20
60.5842418
40
0.2514919
50
269.3314378
51
287.2180039
0
ARC
8
DEFAULT_255_1_388
10
23.9637039
20
60.5276291
40
0.1928357
50
287.7957942
51
329.0808983
0
ARC
8
DEFAULT_255_1_388
10
23.8559797
20
60.5948651
40
0.319808
50
328.6635261
51
343.3325043
0
ARC
8
DEFAULT_255_1_388
10
23.6115255
20
60.6710195
40
0.5758408
50
343.0498092
51
351.9392499
0
ARC
8
DEFAULT_255_1_388
10
23.2214577
20
60.7285205
40
0.9701202
50
351.8071632
51
357.7957897
0
ARC
8
DEFAULT_255_1_388
10
22.8580054
20
60.7473724
40
1.3340376
50
357.5870923
51
359.2682493
0
ENDSEC
0
EOF