0
SECTION
2
HEADER
9
$MEASUREMENT
70
1
0
ENDSEC
0
SECTION
2
TABLES
0
TABLE
2
LTYPE
0
LTYPE
72
65
70
64
2
CONTINUOUS
3
______
73
0
40
0
0
ENDTAB
0
TABLE
2
LAYER
0
LAYER
2
DEFAULT_255_2_778
70
0
62
255
6
CONTINUOUS
0
ENDTAB
0
ENDSEC
0
SECTION
2
ENTITIES
0
ARC
8
DEFAULT_255_2_778
10
20.8572485
20
114.8863835
40
20.7249804
50
173.886013
51
180.011755
0
ARC
8
DEFAULT_255_2_778
10
20.501686
20
114.9237827
40
20.3674571
50
166.8527399
51
173.8840907
0
ARC
8
DEFAULT_255_2_778
10
20.3358695
20
114.9613545
40
20.1974409
50
158.3761194
51
166.8495381
0
ARC
8
DEFAULT_255_2_778
10
20.3476891
20
114.9546487
40
20.2109
50
147.2481015
51
158.3707948
0
ARC
8
DEFAULT_255_2_778
10
20.4344182
20
114.8989904
40
20.3139522
50
117.5455429
51
147.2484141
0
ARC
8
DEFAULT_255_2_778
10
20.368849
20
115.0105666
40
20.1847022
50
108.1855724
51
117.5269853
0
ARC
8
DEFAULT_255_2_778
10
20.3846018
20
114.9577633
40
20.2397843
50
100.3371356
51
108.1812872
0
ARC
8
DEFAULT_255_2_778
10
20.4264294
20
114.7242745
40
20.4769889
50
93.8756307
51
100.3350412
0
ARC
8
DEFAULT_255_2_778
10
20.4504369
20
114.3942384
40
20.8078931
50
89.9949565
51
93.8801608
0
ARC
8
DEFAULT_255_2_778
10
115.2832206
20
114.4771515
40
20.7249804
50
83.886013
51
90.011755
0
ARC
8
DEFAULT_255_2_778
10
115.3206198
20
114.832714
40
20.3674571
50
76.8527399
51
83.8840907
0
ARC
8
DEFAULT_255_2_778
10
115.3581916
20
114.9985305
40
20.1974409
50
68.3761194
51
76.8495381
0
ARC
8
DEFAULT_255_2_778
10
115.3514858
20
114.9867109
40
20.2109
50
57.2481015
51
68.3707948
0
ARC
8
DEFAULT_255_2_778
10
115.2958275
20
114.8999818
40
20.3139522
50
27.5455429
51
57.2484141
0
ARC
8
DEFAULT_255_2_778
10
115.4074037
20
114.965551
40
20.1847022
50
18.1855724
51
27.5269853
0
ARC
8
DEFAULT_255_2_778
10
115.3546004
20
114.9497982
40
20.2397843
50
10.3371356
51
18.1812872
0
ARC
8
DEFAULT_255_2_778
10
115.1211116
20
114.9079706
40
20.4769889
50
3.8756307
51
10.3350412
0
ARC
8
DEFAULT_255_2_778
10
114.7910755
20
114.8839631
40
20.8078931
50
359.9949565
51
3.8801608
0
ARC
8
DEFAULT_255_2_778
10
114.8739886
20
20.0511794
40
20.7249804
50
353.886013
51
0.011755
0
ARC
8
DEFAULT_255_2_778
10
115.2295511
20
20.0137802
40
20.3674571
50
346.8527399
51
353.8840907
0
ARC
8
DEFAULT_255_2_778
10
115.3953676
20
19.9762084
40
20.1974409
50
338.3761194
51
346.8495381
0
ARC
8
DEFAULT_255_2_778
10
115.383548
20
19.9829142
40
20.2109
50
327.2481015
51
338.3707948
0
ARC
8
DEFAULT_255_2_778
10
115.2968189
20
20.0385725
40
20.3139522
50
297.5455429
51
327.2484141
0
ARC
8
DEFAULT_255_2_778
10
115.3623881
20
19.9269963
40
20.1847022
50
288.1855724
51
297.5269853
0
ARC
8
DEFAULT_255_2_778
10
115.3466353
20
19.9797996
40
20.2397843
50
280.3371356
51
288.1812872
0
ARC
8
DEFAULT_255_2_778
10
115.3048077
20
20.2132884
40
20.4769889
50
273.8756307
51
280.3350412
0
ARC
8
DEFAULT_255_2_778
10
115.2808002
20
20.5433245
40
20.8078931
50
269.9949565
51
273.8801608
0
ARC
8
DEFAULT_255_2_778
10
20.4480165
20
20.4604114
40
20.7249804
50
263.886013
51
270.011755
0
ARC
8
DEFAULT_255_2_778
10
20.4106173
20
20.1048489
40
20.3674571
50
256.8527399
51
263.8840907
0
ARC
8
DEFAULT_255_2_778
10
20.3730455
20
19.9390324
40
20.1974409
50
248.3761194
51
256.8495381
0
ARC
8
DEFAULT_255_2_778
10
20.3797513
20
19.950852
40
20.2109
50
237.2481015
51
248.3707948
0
ARC
8
DEFAULT_255_2_778
10
20.4354096
20
20.0375811
40
20.3139522
50
207.5455429
51
237.2484141
0
ARC
8
DEFAULT_255_2_778
10
20.3238334
20
19.9720119
40
20.1847022
50
198.1855724
51
207.5269853
0
ARC
8
DEFAULT_255_2_778
10
20.3766367
20
19.9877647
40
20.2397843
50
190.3371356
51
198.1812872
0
ARC
8
DEFAULT_255_2_778
10
20.6101255
20
20.0295923
40
20.4769889
50
183.8756307
51
190.3350412
0
ARC
8
DEFAULT_255_2_778
10
20.9401616
20
20.0535998
40
20.8078931
50
179.9949565
51
183.8801608
0
LINE
8
DEFAULT_255_2_778
10
20.4522686
20
135.2021314
11
115.2789686
21
135.2021314
0
LINE
8
DEFAULT_255_2_778
10
135.5989686
20
114.8821314
11
135.5989686
21
20.0554314
0
LINE
8
DEFAULT_255_2_778
10
115.2789686
20
-0.2645686
11
20.4522686
21
-0.2645686
0
LINE
8
DEFAULT_255_2_778
10
0.1322686
20
20.0554314
11
0.1322686
21
114.8821314
0
LINE
8
DEFAULT_255_2_778
10
28.4426928
20
79.1104992
11
28.4426928
21
51.0646992
0
LINE
8
DEFAULT_255_2_778
10
107.5530928
20
79.1104992
11
107.5530928
21
51.0646992
0
LINE
8
DEFAULT_255_2_778
10
79.2426928
20
33.6021992
11
79.2426928
21
18.7854992
0
LINE
8
DEFAULT_255_2_778
10
56.7530928
20
33.6021992
11
56.7530928
21
18.7854992
0
LINE
8
DEFAULT_255_2_778
10
53.8426755
20
111.9187332
11
49.3447755
21
120.3854332
0
LINE
8
DEFAULT_255_2_778
10
81.8884755
20
111.9187332
11
86.6509755
21
120.3854332
0
ARC
8
DEFAULT_255_2_778
10
68.1251713
20
77.660132
40
37.4337005
50
89.9922891
51
92.273106
0
ARC
8
DEFAULT_255_2_778
10
68.0657935
20
79.1404575
40
35.9521847
50
92.2721222
51
94.7979028
0
ARC
8
DEFAULT_255_2_778
10
67.9482476
20
80.5362338
40
34.5514678
50
94.7972572
51
97.5448445
0
ARC
8
DEFAULT_255_2_778
10
67.7880993
20
81.7511868
40
33.3260054
50
97.5461583
51
100.2181334
0
ARC
8
DEFAULT_255_2_778
10
67.5943226
20
82.8221137
40
32.2376887
50
100.2168449
51
103.2945668
0
ARC
8
DEFAULT_255_2_778
10
67.3783611
20
83.7396325
40
31.2950968
50
103.2960616
51
106.2808246
0
ARC
8
DEFAULT_255_2_778
10
67.1590996
20
84.4896822
40
30.5136557
50
106.2804568
51
109.6091614
0
ARC
8
DEFAULT_255_2_778
10
66.9403391
20
85.1043284
40
29.8612399
50
109.6095516
51
113.2026044
0
ARC
8
DEFAULT_255_2_778
10
66.7481993
20
85.5538457
40
29.3723808
50
113.2035864
51
116.9731712
0
ARC
8
DEFAULT_255_2_778
10
66.606677
20
85.8333497
40
29.0590908
50
116.9744491
51
120.8304886
0
ARC
8
DEFAULT_255_2_778
10
66.530591
20
85.9619579
40
28.9096625
50
120.8316334
51
125.0358522
0
ARC
8
DEFAULT_255_2_778
10
66.5339602
20
85.9583567
40
28.9145454
50
125.0372221
51
129.397495
0
ARC
8
DEFAULT_255_2_778
10
66.6171464
20
85.8578158
40
29.0450376
50
129.3984223
51
133.7380089
0
ARC
8
DEFAULT_255_2_778
10
66.7594927
20
85.7095883
40
29.250546
50
133.7387289
51
138.3697721
0
ARC
8
DEFAULT_255_2_778
10
66.9130697
20
85.5727212
40
29.4562604
50
138.3692339
51
142.9437777
0
ARC
8
DEFAULT_255_2_778
10
66.9946659
20
85.510144
40
29.5590869
50
142.942286
51
147.1893538
0
ARC
8
DEFAULT_255_2_778
10
66.9297253
20
85.5508488
40
29.4824501
50
147.1874532
51
151.3903251
0
ARC
8
DEFAULT_255_2_778
10
66.6528843
20
85.7006671
40
29.1676719
50
151.3882883
51
155.3855065
0
ARC
8
DEFAULT_255_2_778
10
66.109801
20
85.9478343
40
28.5709905
50
155.3825131
51
159.4461674
0
ARC
8
DEFAULT_255_2_778
10
65.4290274
20
86.205417
40
27.8431191
50
159.4506424
51
162.0767514
0
ARC
8
DEFAULT_255_2_778
10
64.8356303
20
86.3983177
40
27.2191559
50
162.0786997
51
164.0431779
0
ARC
8
DEFAULT_255_2_778
10
64.2642473
20
86.5617056
40
26.6248713
50
164.0432035
51
165.9132689
0
ARC
8
DEFAULT_255_2_778
10
63.6840123
20
86.7075686
40
26.0265831
50
165.9138258
51
167.5700022
0
ARC
8
DEFAULT_255_2_778
10
63.0628718
20
86.8440483
40
25.3906255
50
167.5690593
51
169.4058458
0
ARC
8
DEFAULT_255_2_778
10
62.3539444
20
86.9764321
40
24.6694435
50
169.4053584
51
171.296912
0
ARC
8
DEFAULT_255_2_778
10
61.5848373
20
87.0939179
40
23.8914149
50
171.2963276
51
173.255355
0
ARC
8
DEFAULT_255_2_778
10
60.8397666
20
87.1826835
40
23.1410755
50
173.2569565
51
174.8892412
0
ARC
8
DEFAULT_255_2_778
10
60.0960954
20
87.2486256
40
22.3944867
50
174.8877897
51
176.7632794
0
ARC
8
DEFAULT_255_2_778
10
59.2655066
20
87.2952392
40
21.5625909
50
176.7623311
51
178.7651167
0
ARC
8
DEFAULT_255_2_778
10
58.5739169
20
87.3116753
40
20.8708077
50
178.7693106
51
179.9973731
0
ARC
8
DEFAULT_255_2_778
10
77.1101952
20
87.3108946
40
21.182514
50
0.0046998
51
1.9235668
0
ARC
8
DEFAULT_255_2_778
10
76.4626257
20
87.2888695
40
21.8304579
50
1.9242919
51
3.9781165
0
ARC
8
DEFAULT_255_2_778
10
75.7877763
20
87.2419771
40
22.5069345
50
3.9780183
51
6.0131012
0
ARC
8
DEFAULT_255_2_778
10
75.1025525
20
87.1697097
40
23.1959586
50
6.01332
51
8.1047278
0
ARC
8
DEFAULT_255_2_778
10
74.4272165
20
87.0737489
40
23.8780782
50
8.1042275
51
10.1091702
0
ARC
8
DEFAULT_255_2_778
10
73.7740701
20
86.9572947
40
24.5415251
50
10.1091777
51
12.1392622
0
ARC
8
DEFAULT_255_2_778
10
73.1445194
20
86.822047
40
25.1854397
50
12.1388894
51
14.1183867
0
ARC
8
DEFAULT_255_2_778
10
72.8095383
20
86.7396351
40
25.5304046
50
14.1143738
51
14.3947537
0
ARC
8
DEFAULT_255_2_778
10
72.0876317
20
86.5447031
40
26.2781095
50
14.4151301
51
19.0600559
0
ARC
8
DEFAULT_255_2_778
10
70.9057743
20
86.1375702
40
27.5281267
50
19.0576964
51
23.7636942
0
ARC
8
DEFAULT_255_2_778
10
69.9840508
20
85.7333938
40
28.5345711
50
23.7606535
51
28.4939045
0
ARC
8
DEFAULT_255_2_778
10
69.3647859
20
85.3995675
40
29.2380801
50
28.4899058
51
32.9461351
0
ARC
8
DEFAULT_255_2_778
10
68.9927024
20
85.159371
40
29.6809569
50
32.944612
51
37.8340256
0
ARC
8
DEFAULT_255_2_778
10
68.8170723
20
85.0244289
40
29.9024382
50
37.8318196
51
42.7365579
0
ARC
8
DEFAULT_255_2_778
10
68.7790653
20
84.9902239
40
29.9535662
50
42.7352769
51
47.5541836
0
ARC
8
DEFAULT_255_2_778
10
68.7969005
20
85.0099728
40
29.9269565
50
47.5538629
51
52.3926208
0
ARC
8
DEFAULT_255_2_778
10
68.8075037
20
85.0233121
40
29.9099184
50
52.3931183
51
56.8633625
0
ARC
8
DEFAULT_255_2_778
10
68.7754966
20
84.973363
40
29.9692407
50
56.8643228
51
61.3367219
0
ARC
8
DEFAULT_255_2_778
10
68.6871602
20
84.8105148
40
30.1545039
50
61.3378635
51
65.6118199
0
ARC
8
DEFAULT_255_2_778
10
68.5556465
20
84.5200748
40
30.4733318
50
65.6121
51
69.3058865
0
ARC
8
DEFAULT_255_2_778
10
68.3929955
20
84.087326
40
30.9356372
50
69.3073078
51
73.0667905
0
ARC
8
DEFAULT_255_2_778
10
68.2077913
20
83.4777036
40
31.5727713
50
73.0674838
51
76.6365682
0
ARC
8
DEFAULT_255_2_778
10
68.0286727
20
82.7247113
40
32.3467745
50
76.6361574
51
79.8160464
0
ARC
8
DEFAULT_255_2_778
10
67.8722303
20
81.8538578
40
33.2315682
50
79.8160416
51
82.7819722
0
ARC
8
DEFAULT_255_2_778
10
67.7405743
20
80.8080117
40
34.285668
50
82.7832974
51
85.8171546
0
ARC
8
DEFAULT_255_2_778
10
67.6540488
20
79.6407962
40
35.4560858
50
85.815282
51
88.3672095
0
ARC
8
DEFAULT_255_2_778
10
67.6270424
20
78.8309735
40
36.2663493
50
88.3610156
51
89.2050411
0
ARC
8
DEFAULT_255_2_778
10
45.4330441
20
41.2727855
40
7.7299353
50
179.9826061
51
190.8041584
0
ARC
8
DEFAULT_255_2_778
10
45.4221201
20
41.2734193
40
7.7193241
50
190.8239783
51
204.4087609
0
ARC
8
DEFAULT_255_2_778
10
45.520366
20
41.3186673
40
7.8274872
50
204.4131835
51
222.987999
0
ARC
8
DEFAULT_255_2_778
10
45.2499434
20
40.9983929
40
7.4114644
50
222.6022864
51
260.8475281
0
ARC
8
DEFAULT_255_2_778
10
45.1119541
20
40.4856395
40
6.8835073
50
261.3026086
51
269.995464
0
ARC
8
DEFAULT_255_2_778
10
90.6232718
20
41.2964224
40
7.694291
50
269.9742153
51
280.8461174
0
ARC
8
DEFAULT_255_2_778
10
90.6362849
20
41.2157833
40
7.6126441
50
280.8641311
51
295.2700186
0
ARC
8
DEFAULT_255_2_778
10
90.5903321
20
41.3035927
40
7.7116682
50
295.300264
51
338.4780483
0
ARC
8
DEFAULT_255_2_778
10
90.6790438
20
41.2587697
40
7.6127037
50
338.5469393
51
351.8812227
0
ARC
8
DEFAULT_255_2_778
10
90.5748261
20
41.2729777
40
7.7178833
50
351.8860672
51
0.0159943
0
LINE
8
DEFAULT_255_2_778
10
37.7031092
20
87.3126322
11
98.2927092
21
87.3126322
0
LINE
8
DEFAULT_255_2_778
10
68.1302092
20
115.0938322
11
68.1302092
21
115.0938322
0
LINE
8
DEFAULT_255_2_778
10
37.7031092
20
84.6667322
11
37.7031092
21
41.2751322
0
LINE
8
DEFAULT_255_2_778
10
45.1114092
20
33.6021322
11
90.6198092
21
33.6021322
0
LINE
8
DEFAULT_255_2_778
10
98.2927092
20
41.2751322
11
98.2927092
21
84.6667322
0
LINE
8
DEFAULT_255_2_778
10
98.2927092
20
84.6667322
11
37.7031092
21
84.6667322
0
ARC
8
DEFAULT_255_2_778
10
54.1010364
20
100.8092578
40
2.3750127
50
158.505885
51
180.07015
0
ARC
8
DEFAULT_255_2_778
10
54.1093642
20
100.8033811
40
2.3849158
50
100.3495826
51
158.4478268
0
ARC
8
DEFAULT_255_2_778
10
54.1061868
20
100.7922352
40
2.395315
50
89.9751544
51
100.2269175
0
ARC
8
DEFAULT_255_2_778
10
54.1101405
20
100.8122871
40
2.3752647
50
68.507036
51
90.0703158
0
ARC
8
DEFAULT_255_2_778
10
54.1043788
20
100.8042077
40
2.3848944
50
10.3497601
51
68.4493555
0
ARC
8
DEFAULT_255_2_778
10
54.0932356
20
100.8073897
40
2.3952902
50
359.9751275
51
10.2269975
0
ARC
8
DEFAULT_255_2_778
10
54.1132892
20
100.8034334
40
2.3752381
50
338.5068227
51
0.0703522
0
ARC
8
DEFAULT_255_2_778
10
54.1051702
20
100.809231
40
2.384918
50
280.3482582
51
338.4486905
0
ARC
8
DEFAULT_255_2_778
10
54.1082669
20
100.8206534
40
2.3956038
50
269.9750913
51
280.2263252
0
ARC
8
DEFAULT_255_2_778
10
54.1043161
20
100.8000342
40
2.3749861
50
248.5056716
51
270.0701864
0
ARC
8
DEFAULT_255_2_778
10
54.1102287
20
100.8084018
40
2.3849394
50
190.3480808
51
248.4471618
0
ARC
8
DEFAULT_255_2_778
10
54.1216538
20
100.8053096
40
2.3956286
50
179.9751181
51
190.2262452
0
ARC
8
DEFAULT_255_2_778
10
81.8820697
20
100.8092539
40
2.374846
50
158.5042009
51
180.0700607
0
ARC
8
DEFAULT_255_2_778
10
81.8906747
20
100.8032396
40
2.3850576
50
100.3493006
51
158.4455192
0
ARC
8
DEFAULT_255_2_778
10
81.8874884
20
100.792178
40
2.3953722
50
89.9751937
51
100.2267929
0
ARC
8
DEFAULT_255_2_778
10
81.8914333
20
100.812539
40
2.3750127
50
68.505885
51
90.07015
0
ARC
8
DEFAULT_255_2_778
10
81.8855566
20
100.8042112
40
2.3849158
50
10.3495826
51
68.4478268
0
ARC
8
DEFAULT_255_2_778
10
81.8744107
20
100.8073886
40
2.395315
50
359.9751544
51
10.2269175
0
ARC
8
DEFAULT_255_2_778
10
81.8944626
20
100.8034349
40
2.3752647
50
338.507036
51
0.0703158
0
ARC
8
DEFAULT_255_2_778
10
81.8863833
20
100.8091966
40
2.3848944
50
280.3497601
51
338.4493555
0
ARC
8
DEFAULT_255_2_778
10
81.8895653
20
100.8203398
40
2.3952902
50
269.9751275
51
280.2269975
0
ARC
8
DEFAULT_255_2_778
10
81.8856223
20
100.8001399
40
2.3750918
50
248.5061543
51
270.0700334
0
ARC
8
DEFAULT_255_2_778
10
81.8914958
20
100.8084945
40
2.3850187
50
190.3499972
51
248.4484052
0
ARC
8
DEFAULT_255_2_778
10
81.9026303
20
100.8053084
40
2.3954051
50
179.9750882
51
190.2271816
0
LINE
8
DEFAULT_255_2_778
10
51.7260255
20
100.8063499
11
51.7260255
21
100.8063499
0
LINE
8
DEFAULT_255_2_778
10
79.5072255
20
100.8063499
11
79.5072255
21
100.8063499
0
ENDSEC
0
EOF