0
SECTION
2
HEADER
9
$MEASUREMENT
70
1
0
ENDSEC
0
SECTION
2
TABLES
0
TABLE
2
LTYPE
0
LTYPE
72
65
70
64
2
CONTINUOUS
3
______
73
0
40
0
0
ENDTAB
0
TABLE
2
LAYER
0
LAYER
2
DEFAULT_255_2_778
70
0
62
255
6
CONTINUOUS
0
ENDTAB
0
ENDSEC
0
SECTION
2
ENTITIES
0
ARC
8
DEFAULT_255_2_778
10
4.9064287
20
4.5736133
40
4.7459947
50
345.7714415
51
0.0349832
0
ARC
8
DEFAULT_255_2_778
10
4.9353858
20
4.570148
40
4.7170756
50
323.2908934
51
345.7257901
0
ARC
8
DEFAULT_255_2_778
10
4.9086012
20
4.5843899
40
4.7470637
50
289.0951146
51
323.346331
0
ARC
8
DEFAULT_255_2_778
10
4.9245036
20
4.5571081
40
4.7160847
50
273.5720863
51
289.0209753
0
ARC
8
DEFAULT_255_2_778
10
4.916648
20
4.6486817
40
4.8079705
50
269.9961212
51
273.5975281
0
ARC
8
DEFAULT_255_2_778
10
4.9134337
20
4.5859789
40
4.7452688
50
255.7716342
51
270.0348797
0
ARC
8
DEFAULT_255_2_778
10
4.9100983
20
4.5574783
40
4.7168243
50
233.2584621
51
255.7258161
0
ARC
8
DEFAULT_255_2_778
10
4.924459
20
4.5844214
40
4.747008
50
199.0876769
51
233.3141008
0
ARC
8
DEFAULT_255_2_778
10
4.8972976
20
4.5685764
40
4.7161623
50
183.5760135
51
199.0136706
0
ARC
8
DEFAULT_255_2_778
10
4.9888672
20
4.5764407
40
4.8080447
50
180.0027365
51
183.6014856
0
ARC
8
DEFAULT_255_2_778
10
4.9253214
20
4.579647
40
4.7445002
50
165.7750469
51
180.0414934
0
ARC
8
DEFAULT_255_2_778
10
4.8969846
20
4.5829305
40
4.7162269
50
143.2647703
51
165.7291208
0
ARC
8
DEFAULT_255_2_778
10
4.9241806
20
4.5683922
40
4.7467199
50
109.0866866
51
143.3204794
0
ARC
8
DEFAULT_255_2_778
10
4.908178
20
4.5959928
40
4.7154078
50
93.5707393
51
109.0125979
0
ARC
8
DEFAULT_255_2_778
10
4.915999
20
4.5048488
40
4.8068623
50
89.9961436
51
93.5961187
0
ARC
8
DEFAULT_255_2_778
10
4.9197501
20
4.5677327
40
4.7439796
50
75.7741742
51
90.0413973
0
ARC
8
DEFAULT_255_2_778
10
4.9229153
20
4.5956394
40
4.7161524
50
53.2543374
51
75.7281329
0
ARC
8
DEFAULT_255_2_778
10
4.9081107
20
4.568113
40
4.7470686
50
19.0818883
51
53.3099203
0
ARC
8
DEFAULT_255_2_778
10
4.935129
20
4.5838878
40
4.7163817
50
3.5696565
51
19.0080852
0
ARC
8
DEFAULT_255_2_778
10
4.8436346
20
4.5760351
40
4.8081879
50
359.996139
51
3.5951674
0
ARC
8
DEFAULT_255_2_778
10
5.0038665
20
7.1324149
40
0.3019524
50
19.7128664
51
91.4884998
0
ARC
8
DEFAULT_255_2_778
10
4.9874655
20
7.1197632
40
0.3146186
50
88.4414026
51
90.000965
0
ARC
8
DEFAULT_255_2_778
10
4.9874336
20
7.1220014
40
0.3123806
50
89.9951215
51
158.9377434
0
ARC
8
DEFAULT_255_2_778
10
7.1031778
20
2.9461182
40
0.7928725
50
230.4038539
51
238.9201633
0
ARC
8
DEFAULT_255_2_778
10
6.8912926
20
2.6012807
40
0.3881704
50
239.4298049
51
248.1746787
0
ARC
8
DEFAULT_255_2_778
10
6.8569877
20
2.5174844
40
0.2976273
50
248.3079598
51
270.4303069
0
ARC
8
DEFAULT_255_2_778
10
6.8674571
20
2.5576311
40
0.337866
50
268.6035018
51
0.0567071
0
ARC
8
DEFAULT_255_2_778
10
6.8346101
20
2.5396974
40
0.3711627
50
2.8211515
51
18.4180524
0
ARC
8
DEFAULT_255_2_778
10
6.5007544
20
2.4480842
40
0.7171022
50
16.9349172
51
20.3675651
0
LINE
8
DEFAULT_255_2_778
10
4.9962229
20
6.4190655
11
6.2218229
21
3.3943655
0
LINE
8
DEFAULT_255_2_778
10
6.2218229
20
3.3943655
11
4.3708229
21
4.8521655
0
LINE
8
DEFAULT_255_2_778
10
4.3708229
20
4.8521655
11
4.9962229
21
6.4190655
0
LINE
8
DEFAULT_255_2_778
10
7.1732229
20
2.6976655
11
5.2881229
21
7.2342655
0
LINE
8
DEFAULT_255_2_778
10
4.6959229
20
7.2342655
11
2.6269229
21
2.2581655
0
LINE
8
DEFAULT_255_2_778
10
2.6269229
20
2.2581655
11
3.3347229
21
2.2581655
0
LINE
8
DEFAULT_255_2_778
10
3.3347229
20
2.2581655
11
4.1536229
21
4.3097655
0
LINE
8
DEFAULT_255_2_778
10
4.1536229
20
4.3097655
11
6.5978229
21
2.3351655
0
LINE
8
DEFAULT_255_2_778
10
7.1730229
20
2.6976655
11
7.1732229
21
2.6976655
0
ARC
8
DEFAULT_255_2_778
10
16.1426402
20
3.4123738
40
0.2524579
50
263.8784728
51
270.1372518
0
ARC
8
DEFAULT_255_2_778
10
16.1265543
20
3.3131165
40
0.1521475
50
216.8752948
51
265.9160492
0
ARC
8
DEFAULT_255_2_778
10
14.2616503
20
5.7746135
40
0.1846093
50
90.4672251
51
180.3714775
0
ARC
8
DEFAULT_255_2_778
10
14.2707396
20
5.795751
40
0.1638086
50
36.4254327
51
93.7083256
0
ARC
8
DEFAULT_255_2_778
10
16.1473337
20
3.3397642
40
0.1787209
50
0.0001404
51
0.5938616
0
ARC
8
DEFAULT_255_2_778
10
16.1463263
20
3.3397692
40
0.1797282
50
314.7443634
51
359.9985283
0
ARC
8
DEFAULT_255_2_778
10
16.1463076
20
3.3392796
40
0.1793938
50
269.9913778
51
314.8587056
0
ARC
8
DEFAULT_255_2_778
10
16.1462931
20
3.3407103
40
0.1808246
50
268.9390407
51
269.9960271
0
ARC
8
DEFAULT_255_2_778
10
18.2204914
20
5.9666342
40
2.831625
50
260.9966206
51
269.8695595
0
ARC
8
DEFAULT_255_2_778
10
18.2858646
20
6.3800975
40
3.2502244
50
249.214287
51
260.9990237
0
ARC
8
DEFAULT_255_2_778
10
18.4091873
20
7.226305
40
3.7803815
50
251.6324437
51
259.9805605
0
ARC
8
DEFAULT_255_2_778
10
18.2306188
20
6.1889351
40
2.7277689
50
259.8831234
51
269.6518706
0
ARC
8
DEFAULT_255_2_778
10
18.2238685
20
4.9545595
40
1.4933753
50
269.6231012
51
279.1864366
0
ARC
8
DEFAULT_255_2_778
10
18.3308138
20
4.3216305
40
0.8515027
50
278.8817461
51
293.6988841
0
ARC
8
DEFAULT_255_2_778
10
18.5044778
20
3.9400583
40
0.4323443
50
292.9496112
51
320.7534294
0
ARC
8
DEFAULT_255_2_778
10
18.6090489
20
3.8467706
40
0.2924053
50
321.9462454
51
0.4596842
0
ARC
8
DEFAULT_255_2_778
10
18.6433053
20
3.8542093
40
0.2581899
50
358.8697812
51
42.3160961
0
ARC
8
DEFAULT_255_2_778
10
18.5425021
20
3.7765576
40
0.3851462
50
40.7622443
51
42.9803482
0
ARC
8
DEFAULT_255_2_778
10
18.3829235
20
3.6154546
40
0.6117907
50
43.8296811
51
55.3139779
0
ARC
8
DEFAULT_255_2_778
10
17.9123093
20
2.9539769
40
1.4235681
50
54.8895588
51
60.0794908
0
ARC
8
DEFAULT_255_2_778
10
17.0509648
20
1.4716575
40
3.1379666
50
59.948665
51
62.6853896
0
ARC
8
DEFAULT_255_2_778
10
15.2618956
20
-1.9757245
40
7.0219315
50
62.6228296
51
64.0473372
0
ARC
8
DEFAULT_255_2_778
10
10.7638683
20
-11.194009
40
17.2790743
50
64.0133672
51
64.6753704
0
ARC
8
DEFAULT_255_2_778
10
2.0616092
20
-29.5109458
40
37.558104
50
64.6281458
51
64.7408534
0
ARC
8
DEFAULT_255_2_778
10
21.6323404
20
11.9857689
40
8.3220782
50
243.5235672
51
244.7937077
0
ARC
8
DEFAULT_255_2_778
10
20.0901844
20
8.8935781
40
4.8666645
50
241.5396198
51
243.5450053
0
ARC
8
DEFAULT_255_2_778
10
19.1964974
20
7.2462652
40
2.9925472
50
238.7731637
51
241.5521338
0
ARC
8
DEFAULT_255_2_778
10
18.6408337
20
6.3312617
40
1.9220369
50
234.9312526
51
238.7969203
0
ARC
8
DEFAULT_255_2_778
10
18.1781431
20
5.6835436
40
1.1260794
50
225.7795169
51
235.2641708
0
ARC
8
DEFAULT_255_2_778
10
17.8214498
20
5.3238565
40
0.6195584
50
204.9032513
51
226.2210887
0
ARC
8
DEFAULT_255_2_778
10
17.8085441
20
5.3020531
40
0.5988433
50
179.218566
51
203.5309442
0
ARC
8
DEFAULT_255_2_778
10
18.0411727
20
5.31465
40
0.8314279
50
180.0023018
51
180.3052678
0
ARC
8
DEFAULT_255_2_778
10
17.8709784
20
5.3275846
40
0.6613606
50
158.1533225
51
181.1235297
0
ARC
8
DEFAULT_255_2_778
10
17.7518404
20
5.3566022
40
0.5402608
50
113.0726902
51
156.307652
0
ARC
8
DEFAULT_255_2_778
10
17.9886205
20
4.8694163
40
1.0816045
50
100.5618687
51
114.4984559
0
ARC
8
DEFAULT_255_2_778
10
18.1726174
20
3.9343349
40
2.0345914
50
92.4902991
51
100.8288857
0
ARC
8
DEFAULT_255_2_778
10
18.2391514
20
2.8214931
40
3.1493253
50
89.9364419
51
92.8199199
0
ARC
8
DEFAULT_255_2_778
10
18.2350745
20
3.2560367
40
2.7147904
50
86.608532
51
89.8402247
0
ARC
8
DEFAULT_255_2_778
10
18.1407324
20
1.6676381
40
4.3059884
50
82.9005178
51
86.6057269
0
ARC
8
DEFAULT_255_2_778
10
18.0961339
20
1.2575052
40
4.7184933
50
82.8662242
51
82.9786306
0
ARC
8
DEFAULT_255_2_778
10
18.1507827
20
1.6397828
40
4.3323936
50
78.7382358
51
82.9555197
0
ARC
8
DEFAULT_255_2_778
10
18.4919765
20
3.355023
40
2.5835477
50
75.1029268
51
78.7305187
0
ARC
8
DEFAULT_255_2_778
10
18.7320351
20
4.275658
40
1.6321478
50
73.2452013
51
74.9382887
0
ARC
8
DEFAULT_255_2_778
10
18.1992955
20
1.5702247
40
4.0744179
50
76.5694725
51
89.2750756
0
ARC
8
DEFAULT_255_2_778
10
18.2374456
20
3.0660108
40
2.5783406
50
89.7022399
51
94.8137404
0
ARC
8
DEFAULT_255_2_778
10
18.1117073
20
4.4896639
40
1.1491722
50
94.523244
51
104.0854468
0
ARC
8
DEFAULT_255_2_778
10
17.9354258
20
5.1645765
40
0.4517003
50
103.2318992
51
124.3993395
0
ARC
8
DEFAULT_255_2_778
10
17.8222888
20
5.3403172
40
0.2428479
50
125.7996168
51
183.3050377
0
ARC
8
DEFAULT_255_2_778
10
17.8702294
20
5.3128028
40
0.2906988
50
177.3355167
51
219.8681358
0
ARC
8
DEFAULT_255_2_778
10
17.9371978
20
5.3660926
40
0.3762639
50
219.5594478
51
222.3368044
0
ARC
8
DEFAULT_255_2_778
10
18.0874395
20
5.5140604
40
0.5870339
50
223.1363593
51
234.7911144
0
ARC
8
DEFAULT_255_2_778
10
18.5233845
20
6.1158178
40
1.3300832
50
234.3929704
51
239.8265993
0
ARC
8
DEFAULT_255_2_778
10
19.3091021
20
7.4540785
40
2.8819446
50
239.6948959
51
242.6353586
0
ARC
8
DEFAULT_255_2_778
10
20.858623
20
10.4325356
40
6.239354
50
242.5703887
51
244.1677549
0
ARC
8
DEFAULT_255_2_778
10
23.4960172
20
15.8466781
40
12.2617021
50
244.0990509
51
244.706732
0
ARC
8
DEFAULT_255_2_778
10
27.7829028
20
24.9130324
40
22.2904689
50
244.7008228
51
245.0748553
0
ARC
8
DEFAULT_255_2_778
10
14.5577718
20
-3.5878047
40
9.1293111
50
63.9502758
51
65.1871084
0
ARC
8
DEFAULT_255_2_778
10
16.2243046
20
-0.1826492
40
5.338215
50
62.0907791
51
63.9702155
0
ARC
8
DEFAULT_255_2_778
10
17.2411494
20
1.7335852
40
3.168901
50
59.3156916
51
62.1204338
0
ARC
8
DEFAULT_255_2_778
10
17.9084412
20
2.853736
40
1.8650577
50
54.8919023
51
59.3846418
0
ARC
8
DEFAULT_255_2_778
10
18.3430028
20
3.4703304
40
1.1107161
50
48.5100105
51
54.9375447
0
ARC
8
DEFAULT_255_2_778
10
18.6477475
20
3.8092905
40
0.6549312
50
35.4735525
51
48.8352933
0
ARC
8
DEFAULT_255_2_778
10
18.7522843
20
3.896995
40
0.5190125
50
358.8000265
51
34.2856718
0
ARC
8
DEFAULT_255_2_778
10
18.3484401
20
3.8688446
40
0.9229048
50
359.9920496
51
1.0729172
0
ARC
8
DEFAULT_255_2_778
10
18.6366069
20
3.8585213
40
0.6348199
50
329.6785276
51
0.920211
0
ARC
8
DEFAULT_255_2_778
10
18.5711231
20
3.9236319
40
0.7245868
50
293.9483821
51
327.8481083
0
ARC
8
DEFAULT_255_2_778
10
18.3245937
20
4.4303821
40
1.2879305
50
278.4450239
51
294.8207747
0
ARC
8
DEFAULT_255_2_778
10
18.2206356
20
5.0363989
40
1.9026938
50
269.8015339
51
278.8615201
0
ARC
8
DEFAULT_255_2_778
10
22.9294166
20
4.1100937
40
0.5809627
50
269.0165216
51
294.7237477
0
ARC
8
DEFAULT_255_2_778
10
22.9774376
20
3.9843482
40
0.4467495
50
295.8746334
51
2.5489618
0
ARC
8
DEFAULT_255_2_778
10
22.9784509
20
4.009609
40
0.4453267
50
359.3061985
51
80.1871327
0
ARC
8
DEFAULT_255_2_778
10
22.9217488
20
3.8274948
40
0.634926
50
77.9454722
51
90.2078983
0
ARC
8
DEFAULT_255_2_778
10
22.7495675
20
5.3504374
40
0.5784944
50
269.0865339
51
299.61826
0
ARC
8
DEFAULT_255_2_778
10
22.8226439
20
5.2214314
40
0.4302288
50
299.6487781
51
0.6506015
0
ARC
8
DEFAULT_255_2_778
10
22.8657106
20
5.2435922
40
0.3875196
50
357.4449103
51
71.5901899
0
ARC
8
DEFAULT_255_2_778
10
22.7558615
20
4.9584655
40
0.6928907
50
70.4174709
51
89.8262269
0
ARC
8
DEFAULT_255_2_778
10
22.7403915
20
4.7078118
40
0.9437049
50
88.9331112
51
90.0028286
0
ARC
8
DEFAULT_255_2_778
10
21.8147906
20
3.4001475
40
0.18445
50
179.6057741
51
270.8245569
0
ARC
8
DEFAULT_255_2_778
10
21.8182205
20
5.7773299
40
0.1878883
50
90.2365007
51
179.3331682
0
ARC
8
DEFAULT_255_2_778
10
22.7429237
20
4.5754162
40
1.3898406
50
77.4411106
51
90.436111
0
ARC
8
DEFAULT_255_2_778
10
22.8557176
20
5.0606962
40
0.8916574
50
57.3139938
51
77.735048
0
ARC
8
DEFAULT_255_2_778
10
22.9902682
20
5.2772312
40
0.6367609
50
358.0097198
51
56.9817089
0
ARC
8
DEFAULT_255_2_778
10
22.9362247
20
5.2737984
40
0.6906729
50
299.5587874
51
358.4500311
0
ARC
8
DEFAULT_255_2_778
10
23.0662971
20
3.9452894
40
0.7576011
50
36.2149833
51
73.8563872
0
ARC
8
DEFAULT_255_2_778
10
23.137627
20
4.0065088
40
0.6639218
50
359.8021815
51
35.5893658
0
ARC
8
DEFAULT_255_2_778
10
23.0306202
20
4.0077274
40
0.7709328
50
289.5290133
51
359.739077
0
ARC
8
DEFAULT_255_2_778
10
22.9304282
20
4.2269226
40
1.0112322
50
269.5873299
51
290.7277082
0
ARC
8
DEFAULT_255_2_778
10
24.8841461
20
3.4344087
40
0.1883177
50
180.7582527
51
269.0564242
0
ARC
8
DEFAULT_255_2_778
10
28.2542546
20
5.7011738
40
2.4701898
50
261.8549632
51
270.2943529
0
ARC
8
DEFAULT_255_2_778
10
28.1189727
20
4.7855432
40
1.5446346
50
249.777928
51
262.01043
0
ARC
8
DEFAULT_255_2_778
10
27.8984465
20
4.2043471
40
0.923056
50
228.7234551
51
250.1526538
0
ARC
8
DEFAULT_255_2_778
10
27.762006
20
4.0321997
40
0.7037587
50
185.1684606
51
227.8258383
0
ARC
8
DEFAULT_255_2_778
10
28.0248053
20
4.0761914
40
0.9696616
50
179.909882
51
186.3585126
0
ARC
8
DEFAULT_255_2_778
10
27.7333061
20
4.0821431
40
0.6781756
50
124.090248
51
180.3739824
0
ARC
8
DEFAULT_255_2_778
10
27.7900201
20
4.0036059
40
0.7750103
50
112.0918266
51
124.3081946
0
ARC
8
DEFAULT_255_2_778
10
27.9276127
20
5.4291968
40
0.8274221
50
216.6452257
51
238.7643092
0
ARC
8
DEFAULT_255_2_778
10
27.7739965
20
5.3105346
40
0.633354
50
179.8387994
51
216.3266965
0
ARC
8
DEFAULT_255_2_778
10
27.8897169
20
5.3253131
40
0.7491847
50
158.0499888
51
180.9939918
0
ARC
8
DEFAULT_255_2_778
10
27.7734223
20
5.3537723
40
0.6309134
50
115.5584525
51
156.4992051
0
ARC
8
DEFAULT_255_2_778
10
28.0116774
20
4.9066082
40
1.1373245
50
102.4676237
51
116.6678389
0
ARC
8
DEFAULT_255_2_778
10
28.1961752
20
4.1076966
40
1.9572423
50
93.7217271
51
102.6922027
0
ARC
8
DEFAULT_255_2_778
10
28.2733568
20
3.1311025
40
2.9368183
50
89.9026833
51
93.9875903
0
ARC
8
DEFAULT_255_2_778
10
28.2593385
20
1.6676662
40
4.4002915
50
78.0700855
51
89.7525182
0
ARC
8
DEFAULT_255_2_778
10
28.113634
20
-0.4861266
40
6.2365131
50
80.6379322
51
86.3055539
0
ARC
8
DEFAULT_255_2_778
10
28.2460325
20
1.3098759
40
4.4357421
50
86.5173505
51
89.9520476
0
ARC
8
DEFAULT_255_2_778
10
28.2359022
20
3.8726504
40
1.8730173
50
89.5765457
51
97.6209966
0
ARC
8
DEFAULT_255_2_778
10
28.1020704
20
4.8295248
40
0.9068644
50
97.2577482
51
111.5580293
0
ARC
8
DEFAULT_255_2_778
10
27.9084242
20
5.2935121
40
0.404295
50
110.1958785
51
148.0421497
0
ARC
8
DEFAULT_255_2_778
10
27.9245386
20
5.3075192
40
0.4110603
50
150.8886628
51
181.6314001
0
ARC
8
DEFAULT_255_2_778
10
27.9484291
20
5.3084335
40
0.4349672
50
181.662186
51
247.130279
0
ARC
8
DEFAULT_255_2_778
10
28.0567386
20
5.5015536
40
0.6554665
50
244.9670382
51
270.5425199
0
ARC
8
DEFAULT_255_2_778
10
28.6996801
20
4.6899946
40
0.156138
50
90.0003006
51
90.8202302
0
ARC
8
DEFAULT_255_2_778
10
28.6996372
20
4.6897037
40
0.1564289
50
45.3121278
51
89.9845965
0
ARC
8
DEFAULT_255_2_778
10
28.6997274
20
4.6899093
40
0.1562193
50
0.018859
51
45.2826373
0
ARC
8
DEFAULT_255_2_778
10
28.7175404
20
4.6899235
40
0.1384063
50
359.7073527
51
0.0153925
0
ARC
8
DEFAULT_255_2_778
10
28.698763
20
4.6855333
40
0.1572251
50
269.4103382
51
1.3423638
0
ARC
8
DEFAULT_255_2_778
10
28.0034923
20
3.6779169
40
0.8504651
50
89.2890502
51
107.2277459
0
ARC
8
DEFAULT_255_2_778
10
27.8912938
20
4.0186111
40
0.4918661
50
106.498388
51
139.5779052
0
ARC
8
DEFAULT_255_2_778
10
27.8304446
20
4.085925
40
0.4020679
50
141.2582296
51
181.0557788
0
ARC
8
DEFAULT_255_2_778
10
27.9053006
20
4.0677264
40
0.4769777
50
178.7037522
51
206.7925206
0
ARC
8
DEFAULT_255_2_778
10
27.9011931
20
4.0946553
40
0.4861395
50
209.8452611
51
252.3667486
0
ARC
8
DEFAULT_255_2_778
10
28.1477147
20
4.7468052
40
1.1829163
50
250.5555398
51
265.3470561
0
ARC
8
DEFAULT_255_2_778
10
28.2548778
20
5.7385939
40
2.1802887
50
264.6544295
51
270.1857178
0
ARC
8
DEFAULT_255_2_778
10
28.2545979
20
7.1711316
40
3.6128225
50
270.1165167
51
273.4568267
0
ARC
8
DEFAULT_255_2_778
10
28.2096781
20
7.99167
40
4.4345787
50
273.3969095
51
277.2647867
0
ARC
8
DEFAULT_255_2_778
10
28.3227602
20
7.1857208
40
3.6208142
50
277.1024634
51
282.6134371
0
ARC
8
DEFAULT_255_2_778
10
28.5108291
20
6.2922878
40
2.7078992
50
282.8582636
51
283.3274896
0
ARC
8
DEFAULT_255_2_778
10
28.250632
20
6.8319048
40
3.5998561
50
270.3519552
51
285.0923216
0
ARC
8
DEFAULT_255_2_778
10
12.0554287
20
5.774218
40
0.1614162
50
19.5439589
51
90.8461645
0
ARC
8
DEFAULT_255_2_778
10
12.0499415
20
5.7684295
40
0.1672159
50
88.9365631
51
89.9992036
0
ARC
8
DEFAULT_255_2_778
10
12.050012
20
5.7690031
40
0.1666422
50
90.0234331
51
159.1861348
0
ARC
8
DEFAULT_255_2_778
10
13.1218864
20
3.4560732
40
0.340565
50
229.2645784
51
243.7654436
0
ARC
8
DEFAULT_255_2_778
10
13.0454818
20
3.3136429
40
0.1791184
50
245.5485215
51
247.9625885
0
ARC
8
DEFAULT_255_2_778
10
13.0368849
20
3.2912309
40
0.1551188
50
247.7999114
51
270.4284702
0
ARC
8
DEFAULT_255_2_778
10
13.041038
20
3.3181842
40
0.1820922
50
269.0581882
51
269.9957496
0
ARC
8
DEFAULT_255_2_778
10
13.0411784
20
3.3155708
40
0.1794788
50
269.9508676
51
314.8899169
0
ARC
8
DEFAULT_255_2_778
10
13.040974
20
3.3159343
40
0.1798806
50
314.8543078
51
0.0078518
0
ARC
8
DEFAULT_255_2_778
10
13.041049
20
3.3159586
40
0.1798055
50
0.000138
51
0.5920703
0
ARC
8
DEFAULT_255_2_778
10
12.9772801
20
3.3022167
40
0.2440639
50
3.6646877
51
21.7652171
0
LINE
8
DEFAULT_255_2_778
10
16.0048449
20
3.2218166
11
14.4350449
21
5.2861166
0
LINE
8
DEFAULT_255_2_778
10
14.4350449
20
5.2861166
11
14.4350449
21
3.1805166
0
LINE
8
DEFAULT_255_2_778
10
14.4350449
20
3.1805166
11
14.0770449
21
3.1805166
0
LINE
8
DEFAULT_255_2_778
10
14.0770449
20
3.1805166
11
14.0770449
21
5.7734166
0
LINE
8
DEFAULT_255_2_778
10
14.4025449
20
5.8930166
11
15.9680449
21
3.8330166
0
LINE
8
DEFAULT_255_2_778
10
15.9680449
20
3.8330166
11
15.9680449
21
5.9303166
0
LINE
8
DEFAULT_255_2_778
10
15.9680449
20
5.9303166
11
16.3260449
21
5.9303166
0
LINE
8
DEFAULT_255_2_778
10
16.3260449
20
5.9303166
11
16.3260449
21
3.3416166
0
LINE
8
DEFAULT_255_2_778
10
17.1324449
20
3.3414166
11
17.2179449
21
3.6385166
0
LINE
8
DEFAULT_255_2_778
10
19.2025449
20
5.8385166
11
19.1456449
21
5.5332166
0
LINE
8
DEFAULT_255_2_778
10
20.0778449
20
5.9348166
11
20.4477449
21
5.9348166
0
LINE
8
DEFAULT_255_2_778
10
20.4477449
20
5.9348166
11
20.4477449
21
3.1853166
0
LINE
8
DEFAULT_255_2_778
10
20.4477449
20
3.1853166
11
20.0778449
21
3.1853166
0
LINE
8
DEFAULT_255_2_778
10
20.0778449
20
3.1853166
11
20.0778449
21
5.9348166
0
LINE
8
DEFAULT_255_2_778
10
22.9194449
20
4.4624166
11
22.0002449
21
4.4624166
0
LINE
8
DEFAULT_255_2_778
10
22.0002449
20
4.4624166
11
22.0002449
21
3.5292166
0
LINE
8
DEFAULT_255_2_778
10
22.0002449
20
3.5292166
11
22.9194449
21
3.5292166
0
LINE
8
DEFAULT_255_2_778
10
22.7403449
20
5.6515166
11
22.0002449
21
5.6515166
0
LINE
8
DEFAULT_255_2_778
10
22.0002449
20
5.6515166
11
22.0002449
21
4.7720166
0
LINE
8
DEFAULT_255_2_778
10
22.0002449
20
4.7720166
11
22.7403449
21
4.7720166
0
LINE
8
DEFAULT_255_2_778
10
22.9234449
20
3.2157166
11
21.8174449
21
3.2157166
0
LINE
8
DEFAULT_255_2_778
10
21.6303449
20
3.4014166
11
21.6303449
21
5.7795166
0
LINE
8
DEFAULT_255_2_778
10
21.8174449
20
5.9652166
11
22.7323449
21
5.9652166
0
LINE
8
DEFAULT_255_2_778
10
24.6958449
20
3.4319166
11
24.6958449
21
5.9983166
0
LINE
8
DEFAULT_255_2_778
10
24.6958449
20
5.9983166
11
25.0662449
21
5.9983166
0
LINE
8
DEFAULT_255_2_778
10
25.0662449
20
5.9983166
11
25.0662449
21
3.5832166
0
LINE
8
DEFAULT_255_2_778
10
25.0662449
20
3.5832166
11
26.5434449
21
3.5832166
0
LINE
8
DEFAULT_255_2_778
10
26.5434449
20
3.5832166
11
26.5434449
21
3.2488166
0
LINE
8
DEFAULT_255_2_778
10
26.5434449
20
3.2488166
11
24.8810449
21
3.2461166
0
LINE
8
DEFAULT_255_2_778
10
29.1689449
20
5.9729166
11
29.1281449
21
5.6673166
0
LINE
8
DEFAULT_255_2_778
10
28.0629449
20
4.8461166
11
28.6974449
21
4.8461166
0
LINE
8
DEFAULT_255_2_778
10
28.6971449
20
4.5283166
11
28.0140449
21
4.5283166
0
LINE
8
DEFAULT_255_2_778
10
29.1350449
20
3.6573166
11
29.1879449
21
3.3562166
0
LINE
8
DEFAULT_255_2_778
10
12.0530449
20
5.3906166
11
12.7012449
21
3.7666166
0
LINE
8
DEFAULT_255_2_778
10
12.7012449
20
3.7666166
11
11.7222449
21
4.5497166
0
LINE
8
DEFAULT_255_2_778
10
11.7222449
20
4.5497166
11
12.0530449
21
5.3906166
0
LINE
8
DEFAULT_255_2_778
10
13.2044449
20
3.3924166
11
12.2075449
21
5.8282166
0
LINE
8
DEFAULT_255_2_778
10
11.8942449
20
5.8282166
11
10.8036449
21
3.0837166
0
LINE
8
DEFAULT_255_2_778
10
10.8036449
20
3.0837166
11
11.1740449
21
3.1567166
0
LINE
8
DEFAULT_255_2_778
10
11.1740449
20
3.1567166
11
11.6071449
21
4.2582166
0
LINE
8
DEFAULT_255_2_778
10
11.6071449
20
4.2582166
11
12.8996449
21
3.1980166
0
LINE
8
DEFAULT_255_2_778
10
13.2039449
20
3.3927166
11
13.2044449
21
3.3924166
0
ENDSEC
0
EOF