0
SECTION
2
HEADER
9
$MEASUREMENT
70
1
0
ENDSEC
0
SECTION
2
TABLES
0
TABLE
2
LTYPE
0
LTYPE
72
65
70
64
2
CONTINUOUS
3
______
73
0
40
0
0
ENDTAB
0
TABLE
2
LAYER
0
LAYER
2
DEFAULT_255_2_778
70
0
62
255
6
CONTINUOUS
0
ENDTAB
0
ENDSEC
0
SECTION
2
ENTITIES
0
ARC
8
DEFAULT_255_2_778
10
10.2495739
20
0.4586255
40
0.1355548
50
232.8510077
51
236.3966787
0
ARC
8
DEFAULT_255_2_778
10
10.3048534
20
0.540326
40
0.2341975
50
236.194766
51
243.4755839
0
ARC
8
DEFAULT_255_2_778
10
10.2807206
20
0.4836045
40
0.1727095
50
242.235427
51
268.2109427
0
ARC
8
DEFAULT_255_2_778
10
10.275604
20
0.4232619
40
0.1122831
50
269.8594935
51
281.0613127
0
ARC
8
DEFAULT_255_2_778
10
10.2765174
20
0.4158348
40
0.1048201
50
281.3501955
51
314.0923772
0
ARC
8
DEFAULT_255_2_778
10
10.2578689
20
0.43744
40
0.1333235
50
313.3877636
51
319.3447764
0
ARC
8
DEFAULT_255_2_778
10
12.9609539
20
-2.3599282
40
3.757252
50
133.6340916
51
133.829245
0
ARC
8
DEFAULT_255_2_778
10
16.1987656
20
-5.753419
40
8.4475827
50
133.4170342
51
133.6457831
0
ARC
8
DEFAULT_255_2_778
10
18.2656387
20
-7.936554
40
11.4539164
50
133.1971076
51
133.4212314
0
ARC
8
DEFAULT_255_2_778
10
19.5506804
20
-9.3051177
40
13.3312281
50
132.8635141
51
133.1971228
0
ARC
8
DEFAULT_255_2_778
10
20.0945644
20
-9.890373
40
14.1301859
50
132.4429229
51
132.8656696
0
ARC
8
DEFAULT_255_2_778
10
19.6431419
20
-9.3946903
40
13.4597519
50
131.7110118
51
132.4488268
0
ARC
8
DEFAULT_255_2_778
10
18.0536684
20
-7.6069756
40
11.0676108
50
130.5908139
51
131.726233
0
ARC
8
DEFAULT_255_2_778
10
16.3091048
20
-5.5729723
40
8.3879337
50
129.5879858
51
130.5815938
0
ARC
8
DEFAULT_255_2_778
10
14.4528993
20
-3.3140107
40
5.4641896
50
127.1489595
51
129.6831152
0
ARC
8
DEFAULT_255_2_778
10
12.8942479
20
-1.2567745
40
2.8831792
50
124.058321
51
127.148791
0
ARC
8
DEFAULT_255_2_778
10
12.0827523
20
-0.0526131
40
1.4311043
50
119.4929754
51
124.1414445
0
ARC
8
DEFAULT_255_2_778
10
11.6826595
20
0.6591761
40
0.6145829
50
111.9551807
51
119.6960824
0
ARC
8
DEFAULT_255_2_778
10
11.5329376
20
1.0386986
40
0.2066287
50
96.0713104
51
112.7961688
0
ARC
8
DEFAULT_255_2_778
10
11.518049
20
1.1470426
40
0.0973752
50
90.0691123
51
94.1021555
0
ARC
8
DEFAULT_255_2_778
10
11.5182215
20
1.169719
40
0.0746992
50
81.9123321
51
90.2223697
0
ARC
8
DEFAULT_255_2_778
10
11.5198185
20
1.1826709
40
0.0616518
50
79.443159
51
81.688338
0
ARC
8
DEFAULT_255_2_778
10
11.5318651
20
1.2374659
40
0.0058615
50
94.0918266
51
97.3642339
0
ARC
8
DEFAULT_255_2_778
10
11.5323453
20
1.2312608
40
0.0120852
50
89.8601735
51
94.2633868
0
ARC
8
DEFAULT_255_2_778
10
11.5322978
20
1.2270421
40
0.0163042
50
56.8879785
51
89.7294253
0
ARC
8
DEFAULT_255_2_778
10
11.5269499
20
1.2217354
40
0.0237234
50
3.9126085
51
53.068101
0
ARC
8
DEFAULT_255_2_778
10
11.491021
20
1.2143363
40
0.0602753
50
359.6398277
51
8.6043711
0
ARC
8
DEFAULT_255_2_778
10
11.4034388
20
1.2183443
40
0.1479214
50
343.5103013
51
358.3005265
0
ARC
8
DEFAULT_255_2_778
10
11.1410906
20
1.2895991
40
0.4197493
50
337.3516813
51
344.348655
0
ARC
8
DEFAULT_255_2_778
10
10.7351087
20
1.45447
40
0.8579219
50
333.9254685
51
337.6305707
0
ARC
8
DEFAULT_255_2_778
10
10.973878
20
1.338177
40
0.5923384
50
331.7628641
51
333.8779127
0
ARC
8
DEFAULT_255_2_778
10
10.0860817
20
1.8100837
40
1.5977595
50
329.9155712
51
331.9166158
0
ARC
8
DEFAULT_255_2_778
10
9.0406196
20
2.4157835
40
2.8060074
50
327.5831961
51
329.9147537
0
ARC
8
DEFAULT_255_2_778
10
7.8558532
20
3.165248
40
4.207922
50
325.5866224
51
327.6165152
0
ARC
8
DEFAULT_255_2_778
10
6.5727954
20
4.0438907
40
5.7629945
50
323.5104007
51
325.5892916
0
ARC
8
DEFAULT_255_2_778
10
5.1494011
20
5.0950817
40
7.5324726
50
321.613026
51
323.5205861
0
ARC
8
DEFAULT_255_2_778
10
3.6488068
20
6.2825016
40
9.446042
50
319.8592998
51
321.6195922
0
ARC
8
DEFAULT_255_2_778
10
2.0669467
20
7.6152129
40
11.5144713
50
318.2360503
51
319.8640935
0
ARC
8
DEFAULT_255_2_778
10
0.9563089
20
8.6002056
40
12.9989592
50
317.7305976
51
318.2583258
0
ARC
8
DEFAULT_255_2_778
10
10.4375629
20
-0.0141189
40
0.1887972
50
314.1258483
51
316.8992293
0
ARC
8
DEFAULT_255_2_778
10
10.2987409
20
0.1276873
40
0.3872416
50
309.9938453
51
314.2615953
0
ARC
8
DEFAULT_255_2_778
10
10.252501
20
0.1818265
40
0.4584374
50
303.2749132
51
310.0725205
0
ARC
8
DEFAULT_255_2_778
10
10.2591043
20
0.1717945
40
0.4464275
50
302.7314329
51
303.2727859
0
ARC
8
DEFAULT_255_2_778
10
10.2788306
20
0.1382362
40
0.4075346
50
289.7078317
51
302.9494837
0
ARC
8
DEFAULT_255_2_778
10
10.3075625
20
0.05685
40
0.3212268
50
270.2989619
51
289.7785436
0
ARC
8
DEFAULT_255_2_778
10
10.3096588
20
0.0367333
40
0.3011059
50
249.9131696
51
269.9200562
0
ARC
8
DEFAULT_255_2_778
10
10.3333092
20
0.0995078
40
0.3681851
50
235.2862155
51
249.8116554
0
ARC
8
DEFAULT_255_2_778
10
10.3926985
20
0.1887976
40
0.4754071
50
228.7296303
51
235.5308811
0
ARC
8
DEFAULT_255_2_778
10
7.0257643
20
2.6059073
40
0.1601862
50
223.7456581
51
227.1446613
0
ARC
8
DEFAULT_255_2_778
10
7.1297483
20
2.7066709
40
0.304981
50
217.9560437
51
223.9133616
0
ARC
8
DEFAULT_255_2_778
10
7.1450478
20
2.7193708
40
0.324856
50
213.3454565
51
218.0625129
0
ARC
8
DEFAULT_255_2_778
10
7.0982804
20
2.6912001
40
0.2703116
50
195.0994771
51
213.8063432
0
ARC
8
DEFAULT_255_2_778
10
7.0383669
20
2.6734049
40
0.2078369
50
180.1583495
51
194.6656479
0
ARC
8
DEFAULT_255_2_778
10
7.0293096
20
2.6724205
40
0.1987791
50
156.1443465
51
179.8818243
0
ARC
8
DEFAULT_255_2_778
10
7.0826292
20
2.6485424
40
0.2572006
50
140.834957
51
156.0833342
0
ARC
8
DEFAULT_255_2_778
10
6.9566715
20
2.7397939
40
0.1022906
50
131.4521009
51
135.9001259
0
ARC
8
DEFAULT_255_2_778
10
7.0228679
20
2.6658451
40
0.2015386
50
123.5686941
51
131.6400704
0
ARC
8
DEFAULT_255_2_778
10
7.0354643
20
2.6479819
40
0.2233887
50
120.3866017
51
123.7272995
0
ARC
8
DEFAULT_255_2_778
10
7.0330838
20
2.6526977
40
0.2181166
50
104.3266911
51
120.4737858
0
ARC
8
DEFAULT_255_2_778
10
7.0300606
20
2.6630665
40
0.2073225
50
89.9816747
51
104.2262661
0
ARC
8
DEFAULT_255_2_778
10
7.028855
20
2.6413128
40
0.2290795
50
69.9988887
51
89.6818707
0
ARC
8
DEFAULT_255_2_778
10
6.9994945
20
2.5604308
40
0.3151258
50
55.9419737
51
70.0125592
0
ARC
8
DEFAULT_255_2_778
10
6.9491628
20
2.4806879
40
0.4093886
50
52.846551
51
56.3562749
0
ARC
8
DEFAULT_255_2_778
10
1.5585114
20
0.4622
40
0.1357001
50
303.6346289
51
307.1778342
0
ARC
8
DEFAULT_255_2_778
10
1.5032941
20
0.5437228
40
0.2341609
50
296.5507906
51
303.8348161
0
ARC
8
DEFAULT_255_2_778
10
1.5275009
20
0.4869119
40
0.1725616
50
271.7926097
51
297.792711
0
ARC
8
DEFAULT_255_2_778
10
1.5326242
20
0.4265973
40
0.112163
50
258.9263671
51
270.1403374
0
ARC
8
DEFAULT_255_2_778
10
1.5316844
20
0.4191277
40
0.1046533
50
226.1913852
51
258.6458788
0
ARC
8
DEFAULT_255_2_778
10
1.5501827
20
0.4406706
40
0.1330143
50
220.6165874
51
226.8649651
0
ARC
8
DEFAULT_255_2_778
10
-1.1527208
20
-2.3564224
40
3.7572439
50
46.170755
51
46.3659084
0
ARC
8
DEFAULT_255_2_778
10
-4.4113563
20
-5.7717827
40
8.4777725
50
46.3543909
51
46.5823241
0
ARC
8
DEFAULT_255_2_778
10
-6.4765895
20
-7.9532459
40
11.4817648
50
46.5785151
51
46.8020934
0
ARC
8
DEFAULT_255_2_778
10
-7.7602158
20
-9.320441
40
13.3571098
50
46.8025982
51
47.1355563
0
ARC
8
DEFAULT_255_2_778
10
-8.2889648
20
-9.8893768
40
14.1338102
50
47.1334202
51
47.5560506
0
ARC
8
DEFAULT_255_2_778
10
-7.8428328
20
-9.399456
40
13.4711987
50
47.5500347
51
48.2872025
0
ARC
8
DEFAULT_255_2_778
10
-6.2503393
20
-7.6084831
40
11.0746158
50
48.2720523
51
49.4067053
0
ARC
8
DEFAULT_255_2_778
10
-4.5062282
20
-5.5751904
40
8.3957728
50
49.4159354
51
50.407628
0
ARC
8
DEFAULT_255_2_778
10
-2.6479204
20
-3.3140527
40
5.4690124
50
50.31268
51
52.8448579
0
ARC
8
DEFAULT_255_2_778
10
-1.0873093
20
-1.2546908
40
2.8851242
50
52.8450178
51
55.9336421
0
ARC
8
DEFAULT_255_2_778
10
-0.2749179
20
-0.0495597
40
1.4317446
50
55.8503615
51
60.4968133
0
ARC
8
DEFAULT_255_2_778
10
0.1256062
20
0.6627012
40
0.6146007
50
60.2934956
51
68.0332994
0
ARC
8
DEFAULT_255_2_778
10
0.2754667
20
1.0423572
40
0.2064716
50
67.190713
51
83.9220647
0
ARC
8
DEFAULT_255_2_778
10
0.2903667
20
1.1506645
40
0.0972532
50
85.8952406
51
89.9307946
0
ARC
8
DEFAULT_255_2_778
10
0.2901942
20
1.1733547
40
0.0745635
50
89.7771475
51
98.0950273
0
ARC
8
DEFAULT_255_2_778
10
0.2885975
20
1.1862945
40
0.0615281
50
98.3197976
51
100.5673817
0
ARC
8
DEFAULT_255_2_778
10
0.2765923
20
1.2412137
40
0.005612
50
82.6136832
51
85.9582019
0
ARC
8
DEFAULT_255_2_778
10
0.2761056
20
1.2349015
40
0.0119427
50
85.7634992
51
90.1277406
0
ARC
8
DEFAULT_255_2_778
10
0.2761623
20
1.2305571
40
0.0162871
50
90.2931192
51
123.2820337
0
ARC
8
DEFAULT_255_2_778
10
0.281597
20
1.2251583
40
0.0238353
50
127.0844742
51
176.0502595
0
ARC
8
DEFAULT_255_2_778
10
0.3177155
20
1.217721
40
0.0605815
50
171.3808272
51
180.3604955
0
ARC
8
DEFAULT_255_2_778
10
0.4057277
20
1.2217375
40
0.1486575
50
181.6951926
51
196.4574803
0
ARC
8
DEFAULT_255_2_778
10
0.6682518
20
1.2928681
40
0.4206228
50
195.6186719
51
202.5863303
0
ARC
8
DEFAULT_255_2_778
10
1.0727007
20
1.4566356
40
0.8569603
50
202.3100745
51
206.0066843
0
ARC
8
DEFAULT_255_2_778
10
0.8348371
20
1.3418642
40
0.5928586
50
206.1175874
51
208.2311239
0
ARC
8
DEFAULT_255_2_778
10
1.7219468
20
1.8133026
40
1.5974537
50
208.0779789
51
210.0796544
0
ARC
8
DEFAULT_255_2_778
10
2.7674159
20
2.4188676
40
2.8056402
50
210.0800726
51
212.4121217
0
ARC
8
DEFAULT_255_2_778
10
3.9518841
20
3.1680157
40
4.2071337
50
212.3788971
51
214.4092451
0
ARC
8
DEFAULT_255_2_778
10
5.2335879
20
4.045589
40
5.7604847
50
214.4065253
51
216.4863147
0
ARC
8
DEFAULT_255_2_778
10
6.6560288
20
5.095936
40
7.5286944
50
216.4760464
51
218.3844842
0
ARC
8
DEFAULT_255_2_778
10
8.1552821
20
6.2821832
40
9.4404845
50
218.3778926
51
220.1390876
0
ARC
8
DEFAULT_255_2_778
10
9.735373
20
7.61333
40
11.5065527
50
220.1343042
51
221.763294
0
ARC
8
DEFAULT_255_2_778
10
10.844952
20
8.5973776
40
12.9896214
50
221.7410787
51
222.2691201
0
ARC
8
DEFAULT_255_2_778
10
1.3703171
20
-0.0108516
40
0.1884575
50
223.1005329
51
225.880113
0
ARC
8
DEFAULT_255_2_778
10
1.5092422
20
0.1310944
40
0.3870737
50
225.7447026
51
230.0165352
0
ARC
8
DEFAULT_255_2_778
10
1.5555105
20
0.185286
40
0.4583279
50
229.9377224
51
236.7416316
0
ARC
8
DEFAULT_255_2_778
10
1.5536569
20
0.1825423
40
0.4550169
50
236.7473374
51
237.2788992
0
ARC
8
DEFAULT_255_2_778
10
1.5294373
20
0.1420731
40
0.4078805
50
237.0682692
51
250.3123952
0
ARC
8
DEFAULT_255_2_778
10
1.5008846
20
0.0611154
40
0.3220364
50
250.24294
51
269.7041845
0
ARC
8
DEFAULT_255_2_778
10
1.4988
20
0.0412845
40
0.3022014
50
270.0800003
51
289.9647758
0
ARC
8
DEFAULT_255_2_778
10
1.4752515
20
0.1041262
40
0.3693076
50
290.0697289
51
304.6258962
0
ARC
8
DEFAULT_255_2_778
10
1.4157648
20
0.1938655
40
0.476958
50
304.3807344
51
311.1970797
0
ARC
8
DEFAULT_255_2_778
10
4.7821564
20
2.6097412
40
0.1605092
50
312.7517727
51
316.1526078
0
ARC
8
DEFAULT_255_2_778
10
4.6781716
20
2.7108708
40
0.3055592
50
315.9840395
51
321.9435396
0
ARC
8
DEFAULT_255_2_778
10
4.6630581
20
2.7234645
40
0.3252234
50
321.8378625
51
326.5586788
0
ARC
8
DEFAULT_255_2_778
10
4.7103207
20
2.6948797
40
0.2700415
50
326.0933871
51
344.8433591
0
ARC
8
DEFAULT_255_2_778
10
4.7705216
20
2.6769301
40
0.2072477
50
345.2815958
51
359.8400829
0
ARC
8
DEFAULT_255_2_778
10
4.7795448
20
2.6759356
40
0.1982239
50
0.1202782
51
23.9073387
0
ARC
8
DEFAULT_255_2_778
10
4.7260136
20
2.6519104
40
0.2568989
50
23.9675361
51
39.229067
0
ARC
8
DEFAULT_255_2_778
10
4.8515289
20
2.7431674
40
0.1023286
50
44.0999367
51
48.5485318
0
ARC
8
DEFAULT_255_2_778
10
4.7853261
20
2.6692083
40
0.2015885
50
48.3608811
51
56.4311468
0
ARC
8
DEFAULT_255_2_778
10
4.7727553
20
2.6513844
40
0.2233916
50
56.272453
51
59.6180498
0
ARC
8
DEFAULT_255_2_778
10
4.775059
20
2.6559783
40
0.2182638
50
59.5298357
51
75.6760741
0
ARC
8
DEFAULT_255_2_778
10
4.7780731
20
2.6663075
40
0.2075102
50
75.7768319
51
90.0186562
0
ARC
8
DEFAULT_255_2_778
10
4.779277
20
2.6445118
40
0.2293094
50
90.3176823
51
109.9804506
0
ARC
8
DEFAULT_255_2_778
10
4.8091144
20
2.5625065
40
0.3165742
50
109.9841296
51
124.3014648
0
ARC
8
DEFAULT_255_2_778
10
4.860049
20
2.482279
40
0.4115648
50
123.8649125
51
127.1132559
0
ARC
8
DEFAULT_255_2_778
10
6.9601132
20
5.5855313
40
0.23198
50
127.5642527
51
133.4370058
0
ARC
8
DEFAULT_255_2_778
10
7.4594217
20
4.9559156
40
1.0355301
50
124.6706954
51
128.2249824
0
ARC
8
DEFAULT_255_2_778
10
8.2202444
20
3.8690178
40
2.3622454
50
122.794229
51
124.8510457
0
ARC
8
DEFAULT_255_2_778
10
9.2964639
20
2.2003757
40
4.3478473
50
121.0176429
51
122.8063145
0
ARC
8
DEFAULT_255_2_778
10
10.6035416
20
0.0389275
40
6.8737698
50
120.0643284
51
121.0708092
0
ARC
8
DEFAULT_255_2_778
10
12.2104781
20
-2.7413338
40
10.0850148
50
118.9238279
51
120.0524646
0
ARC
8
DEFAULT_255_2_778
10
14.486405
20
-6.8548808
40
14.7861963
50
118.0234029
51
118.9336445
0
ARC
8
DEFAULT_255_2_778
10
17.118715
20
-11.7942849
40
20.3832279
50
117.3238435
51
118.0318241
0
ARC
8
DEFAULT_255_2_778
10
19.7370291
20
-16.8534927
40
26.0798182
50
116.8555998
51
117.3324226
0
ARC
8
DEFAULT_255_2_778
10
22.9236976
20
-23.1544661
40
33.140775
50
116.2463841
51
116.8496452
0
ARC
8
DEFAULT_255_2_778
10
26.9589097
20
-31.3303468
40
42.2582283
50
115.7910721
51
116.251194
0
ARC
8
DEFAULT_255_2_778
10
29.7671825
20
-37.1277846
40
48.7000177
50
115.6543934
51
115.7982715
0
ARC
8
DEFAULT_255_2_778
10
8.7201958
20
6.699507
40
0.0810551
50
112.336668
51
117.384466
0
ARC
8
DEFAULT_255_2_778
10
8.7389137
20
6.6561966
40
0.1282325
50
108.2922411
51
112.7179798
0
ARC
8
DEFAULT_255_2_778
10
8.7381972
20
6.6605484
40
0.1238777
50
90.5987091
51
108.6093207
0
LINE
8
DEFAULT_255_2_778
10
8.7369028
20
6.7844193
11
8.7370797
21
6.7844195
0
ARC
8
DEFAULT_255_2_778
10
8.7376897
20
6.690627
40
0.0937944
50
69.359595
51
90.3725991
0
ARC
8
DEFAULT_255_2_778
10
8.7358202
20
6.6897608
40
0.0952752
50
38.1493577
51
68.4910893
0
ARC
8
DEFAULT_255_2_778
10
8.7094869
20
6.6663405
40
0.1304685
50
32.8327883
51
39.0941506
0
ARC
8
DEFAULT_255_2_778
10
9.2683971
20
7.1345825
40
0.599887
50
221.5007944
51
222.7558524
0
ARC
8
DEFAULT_255_2_778
10
9.829539
20
7.651205
40
1.3626308
50
222.6879877
51
224.2834558
0
ARC
8
DEFAULT_255_2_778
10
10.2022703
20
8.0138677
40
1.8826814
50
224.264712
51
226.2547606
0
ARC
8
DEFAULT_255_2_778
10
10.3937404
20
8.2132193
40
2.15909
50
226.2420264
51
228.8677916
0
ARC
8
DEFAULT_255_2_778
10
10.4190012
20
8.2410014
40
2.1966319
50
228.8481967
51
232.4917759
0
ARC
8
DEFAULT_255_2_778
10
10.3567389
20
8.1603564
40
2.0947491
50
232.4996473
51
234.4363132
0
ARC
8
DEFAULT_255_2_778
10
10.2176487
20
7.9594106
40
1.8503934
50
234.3209414
51
241.7752593
0
ARC
8
DEFAULT_255_2_778
10
9.9710089
20
7.4760627
40
1.3079209
50
241.2812827
51
259.4302163
0
ARC
8
DEFAULT_255_2_778
10
9.900286
20
7.1545991
40
0.9789958
50
260.0480114
51
269.8955269
0
ARC
8
DEFAULT_255_2_778
10
9.8986076
20
7.0861355
40
0.9105306
50
269.9932861
51
273.1482599
0
ARC
8
DEFAULT_255_2_778
10
9.9377155
20
6.2933876
40
0.1169176
50
275.3485055
51
284.3088263
0
ARC
8
DEFAULT_255_2_778
10
9.9235633
20
6.355554
40
0.1806608
50
283.7851583
51
303.3251459
0
ARC
8
DEFAULT_255_2_778
10
9.923373
20
6.3560615
40
0.1811895
50
303.2872574
51
307.4115341
0
ARC
8
DEFAULT_255_2_778
10
9.9182596
20
6.3617529
40
0.1888175
50
307.5947737
51
329.36284
0
ARC
8
DEFAULT_255_2_778
10
9.8868043
20
6.381314
40
0.2258518
50
329.1596309
51
338.6199504
0
ARC
8
DEFAULT_255_2_778
10
9.993642
20
6.3407099
40
0.11157
50
338.0354835
51
0.0438652
0
ARC
8
DEFAULT_255_2_778
10
9.9755917
20
6.3399207
40
0.1296232
50
0.3865852
51
17.5768583
0
ARC
8
DEFAULT_255_2_778
10
9.867498
20
6.2983444
40
0.2453254
50
19.2102099
51
42.4441632
0
ARC
8
DEFAULT_255_2_778
10
9.5557873
20
6.0222569
40
0.6617046
50
41.8700745
51
54.4715838
0
ARC
8
DEFAULT_255_2_778
10
9.2002224
20
5.5508382
40
1.2520741
50
53.7657597
51
58.0031207
0
ARC
8
DEFAULT_255_2_778
10
8.8980891
20
5.0657983
40
1.8235179
50
58.0275417
51
62.3609149
0
ARC
8
DEFAULT_255_2_778
10
8.7525931
20
4.7956603
40
2.1303284
50
62.2647413
51
64.350611
0
ARC
8
DEFAULT_255_2_778
10
8.8872315
20
5.0778138
40
1.8176986
50
64.3265695
51
65.6629945
0
ARC
8
DEFAULT_255_2_778
10
9.242283
20
5.8642817
40
0.9548007
50
65.6266844
51
66.5431156
0
ARC
8
DEFAULT_255_2_778
10
9.5912203
20
6.6681937
40
0.0784265
50
66.6138635
51
66.8016147
0
ARC
8
DEFAULT_255_2_778
10
9.7979604
20
7.1438821
40
0.440247
50
233.0937371
51
246.457634
0
ARC
8
DEFAULT_255_2_778
10
9.7514327
20
7.0812159
40
0.362198
50
216.3926126
51
233.0261693
0
ARC
8
DEFAULT_255_2_778
10
9.7404584
20
7.0721701
40
0.347998
50
210.6792075
51
216.2657648
0
ARC
8
DEFAULT_255_2_778
10
9.7530679
20
7.0787563
40
0.362204
50
193.6619344
51
210.5575011
0
ARC
8
DEFAULT_255_2_778
10
9.7732691
20
7.0845097
40
0.3831933
50
183.6911734
51
193.7844346
0
ARC
8
DEFAULT_255_2_778
10
9.7395815
20
7.0823057
40
0.3494337
50
180.045148
51
183.686145
0
ARC
8
DEFAULT_255_2_778
10
9.6806453
20
7.0822809
40
0.2904975
50
177.4338789
51
180.0494116
0
ARC
8
DEFAULT_255_2_778
10
9.6210837
20
7.0847799
40
0.2308838
50
176.3016691
51
177.3916438
0
ARC
8
DEFAULT_255_2_778
10
9.5454957
20
7.0899125
40
0.1551222
50
174.3946403
51
176.3926211
0
ARC
8
DEFAULT_255_2_778
10
9.4419188
20
7.1000623
40
0.0510491
50
173.3442173
51
174.3770107
0
ARC
8
DEFAULT_255_2_778
10
9.0766786
20
7.1382862
40
0.31619
50
354.1354999
51
359.9689389
0
ARC
8
DEFAULT_255_2_778
10
9.1025313
20
7.1388823
40
0.2903384
50
359.8485327
51
20.5546683
0
ARC
8
DEFAULT_255_2_778
10
9.0979477
20
7.1367177
40
0.2953903
50
20.635652
51
33.3162358
0
ARC
8
DEFAULT_255_2_778
10
9.1025195
20
7.1404037
40
0.2895459
50
33.2036128
51
43.2366253
0
ARC
8
DEFAULT_255_2_778
10
9.167808
20
7.2027099
40
0.1993019
50
43.0444329
51
49.2403939
0
ARC
8
DEFAULT_255_2_778
10
9.2607341
20
7.309993
40
0.0573706
50
49.5836701
51
51.1602074
0
ARC
8
DEFAULT_255_2_778
10
9.2006647
20
7.2294975
40
0.1577842
50
52.5017615
51
79.3079366
0
ARC
8
DEFAULT_255_2_778
10
9.1753495
20
7.1139867
40
0.2760078
50
78.5927987
51
90.4769689
0
ARC
8
DEFAULT_255_2_778
10
9.178225
20
6.8967371
40
0.4932749
50
90.6009006
51
100.9536878
0
ARC
8
DEFAULT_255_2_778
10
9.2595698
20
6.4688899
40
0.928785
50
100.8651718
51
108.2983542
0
ARC
8
DEFAULT_255_2_778
10
9.4165081
20
5.9726884
40
1.449185
50
108.0300044
51
111.0768533
0
ARC
8
DEFAULT_255_2_778
10
9.7115151
20
5.2297139
40
2.2485585
50
111.2827995
51
116.5538642
0
ARC
8
DEFAULT_255_2_778
10
10.104732
20
4.4219695
40
3.1468947
50
116.3835368
51
118.5422334
0
ARC
8
DEFAULT_255_2_778
10
10.2388156
20
4.1726549
40
3.429975
50
118.5199106
51
119.7821672
0
ARC
8
DEFAULT_255_2_778
10
10.1811022
20
4.2729523
40
3.3142583
50
119.7774561
51
120.5773213
0
ARC
8
DEFAULT_255_2_778
10
9.9192611
20
4.7146827
40
2.8007547
50
120.5625554
51
121.4591239
0
ARC
8
DEFAULT_255_2_778
10
9.4264768
20
5.5204753
40
1.8562241
50
121.4648012
51
121.9675653
0
ARC
8
DEFAULT_255_2_778
10
8.8599472
20
6.4276114
40
0.7867142
50
121.9427398
51
122.3560912
0
ARC
8
DEFAULT_255_2_778
10
6.7254607
20
5.8964425
40
0.2123632
50
115.8359124
51
118.9217773
0
ARC
8
DEFAULT_255_2_778
10
6.8068441
20
5.7468568
40
0.3826525
50
118.7557943
51
124.5277212
0
ARC
8
DEFAULT_255_2_778
10
6.7989101
20
5.756943
40
0.3698469
50
124.4007614
51
131.15248
0
ARC
8
DEFAULT_255_2_778
10
6.6852581
20
5.8716544
40
0.2089268
50
128.3849013
51
170.8795728
0
ARC
8
DEFAULT_255_2_778
10
6.6307398
20
5.8888523
40
0.1525999
50
174.0120413
51
180.0058567
0
ARC
8
DEFAULT_255_2_778
10
6.6448228
20
5.8896874
40
0.1666851
50
180.2924197
51
198.9944076
0
ARC
8
DEFAULT_255_2_778
10
6.6892562
20
5.9040272
40
0.2133683
50
198.7519046
51
207.5683037
0
ARC
8
DEFAULT_255_2_778
10
6.5842795
20
5.8444106
40
0.0928178
50
204.935321
51
211.3869531
0
ARC
8
DEFAULT_255_2_778
10
6.6431964
20
5.8792457
40
0.161259
50
211.0504226
51
223.3714087
0
ARC
8
DEFAULT_255_2_778
10
6.647526
20
5.8828551
40
0.1668854
50
223.251405
51
227.0611659
0
ARC
8
DEFAULT_255_2_778
10
6.6446788
20
5.8795465
40
0.1625237
50
227.0014447
51
250.4389618
0
ARC
8
DEFAULT_255_2_778
10
6.6512028
20
5.9010568
40
0.1849799
50
250.7655545
51
270.4944469
0
ARC
8
DEFAULT_255_2_778
10
6.6509446
20
5.9753291
40
0.2592519
50
270.409848
51
283.7958747
0
ARC
8
DEFAULT_255_2_778
10
6.6216586
20
6.0975047
40
0.3848872
50
283.6926649
51
293.3641864
0
ARC
8
DEFAULT_255_2_778
10
6.5761122
20
6.2092837
40
0.5055694
50
293.0789486
51
295.8959597
0
ARC
8
DEFAULT_255_2_778
10
4.8912994
20
5.4985171
40
0.2377534
50
50.6919387
51
56.4026765
0
ARC
8
DEFAULT_255_2_778
10
4.4218769
20
4.8136455
40
1.0680392
50
55.7573774
51
59.1986429
0
ARC
8
DEFAULT_255_2_778
10
3.7103436
20
3.6347173
40
2.4450384
50
59.0232634
51
61.0098648
0
ARC
8
DEFAULT_255_2_778
10
2.7090297
20
1.8294585
40
4.5093998
50
60.9982081
51
62.7235503
0
ARC
8
DEFAULT_255_2_778
10
1.4983137
20
-0.504636
40
7.1388113
50
62.6720839
51
63.6420678
0
ARC
8
DEFAULT_255_2_778
10
0.0130973
20
-3.5068632
40
10.4883236
50
63.6535984
51
64.7401808
0
ARC
8
DEFAULT_255_2_778
10
-2.0777957
20
-7.9322739
40
15.3828194
50
64.7307265
51
65.6070084
0
ARC
8
DEFAULT_255_2_778
10
-4.4942666
20
-13.253705
40
21.2272145
50
65.5987796
51
66.2798043
0
ARC
8
DEFAULT_255_2_778
10
-6.8894966
20
-18.6953068
40
27.1726449
50
66.271608
51
66.7301261
0
ARC
8
DEFAULT_255_2_778
10
-9.7954472
20
-25.461415
40
34.5363911
50
66.7358861
51
67.3159496
0
ARC
8
DEFAULT_255_2_778
10
-13.4699311
20
-34.2431079
40
44.0558422
50
67.3112769
51
67.7535783
0
ARC
8
DEFAULT_255_2_778
10
-16.0078767
20
-40.4312681
40
50.7442246
50
67.7465204
51
67.8849099
0
ARC
8
DEFAULT_255_2_778
10
3.0640394
20
6.506993
40
0.0792877
50
66.4538855
51
71.2855243
0
ARC
8
DEFAULT_255_2_778
10
3.0481037
20
6.4625743
40
0.1264737
50
70.9043937
51
74.508914
0
ARC
8
DEFAULT_255_2_778
10
3.0471244
20
6.4604767
40
0.1287571
50
74.3382602
51
89.3674678
0
ARC
8
DEFAULT_255_2_778
10
3.0480751
20
6.5188749
40
0.0703526
50
89.6165992
51
90.128164
0
ARC
8
DEFAULT_255_2_778
10
3.0472254
20
6.490245
40
0.0989851
50
89.5992677
51
109.2774842
0
ARC
8
DEFAULT_255_2_778
10
3.0464974
20
6.4962449
40
0.0930903
50
110.0737348
51
144.372316
0
ARC
8
DEFAULT_255_2_778
10
3.0735348
20
6.4741869
40
0.1279345
50
143.3962016
51
150.6572179
0
ARC
8
DEFAULT_255_2_778
10
2.5599746
20
6.8505098
40
0.5099017
50
321.0253961
51
322.0422137
0
ARC
8
DEFAULT_255_2_778
10
1.961477
20
7.334079
40
1.2793419
50
319.4020737
51
321.0478696
0
ARC
8
DEFAULT_255_2_778
10
1.5143681
20
7.7161614
40
1.8674685
50
317.3614664
51
319.427891
0
ARC
8
DEFAULT_255_2_778
10
1.2897055
20
7.9221839
40
2.1722934
50
314.6904291
51
317.3778505
0
ARC
8
DEFAULT_255_2_778
10
1.2598661
20
7.9511939
40
2.2139026
50
311.0721308
51
314.7114251
0
ARC
8
DEFAULT_255_2_778
10
1.3388863
20
7.8606556
40
2.0937304
50
308.4715537
51
311.0697345
0
ARC
8
DEFAULT_255_2_778
10
1.5094398
20
7.6396044
40
1.8145643
50
300.7495011
51
308.597617
0
ARC
8
DEFAULT_255_2_778
10
1.7903137
20
7.1405859
40
1.2421716
50
280.601378
51
301.3839646
0
ARC
8
DEFAULT_255_2_778
10
1.8595276
20
6.8432328
40
0.937255
50
270.842802
51
279.7866591
0
ARC
8
DEFAULT_255_2_778
10
1.8768354
20
6.0251546
40
0.1191276
50
259.2520023
51
268.3059774
0
ARC
8
DEFAULT_255_2_778
10
1.8870182
20
6.0879206
40
0.1826995
50
239.4333584
51
259.7854826
0
ARC
8
DEFAULT_255_2_778
10
1.8869583
20
6.0879687
40
0.1827105
50
233.9400987
51
239.4572036
0
ARC
8
DEFAULT_255_2_778
10
1.8930468
20
6.0952398
40
0.1921733
50
213.3470995
51
233.7486925
0
ARC
8
DEFAULT_255_2_778
10
1.9223906
20
6.1156275
40
0.2278949
50
205.5103551
51
213.5734878
0
ARC
8
DEFAULT_255_2_778
10
1.8177469
20
6.0654553
40
0.1118454
50
179.8214801
51
205.401004
0
ARC
8
DEFAULT_255_2_778
10
1.8576422
20
6.0630144
40
0.1517658
50
155.8388284
51
178.946888
0
ARC
8
DEFAULT_255_2_778
10
1.9438194
20
6.0284316
40
0.2445769
50
148.9657434
51
156.7101965
0
ARC
8
DEFAULT_255_2_778
10
2.1132839
20
5.9185941
40
0.4464618
50
134.5584796
51
148.0997451
0
ARC
8
DEFAULT_255_2_778
10
2.5397985
20
5.4870121
40
1.0532379
50
125.0649799
51
134.6179188
0
ARC
8
DEFAULT_255_2_778
10
3.0088714
20
4.8424989
40
1.850308
50
121.2841282
51
125.4879901
0
ARC
8
DEFAULT_255_2_778
10
3.1607438
20
4.5990552
40
2.137223
50
119.3354857
51
121.3745944
0
ARC
8
DEFAULT_255_2_778
10
3.0031155
20
4.8810016
40
1.8142063
50
118.0476186
51
119.3581255
0
ARC
8
DEFAULT_255_2_778
10
2.5983615
20
5.6418958
40
0.9523566
50
117.1831697
51
118.0811858
0
ARC
8
DEFAULT_255_2_778
10
2.2204523
20
6.3772235
40
0.1256028
50
116.9570295
51
117.0715212
0
ARC
8
DEFAULT_255_2_778
10
1.964411
20
6.8790962
40
0.4378096
50
297.0501436
51
309.7754971
0
ARC
8
DEFAULT_255_2_778
10
2.0154957
20
6.8172559
40
0.3575989
50
309.82402
51
325.740382
0
ARC
8
DEFAULT_255_2_778
10
2.0299655
20
6.8063893
40
0.3395234
50
325.8813701
51
330.4991205
0
ARC
8
DEFAULT_255_2_778
10
2.0218195
20
6.8102884
40
0.348534
50
330.6006824
51
347.7647172
0
ARC
8
DEFAULT_255_2_778
10
1.994444
20
6.8167469
40
0.3766567
50
347.6871147
51
358.6998132
0
ARC
8
DEFAULT_255_2_778
10
1.997352
20
6.8167499
40
0.3737494
50
358.6892379
51
359.9978224
0
ARC
8
DEFAULT_255_2_778
10
2.017929
20
6.816973
40
0.3531726
50
359.9614886
51
4.1991851
0
ARC
8
DEFAULT_255_2_778
10
2.0683284
20
6.8205706
40
0.302645
50
4.218598
51
6.4498603
0
ARC
8
DEFAULT_255_2_778
10
2.1434694
20
6.8293085
40
0.226998
50
6.3888539
51
9.032255
0
ARC
8
DEFAULT_255_2_778
10
2.2682754
20
6.8493557
40
0.1005924
50
8.9153435
51
11.0171243
0
ARC
8
DEFAULT_255_2_778
10
2.6726232
20
6.9199316
40
0.3098938
50
180.068968
51
189.5384833
0
ARC
8
DEFAULT_255_2_778
10
2.6510986
20
6.9199119
40
0.2883692
50
160.126432
51
180.0701959
0
ARC
8
DEFAULT_255_2_778
10
2.659115
20
6.9169331
40
0.2969208
50
149.1624347
51
160.1117171
0
ARC
8
DEFAULT_255_2_778
10
2.6498037
20
6.9231703
40
0.2857292
50
139.6875814
51
149.2792187
0
ARC
8
DEFAULT_255_2_778
10
2.5768254
20
6.9857439
40
0.1895995
50
134.2076088
51
139.8388029
0
ARC
8
DEFAULT_255_2_778
10
2.4816506
20
7.0831565
40
0.0534116
50
132.4308793
51
133.8846462
0
ARC
8
DEFAULT_255_2_778
10
2.5507981
20
7.0016705
40
0.160258
50
102.8957479
51
131.0216225
0
ARC
8
DEFAULT_255_2_778
10
2.5858293
20
6.8652616
40
0.3010675
50
90.440104
51
103.6006981
0
ARC
8
DEFAULT_255_2_778
10
2.5912
20
6.7471017
40
0.4192889
50
89.9964446
51
91.0499725
0
ARC
8
DEFAULT_255_2_778
10
2.5859265
20
6.5746552
40
0.5917592
50
80.3660657
51
89.4868832
0
ARC
8
DEFAULT_255_2_778
10
2.502272
20
6.0764048
40
1.0969831
50
73.5323042
51
80.4135298
0
ARC
8
DEFAULT_255_2_778
10
2.3703202
20
5.6015408
40
1.5897936
50
72.166315
51
73.8232488
0
ARC
8
DEFAULT_255_2_778
10
2.1634682
20
4.9837844
40
2.2412293
50
67.2338542
51
71.9689148
0
ARC
8
DEFAULT_255_2_778
10
1.9334528
20
4.4144356
40
2.8552424
50
66.8890503
51
67.398926
0
ARC
8
DEFAULT_255_2_778
10
1.8039827
20
4.1147496
40
3.1816967
50
64.8290917
51
66.8629555
0
ARC
8
DEFAULT_255_2_778
10
1.7069324
20
3.9055338
40
3.4123236
50
63.6460913
51
64.8483822
0
ARC
8
DEFAULT_255_2_778
10
1.771362
20
4.0350977
40
3.267624
50
62.8836522
51
63.6499156
0
ARC
8
DEFAULT_255_2_778
10
2.0139502
20
4.5073123
40
2.7367426
50
62.0337565
51
62.8980697
0
ARC
8
DEFAULT_255_2_778
10
2.4505062
20
5.3299385
40
1.805456
50
61.5417669
51
62.027575
0
ARC
8
DEFAULT_255_2_778
10
2.9486895
20
6.2484341
40
0.7605539
50
61.1634903
51
61.5647755
0
ARC
8
DEFAULT_255_2_778
10
5.1003323
20
5.8266894
40
0.2150598
50
64.6890726
51
67.850901
0
ARC
8
DEFAULT_255_2_778
10
5.0294142
20
5.6740181
40
0.3833962
50
58.9433235
51
64.862667
0
ARC
8
DEFAULT_255_2_778
10
5.0395099
20
5.6890932
40
0.3652748
50
51.8437661
51
59.080016
0
ARC
8
DEFAULT_255_2_778
10
5.1477852
20
5.8104129
40
0.2032398
50
10.388876
51
54.7170277
0
ARC
8
DEFAULT_255_2_778
10
5.1946802
20
5.827447
40
0.154265
50
359.9800136
51
7.3052583
0
ARC
8
DEFAULT_255_2_778
10
5.1759525
20
5.8282759
40
0.172995
50
343.1490503
51
359.707645
0
ARC
8
DEFAULT_255_2_778
10
5.1320969
20
5.8405605
40
0.2185308
50
336.1156505
51
343.3996913
0
ARC
8
DEFAULT_255_2_778
10
5.2453278
20
5.7855248
40
0.0928211
50
332.3111987
51
338.8798853
0
ARC
8
DEFAULT_255_2_778
10
5.18625
20
5.8154282
40
0.1590316
50
319.9501399
51
332.6616041
0
ARC
8
DEFAULT_255_2_778
10
5.1832013
20
5.8175921
40
0.1627579
50
315.4580467
51
320.0576003
0
ARC
8
DEFAULT_255_2_778
10
5.1865935
20
5.8140397
40
0.1578484
50
291.0340915
51
315.5134212
0
ARC
8
DEFAULT_255_2_778
10
5.1775565
20
5.8414045
40
0.1866386
50
269.3440714
51
290.6082833
0
ARC
8
DEFAULT_255_2_778
10
5.1771556
20
5.926209
40
0.2714364
50
257.6360798
51
269.6336137
0
ARC
8
DEFAULT_255_2_778
10
5.2038006
20
6.0505438
40
0.3985933
50
248.8378471
51
257.7216819
0
ARC
8
DEFAULT_255_2_778
10
5.2428162
20
6.1578238
40
0.512729
50
246.9073093
51
249.0998482
0
LINE
8
DEFAULT_255_2_778
10
7.1964138
20
2.8032791
11
10.1677138
21
0.3505791
0
LINE
8
DEFAULT_255_2_778
10
10.0791138
20
-0.1685209
11
6.9168138
21
2.4884791
0
LINE
8
DEFAULT_255_2_778
10
4.6117138
20
2.8067791
11
1.6405138
21
0.3540791
0
LINE
8
DEFAULT_255_2_778
10
1.7299138
20
-0.1650209
11
4.8911138
21
2.4918791
0
LINE
8
DEFAULT_255_2_778
10
8.4389138
20
7.0921791
11
6.6329138
21
6.0875791
0
LINE
8
DEFAULT_255_2_778
10
3.3155138
20
6.9146791
11
5.1814138
21
6.0258791
0
ARC
8
DEFAULT_255_2_778
10
7.3045256
20
3.0753715
40
3.1044878
50
179.9030353
51
193.0088443
0
ARC
8
DEFAULT_255_2_778
10
6.933115
20
2.9864197
40
2.7225878
50
192.9443681
51
206.4657526
0
ARC
8
DEFAULT_255_2_778
10
6.4624484
20
2.7477216
40
2.1948712
50
206.3633139
51
221.6940896
0
ARC
8
DEFAULT_255_2_778
10
6.0397726
20
2.3624319
40
1.6229928
50
221.4627096
51
243.0911603
0
ARC
8
DEFAULT_255_2_778
10
5.8731272
20
2.0453786
40
1.2648588
50
243.322759
51
269.8285507
0
ARC
8
DEFAULT_255_2_778
10
5.8486687
20
2.1273829
40
1.3470161
50
270.8793913
51
311.9968623
0
ARC
8
DEFAULT_255_2_778
10
5.4591625
20
2.6091835
40
1.9659713
50
311.03816
51
327.9593847
0
ARC
8
DEFAULT_255_2_778
10
4.9856313
20
2.91224
40
2.5281546
50
327.8307778
51
341.9264393
0
ARC
8
DEFAULT_255_2_778
10
4.5606746
20
3.0553098
40
2.9765319
50
341.8461137
51
355.0473862
0
ARC
8
DEFAULT_255_2_778
10
4.3478928
20
3.0799164
40
3.1906495
50
354.9370391
51
0.0127318
0
ARC
8
DEFAULT_255_2_778
10
4.4357556
20
3.0859094
40
3.1027912
50
359.9024264
51
13.0138454
0
ARC
8
DEFAULT_255_2_778
10
4.807646
20
3.1749882
40
2.7203949
50
12.949688
51
26.4781284
0
ARC
8
DEFAULT_255_2_778
10
5.2775727
20
3.4134282
40
2.1934548
50
26.3760199
51
41.7115302
0
ARC
8
DEFAULT_255_2_778
10
5.6992686
20
3.7980506
40
1.6227499
50
41.4808283
51
63.1061121
0
ARC
8
DEFAULT_255_2_778
10
5.8655586
20
4.114633
40
1.2651979
50
63.3371768
51
89.8286533
0
ARC
8
DEFAULT_255_2_778
10
5.8900608
20
4.0327133
40
1.3472714
50
90.881138
51
131.9887449
0
ARC
8
DEFAULT_255_2_778
10
6.2794286
20
3.5508876
40
1.9661577
50
131.0291983
51
147.9468107
0
ARC
8
DEFAULT_255_2_778
10
6.7519478
20
3.2483191
40
2.5272255
50
147.8181571
51
161.9150728
0
ARC
8
DEFAULT_255_2_778
10
7.1750104
20
3.1057766
40
2.9736395
50
161.8347108
51
175.0426447
0
ARC
8
DEFAULT_255_2_778
10
7.3863678
20
3.0813206
40
3.1863256
50
174.9329516
51
180.012501
0
ARC
8
DEFAULT_255_2_778
10
6.1729888
20
6.1988708
40
1.2769008
50
179.7923909
51
204.7362722
0
ARC
8
DEFAULT_255_2_778
10
6.0020982
20
6.1114784
40
1.0851503
50
204.32096
51
238.1734143
0
ARC
8
DEFAULT_255_2_778
10
5.8915434
20
5.945804
40
0.8861086
50
238.5978624
51
269.8741064
0
ARC
8
DEFAULT_255_2_778
10
5.8674323
20
6.0181003
40
0.958659
50
271.32479
51
329.4101322
0
ARC
8
DEFAULT_255_2_778
10
5.6407132
20
6.1894468
40
1.2414383
50
327.927282
51
354.4703627
0
ARC
8
DEFAULT_255_2_778
10
5.5559802
20
6.2032231
40
1.3271162
50
354.2308695
51
0.011851
0
ARC
8
DEFAULT_255_2_778
10
5.6046104
20
6.2082629
40
1.2784949
50
359.78644
51
24.39327
0
ARC
8
DEFAULT_255_2_778
10
5.77857
20
6.2958194
40
1.0839324
50
23.9759069
51
58.0212279
0
ARC
8
DEFAULT_255_2_778
10
5.887923
20
6.4581547
40
0.8883444
50
58.458815
51
89.8920728
0
ARC
8
DEFAULT_255_2_778
10
5.911542
20
6.3866136
40
0.9601348
50
91.3097136
51
150.0459954
0
ARC
8
DEFAULT_255_2_778
10
6.1402952
20
6.2172472
40
1.2433234
50
148.5469355
51
174.837491
0
ARC
8
DEFAULT_255_2_778
10
6.2268688
20
6.2037504
40
1.3307723
50
174.5941431
51
180.0108867
0
ARC
8
DEFAULT_255_2_778
10
3.9619461
20
11.605225
40
0.3918134
50
194.0821204
51
194.7184773
0
ARC
8
DEFAULT_255_2_778
10
4.5147968
20
11.744658
40
0.9619759
50
193.4819449
51
194.1254436
0
ARC
8
DEFAULT_255_2_778
10
5.0925229
20
11.8830595
40
1.5560486
50
192.6030164
51
193.4781558
0
ARC
8
DEFAULT_255_2_778
10
5.6810766
20
12.0149066
40
2.1591895
50
191.683892
51
192.6096784
0
ARC
8
DEFAULT_255_2_778
10
6.1588419
20
12.1141584
40
2.6471551
50
190.9091636
51
191.6934608
0
ARC
8
DEFAULT_255_2_778
10
6.5713822
20
12.1936479
40
3.0672837
50
189.9974412
51
190.908767
0
ARC
8
DEFAULT_255_2_778
10
6.924435
20
12.2561414
40
3.4258249
50
189.2168332
51
190.001673
0
ARC
8
DEFAULT_255_2_778
10
7.2132492
20
12.3030362
40
3.7184215
50
188.4092752
51
189.2172906
0
ARC
8
DEFAULT_255_2_778
10
7.4803278
20
12.342481
40
3.9883971
50
187.4742419
51
188.4087337
0
ARC
8
DEFAULT_255_2_778
10
7.768732
20
12.3801505
40
4.2792509
50
186.1981105
51
187.4720144
0
ARC
8
DEFAULT_255_2_778
10
8.0438591
20
12.410096
40
4.5560028
50
184.8471656
51
186.1989399
0
ARC
8
DEFAULT_255_2_778
10
8.2728144
20
12.429558
40
4.7857839
50
183.4052811
51
184.8477174
0
ARC
8
DEFAULT_255_2_778
10
8.4575256
20
12.4405776
40
4.9708234
50
181.8485891
51
183.4056108
0
ARC
8
DEFAULT_255_2_778
10
8.6034384
20
12.4453598
40
5.1168148
50
180.2335927
51
181.8494043
0
ARC
8
DEFAULT_255_2_778
10
8.6790998
20
12.4459718
40
5.1924782
50
180.0005154
51
180.2369424
0
ARC
8
DEFAULT_255_2_778
10
8.7572377
20
12.4452611
40
5.2706159
50
176.9203717
51
179.9927811
0
ARC
8
DEFAULT_255_2_778
10
8.8612971
20
12.4398693
40
5.3748147
50
173.5446414
51
176.9225724
0
ARC
8
DEFAULT_255_2_778
10
8.9136953
20
12.4340506
40
5.4275351
50
169.6070306
51
173.5457955
0
ARC
8
DEFAULT_255_2_778
10
8.9421525
20
12.4288607
40
5.4564615
50
165.271997
51
169.6073333
0
ARC
8
DEFAULT_255_2_778
10
8.9756484
20
12.4199601
40
5.4911196
50
160.8602903
51
165.2710327
0
ARC
8
DEFAULT_255_2_778
10
9.0401121
20
12.397315
40
5.5594447
50
156.1877863
51
160.8576369
0
ARC
8
DEFAULT_255_2_778
10
9.1547323
20
12.3464088
40
5.6848606
50
151.5273301
51
156.184804
0
ARC
8
DEFAULT_255_2_778
10
9.3312926
20
12.2501685
40
5.8859465
50
146.792117
51
151.5231802
0
ARC
8
DEFAULT_255_2_778
10
9.5352858
20
12.1175625
40
6.1292509
50
143.5244575
51
146.7993406
0
ARC
8
DEFAULT_255_2_778
10
5.1241524
20
15.2514561
40
0.4948442
50
141.6665197
51
142.6967006
0
ARC
8
DEFAULT_255_2_778
10
5.7736451
20
14.7555457
40
1.3120148
50
142.6595164
51
144.0703305
0
ARC
8
DEFAULT_255_2_778
10
6.3803776
20
14.3144415
40
2.0621457
50
144.0382908
51
145.3933208
0
ARC
8
DEFAULT_255_2_778
10
6.9051684
20
13.9521396
40
2.699851
50
145.3901286
51
146.9493328
0
ARC
8
DEFAULT_255_2_778
10
7.37678
20
13.6449044
40
3.2627107
50
146.9438313
51
148.6073744
0
ARC
8
DEFAULT_255_2_778
10
7.7922961
20
13.3912537
40
3.7495293
50
148.6061744
51
150.5083014
0
ARC
8
DEFAULT_255_2_778
10
8.1544322
20
13.1862394
40
4.1656702
50
150.5059458
51
152.5808223
0
ARC
8
DEFAULT_255_2_778
10
8.4460537
20
13.0346376
40
4.4943435
50
152.5772494
51
154.6694999
0
ARC
8
DEFAULT_255_2_778
10
8.6772378
20
12.9250526
40
4.7501851
50
154.667819
51
156.8719844
0
ARC
8
DEFAULT_255_2_778
10
8.8700937
20
12.8426466
40
4.959909
50
156.8716175
51
159.3400697
0
ARC
8
DEFAULT_255_2_778
10
9.0392544
20
12.7788718
40
5.1406922
50
159.3401801
51
162.1886579
0
ARC
8
DEFAULT_255_2_778
10
9.1875682
20
12.7311583
40
5.2964919
50
162.1880118
51
165.228642
0
ARC
8
DEFAULT_255_2_778
10
9.3215646
20
12.6958237
40
5.435069
50
165.2286123
51
168.4727218
0
ARC
8
DEFAULT_255_2_778
10
9.4568322
20
12.6682975
40
5.573109
50
168.4733403
51
171.9367429
0
ARC
8
DEFAULT_255_2_778
10
9.6046154
20
12.647386
40
5.7223645
50
171.9369856
51
175.4004564
0
ARC
8
DEFAULT_255_2_778
10
9.7738086
20
12.6338269
40
5.8921
50
175.4009646
51
178.8432311
0
ARC
8
DEFAULT_255_2_778
10
9.9037863
20
12.6303582
40
6.0221213
50
178.8352017
51
180.0012132
0
ARC
8
DEFAULT_255_2_778
10
9.9955553
20
12.6305194
40
6.1138905
50
180.0027058
51
181.7527083
0
ARC
8
DEFAULT_255_2_778
10
10.122182
20
12.6344786
40
6.2405791
50
181.7534825
51
183.6561936
0
ARC
8
DEFAULT_255_2_778
10
10.258733
20
12.6431468
40
6.377405
50
183.6556795
51
185.3628839
0
ARC
8
DEFAULT_255_2_778
10
10.4033396
20
12.6567308
40
6.5226482
50
185.3629641
51
187.0773817
0
LINE
8
DEFAULT_255_2_778
10
4.6066897
20
15.761277
11
4.7359897
21
15.558377
0
LINE
8
DEFAULT_255_2_778
10
3.9303897
20
11.853077
11
3.5829897
21
11.505677
0
ARC
8
DEFAULT_255_2_778
10
5.3774751
20
16.2396862
40
0.4336469
50
358.6271617
51
39.5621515
0
ARC
8
DEFAULT_255_2_778
10
5.1958777
20
16.2324398
40
0.615128
50
345.495403
51
359.707241
0
ARC
8
DEFAULT_255_2_778
10
5.0978318
20
16.2546151
40
0.7156095
50
341.4665613
51
345.7426279
0
ARC
8
DEFAULT_255_2_778
10
4.9863365
20
16.2963696
40
0.8346049
50
325.2228153
51
341.181708
0
ARC
8
DEFAULT_255_2_778
10
4.8676576
20
16.3764743
40
0.9777774
50
310.4472507
51
325.33396
0
ARC
8
DEFAULT_255_2_778
10
4.8624202
20
16.3767517
40
0.9813935
50
297.5740312
51
310.6694374
0
ARC
8
DEFAULT_255_2_778
10
4.9074141
20
16.2920971
40
0.8855273
50
288.7925622
51
297.5289285
0
ARC
8
DEFAULT_255_2_778
10
4.9439914
20
16.1800878
40
0.7677074
50
276.4548528
51
288.9011982
0
ARC
8
DEFAULT_255_2_778
10
4.9579694
20
16.0723746
40
0.659108
50
270.0552979
51
276.3000946
0
ARC
8
DEFAULT_255_2_778
10
4.9508281
20
15.9253137
40
0.5121057
50
243.5597527
51
270.8701932
0
ARC
8
DEFAULT_255_2_778
10
4.9078105
20
15.827952
40
0.4058029
50
220.0967568
51
242.8772534
0
ARC
8
DEFAULT_255_2_778
10
4.9379862
20
15.8456287
40
0.440311
50
178.7729261
51
219.3272212
0
ARC
8
DEFAULT_255_2_778
10
5.1087897
20
15.8519201
40
0.6110215
50
165.1855974
51
179.705766
0
ARC
8
DEFAULT_255_2_778
10
5.2023301
20
15.8304817
40
0.7069413
50
161.7578974
51
165.4442518
0
ARC
8
DEFAULT_255_2_778
10
5.3135371
20
15.789058
40
0.8255386
50
145.2087664
51
161.4434692
0
ARC
8
DEFAULT_255_2_778
10
5.4440059
20
15.7007551
40
0.9830709
50
130.3747258
51
145.3210429
0
ARC
8
DEFAULT_255_2_778
10
5.4491275
20
15.7011539
40
0.9860937
50
117.6203453
51
130.6164399
0
ARC
8
DEFAULT_255_2_778
10
5.4050766
20
15.7838853
40
0.8923682
50
108.9292909
51
117.5769629
0
ARC
8
DEFAULT_255_2_778
10
5.368265
20
15.8959368
40
0.7744363
50
96.5067816
51
109.0424017
0
ARC
8
DEFAULT_255_2_778
10
5.3539131
20
16.0056982
40
0.663758
50
90.0570768
51
96.3495706
0
ARC
8
DEFAULT_255_2_778
10
5.360684
20
16.1526254
40
0.5168838
50
64.6339165
51
90.8238706
0
ARC
8
DEFAULT_255_2_778
10
5.4052334
20
16.2564819
40
0.4039775
50
40.6378093
51
64.0328636
0
ARC
8
DEFAULT_255_2_778
10
7.5649501
20
11.8418462
40
0.70832
50
156.7358179
51
157.9393752
0
ARC
8
DEFAULT_255_2_778
10
8.5603886
20
11.4157604
40
1.7911154
50
155.246032
51
156.7910723
0
ARC
8
DEFAULT_255_2_778
10
9.3980986
20
11.0311107
40
2.7129138
50
153.7384848
51
155.2769161
0
ARC
8
DEFAULT_255_2_778
10
10.0787785
20
10.6954287
40
3.4718654
50
151.8771453
51
153.7408861
0
ARC
8
DEFAULT_255_2_778
10
10.6134753
20
10.4104488
40
4.0777644
50
150.006148
51
151.8870053
0
ARC
8
DEFAULT_255_2_778
10
11.0130354
20
10.1799476
40
4.5390442
50
147.801882
51
150.0075462
0
ARC
8
DEFAULT_255_2_778
10
11.3062246
20
9.9956935
40
4.8853238
50
145.4032791
51
147.8054895
0
ARC
8
DEFAULT_255_2_778
10
11.5055352
20
9.8583948
40
5.1273478
50
142.5989079
51
145.4049318
0
ARC
8
DEFAULT_255_2_778
10
11.6310803
20
9.7625929
40
5.2852705
50
139.2508997
51
142.6005299
0
ARC
8
DEFAULT_255_2_778
10
11.694971
20
9.7078259
40
5.3694216
50
135.5332408
51
139.2531878
0
ARC
8
DEFAULT_255_2_778
10
11.7185402
20
9.6849734
40
5.4022501
50
132.8172886
51
135.5353745
0
ARC
8
DEFAULT_255_2_778
10
11.7293407
20
9.673292
40
5.4181593
50
129.3816841
51
132.8171093
0
ARC
8
DEFAULT_255_2_778
10
11.7426741
20
9.6569636
40
5.4392398
50
125.6399787
51
129.3811131
0
ARC
8
DEFAULT_255_2_778
10
11.766644
20
9.6233259
40
5.480544
50
121.7345512
51
125.6387232
0
ARC
8
DEFAULT_255_2_778
10
11.8046389
20
9.5617386
40
5.5529084
50
118.0912429
51
121.7337295
0
ARC
8
DEFAULT_255_2_778
10
11.8577312
20
9.4617525
40
5.6661159
50
114.2228404
51
118.0887839
0
ARC
8
DEFAULT_255_2_778
10
11.925707
20
9.3102591
40
5.8321608
50
110.4559091
51
114.2212223
0
ARC
8
DEFAULT_255_2_778
10
12.0041921
20
9.0990808
40
6.0574519
50
106.6460024
51
110.453374
0
ARC
8
DEFAULT_255_2_778
10
10.4308612
20
13.9901685
40
0.6932107
50
105.0562016
51
106.5580734
0
ARC
8
DEFAULT_255_2_778
10
10.731966
20
12.97
40
1.7568863
50
106.4890544
51
108.4373547
0
ARC
8
DEFAULT_255_2_778
10
11.0130049
20
12.1211238
40
2.6510741
50
108.3971792
51
110.3203286
0
ARC
8
DEFAULT_255_2_778
10
11.269895
20
11.42741
40
3.3908248
50
110.320293
51
112.7342194
0
ARC
8
DEFAULT_255_2_778
10
11.5077305
20
10.8582363
40
4.0076913
50
112.7255885
51
115.3816366
0
ARC
8
DEFAULT_255_2_778
10
11.7106703
20
10.4296823
40
4.4818675
50
115.3771977
51
118.386103
0
ARC
8
DEFAULT_255_2_778
10
11.8818013
20
10.1124228
40
4.8423386
50
118.3828649
51
121.790819
0
ARC
8
DEFAULT_255_2_778
10
12.0221697
20
9.8854054
40
5.109247
50
121.7875972
51
125.4967991
0
ARC
8
DEFAULT_255_2_778
10
12.1422961
20
9.7168185
40
5.3162541
50
125.4958229
51
129.6269551
0
ARC
8
DEFAULT_255_2_778
10
12.2586333
20
9.5763087
40
5.4986749
50
129.6268428
51
134.0507096
0
ARC
8
DEFAULT_255_2_778
10
12.3521245
20
9.4783264
40
5.6341014
50
134.04123
51
136.1347225
0
ARC
8
DEFAULT_255_2_778
10
12.4266854
20
9.4068797
40
5.7373678
50
136.1362916
51
138.7047449
0
ARC
8
DEFAULT_255_2_778
10
12.5232664
20
9.3221307
40
5.8658602
50
138.7053709
51
141.374189
0
ARC
8
DEFAULT_255_2_778
10
12.6423428
20
9.227091
40
6.0182141
50
141.3749737
51
144.1165817
0
ARC
8
DEFAULT_255_2_778
10
12.786754
20
9.1226989
40
6.1964057
50
144.1171857
51
146.8438269
0
ARC
8
DEFAULT_255_2_778
10
12.9580701
20
9.0108132
40
6.4010214
50
146.844076
51
149.4992037
0
ARC
8
DEFAULT_255_2_778
10
13.0900663
20
8.93216
40
6.5546728
50
149.4924332
51
150.380948
0
LINE
8
DEFAULT_255_2_778
10
10.2689883
20
14.9026823
11
10.2507883
21
14.6595823
0
LINE
8
DEFAULT_255_2_778
10
7.3918883
20
12.1716823
11
6.9084883
21
12.1078823
0
ARC
8
DEFAULT_255_2_778
10
11.2517778
20
14.8412463
40
0.3973662
50
0.0022395
51
3.862113
0
ARC
8
DEFAULT_255_2_778
10
11.1755448
20
14.8572665
40
0.4738695
50
309.8085072
51
358.0644992
0
ARC
8
DEFAULT_255_2_778
10
10.949897
20
15.0943809
40
0.8007725
50
286.6514103
51
311.3494468
0
ARC
8
DEFAULT_255_2_778
10
10.8890529
20
15.2660942
40
0.9827619
50
273.727389
51
287.1812862
0
ARC
8
DEFAULT_255_2_778
10
10.8855592
20
15.2944261
40
1.0112623
50
270.0070698
51
273.8205601
0
ARC
8
DEFAULT_255_2_778
10
10.8792155
20
15.1915545
40
0.9084137
50
247.0978272
51
270.407987
0
ARC
8
DEFAULT_255_2_778
10
10.7632504
20
14.9331121
40
0.6252466
50
218.1260945
51
247.6704297
0
ARC
8
DEFAULT_255_2_778
10
10.6021935
20
14.8015983
40
0.4173742
50
184.2026705
51
217.5742001
0
ARC
8
DEFAULT_255_2_778
10
10.5817207
20
14.7973493
40
0.3966546
50
180.0014055
51
183.8072828
0
ARC
8
DEFAULT_255_2_778
10
10.6597558
20
14.7809689
40
0.4749719
50
129.6850628
51
178.0248196
0
ARC
8
DEFAULT_255_2_778
10
10.8868449
20
14.5414936
40
0.804572
50
106.1464493
51
131.2404661
0
ARC
8
DEFAULT_255_2_778
10
10.9435628
20
14.3791329
40
0.9763457
50
93.8185271
51
106.6939347
0
ARC
8
DEFAULT_255_2_778
10
10.9462165
20
14.3622044
40
0.9934145
50
90.0054112
51
93.9062174
0
ARC
8
DEFAULT_255_2_778
10
10.9522199
20
14.4532418
40
0.9023977
50
66.5210619
51
90.3871281
0
ARC
8
DEFAULT_255_2_778
10
11.0709506
20
14.7095493
40
0.6200442
50
36.9838306
51
67.1480145
0
ARC
8
DEFAULT_255_2_778
10
11.233436
20
14.8379704
40
0.4130216
50
4.2127724
51
36.3132366
0
ARC
8
DEFAULT_255_2_778
10
6.8657131
20
10.0827918
40
4.7646403
50
177.5233605
51
178.5895818
0
ARC
8
DEFAULT_255_2_778
10
6.6864269
20
10.0872364
40
4.585299
50
178.5899605
51
179.6412935
0
ARC
8
DEFAULT_255_2_778
10
6.5704721
20
10.0881527
40
4.4693408
50
179.6437342
51
179.9995366
0
ARC
8
DEFAULT_255_2_778
10
6.0703834
20
10.0788544
40
3.9692629
50
179.8652581
51
187.1538004
0
ARC
8
DEFAULT_255_2_778
10
5.3086246
20
9.9819756
40
3.2013697
50
187.1312423
51
196.2457868
0
ARC
8
DEFAULT_255_2_778
10
4.7830306
20
9.8274106
40
2.653522
50
196.2165525
51
208.7390049
0
ARC
8
DEFAULT_255_2_778
10
4.6509297
20
9.7812013
40
2.5155801
50
209.26286
51
246.0843098
0
ARC
8
DEFAULT_255_2_778
10
5.1156289
20
10.7163788
40
3.5591446
50
245.3487939
51
257.476602
0
ARC
8
DEFAULT_255_2_778
10
5.3745615
20
11.8549706
40
4.7267968
50
257.4053081
51
266.5864388
0
ARC
8
DEFAULT_255_2_778
10
5.4497852
20
12.8392334
40
5.713816
50
266.4211377
51
270.0329152
0
ARC
8
DEFAULT_255_2_778
10
5.4523442
20
13.3138701
40
6.1884518
50
270.0066982
51
271.604721
0
ARC
8
DEFAULT_255_2_778
10
5.4438718
20
13.617664
40
6.4923639
50
271.6043822
51
273.1455363
0
ARC
8
DEFAULT_255_2_778
10
5.4509574
20
13.7481293
40
6.6222591
50
273.0223848
51
278.2874257
0
ARC
8
DEFAULT_255_2_778
10
5.6184287
20
12.6113944
40
5.4732556
50
278.2678019
51
284.5182588
0
ARC
8
DEFAULT_255_2_778
10
5.8794227
20
11.6149861
40
4.4432376
50
284.4812273
51
292.3985932
0
ARC
8
DEFAULT_255_2_778
10
6.2143549
20
10.8076846
40
3.5692181
50
292.3657974
51
302.2302796
0
ARC
8
DEFAULT_255_2_778
10
6.5863362
20
10.2242131
40
2.8772686
50
302.1608968
51
316.2386568
0
ARC
8
DEFAULT_255_2_778
10
6.8675524
20
9.9497448
40
2.4843319
50
316.324531
51
352.2230303
0
ARC
8
DEFAULT_255_2_778
10
6.4147161
20
10.03054
40
2.9439959
50
351.8576221
51
0.0911191
0
ARC
8
DEFAULT_255_2_778
10
6.1304753
20
10.034664
40
3.2282331
50
0.0099021
51
2.4960435
0
ARC
8
DEFAULT_255_2_778
10
5.9673636
20
10.0275651
40
3.3914993
50
2.4958504
51
4.8708247
0
ARC
8
DEFAULT_255_2_778
10
6.0297103
20
10.0336859
40
3.3288581
50
4.856972
51
4.8957682
0
ARC
8
DEFAULT_255_2_778
10
4.4146828
20
9.9010034
40
4.94932
50
4.8305524
51
8.641969
0
ARC
8
DEFAULT_255_2_778
10
5.3090625
20
10.0376845
40
4.044557
50
8.6314839
51
13.1299255
0
ARC
8
DEFAULT_255_2_778
10
6.0247339
20
10.2054602
40
3.3094833
50
13.1157691
51
18.555043
0
ARC
8
DEFAULT_255_2_778
10
6.5697646
20
10.3889702
40
2.7343884
50
18.5438619
51
25.1004751
0
ARC
8
DEFAULT_255_2_778
10
6.9494425
20
10.5671995
40
2.3149592
50
25.0921501
51
33.2581045
0
ARC
8
DEFAULT_255_2_778
10
7.1550784
20
10.7010413
40
2.0696046
50
33.2817322
51
43.3850581
0
ARC
8
DEFAULT_255_2_778
10
7.1349725
20
10.6740027
40
2.1027975
50
43.5441749
51
57.5129954
0
ARC
8
DEFAULT_255_2_778
10
6.4981787
20
9.5402026
40
3.4019585
50
58.7228365
51
75.7617423
0
ARC
8
DEFAULT_255_2_778
10
5.3395901
20
5.7192627
40
7.3927556
50
74.3415918
51
74.9293409
0
ARC
8
DEFAULT_255_2_778
10
4.3543253
20
2.0041529
40
11.2362757
50
75.0037296
51
76.2405526
0
ARC
8
DEFAULT_255_2_778
10
-7.505217
20
-46.4379155
40
61.1089411
50
76.242941
51
76.4671099
0
ARC
8
DEFAULT_255_2_778
10
9.2531144
20
23.3447348
40
10.6578167
50
254.5255681
51
256.6624494
0
ARC
8
DEFAULT_255_2_778
10
7.4316979
20
16.7619023
40
3.8276454
50
249.5154766
51
254.5111214
0
ARC
8
DEFAULT_255_2_778
10
6.8211089
20
15.1352634
40
2.0901875
50
240.7335672
51
249.5903127
0
ARC
8
DEFAULT_255_2_778
10
6.3727997
20
14.3701956
40
1.2037314
50
212.3100411
51
241.5458795
0
ARC
8
DEFAULT_255_2_778
10
6.3083648
20
14.3144584
40
1.1195532
50
210.6105652
51
211.6617724
0
ARC
8
DEFAULT_255_2_778
10
3.5766259
20
14.8980987
40
2.1112994
50
318.0855417
51
326.876276
0
ARC
8
DEFAULT_255_2_778
10
3.413475
20
15.0544428
40
2.3371594
50
306.5527827
51
317.9052509
0
ARC
8
DEFAULT_255_2_778
10
2.1965099
20
16.8280265
40
4.4873638
50
294.4265833
51
305.5480931
0
ARC
8
DEFAULT_255_2_778
10
-4.9922224
20
31.5583384
40
20.8768626
50
295.3309772
51
295.6723991
0
ARC
8
DEFAULT_255_2_778
10
-43.2709853
20
112.3772604
40
110.3025958
50
295.2917563
51
295.3414758
0
ARC
8
DEFAULT_255_2_778
10
6.2231059
20
7.3045348
40
5.8452139
50
113.9173561
51
122.5068704
0
ARC
8
DEFAULT_255_2_778
10
4.2737309
20
10.4132589
40
2.1761107
50
123.2090954
51
141.479987
0
ARC
8
DEFAULT_255_2_778
10
4.0859306
20
10.5870189
40
1.9210556
50
142.04633
51
153.1989713
0
ARC
8
DEFAULT_255_2_778
10
4.3083585
20
10.4761412
40
2.1695843
50
153.2339442
51
161.7848477
0
ARC
8
DEFAULT_255_2_778
10
4.7387571
20
10.3337255
40
2.6229327
50
161.7686286
51
168.3401516
0
ARC
8
DEFAULT_255_2_778
10
5.3648021
20
10.2039865
40
3.2622795
50
168.3307122
51
173.8092327
0
ARC
8
DEFAULT_255_2_778
10
6.1346178
20
10.1174935
40
4.0369345
50
173.7670468
51
177.5667746
0
ARC
8
DEFAULT_255_2_778
10
4.9289948
20
9.8749794
40
2.8049765
50
192.9113615
51
204.1782381
0
ARC
8
DEFAULT_255_2_778
10
4.5822328
20
9.7194846
40
2.424947
50
204.1822877
51
221.9384599
0
ARC
8
DEFAULT_255_2_778
10
4.735337
20
9.8938992
40
2.655544
50
222.5299992
51
247.2242016
0
ARC
8
DEFAULT_255_2_778
10
5.1554865
20
10.8304794
40
3.6818306
50
246.8380423
51
258.5710681
0
ARC
8
DEFAULT_255_2_778
10
5.4034103
20
12.0257754
40
4.9025557
50
258.499111
51
267.3867449
0
ARC
8
DEFAULT_255_2_778
10
5.4646443
20
12.9807047
40
5.8593102
50
267.214336
51
270.0205967
0
ARC
8
DEFAULT_255_2_778
10
5.465662
20
13.436793
40
6.3153981
50
270.0098763
51
271.9291073
0
ARC
8
DEFAULT_255_2_778
10
5.4559993
20
13.7452556
40
6.6240112
50
271.9228233
51
273.0334649
0
ARC
8
DEFAULT_255_2_778
10
5.4612085
20
13.6786575
40
6.557231
50
273.0188069
51
278.7240101
0
ARC
8
DEFAULT_255_2_778
10
5.6479307
20
12.4759681
40
5.3401356
50
278.7010065
51
285.5180684
0
ARC
8
DEFAULT_255_2_778
10
5.9315481
20
11.4636802
40
4.2888705
50
285.4853561
51
293.904971
0
ARC
8
DEFAULT_255_2_778
10
6.2865925
20
10.6694831
40
3.4189302
50
293.8586671
51
304.776789
0
ARC
8
DEFAULT_255_2_778
10
6.6719652
20
10.1212614
40
2.7488251
50
304.6967002
51
321.0066557
0
ARC
8
DEFAULT_255_2_778
10
6.8488567
20
9.9646466
40
2.5128164
50
321.2442153
51
324.0725636
0
ARC
8
DEFAULT_255_2_778
10
8.333433
20
8.7793954
40
0.6215652
50
332.2750255
51
353.5240129
0
ARC
8
DEFAULT_255_2_778
10
8.291326
20
8.7858087
40
0.6641287
50
353.3839738
51
358.8605917
0
ARC
8
DEFAULT_255_2_778
10
8.2770422
20
8.7862756
40
0.6784191
50
358.8451561
51
0.0007433
0
ARC
8
DEFAULT_255_2_778
10
8.2392108
20
8.7864499
40
0.7162506
50
359.9867584
51
57.9327956
0
ARC
8
DEFAULT_255_2_778
10
8.3386541
20
8.9205429
40
0.5499764
50
59.2954828
51
89.9628847
0
ARC
8
DEFAULT_255_2_778
10
8.3402539
20
8.8840537
40
0.5864668
50
90.1214953
51
103.2155741
0
ARC
8
DEFAULT_255_2_778
10
8.3620005
20
8.7908852
40
0.6821393
50
103.2047301
51
113.1726892
0
ARC
8
DEFAULT_255_2_778
10
8.4157761
20
8.6646208
40
0.8193782
50
113.155322
51
121.2286136
0
ARC
8
DEFAULT_255_2_778
10
8.4765995
20
8.5607206
40
0.9397598
50
121.1153901
51
123.8351079
0
ARC
8
DEFAULT_255_2_778
10
8.0180111
20
9.2454719
40
0.115632
50
124.0081878
51
125.0557443
0
ARC
8
DEFAULT_255_2_778
10
8.0716483
20
9.1688598
40
0.2091541
50
125.029209
51
125.7047634
0
ARC
8
DEFAULT_255_2_778
10
8.1636084
20
9.0407863
40
0.366823
50
125.6938298
51
126.1308842
0
ARC
8
DEFAULT_255_2_778
10
8.3076169
20
8.8435788
40
0.6110141
50
126.1338703
51
126.4159822
0
ARC
8
DEFAULT_255_2_778
10
8.509412
20
8.570101
40
0.9508837
50
126.4185103
51
126.59647
0
ARC
8
DEFAULT_255_2_778
10
8.7569959
20
8.2367664
40
1.3661061
50
126.5984755
51
126.7116838
0
ARC
8
DEFAULT_255_2_778
10
9.2368865
20
7.593161
40
2.168928
50
126.71079
51
126.7860429
0
ARC
8
DEFAULT_255_2_778
10
10.3340007
20
6.1271669
40
3.9999926
50
126.7971403
51
126.8399865
0
ARC
8
DEFAULT_255_2_778
10
2.3737724
20
16.7283847
40
9.257124
50
306.7081752
51
306.9289453
0
ARC
8
DEFAULT_255_2_778
10
5.7515811
20
12.202385
40
3.6096248
50
305.8617748
51
306.6671006
0
ARC
8
DEFAULT_255_2_778
10
5.8500768
20
12.0671905
40
3.4423568
50
304.6653596
51
305.8514062
0
ARC
8
DEFAULT_255_2_778
10
5.7642684
20
12.1915717
40
3.5934652
50
303.2600857
51
304.6626593
0
ARC
8
DEFAULT_255_2_778
10
5.6567337
20
12.3556047
40
3.7896044
50
301.6207365
51
303.2594356
0
ARC
8
DEFAULT_255_2_778
10
5.565262
20
12.5040431
40
3.9639633
50
299.8742487
51
301.6216931
0
ARC
8
DEFAULT_255_2_778
10
5.4951778
20
12.6260514
40
4.1046681
50
297.7956697
51
299.8742398
0
ARC
8
DEFAULT_255_2_778
10
5.446882
20
12.7174918
40
4.2080793
50
295.5570654
51
297.7967969
0
ARC
8
DEFAULT_255_2_778
10
5.41851
20
12.7767173
40
4.27375
50
292.9882843
51
295.5576765
0
ARC
8
DEFAULT_255_2_778
10
5.4047038
20
12.8091064
40
4.3089589
50
290.0440845
51
292.9890875
0
ARC
8
DEFAULT_255_2_778
10
5.4004573
20
12.8205888
40
4.3212013
50
286.7819192
51
290.0447975
0
ARC
8
DEFAULT_255_2_778
10
5.4002918
20
12.8210736
40
4.3217134
50
283.4390065
51
286.7821645
0
ARC
8
DEFAULT_255_2_778
10
5.3997089
20
12.8236538
40
4.3243584
50
279.6776693
51
283.4385721
0
ARC
8
DEFAULT_255_2_778
10
5.3966497
20
12.8421611
40
4.3431167
50
275.7129406
51
279.6764094
0
ARC
8
DEFAULT_255_2_778
10
5.3920655
20
12.8896096
40
4.3907856
50
271.631074
51
275.71083
0
ARC
8
DEFAULT_255_2_778
10
5.3901431
20
12.9453003
40
4.4465086
50
269.9988972
51
271.6354086
0
ARC
8
DEFAULT_255_2_778
10
5.3909122
20
13.0292036
40
4.5304119
50
265.5740581
51
269.9891912
0
ARC
8
DEFAULT_255_2_778
10
5.403391
20
13.1903265
40
4.6920172
50
261.6392632
51
265.5739649
0
ARC
8
DEFAULT_255_2_778
10
5.4352744
20
13.404761
40
4.9088087
50
257.5167248
51
261.6350064
0
ARC
8
DEFAULT_255_2_778
10
5.4951909
20
13.6758901
40
5.1864793
50
253.83547
51
257.5178932
0
ARC
8
DEFAULT_255_2_778
10
5.589365
20
13.9998579
40
5.5238571
50
250.1451867
51
253.8327784
0
ARC
8
DEFAULT_255_2_778
10
5.7284172
20
14.3850785
40
5.9334062
50
246.7147545
51
250.1456603
0
ARC
8
DEFAULT_255_2_778
10
5.9082681
20
14.803943
40
6.3892501
50
243.7265972
51
246.7181547
0
ARC
8
DEFAULT_255_2_778
10
6.1374359
20
15.2676624
40
6.9065058
50
240.7254992
51
243.7247289
0
ARC
8
DEFAULT_255_2_778
10
6.4305293
20
15.7908653
40
7.50621
50
237.9564679
51
240.7268861
0
ARC
8
DEFAULT_255_2_778
10
6.790374
20
16.3656849
40
8.1843735
50
235.2843233
51
237.9561711
0
ARC
8
DEFAULT_255_2_778
10
6.5638858
20
10.1994918
40
4.4699266
50
187.2133791
51
190.4656676
0
ARC
8
DEFAULT_255_2_778
10
-56.7643552
20
-1.0833205
40
59.8556545
50
10.0083798
51
10.0748927
0
LINE
8
DEFAULT_255_2_778
10
2.1801368
20
9.315126
11
2.1949368
21
9.248226
0
ARC
8
DEFAULT_255_2_778
10
5.2275214
20
15.9909893
40
6.607924
50
272.8795463
51
273.7457022
0
ARC
8
DEFAULT_255_2_778
10
5.2435631
20
15.6757686
40
6.2922954
50
272.1832485
51
272.8778533
0
ARC
8
DEFAULT_255_2_778
10
5.2552597
20
15.3641348
40
5.9804422
50
271.2490524
51
272.1850098
0
ARC
8
DEFAULT_255_2_778
10
5.2624534
20
15.035312
40
5.6515406
50
270.3196435
51
271.2488067
0
ARC
8
DEFAULT_255_2_778
10
5.263984
20
14.817998
40
5.4342215
50
269.9999505
51
270.316289
0
ARC
8
DEFAULT_255_2_778
10
5.2598027
20
14.3185452
40
4.9347705
50
266.7864889
51
270.048493
0
ARC
8
DEFAULT_255_2_778
10
5.2143475
20
13.5123263
40
4.1272713
50
263.2327478
51
266.7891193
0
ARC
8
DEFAULT_255_2_778
10
5.1338993
20
12.8389344
40
3.4490911
50
259.1376134
51
263.2416804
0
ARC
8
DEFAULT_255_2_778
10
5.023806
20
12.2685305
40
2.8681601
50
254.309292
51
259.1501519
0
ARC
8
DEFAULT_255_2_778
10
4.8921898
20
11.8016648
40
2.3830971
50
248.6900059
51
254.3201212
0
ARC
8
DEFAULT_255_2_778
10
4.7507822
20
11.4399539
40
1.9947277
50
242.2002212
51
248.6982944
0
ARC
8
DEFAULT_255_2_778
10
4.61096
20
11.1752409
40
1.6953563
50
234.6027094
51
242.2078793
0
ARC
8
DEFAULT_255_2_778
10
4.4872202
20
11.000837
40
1.4815147
50
226.0376073
51
234.5967108
0
ARC
8
DEFAULT_255_2_778
10
4.397408
20
10.9069858
40
1.3516148
50
216.9770398
51
226.0162542
0
ARC
8
DEFAULT_255_2_778
10
4.3647454
20
10.8811123
40
1.3099591
50
216.347264
51
216.9322787
0
ARC
8
DEFAULT_255_2_778
10
4.3500374
20
10.870788
40
1.2919937
50
207.93378
51
216.3650682
0
ARC
8
DEFAULT_255_2_778
10
4.3393802
20
10.8648918
40
1.2798161
50
200.5351709
51
207.924072
0
ARC
8
DEFAULT_255_2_778
10
4.3312771
20
10.8619706
40
1.2712032
50
194.2237895
51
200.5399885
0
ARC
8
DEFAULT_255_2_778
10
4.2888402
20
10.8514836
40
1.2274904
50
189.1345714
51
194.2360011
0
ARC
8
DEFAULT_255_2_778
10
4.180341
20
10.8343032
40
1.1176397
50
185.0985309
51
189.1480085
0
ARC
8
DEFAULT_255_2_778
10
3.9863739
20
10.8172699
40
0.9229264
50
181.858894
51
185.1154027
0
ARC
8
DEFAULT_255_2_778
10
3.7526655
20
10.8092494
40
0.6890808
50
180.0490595
51
181.8227015
0
ARC
8
DEFAULT_255_2_778
10
3.5881243
20
10.8087765
40
0.5245393
50
179.2994018
51
180.0128035
0
ARC
8
DEFAULT_255_2_778
10
3.483825
20
10.8100398
40
0.4202322
50
178.6366298
51
179.2977387
0
ARC
8
DEFAULT_255_2_778
10
3.4551672
20
10.8105062
40
0.3915716
50
178.4159475
51
178.6050901
0
ARC
8
DEFAULT_255_2_778
10
3.3184892
20
10.8143292
40
0.25484
50
177.7596395
51
178.4256794
0
ARC
8
DEFAULT_255_2_778
10
3.1829119
20
10.8196943
40
0.1191567
50
177.1623436
51
177.7890113
0
ARC
8
DEFAULT_255_2_778
10
4.3628943
20
10.7905962
40
1.2994623
50
166.7848876
51
178.452857
0
ARC
8
DEFAULT_255_2_778
10
4.2347187
20
10.8191817
40
1.1681471
50
149.2690094
51
166.7126183
0
ARC
8
DEFAULT_255_2_778
10
4.5095348
20
10.6122449
40
1.5105829
50
118.3329674
51
147.8486033
0
ARC
8
DEFAULT_255_2_778
10
5.1105035
20
9.6023961
40
2.6851329
50
108.2485709
51
119.3936693
0
ARC
8
DEFAULT_255_2_778
10
5.4712185
20
8.5615772
40
3.7865967
50
102.8014878
51
108.5005277
0
ARC
8
DEFAULT_255_2_778
10
5.6371095
20
7.8575283
40
4.5099062
50
99.6486981
51
102.8747764
0
ARC
8
DEFAULT_255_2_778
10
5.694377
20
7.5303237
40
4.8420808
50
97.4908909
51
99.6678168
0
ARC
8
DEFAULT_255_2_778
10
5.6967605
20
7.5174332
40
4.8551722
50
95.7264536
51
97.4989461
0
ARC
8
DEFAULT_255_2_778
10
5.6661209
20
7.8269807
40
4.5441122
50
94.3451938
51
95.7314941
0
ARC
8
DEFAULT_255_2_778
10
5.6235613
20
8.3852414
40
3.9842315
50
93.4061484
51
94.3431733
0
ARC
8
DEFAULT_255_2_778
10
5.5765446
20
9.1856922
40
3.1824015
50
92.4564622
51
93.4173818
0
ARC
8
DEFAULT_255_2_778
10
5.5301543
20
10.2692559
40
2.0978451
50
91.7281646
51
92.4590325
0
ARC
8
DEFAULT_255_2_778
10
5.4935129
20
11.499787
40
0.8667687
50
91.1507408
51
91.76023
0
ARC
8
DEFAULT_255_2_778
10
5.4975911
20
12.0451317
40
0.321967
50
93.6230252
51
93.826288
0
ARC
8
DEFAULT_255_2_778
10
5.5466618
20
11.2737291
40
1.0949287
50
93.3783835
51
93.6348753
0
ARC
8
DEFAULT_255_2_778
10
5.58992
20
10.541921
40
1.8280142
50
93.0813205
51
93.3801945
0
ARC
8
DEFAULT_255_2_778
10
5.6255091
20
9.884362
40
2.4865354
50
92.8566165
51
93.0857361
0
ARC
8
DEFAULT_255_2_778
10
5.655137
20
9.2865702
40
3.085061
50
92.5018153
51
92.8528859
0
ARC
8
DEFAULT_255_2_778
10
5.6829963
20
8.6496057
40
3.7226346
50
92.124793
51
92.502255
0
ARC
8
DEFAULT_255_2_778
10
5.7027032
20
8.1212603
40
4.2513474
50
91.7606843
51
92.1254876
0
ARC
8
DEFAULT_255_2_778
10
5.7166964
20
7.6665106
40
4.7063122
50
91.3487919
51
91.7608595
0
ARC
8
DEFAULT_255_2_778
10
5.7252504
20
7.3114208
40
5.0615051
50
91.0302043
51
91.3509803
0
ARC
8
DEFAULT_255_2_778
10
5.7304114
20
7.0171063
40
5.3558647
50
90.5423915
51
91.0287974
0
ARC
8
DEFAULT_255_2_778
10
5.7331588
20
6.7317786
40
5.6412056
50
90.0154262
51
90.5428615
0
LINE
8
DEFAULT_255_2_778
10
5.7316399
20
12.3729842
11
5.7333967
21
12.3729844
0
ARC
8
DEFAULT_255_2_778
10
5.7329741
20
6.4614072
40
5.9115772
50
88.9588337
51
89.9959043
0
ARC
8
DEFAULT_255_2_778
10
5.7308328
20
6.3304096
40
6.0425922
50
87.7005767
51
88.9611032
0
ARC
8
DEFAULT_255_2_778
10
5.7345125
20
6.4141093
40
5.9588123
50
86.2705516
51
87.7036392
0
ARC
8
DEFAULT_255_2_778
10
5.752991
20
6.6904341
40
5.6818709
50
84.5113834
51
86.2752484
0
ARC
8
DEFAULT_255_2_778
10
5.8037835
20
7.2033026
40
5.1664957
50
81.8035729
51
84.528072
0
ARC
8
DEFAULT_255_2_778
10
5.9257949
20
8.0258593
40
4.3349479
50
77.453028
51
81.8497731
0
ARC
8
DEFAULT_255_2_778
10
6.298528
20
9.5454852
40
2.7708459
50
62.7778299
51
78.1500646
0
ARC
8
DEFAULT_255_2_778
10
6.8760622
20
10.6802024
40
1.4976322
50
43.1039163
51
62.56737
0
ARC
8
DEFAULT_255_2_778
10
7.1734623
20
10.9704068
40
1.0822269
50
17.7997838
51
42.6453095
0
ARC
8
DEFAULT_255_2_778
10
7.0956563
20
10.9505636
40
1.1623845
50
4.6139421
51
17.5586811
0
ARC
8
DEFAULT_255_2_778
10
6.9247385
20
10.9328581
40
1.3341783
50
0.7396495
51
4.7813933
0
ARC
8
DEFAULT_255_2_778
10
8.1951026
20
10.9459014
40
0.0638401
50
3.1516979
51
3.753827
0
ARC
8
DEFAULT_255_2_778
10
8.102564
20
10.9407223
40
0.1565235
50
2.6082491
51
3.1822489
0
ARC
8
DEFAULT_255_2_778
10
8.0216258
20
10.9370329
40
0.2375458
50
2.0143909
51
2.6088134
0
ARC
8
DEFAULT_255_2_778
10
7.9361266
20
10.9340841
40
0.3230958
50
1.1316606
51
2.0040504
0
ARC
8
DEFAULT_255_2_778
10
7.8394286
20
10.9321122
40
0.4198139
50
0.2770661
51
1.140082
0
ARC
8
DEFAULT_255_2_778
10
7.7783594
20
10.9317004
40
0.4808845
50
359.9996999
51
0.2909504
0
ARC
8
DEFAULT_255_2_778
10
7.6146866
20
10.9333485
40
0.6445594
50
356.0936112
51
359.8532711
0
ARC
8
DEFAULT_255_2_778
10
7.3865837
20
10.9484594
40
0.8731621
50
351.4722475
51
356.1240602
0
ARC
8
DEFAULT_255_2_778
10
7.2375022
20
10.9703743
40
1.0238452
50
346.1793848
51
351.4965605
0
ARC
8
DEFAULT_255_2_778
10
7.1411291
20
10.9939543
40
1.123061
50
339.7261056
51
346.1857407
0
ARC
8
DEFAULT_255_2_778
10
7.0673057
20
11.0212314
40
1.2017626
50
332.3543635
51
339.7257798
0
ARC
8
DEFAULT_255_2_778
10
6.9903399
20
11.0616904
40
1.2887145
50
324.782525
51
332.3486891
0
ARC
8
DEFAULT_255_2_778
10
6.8897287
20
11.1331528
40
1.412122
50
317.0378037
51
324.7678399
0
ARC
8
DEFAULT_255_2_778
10
6.8405278
20
11.1764336
40
1.4776252
50
316.9849133
51
317.1098531
0
ARC
8
DEFAULT_255_2_778
10
6.7530136
20
11.2611467
40
1.5994054
50
309.5646543
51
316.9047176
0
ARC
8
DEFAULT_255_2_778
10
6.5898588
20
11.4585013
40
1.8554685
50
303.0275508
51
309.5668887
0
ARC
8
DEFAULT_255_2_778
10
6.40682
20
11.7398078
40
2.1910821
50
297.1812235
51
303.0311431
0
ARC
8
DEFAULT_255_2_778
10
6.2115769
20
12.1192499
40
2.6178093
50
292.0407546
51
297.188886
0
ARC
8
DEFAULT_255_2_778
10
6.0187028
20
12.5935059
40
3.1297843
50
287.7434328
51
292.0555129
0
ARC
8
DEFAULT_255_2_778
10
5.8367455
20
13.1604708
40
3.7252315
50
283.9716662
51
287.7513717
0
ARC
8
DEFAULT_255_2_778
10
5.6639687
20
13.8542931
40
4.4402429
50
280.4762842
51
283.9735691
0
ARC
8
DEFAULT_255_2_778
10
5.5085516
20
14.69138
40
5.2916352
50
277.4026072
51
280.4829979
0
ARC
8
DEFAULT_255_2_778
10
5.3834412
20
15.6479309
40
6.2563328
50
274.750047
51
277.4101617
0
ARC
8
DEFAULT_255_2_778
10
5.3012498
20
16.6138904
40
7.2257811
50
272.8395215
51
274.765263
0
ARC
8
DEFAULT_255_2_778
10
5.319021
20
16.4171122
40
7.1329138
50
272.0548285
51
272.7074297
0
ARC
8
DEFAULT_255_2_778
10
5.3291766
20
16.1374703
40
6.8530876
50
271.5539492
51
272.0538057
0
ARC
8
DEFAULT_255_2_778
10
5.3365988
20
15.856824
40
6.572343
50
270.7955082
51
271.5556155
0
ARC
8
DEFAULT_255_2_778
10
5.3410567
20
15.5340649
40
6.2495533
50
270.0096253
51
270.7957255
0
LINE
8
DEFAULT_255_2_778
10
5.3421066
20
9.2845117
11
5.3414398
21
9.2845117
0
ARC
8
DEFAULT_255_2_778
10
5.3376413
20
14.8804347
40
5.5959243
50
267.2610445
51
270.0388915
0
ARC
8
DEFAULT_255_2_778
10
5.2929108
20
13.9663532
40
4.6807497
50
263.9091416
51
267.2732789
0
ARC
8
DEFAULT_255_2_778
10
5.2066443
20
13.1627795
40
3.8725589
50
260.0776936
51
263.916777
0
ARC
8
DEFAULT_255_2_778
10
5.0894185
20
12.4952263
40
3.1947912
50
255.708159
51
260.0856657
0
ARC
8
DEFAULT_255_2_778
10
4.9490445
20
11.9467696
40
2.6286561
50
250.5440193
51
255.7220419
0
ARC
8
DEFAULT_255_2_778
10
4.7939172
20
11.5089404
40
2.1641579
50
244.5216774
51
250.5555611
0
ARC
8
DEFAULT_255_2_778
10
4.640106
20
11.1861351
40
1.806581
50
237.856841
51
244.5214145
0
ARC
8
DEFAULT_255_2_778
10
4.4976502
20
10.9598648
40
1.5392015
50
230.0021569
51
237.8656385
0
ARC
8
DEFAULT_255_2_778
10
4.3758789
20
10.8145201
40
1.3495878
50
221.0642036
51
229.9963662
0
ARC
8
DEFAULT_255_2_778
10
4.3092077
20
10.7545441
40
1.2599217
50
216.7168554
51
220.9994555
0
ARC
8
DEFAULT_255_2_778
10
4.2708249
20
10.7263718
40
1.2123111
50
208.5304419
51
216.7340896
0
ARC
8
DEFAULT_255_2_778
10
4.2462581
20
10.7127177
40
1.1842061
50
200.6762337
51
208.5177543
0
ARC
8
DEFAULT_255_2_778
10
4.2344557
20
10.708254
40
1.171588
50
194.0605599
51
200.6757968
0
ARC
8
DEFAULT_255_2_778
10
4.2044237
20
10.700927
40
1.1406755
50
188.5790687
51
194.0700378
0
ARC
8
DEFAULT_255_2_778
10
4.124764
20
10.6891531
40
1.0601507
50
184.1599633
51
188.5920976
0
ARC
8
DEFAULT_255_2_778
10
3.9721571
20
10.6783305
40
0.9071609
50
180.5544712
51
184.1774091
0
ARC
8
DEFAULT_255_2_778
10
3.8431007
20
10.6761292
40
0.7780898
50
180.0027541
51
180.4843445
0
ARC
8
DEFAULT_255_2_778
10
3.772368
20
10.6762569
40
0.7073572
50
178.8888265
51
180.013369
0
ARC
8
DEFAULT_255_2_778
10
3.6757657
20
10.6781055
40
0.6107373
50
177.9895553
51
178.8864727
0
ARC
8
DEFAULT_255_2_778
10
3.5713152
20
10.6817749
40
0.5062222
50
177.1228915
51
177.9898822
0
ARC
8
DEFAULT_255_2_778
10
3.4655909
20
10.6870536
40
0.4003663
50
176.4436277
51
177.1179277
0
ARC
8
DEFAULT_255_2_778
10
3.3475951
20
10.6945106
40
0.2821354
50
175.6143574
51
176.4686591
0
ARC
8
DEFAULT_255_2_778
10
3.2023749
20
10.7057055
40
0.1364843
50
174.8589131
51
175.6384117
0
ARC
8
DEFAULT_255_2_778
10
3.0811766
20
10.7166288
40
0.0147949
50
174.4468807
51
174.932296
0
ARC
8
DEFAULT_255_2_778
10
4.3566363
20
10.6833062
40
1.2906532
50
166.7754593
51
178.4569708
0
ARC
8
DEFAULT_255_2_778
10
4.2183903
20
10.7144501
40
1.1489494
50
149.6481071
51
166.710218
0
ARC
8
DEFAULT_255_2_778
10
4.4683324
20
10.5259659
40
1.4603293
50
118.100985
51
148.2216918
0
ARC
8
DEFAULT_255_2_778
10
5.0549394
20
9.5279332
40
2.617449
50
107.466311
51
119.1376764
0
ARC
8
DEFAULT_255_2_778
10
5.4076659
20
8.4685324
40
3.7339195
50
102.0056338
51
107.75003
0
ARC
8
DEFAULT_255_2_778
10
5.5644726
20
7.7592007
40
4.460357
50
98.8351921
51
102.0805277
0
ARC
8
DEFAULT_255_2_778
10
5.6179916
20
7.4255436
40
4.7982755
50
96.6677009
51
98.8547344
0
ARC
8
DEFAULT_255_2_778
10
5.6209654
20
7.405948
40
4.8180839
50
94.8967135
51
96.6757686
0
ARC
8
DEFAULT_255_2_778
10
5.5954338
20
7.7087258
40
4.5142319
50
93.5113849
51
94.9018751
0
ARC
8
DEFAULT_255_2_778
10
5.5615084
20
8.2595343
40
3.9623796
50
92.5704555
51
93.5095569
0
ARC
8
DEFAULT_255_2_778
10
5.5263702
20
9.0559768
40
3.1651625
50
91.6183917
51
92.5816043
0
ARC
8
DEFAULT_255_2_778
10
5.4959556
20
10.1374835
40
2.0832283
50
90.8883842
51
91.6222976
0
ARC
8
DEFAULT_255_2_778
10
5.4775503
20
11.3570246
40
0.8635487
50
90.3117866
51
90.9219168
0
ARC
8
DEFAULT_255_2_778
10
5.5121868
20
11.7212367
40
0.5008708
50
94.3329765
51
94.5043389
0
ARC
8
DEFAULT_255_2_778
10
5.5652112
20
11.0187074
40
1.2053983
50
94.018274
51
94.3232287
0
ARC
8
DEFAULT_255_2_778
10
5.6253873
20
10.1647336
40
2.0614894
50
93.6774405
51
94.0234489
0
ARC
8
DEFAULT_255_2_778
10
5.6717063
20
9.4489086
40
2.7788114
50
93.4168226
51
93.6838549
0
ARC
8
DEFAULT_255_2_778
10
5.7070543
20
8.8553999
40
3.3733719
50
93.0499187
51
93.4153344
0
ARC
8
DEFAULT_255_2_778
10
5.7387525
20
8.2629888
40
3.9666304
50
92.684856
51
93.0518464
0
ARC
8
DEFAULT_255_2_778
10
5.7572144
20
7.872767
40
4.3572885
50
92.5627265
51
92.6869953
0
ARC
8
DEFAULT_255_2_778
10
5.7690568
20
7.6025829
40
4.627732
50
92.1272403
51
92.5596285
0
ARC
8
DEFAULT_255_2_778
10
5.7856574
20
7.1571877
40
5.0734364
50
91.6364534
51
92.1278797
0
ARC
8
DEFAULT_255_2_778
10
5.7949015
20
6.8393866
40
5.3913717
50
91.2523321
51
91.6382042
0
ARC
8
DEFAULT_255_2_778
10
5.8004966
20
6.581979
40
5.6488402
50
90.6832076
51
91.2520067
0
ARC
8
DEFAULT_255_2_778
10
5.8030598
20
6.3734137
40
5.8574211
50
90.0868437
51
90.683952
0
ARC
8
DEFAULT_255_2_778
10
5.8034282
20
6.1245287
40
6.1063063
50
90.0010095
51
90.0867614
0
ARC
8
DEFAULT_255_2_778
10
5.8031692
20
6.220605
40
6.01023
50
88.9882616
51
89.9985563
0
ARC
8
DEFAULT_255_2_778
10
5.8035362
20
6.2269498
40
6.0038797
50
87.6414483
51
88.9906943
0
ARC
8
DEFAULT_255_2_778
10
5.8127383
20
6.4386501
40
5.79198
50
85.9159628
51
87.6462182
0
ARC
8
DEFAULT_255_2_778
10
5.8454996
20
6.8835854
40
5.3458413
50
83.5536342
51
85.9265737
0
ARC
8
DEFAULT_255_2_778
10
5.9322402
20
7.6247221
40
4.5996529
50
79.7202176
51
83.5907863
0
ARC
8
DEFAULT_255_2_778
10
6.038976
20
8.2356704
40
3.9794661
50
78.0682899
51
79.6625642
0
ARC
8
DEFAULT_255_2_778
10
6.3269099
20
9.4242256
40
2.7572957
50
63.7893814
51
78.8160539
0
ARC
8
DEFAULT_255_2_778
10
6.8767682
20
10.5534895
40
1.5012994
50
44.8146389
51
63.5815982
0
ARC
8
DEFAULT_255_2_778
10
7.1791794
20
10.8635807
40
1.0682367
50
18.5769206
51
44.4482106
0
ARC
8
DEFAULT_255_2_778
10
7.1065797
20
10.8451627
40
1.1429353
50
5.0331843
51
18.2926676
0
ARC
8
DEFAULT_255_2_778
10
6.9280974
20
10.8254884
40
1.3224614
50
0.7310063
51
5.2038727
0
ARC
8
DEFAULT_255_2_778
10
8.1758483
20
10.8360581
40
0.0748685
50
4.0236585
51
4.8288641
0
ARC
8
DEFAULT_255_2_778
10
8.0638976
20
10.8279557
40
0.1871119
50
3.3422531
51
4.093164
0
ARC
8
DEFAULT_255_2_778
10
7.9604715
20
10.8218758
40
0.2907165
50
2.5927408
51
3.3500994
0
ARC
8
DEFAULT_255_2_778
10
7.8641733
20
10.8175788
40
0.3871105
50
1.6371061
51
2.5833327
0
ARC
8
DEFAULT_255_2_778
10
7.7745792
20
10.8149571
40
0.476743
50
0.8309928
51
1.6444338
0
ARC
8
DEFAULT_255_2_778
10
7.7034272
20
10.8139263
40
0.5479024
50
359.9901596
51
0.8308687
0
ARC
8
DEFAULT_255_2_778
10
7.539562
20
10.8151975
40
0.7117689
50
356.1363193
51
359.8900909
0
ARC
8
DEFAULT_255_2_778
10
7.3478794
20
10.8278115
40
0.9038659
50
351.5320092
51
356.1572893
0
ARC
8
DEFAULT_255_2_778
10
7.2194495
20
10.8467108
40
1.0336787
50
345.8110352
51
351.5441458
0
ARC
8
DEFAULT_255_2_778
10
7.1364051
20
10.8675398
40
1.1192952
50
339.1023467
51
345.819342
0
ARC
8
DEFAULT_255_2_778
10
7.071116
20
10.8925136
40
1.1891977
50
331.574682
51
339.1003039
0
ARC
8
DEFAULT_255_2_778
10
6.9959888
20
10.9334253
40
1.2747421
50
323.7573622
51
331.564893
0
ARC
8
DEFAULT_255_2_778
10
6.9052248
20
10.9996192
40
1.3870793
50
317.5136307
51
323.7686588
0
ARC
8
DEFAULT_255_2_778
10
6.7844599
20
11.1116122
40
1.5517781
50
309.9387326
51
317.4759153
0
ARC
8
DEFAULT_255_2_778
10
6.6217308
20
11.3058759
40
1.805193
50
303.2348085
51
309.9405882
0
ARC
8
DEFAULT_255_2_778
10
6.4389034
20
11.5844925
40
2.1384392
50
297.3302477
51
303.2407217
0
ARC
8
DEFAULT_255_2_778
10
6.2523328
20
11.9436045
40
2.5431236
50
292.5452008
51
297.3498421
0
ARC
8
DEFAULT_255_2_778
10
6.0643524
20
12.3965832
40
3.0335586
50
288.0316749
51
292.5440087
0
ARC
8
DEFAULT_255_2_778
10
5.876029
20
12.9733011
40
3.6402454
50
284.1019328
51
288.0404125
0
ARC
8
DEFAULT_255_2_778
10
5.7070768
20
13.6414877
40
4.3294605
50
280.8749086
51
284.11594
0
ARC
8
DEFAULT_255_2_778
10
5.5564819
20
14.425535
40
5.1278394
50
277.7946343
51
280.8745503
0
ARC
8
DEFAULT_255_2_778
10
5.4277167
20
15.3613076
40
6.0724296
50
275.0958977
51
277.8008928
0
ARC
8
DEFAULT_255_2_778
10
5.3307628
20
16.4451278
40
7.1605776
50
272.6119807
51
275.0983192
0
LINE
8
DEFAULT_255_2_778
10
5.6570837
20
9.2919897
11
5.6564511
21
9.2919605
0
ARC
8
DEFAULT_255_2_778
10
3.8902532
20
8.6329789
40
0.2812626
50
73.8958246
51
84.8928391
0
ARC
8
DEFAULT_255_2_778
10
3.8940477
20
8.6682336
40
0.2458109
50
85.042278
51
89.9692819
0
ARC
8
DEFAULT_255_2_778
10
3.890003
20
8.7227557
40
0.1913345
50
88.7492297
51
125.681455
0
ARC
8
DEFAULT_255_2_778
10
3.8635029
20
8.7614869
40
0.1444211
50
126.1042754
51
180.0668015
0
ARC
8
DEFAULT_255_2_778
10
3.8868539
20
8.7625516
40
0.1677764
50
180.4211023
51
202.5022374
0
ARC
8
DEFAULT_255_2_778
10
3.9242134
20
8.7764898
40
0.2076307
50
202.1100335
51
210.2092311
0
ARC
8
DEFAULT_255_2_778
10
3.9724282
20
8.8061701
40
0.2642351
50
210.5105917
51
224.5927865
0
ARC
8
DEFAULT_255_2_778
10
4.0491011
20
8.8808003
40
0.3712308
50
224.4872255
51
234.9363938
0
ARC
8
DEFAULT_255_2_778
10
4.1096871
20
8.9638063
40
0.4739821
50
234.7061382
51
238.8875203
0
ARC
8
DEFAULT_255_2_778
10
4.0698133
20
8.9013314
40
0.3998946
50
239.1534615
51
243.8407621
0
ARC
8
DEFAULT_255_2_778
10
4.234843
20
9.233891
40
0.7711485
50
243.728465
51
246.8390257
0
ARC
8
DEFAULT_255_2_778
10
4.4329202
20
9.6949199
40
1.2729272
50
246.8037844
51
249.2738573
0
ARC
8
DEFAULT_255_2_778
10
4.6475073
20
10.2597622
40
1.8771571
50
249.24941
51
251.2778099
0
ARC
8
DEFAULT_255_2_778
10
4.8463225
20
10.8438259
40
2.4941316
50
251.2589164
51
252.9190391
0
ARC
8
DEFAULT_255_2_778
10
5.0147627
20
11.3905126
40
3.066179
50
252.9108903
51
254.4130945
0
ARC
8
DEFAULT_255_2_778
10
5.173177
20
11.9600191
40
3.6573071
50
254.4199514
51
256.3070981
0
ARC
8
DEFAULT_255_2_778
10
5.3127661
20
12.5328409
40
4.2468917
50
256.3067662
51
258.4875116
0
ARC
8
DEFAULT_255_2_778
10
5.4007227
20
12.962007
40
4.684978
50
258.4809882
51
260.7802264
0
ARC
8
DEFAULT_255_2_778
10
5.4388516
20
13.1940437
40
4.9201263
50
260.7748813
51
263.4349764
0
ARC
8
DEFAULT_255_2_778
10
5.4426165
20
13.2210994
40
4.9474349
50
263.4274851
51
266.559498
0
ARC
8
DEFAULT_255_2_778
10
5.4337129
20
13.0627178
40
4.7888045
50
266.5521123
51
269.9850636
0
ARC
8
DEFAULT_255_2_778
10
5.4340375
20
12.7886288
40
4.5147154
50
269.980037
51
273.656855
0
ARC
8
DEFAULT_255_2_778
10
5.4569314
20
12.4433216
40
4.168651
50
273.6455395
51
278.179808
0
ARC
8
DEFAULT_255_2_778
10
5.5109277
20
12.0703262
40
3.7917677
50
278.174109
51
283.2996514
0
ARC
8
DEFAULT_255_2_778
10
5.6044096
20
11.6836189
40
3.3939274
50
283.2656326
51
290.8925968
0
ARC
8
DEFAULT_255_2_778
10
5.7232084
20
11.3698088
40
3.0583845
50
290.9098749
51
298.9749347
0
ARC
8
DEFAULT_255_2_778
10
5.8033791
20
11.2211519
40
2.8894984
50
299.012164
51
305.0204288
0
ARC
8
DEFAULT_255_2_778
10
5.5087532
20
13.3087705
40
4.5703297
50
289.379859
51
295.0195491
0
ARC
8
DEFAULT_255_2_778
10
5.4635686
20
13.4384209
40
4.7076276
50
284.0770818
51
289.3750219
0
ARC
8
DEFAULT_255_2_778
10
5.4147532
20
13.6337954
40
4.9090081
50
279.1546862
51
284.075087
0
ARC
8
DEFAULT_255_2_778
10
5.3782458
20
13.8588821
40
5.1370361
50
274.8880393
51
279.1572624
0
ARC
8
DEFAULT_255_2_778
10
5.3600705
20
14.0666632
40
5.3456102
50
271.300463
51
274.8923738
0
ARC
8
DEFAULT_255_2_778
10
5.3565454
20
14.1853
40
5.4642964
50
269.9988274
51
271.3091841
0
ARC
8
DEFAULT_255_2_778
10
5.3567121
20
14.2561732
40
5.5351696
50
267.6866144
51
269.9971167
0
ARC
8
DEFAULT_255_2_778
10
5.3585087
20
14.3043686
40
5.5833983
50
265.6520446
51
267.6881562
0
ARC
8
DEFAULT_255_2_778
10
5.3576236
20
14.294066
40
5.5730581
50
263.9533225
51
265.6530882
0
ARC
8
DEFAULT_255_2_778
10
5.3494308
20
14.2182577
40
5.4968087
50
262.2387431
51
263.9550079
0
ARC
8
DEFAULT_255_2_778
10
5.3290936
20
14.0694309
40
5.3465987
50
260.8044358
51
262.2393052
0
ARC
8
DEFAULT_255_2_778
10
5.2929364
20
13.8469292
40
5.1211784
50
259.4541515
51
260.8059542
0
ARC
8
DEFAULT_255_2_778
10
5.2335633
20
13.5290374
40
4.7977894
50
258.151687
51
259.4564074
0
ARC
8
DEFAULT_255_2_778
10
5.1598963
20
13.1764976
40
4.4376352
50
257.3101148
51
258.1479894
0
ARC
8
DEFAULT_255_2_778
10
5.0687685
20
12.7736574
40
4.0246167
50
256.2665937
51
257.3159274
0
ARC
8
DEFAULT_255_2_778
10
4.9312238
20
12.2117215
40
3.4460923
50
255.2590194
51
256.2700236
0
ARC
8
DEFAULT_255_2_778
10
4.7684825
20
11.5927435
40
2.8060778
50
254.4688546
51
255.2566917
0
ARC
8
DEFAULT_255_2_778
10
4.5770102
20
10.9053054
40
2.0924724
50
253.6340965
51
254.4801037
0
ARC
8
DEFAULT_255_2_778
10
4.3527069
20
10.1416314
40
1.2965391
50
252.9651845
51
253.6356037
0
ARC
8
DEFAULT_255_2_778
10
4.1194312
20
9.381328
40
0.5012539
50
252.4124733
51
253.0004138
0
LINE
8
DEFAULT_255_2_778
10
7.4615712
20
8.8548044
11
7.4416712
21
9.1673044
0
ARC
8
DEFAULT_255_2_778
10
5.7300574
20
10.516201
40
0.7673133
50
94.8016589
51
179.935888
0
ARC
8
DEFAULT_255_2_778
10
5.7406556
20
10.5171307
40
0.7779109
50
180.0052358
51
184.5794389
0
ARC
8
DEFAULT_255_2_778
10
-8.8320106
20
9.3496773
40
13.8414443
50
4.5669027
51
4.5803786
0
ARC
8
DEFAULT_255_2_778
10
-301.4443275
20
-14.0480111
40
307.3877265
50
4.5709098
51
4.5715062
0
ARC
8
DEFAULT_255_2_778
10
-289.4665979
20
-13.0917977
40
295.3718891
50
4.570565
51
4.571175
0
ARC
8
DEFAULT_255_2_778
10
-91.7663966
20
2.7146032
40
97.0408226
50
4.5675395
51
4.5693645
0
ARC
8
DEFAULT_255_2_778
10
-86.8802401
20
3.1074437
40
92.1389003
50
4.5641033
51
4.5659925
0
LINE
8
DEFAULT_255_2_778
10
4.9664812
20
10.4393426
11
4.9700186
21
10.3950035
0
ARC
8
DEFAULT_255_2_778
10
25.7597315
20
12.0469443
40
20.8552409
50
184.5431501
51
184.7039357
0
ARC
8
DEFAULT_255_2_778
10
9.6643528
20
10.7217371
40
4.7053991
50
184.6940679
51
185.1275393
0
ARC
8
DEFAULT_255_2_778
10
6.1071458
20
10.3996718
40
1.1336469
50
184.9830921
51
186.5959591
0
ARC
8
DEFAULT_255_2_778
10
5.1115255
20
10.2817628
40
0.1311021
50
185.3876478
51
193.5601623
0
ARC
8
DEFAULT_255_2_778
10
5.0015839
20
10.2561447
40
0.0182395
50
196.3055835
51
199.944894
0
ARC
8
DEFAULT_255_2_778
10
4.9881887
20
10.2508176
40
0.0038555
50
193.4174418
51
230.2607029
0
ARC
8
DEFAULT_255_2_778
10
4.9860839
20
10.2484967
40
0.0007376
50
240.7874391
51
269.3857152
0
ARC
8
DEFAULT_255_2_778
10
4.9807103
20
10.2545421
40
0.0086487
50
308.345391
51
355.3430016
0
ARC
8
DEFAULT_255_2_778
10
4.8931129
20
10.2835822
40
0.1007096
50
342.8228503
51
344.5933849
0
ARC
8
DEFAULT_255_2_778
10
4.8133906
20
10.305757
40
0.1834582
50
344.5314574
51
345.3491193
0
ARC
8
DEFAULT_255_2_778
10
4.7012483
20
10.3351596
40
0.2993909
50
345.3333109
51
345.8477989
0
ARC
8
DEFAULT_255_2_778
10
6.1569844
20
9.9865744
40
1.1975258
50
164.7999051
51
166.7052089
0
ARC
8
DEFAULT_255_2_778
10
5.361552
20
10.1992179
40
0.3741827
50
161.4078588
51
164.2868326
0
ARC
8
DEFAULT_255_2_778
10
5.1325565
20
10.2851017
40
0.1300265
50
133.188423
51
165.1080075
0
ARC
8
DEFAULT_255_2_778
10
5.0706075
20
10.3456495
40
0.0436424
50
93.2568041
51
128.2873932
0
ARC
8
DEFAULT_255_2_778
10
5.0415138
20
10.7828626
40
0.39454
50
273.8679091
51
278.8088274
0
ARC
8
DEFAULT_255_2_778
10
4.9552386
20
11.4161438
40
1.0336298
50
278.1590525
51
278.3227928
0
ARC
8
DEFAULT_255_2_778
10
4.9414941
20
11.5106706
40
1.1291507
50
278.3185814
51
278.4701323
0
ARC
8
DEFAULT_255_2_778
10
4.9010668
20
11.7817383
40
1.4032164
50
278.4725693
51
278.5957249
0
ARC
8
DEFAULT_255_2_778
10
4.9037399
20
11.7641635
40
1.3854395
50
278.5950511
51
278.720878
0
ARC
8
DEFAULT_255_2_778
10
4.8458223
20
12.1412716
40
1.7669692
50
278.7231653
51
278.8225822
0
ARC
8
DEFAULT_255_2_778
10
4.8182277
20
12.3174813
40
1.9453264
50
278.8297043
51
278.9206121
0
ARC
8
DEFAULT_255_2_778
10
4.7675293
20
12.6379806
40
2.2698105
50
278.9303747
51
279.0087376
0
ARC
8
DEFAULT_255_2_778
10
4.7767927
20
12.5789335
40
2.2100414
50
279.0112443
51
279.0921228
0
ARC
8
DEFAULT_255_2_778
10
4.7417487
20
12.7978813
40
2.4317758
50
279.092242
51
279.1660482
0
ARC
8
DEFAULT_255_2_778
10
4.6866465
20
13.1395175
40
2.7778271
50
279.1655796
51
279.2304077
0
ARC
8
DEFAULT_255_2_778
10
4.7074158
20
13.0124147
40
2.6490385
50
279.2279761
51
279.2961347
0
ARC
8
DEFAULT_255_2_778
10
4.6259648
20
13.5113426
40
3.1545711
50
279.2922454
51
279.349593
0
ARC
8
DEFAULT_255_2_778
10
4.5100123
20
14.2163672
40
3.8690674
50
279.3477459
51
279.3945643
0
ARC
8
DEFAULT_255_2_778
10
4.585113
20
13.7643711
40
3.4108748
50
279.3893057
51
279.4424506
0
ARC
8
DEFAULT_255_2_778
10
4.4532929
20
14.5609184
40
4.2182555
50
279.4336888
51
279.4766671
0
ARC
8
DEFAULT_255_2_778
10
4.2412681
20
15.8317006
40
5.506604
50
279.4756486
51
279.5085577
0
ARC
8
DEFAULT_255_2_778
10
4.3460456
20
15.2045322
40
4.8707433
50
279.5116995
51
279.5488698
0
ARC
8
DEFAULT_255_2_778
10
4.0586018
20
16.9182028
40
6.608354
50
279.5417812
51
279.5691387
0
ARC
8
DEFAULT_255_2_778
10
3.1648839
20
22.2091413
40
11.9742424
50
279.5774135
51
279.5924829
0
ARC
8
DEFAULT_255_2_778
10
3.6333775
20
19.4315488
40
9.1574171
50
279.5981964
51
279.6178549
0
ARC
8
DEFAULT_255_2_778
10
3.9316921
20
17.6729575
40
7.3737033
50
279.6155001
51
279.6398463
0
ARC
8
DEFAULT_255_2_778
10
2.7034202
20
24.9028811
40
14.7072186
50
279.640804
51
279.6529716
0
ARC
8
DEFAULT_255_2_778
10
3.4104353
20
20.7481057
40
10.4927164
50
279.6511644
51
279.6681583
0
ARC
8
DEFAULT_255_2_778
10
11.2639706
20
-25.0938343
40
36.0170893
50
99.6031625
51
99.7369196
0
ARC
8
DEFAULT_255_2_778
10
6.7180055
20
1.7438831
40
8.7970826
50
99.0178494
51
99.569889
0
ARC
8
DEFAULT_255_2_778
10
6.4140877
20
3.654219
40
6.8627225
50
98.2009744
51
99.0117465
0
ARC
8
DEFAULT_255_2_778
10
6.3005436
20
4.4453111
40
6.0635238
50
96.6580216
51
98.2053492
0
ARC
8
DEFAULT_255_2_778
10
6.2471122
20
4.9024848
40
5.6032385
50
94.600761
51
96.6573567
0
ARC
8
DEFAULT_255_2_778
10
6.2195278
20
5.2483677
40
5.2562573
50
91.94843
51
94.60347
0
ARC
8
DEFAULT_255_2_778
10
6.2094905
20
5.5238454
40
4.9805977
50
90.0070395
51
91.9407766
0
ARC
8
DEFAULT_255_2_778
10
6.2093149
20
5.7212229
40
4.7832202
50
88.2870742
51
90.0052273
0
ARC
8
DEFAULT_255_2_778
10
6.2128857
20
5.8517836
40
4.6526113
50
87.4593421
51
88.2829671
0
ARC
8
DEFAULT_255_2_778
10
6.4171405
20
10.5776394
40
0.0778434
50
271.4630822
51
310.5952961
0
ARC
8
DEFAULT_255_2_778
10
6.4244822
20
10.5655853
40
0.0639534
50
312.6284993
51
334.0512129
0
ARC
8
DEFAULT_255_2_778
10
6.4070922
20
10.5733852
40
0.0830055
50
334.462492
51
357.8552921
0
ARC
8
DEFAULT_255_2_778
10
6.4186368
20
10.5731177
40
0.071459
50
357.7231957
51
359.9637787
0
ARC
8
DEFAULT_255_2_778
10
6.4371737
20
10.57314
40
0.0529223
50
359.9269251
51
2.0492412
0
ARC
8
DEFAULT_255_2_778
10
6.4672859
20
10.5742604
40
0.0227892
50
1.9414058
51
3.6755273
0
ARC
8
DEFAULT_255_2_778
10
5.7269141
20
10.5143325
40
0.7655792
50
4.5992628
51
89.9286334
0
ARC
8
DEFAULT_255_2_778
10
5.7279412
20
10.5038981
40
0.776013
50
90.0054283
51
94.5909419
0
ARC
8
DEFAULT_255_2_778
10
5.7212644
20
10.6330468
40
0.6086367
50
94.7810982
51
179.9276597
0
ARC
8
DEFAULT_255_2_778
10
5.7293226
20
10.6338762
40
0.6166943
50
180.0056626
51
184.6235188
0
ARC
8
DEFAULT_255_2_778
10
-9.3718208
20
9.412938
40
14.5337255
50
4.6121045
51
4.6223005
0
ARC
8
DEFAULT_255_2_778
10
24.3317943
20
12.130654
40
19.2792846
50
184.6086117
51
184.6161659
0
ARC
8
DEFAULT_255_2_778
10
64.8472557
20
15.3943728
40
59.9259874
50
184.6089388
51
184.6136935
0
ARC
8
DEFAULT_255_2_778
10
278.4374385
20
32.5959209
40
274.2077159
50
184.6064271
51
184.6074308
0
ARC
8
DEFAULT_255_2_778
10
75.8999907
20
16.2537629
40
71.0120408
50
184.591391
51
184.6376128
0
ARC
8
DEFAULT_255_2_778
10
12.4307847
20
11.1035512
40
7.3342207
50
184.6246619
51
184.9221632
0
ARC
8
DEFAULT_255_2_778
10
6.5193256
20
10.5910727
40
1.4005943
50
184.7842369
51
186.1528341
0
ARC
8
DEFAULT_255_2_778
10
5.2694703
20
10.4536228
40
0.1432321
50
185.0737156
51
192.3408821
0
ARC
8
DEFAULT_255_2_778
10
5.145618
20
10.4272085
40
0.0166096
50
194.6415162
51
200.1478247
0
ARC
8
DEFAULT_255_2_778
10
5.1323344
20
10.421903
40
0.0023467
50
190.1996189
51
240.8373674
0
ARC
8
DEFAULT_255_2_778
10
5.1313039
20
10.4203889
40
0.0005468
50
258.077908
51
269.8693378
0
ARC
8
DEFAULT_255_2_778
10
5.1269191
20
10.4253301
40
0.0070237
50
308.6162901
51
355.4441135
0
ARC
8
DEFAULT_255_2_778
10
5.0491837
20
10.4507023
40
0.0886156
50
342.9855204
51
344.9742004
0
ARC
8
DEFAULT_255_2_778
10
4.9688619
20
10.4725484
40
0.171855
50
344.882399
51
345.5961314
0
ARC
8
DEFAULT_255_2_778
10
4.8558295
20
10.5016218
40
0.2885668
50
345.587761
51
346.0220966
0
ARC
8
DEFAULT_255_2_778
10
5.7659826
20
10.2874911
40
0.646471
50
163.5279871
51
167.090601
0
ARC
8
DEFAULT_255_2_778
10
5.4048874
20
10.390421
40
0.2710352
50
161.3242581
51
162.7496151
0
ARC
8
DEFAULT_255_2_778
10
5.2427324
20
10.4535766
40
0.0975162
50
129.1669347
51
165.974655
0
ARC
8
DEFAULT_255_2_778
10
5.1997801
20
10.4997237
40
0.0348584
50
94.6815922
51
122.3202454
0
ARC
8
DEFAULT_255_2_778
10
5.1484194
20
11.0250914
40
0.4930187
50
275.6473515
51
279.9354433
0
ARC
8
DEFAULT_255_2_778
10
4.9477872
20
12.2915038
40
1.775178
50
279.2614533
51
279.3972807
0
ARC
8
DEFAULT_255_2_778
10
4.8719781
20
12.7498661
40
2.2397673
50
279.3960188
51
279.5046758
0
ARC
8
DEFAULT_255_2_778
10
4.802965
20
13.1619162
40
2.6575567
50
279.5052087
51
279.5974061
0
ARC
8
DEFAULT_255_2_778
10
4.7011178
20
13.7642219
40
3.2684126
50
279.5974542
51
279.6727591
0
ARC
8
DEFAULT_255_2_778
10
4.5520696
20
14.6373589
40
4.1541796
50
279.6758509
51
279.7352454
0
ARC
8
DEFAULT_255_2_778
10
4.2716688
20
16.268534
40
5.8092796
50
279.7405537
51
279.7830523
0
ARC
8
DEFAULT_255_2_778
10
4.3336035
20
15.9082507
40
5.4437117
50
279.7849952
51
279.8302987
0
ARC
8
DEFAULT_255_2_778
10
3.7401421
20
19.3352092
40
8.9216769
50
279.8281247
51
279.8556949
0
ARC
8
DEFAULT_255_2_778
10
9.5271578
20
-13.7798855
40
24.695275
50
99.7777436
51
99.9331626
0
ARC
8
DEFAULT_255_2_778
10
6.4329889
20
4.149287
40
6.5010717
50
99.131942
51
99.7392252
0
ARC
8
DEFAULT_255_2_778
10
6.2276723
20
5.4224476
40
5.2114623
50
98.246597
51
99.1247641
0
ARC
8
DEFAULT_255_2_778
10
6.1553038
20
5.9231107
40
4.705596
50
96.6699872
51
98.2489332
0
ARC
8
DEFAULT_255_2_778
10
6.1209816
20
6.2168918
40
4.4098167
50
94.4990259
51
96.6704152
0
ARC
8
DEFAULT_255_2_778
10
6.1016322
20
6.4674725
40
4.1584903
50
91.5370375
51
94.5040727
0
ARC
8
DEFAULT_255_2_778
10
6.0955867
20
6.6604382
40
3.9654318
50
90.0042983
51
91.524504
0
ARC
8
DEFAULT_255_2_778
10
6.0957176
20
6.8015011
40
3.824369
50
88.0754661
51
90.0064181
0
ARC
8
DEFAULT_255_2_778
10
6.0986441
20
6.9000549
40
3.7257725
50
87.3910898
51
88.0695474
0
ARC
8
DEFAULT_255_2_778
10
6.2669459
20
10.6810291
40
0.0590775
50
271.2504156
51
318.0450144
0
ARC
8
DEFAULT_255_2_778
10
6.2705413
20
10.6754101
40
0.052677
50
319.975988
51
333.7376051
0
ARC
8
DEFAULT_255_2_778
10
6.2575446
20
10.6810702
40
0.06684
50
334.3162112
51
358.8617273
0
ARC
8
DEFAULT_255_2_778
10
6.2724624
20
10.6806874
40
0.0519176
50
358.957066
51
359.9900341
0
ARC
8
DEFAULT_255_2_778
10
6.2840216
20
10.6807305
40
0.0403584
50
359.9259327
51
1.9105086
0
ARC
8
DEFAULT_255_2_778
10
6.3068021
20
10.6815181
40
0.0175643
50
1.8200896
51
3.4191008
0
ARC
8
DEFAULT_255_2_778
10
5.7180629
20
10.6344062
40
0.6081819
50
4.5417688
51
49.5136739
0
ARC
8
DEFAULT_255_2_778
10
5.7198156
20
10.6349294
40
0.6066468
50
49.6074889
51
89.9945432
0
ARC
8
DEFAULT_255_2_778
10
5.7198818
20
10.6350061
40
0.6065701
50
90.0008021
51
94.6663844
0
ENDSEC
0
EOF