0
SECTION
2
HEADER
9
$MEASUREMENT
70
1
0
ENDSEC
0
SECTION
2
TABLES
0
TABLE
2
LTYPE
0
LTYPE
72
65
70
64
2
CONTINUOUS
3
______
73
0
40
0
0
ENDTAB
0
TABLE
2
LAYER
0
LAYER
2
DEFAULT_255_2_778
70
0
62
255
6
CONTINUOUS
0
ENDTAB
0
ENDSEC
0
SECTION
2
ENTITIES
0
ARC
8
DEFAULT_255_2_778
10
4.0370075
20
13.3361844
40
4.5525273
50
1.9057016
51
5.205324
0
ARC
8
DEFAULT_255_2_778
10
4.8370647
20
13.4096087
40
3.7491082
50
5.1971308
51
8.9174338
0
ARC
8
DEFAULT_255_2_778
10
5.521875
20
13.5174647
40
3.0558565
50
8.9099487
51
13.0630655
0
ARC
8
DEFAULT_255_2_778
10
6.1077709
20
13.6542584
40
2.4542041
50
13.0437452
51
18.0070698
0
ARC
8
DEFAULT_255_2_778
10
6.6112648
20
13.8190448
40
1.9244314
50
17.9752811
51
24.1336855
0
ARC
8
DEFAULT_255_2_778
10
7.0229939
20
14.0046316
40
1.4728099
50
24.0938937
51
31.7800958
0
ARC
8
DEFAULT_255_2_778
10
7.3340457
20
14.1986494
40
1.1062114
50
31.7225487
51
41.6456845
0
ARC
8
DEFAULT_255_2_778
10
7.5428782
20
14.3858498
40
0.8257594
50
41.5683087
51
54.9882713
0
ARC
8
DEFAULT_255_2_778
10
7.6523279
20
14.5443514
40
0.6331464
50
54.8709627
51
76.3321262
0
ARC
8
DEFAULT_255_2_778
10
7.6677848
20
14.5941992
40
0.5810667
50
76.6516557
51
90.0225108
0
ARC
8
DEFAULT_255_2_778
10
7.6680227
20
14.5696782
40
0.6055878
50
90.0441112
51
99.1751443
0
ARC
8
DEFAULT_255_2_778
10
7.6911196
20
14.4605975
40
0.716976
50
99.6073278
51
119.8119002
0
ARC
8
DEFAULT_255_2_778
10
7.8203528
20
14.2292268
40
0.9819808
50
119.6429209
51
133.203309
0
ARC
8
DEFAULT_255_2_778
10
8.0467808
20
13.9848958
40
1.3150928
50
133.1067407
51
143.4604985
0
ARC
8
DEFAULT_255_2_778
10
8.3545961
20
13.7547888
40
1.6994071
50
143.4061316
51
151.933695
0
ARC
8
DEFAULT_255_2_778
10
8.7240067
20
13.5561448
40
2.1188377
50
151.8936998
51
159.0611518
0
ARC
8
DEFAULT_255_2_778
10
9.1420641
20
13.3952868
40
2.5667738
50
159.0425445
51
165.4785585
0
ARC
8
DEFAULT_255_2_778
10
9.6043796
20
13.2746868
40
3.0445597
50
165.4630276
51
171.2566029
0
ARC
8
DEFAULT_255_2_778
10
10.0920122
20
13.1986871
40
3.5380784
50
171.240543
51
176.3140606
0
ARC
8
DEFAULT_255_2_778
10
10.5473076
20
13.1675666
40
3.994433
50
176.288437
51
180.0319884
0
ARC
8
DEFAULT_255_2_778
10
10.8125644
20
13.165488
40
4.2596893
50
180.0020371
51
180.9365064
0
ARC
8
DEFAULT_255_2_778
10
10.9219386
20
13.1672661
40
4.3690779
50
180.9363786
51
181.8593807
0
ARC
8
DEFAULT_255_2_778
10
10.6661532
20
13.158629
40
4.113147
50
181.8547394
51
181.9206249
0
ARC
8
DEFAULT_255_2_778
10
17.6932717
20
13.4811269
40
11.1474643
50
182.3667809
51
184.5416634
0
ARC
8
DEFAULT_255_2_778
10
15.9057398
20
13.3378874
40
9.3542031
50
184.5340329
51
187.2085079
0
ARC
8
DEFAULT_255_2_778
10
14.4571714
20
13.1541977
40
7.8940344
50
187.2050917
51
190.3271983
0
ARC
8
DEFAULT_255_2_778
10
13.3355316
20
12.9489373
40
6.7537683
50
190.3199049
51
194.2148434
0
ARC
8
DEFAULT_255_2_778
10
12.5478379
20
12.7495691
40
5.9412359
50
194.216396
51
198.9567386
0
ARC
8
DEFAULT_255_2_778
10
12.1911146
20
12.629279
40
5.5647834
50
198.9785353
51
205.3469137
0
ARC
8
DEFAULT_255_2_778
10
13.4085353
20
13.2711178
40
6.9400255
50
205.8329837
51
216.9233907
0
ARC
8
DEFAULT_255_2_778
10
18.4791838
20
16.9189592
40
13.1857708
50
216.358728
51
218.1991
0
ARC
8
DEFAULT_255_2_778
10
25.8550658
20
22.7181059
40
22.5684
50
218.1892989
51
219.2480239
0
ARC
8
DEFAULT_255_2_778
10
68.1907983
20
57.2093857
40
77.1757347
50
219.1928135
51
219.1950199
0
ARC
8
DEFAULT_255_2_778
10
68.0617547
20
57.1123127
40
77.0143798
50
219.1997211
51
219.2019285
0
ARC
8
DEFAULT_255_2_778
10
67.8717405
20
56.9551283
40
76.7677843
50
219.200655
51
219.2028658
0
ARC
8
DEFAULT_255_2_778
10
67.7434719
20
56.8586708
40
76.6074197
50
219.2075989
51
219.2098107
0
ARC
8
DEFAULT_255_2_778
10
19.2828675
20
17.3205212
40
14.0638713
50
219.2072041
51
219.2192326
0
ARC
8
DEFAULT_255_2_778
10
67.4484024
20
56.6258474
40
76.2316074
50
219.2166384
51
219.2188539
0
ARC
8
DEFAULT_255_2_778
10
67.3212925
20
56.5303159
40
76.0727279
50
219.2236425
51
219.2258589
0
ARC
8
DEFAULT_255_2_778
10
67.1945832
20
56.4351074
40
75.9143638
50
219.2306698
51
219.2328872
0
LINE
8
DEFAULT_255_2_778
10
8.3927151
20
8.4212453
11
8.3945703
21
8.4189733
0
ARC
8
DEFAULT_255_2_778
10
66.8412442
20
56.1443246
40
75.4567615
50
219.2337801
51
219.2360037
0
ARC
8
DEFAULT_255_2_778
10
66.7156697
20
56.0500159
40
75.2998464
50
219.2408593
51
219.2430838
0
ARC
8
DEFAULT_255_2_778
10
19.0483406
20
17.1129709
40
13.7509411
50
219.2405102
51
219.2526718
0
ARC
8
DEFAULT_255_2_778
10
66.4259138
20
55.8214313
40
74.9308343
50
219.2501111
51
219.2523393
0
ARC
8
DEFAULT_255_2_778
10
66.3014926
20
55.7280468
40
74.775399
50
219.2572524
51
219.2594815
0
ARC
8
DEFAULT_255_2_778
10
18.9495973
20
17.0260726
40
13.6194935
50
219.2569264
51
219.2691451
0
ARC
8
DEFAULT_255_2_778
10
66.0139959
20
55.5012665
40
74.4092801
50
219.2666031
51
219.2688359
0
ARC
8
DEFAULT_255_2_778
10
65.8907344
20
55.4088125
40
74.2553337
50
219.2738074
51
219.2760412
0
ARC
8
DEFAULT_255_2_778
10
-4.3585205
20
-2.0416297
40
16.4943831
50
39.2690442
51
39.2790836
0
ARC
8
DEFAULT_255_2_778
10
65.5442276
20
55.1234854
40
73.8064728
50
219.2771091
51
219.279349
0
ARC
8
DEFAULT_255_2_778
10
18.7860739
20
16.8797481
40
13.4002779
50
219.2768108
51
219.2891276
0
ARC
8
DEFAULT_255_2_778
10
65.2604745
20
54.899698
40
73.4451485
50
219.2866029
51
219.2888465
0
ARC
8
DEFAULT_255_2_778
10
18.721805
20
16.8226056
40
13.3143517
50
219.2863182
51
219.2986738
0
ARC
8
DEFAULT_255_2_778
10
64.9782097
20
54.6771013
40
73.0857312
50
219.2961592
51
219.2984064
0
ARC
8
DEFAULT_255_2_778
10
64.817699
20
54.5457616
40
72.8783335
50
219.2984243
51
219.3006741
0
ARC
8
DEFAULT_255_2_778
10
64.697419
20
54.4556843
40
72.728203
50
219.3057786
51
219.3080294
0
ARC
8
DEFAULT_255_2_778
10
64.5376345
20
54.3249255
40
72.5217352
50
219.3080665
51
219.31032
0
ARC
8
DEFAULT_255_2_778
10
18.5630421
20
16.6805862
40
13.1015414
50
219.3078127
51
219.320266
0
ARC
8
DEFAULT_255_2_778
10
64.2590498
20
54.1052746
40
72.167034
50
219.3177727
51
219.3200298
0
ARC
8
DEFAULT_255_2_778
10
18.4998546
20
16.624353
40
13.0170261
50
219.3175331
51
219.3300261
0
ARC
8
DEFAULT_255_2_778
10
63.9819308
20
53.8867981
40
71.8142121
50
219.3275435
51
219.3298043
0
ARC
8
DEFAULT_255_2_778
10
63.8239663
20
53.7574996
40
71.6100777
50
219.3298855
51
219.332149
0
ARC
8
DEFAULT_255_2_778
10
18.4061945
20
16.540185
40
12.8912349
50
219.3296636
51
219.3422163
0
ARC
8
DEFAULT_255_2_778
10
63.5490395
20
53.5407801
40
71.2600664
50
219.3397453
51
219.3420124
0
ARC
8
DEFAULT_255_2_778
10
63.3921635
20
53.4123568
40
71.0573287
50
219.3421187
51
219.3443885
0
ARC
8
DEFAULT_255_2_778
10
63.2356719
20
53.2842452
40
70.8550858
50
219.3444997
51
219.3467722
0
ARC
8
DEFAULT_255_2_778
10
18.2827329
20
16.4286594
40
12.7250511
50
219.3442993
51
219.3569323
0
ARC
8
DEFAULT_255_2_778
10
62.9636324
20
53.0698402
40
70.5087764
50
219.354474
51
219.3567502
0
ARC
8
DEFAULT_255_2_778
10
62.8082212
20
52.9425977
40
70.3079201
50
219.3568871
51
219.359166
0
ARC
8
DEFAULT_255_2_778
10
62.6531712
20
52.815648
40
70.1075287
50
219.3593081
51
219.3615898
0
ARC
8
DEFAULT_255_2_778
10
18.160466
20
16.318155
40
12.5604365
50
219.3591298
51
219.3718441
0
ARC
8
DEFAULT_255_2_778
10
18.1303535
20
16.2905388
40
12.5196399
50
219.3615622
51
219.374297
0
ARC
8
DEFAULT_255_2_778
10
62.2300463
20
52.4774769
40
69.565914
50
219.3718528
51
219.3741409
0
ARC
8
DEFAULT_255_2_778
10
62.0764447
20
52.3516952
40
69.3673833
50
219.3743146
51
219.3766055
0
ARC
8
DEFAULT_255_2_778
10
-3.2181544
20
-1.2405935
40
15.1046128
50
39.3758787
51
39.3863819
0
ARC
8
DEFAULT_255_2_778
10
-3.1769023
20
-1.2111553
40
15.0540496
50
39.3783544
51
39.3888754
0
ARC
8
DEFAULT_255_2_778
10
61.6784462
20
52.0358675
40
68.8593682
50
219.3881686
51
219.3904649
0
ARC
8
DEFAULT_255_2_778
10
61.5262477
20
51.911216
40
68.6626392
50
219.3906735
51
219.3929726
0
ARC
8
DEFAULT_255_2_778
10
61.3744229
20
51.7868679
40
68.4663916
50
219.3931867
51
219.3954885
0
ARC
8
DEFAULT_255_2_778
10
17.8918798
20
16.0749688
40
12.1985384
50
219.39306
51
219.4059583
0
ARC
8
DEFAULT_255_2_778
10
17.8624191
20
16.0479155
40
12.1586017
50
219.3955853
51
219.4085046
0
ARC
8
DEFAULT_255_2_778
10
17.8330305
20
16.020925
40
12.1187603
50
219.3981191
51
219.4110595
0
ARC
8
DEFAULT_255_2_778
10
17.803713
20
15.9939966
40
12.0790131
50
219.4006614
51
219.4136228
0
LINE
8
DEFAULT_255_2_778
10
8.4716773
20
8.3248595
11
8.4734092
21
8.3227518
0
ARC
8
DEFAULT_255_2_778
10
17.746157
20
15.9428
40
12.0020409
50
219.4122739
51
219.4252754
0
ARC
8
DEFAULT_255_2_778
10
60.3820281
20
50.9840482
40
67.1899615
50
219.4175283
51
219.4198469
0
ARC
8
DEFAULT_255_2_778
10
60.2330276
20
50.8619849
40
66.9973466
50
219.4201201
51
219.4224415
0
ARC
8
DEFAULT_255_2_778
10
60.084393
20
50.7402189
40
66.8052032
50
219.4227207
51
219.4250449
0
ARC
8
DEFAULT_255_2_778
10
59.9361074
20
50.6187362
40
66.6135092
50
219.42533
51
219.427657
0
ARC
8
DEFAULT_255_2_778
10
-2.6064711
20
-0.80818
40
14.357485
50
39.4270006
51
39.4377794
0
ARC
8
DEFAULT_255_2_778
10
59.7008119
20
50.4359863
40
66.3156961
50
219.437141
51
219.4394708
0
ARC
8
DEFAULT_255_2_778
10
17.5458009
20
15.7587415
40
11.7303846
50
219.4316756
51
219.4448248
0
ARC
8
DEFAULT_255_2_778
10
17.5171861
20
15.7324229
40
11.6915663
50
219.4343171
51
219.4474881
0
ARC
8
DEFAULT_255_2_778
10
17.4886416
20
15.7061657
40
11.6528411
50
219.4369676
51
219.4501604
0
ARC
8
DEFAULT_255_2_778
10
-2.4102618
20
-0.6688422
40
14.1174371
50
39.441384
51
39.4522557
0
ARC
8
DEFAULT_255_2_778
10
58.98846
20
49.8541037
40
65.3959022
50
219.4516373
51
219.4539804
0
ARC
8
DEFAULT_255_2_778
10
-22.5438797
20
-17.2485603
40
40.199031
50
39.4510269
51
39.4567353
0
ARC
8
DEFAULT_255_2_778
10
58.635451
20
49.5657279
40
64.9400812
50
219.4589763
51
219.461326
0
ARC
8
DEFAULT_255_2_778
10
17.3356869
20
15.5655926
40
11.4454114
50
219.4534759
51
219.4667858
0
ARC
8
DEFAULT_255_2_778
10
17.307589
20
15.5397246
40
11.4072777
50
219.456188
51
219.4695203
0
ARC
8
DEFAULT_255_2_778
10
-2.1590134
20
-0.4905914
40
13.8101694
50
39.4606794
51
39.4716737
0
ARC
8
DEFAULT_255_2_778
10
58.079208
20
49.1116781
40
64.2220578
50
219.471083
51
219.4734433
0
ARC
8
DEFAULT_255_2_778
10
17.2255665
20
15.4643136
40
11.2960233
50
219.4655646
51
219.4789613
0
ARC
8
DEFAULT_255_2_778
10
57.7535687
20
48.8366624
40
63.7958577
50
219.4710784
51
219.4734466
0
ARC
8
DEFAULT_255_2_778
10
-21.5999308
20
-16.5220243
40
39.0084996
50
39.4749623
51
39.4807624
0
ARC
8
DEFAULT_255_2_778
10
-1.9498609
20
-0.3423871
40
13.5545042
50
39.4776108
51
39.4887105
0
ARC
8
DEFAULT_255_2_778
10
-64.3432338
20
-51.7553636
40
94.4014405
50
39.4841654
51
39.487348
0
LINE
8
DEFAULT_255_2_778
10
8.5158304
20
8.2712031
11
8.517492
21
8.2691867
0
ARC
8
DEFAULT_255_2_778
10
-21.0030855
20
-16.0626999
40
38.2557864
50
39.4906731
51
39.4965335
0
ARC
8
DEFAULT_255_2_778
10
-20.8461675
20
-15.9410098
40
38.0572997
50
39.4936503
51
39.4995266
0
ARC
8
DEFAULT_255_2_778
10
56.4827941
20
47.8013246
40
62.1567391
50
219.5019372
51
219.5043297
0
ARC
8
DEFAULT_255_2_778
10
-20.5818771
20
-15.7369232
40
37.7235516
50
39.4998952
51
39.5057989
0
ARC
8
DEFAULT_255_2_778
10
-20.426498
20
-15.6164273
40
37.5270128
50
39.5029154
51
39.5088352
0
ARC
8
DEFAULT_255_2_778
10
16.8388061
20
15.1053192
40
10.7692457
50
219.5005163
51
219.5142331
0
ARC
8
DEFAULT_255_2_778
10
-20.1647946
20
-15.4143412
40
37.1965352
50
39.5092411
51
39.5151887
0
ARC
8
DEFAULT_255_2_778
10
-20.0109422
20
-15.2950302
40
37.0019292
50
39.5123051
51
39.518269
0
ARC
8
DEFAULT_255_2_778
10
16.7353314
20
15.0100497
40
10.6288013
50
219.5145205
51
219.5283262
0
ARC
8
DEFAULT_255_2_778
10
55.2216745
20
46.7567173
40
60.5191763
50
219.5202973
51
219.5227179
0
ARC
8
DEFAULT_255_2_778
10
-1.3324803
20
0.0978917
40
12.7980689
50
39.5164847
51
39.5279121
0
ARC
8
DEFAULT_255_2_778
10
16.6584871
20
14.9377516
40
10.5235166
50
219.5188161
51
219.5326903
0
ARC
8
DEFAULT_255_2_778
10
-59.5284743
20
-47.9338919
40
88.2555129
50
39.5268419
51
39.5301455
0
ARC
8
DEFAULT_255_2_778
10
-19.2522518
20
-14.7074569
40
36.0427747
50
39.5286714
51
39.5347178
0
ARC
8
DEFAULT_255_2_778
10
-1.1391021
20
0.2354283
40
12.5613782
50
39.5300562
51
39.5415925
0
ARC
8
DEFAULT_255_2_778
10
-58.3793418
20
-47.0202932
40
86.7877092
50
39.5369342
51
39.5402685
0
ARC
8
DEFAULT_255_2_778
10
-57.8771976
20
-46.6208185
40
86.1461533
50
39.5412828
51
39.5446308
0
ARC
8
DEFAULT_255_2_778
10
-57.3776404
20
-46.2233882
40
85.5078948
50
39.5456606
51
39.5490223
0
ARC
8
DEFAULT_255_2_778
10
53.4187508
20
45.2660197
40
58.1797947
50
219.5513687
51
219.5538304
0
ARC
8
DEFAULT_255_2_778
10
53.2482473
20
45.1183146
40
57.9542733
50
219.5485833
51
219.5510505
0
ARC
8
DEFAULT_255_2_778
10
53.1359952
20
45.0280112
40
57.8102184
50
219.5528832
51
219.5553525
0
ARC
8
DEFAULT_255_2_778
10
-56.1598
20
-45.2522628
40
83.950491
50
39.555268
51
39.5586635
0
LINE
8
DEFAULT_255_2_778
10
8.5669233
20
8.2092769
11
8.568502
21
8.2073657
0
ARC
8
DEFAULT_255_2_778
10
52.6127141
20
44.5945263
40
57.1307103
50
219.5618417
51
219.5643236
0
ARC
8
DEFAULT_255_2_778
10
-55.2198338
20
-44.5000222
40
82.746725
50
39.5612993
51
39.5647211
0
ARC
8
DEFAULT_255_2_778
10
-0.5984816
20
0.6218685
40
11.8984568
50
39.5595112
51
39.5713683
0
ARC
8
DEFAULT_255_2_778
10
52.0562066
20
44.125963
40
56.4032446
50
219.5649822
51
219.5674793
0
ARC
8
DEFAULT_255_2_778
10
51.9465906
20
44.0377993
40
56.2625852
50
219.5693742
51
219.5718733
0
ARC
8
DEFAULT_255_2_778
10
105.8817881
20
88.6126645
40
126.233466
50
219.5720023
51
219.5736704
0
ARC
8
DEFAULT_255_2_778
10
22.8977062
20
20.0245041
40
18.5733825
50
219.5689962
51
219.5803052
0
ARC
8
DEFAULT_255_2_778
10
-26.2482466
20
-20.6037318
40
45.1916411
50
39.5745196
51
39.5799287
0
ARC
8
DEFAULT_255_2_778
10
104.433995
20
87.4161916
40
124.3552614
50
219.5773697
51
219.5790496
0
ARC
8
DEFAULT_255_2_778
10
104.025089
20
87.0854287
40
123.8293556
50
219.5816394
51
219.5833221
0
ARC
8
DEFAULT_255_2_778
10
-25.6698054
20
-20.1470891
40
44.4548638
50
39.5809897
51
39.5864447
0
ARC
8
DEFAULT_255_2_778
10
103.0874638
20
86.3169052
40
122.6170264
50
219.5877084
51
219.5893985
0
ARC
8
DEFAULT_255_2_778
10
-51.5535349
20
-41.5702526
40
78.054256
50
39.5888008
51
39.5923323
0
LINE
8
DEFAULT_255_2_778
10
8.5980268
20
8.1716462
11
8.5995545
21
8.1697991
0
LINE
8
DEFAULT_255_2_778
10
8.5995545
20
8.1697991
11
8.6010796
21
8.1679551
0
ARC
8
DEFAULT_255_2_778
10
-50.6970715
20
-40.88149
40
76.9553038
50
39.5928556
51
39.5964135
0
ARC
8
DEFAULT_255_2_778
10
100.8842257
20
84.495389
40
119.7583241
50
219.596453
51
219.5981618
0
ARC
8
DEFAULT_255_2_778
10
100.4875996
20
84.1745822
40
119.2482285
50
219.6008605
51
219.6025722
0
LINE
8
DEFAULT_255_2_778
10
8.6086729
20
8.1587757
11
8.6101829
21
8.1569504
0
ARC
8
DEFAULT_255_2_778
10
-24.0989999
20
-18.9078358
40
42.4546028
50
39.600026
51
39.605612
0
LINE
8
DEFAULT_255_2_778
10
8.6128215
20
8.1537613
11
8.6143247
21
8.1519446
0
LINE
8
DEFAULT_255_2_778
10
8.6143247
20
8.1519446
11
8.6158254
21
8.1501309
0
ARC
8
DEFAULT_255_2_778
10
-23.6668091
20
-18.5666018
40
41.9040845
50
39.6051379
51
39.6107617
0
ARC
8
DEFAULT_255_2_778
10
-23.4625196
20
-18.4063758
40
41.6445461
50
39.6088322
51
39.6144743
0
ARC
8
DEFAULT_255_2_778
10
-23.2717463
20
-18.2539467
40
41.4003915
50
39.6089756
51
39.6146343
0
LINE
8
DEFAULT_255_2_778
10
8.6236692
20
8.140653
11
8.6251544
21
8.1388585
0
ARC
8
DEFAULT_255_2_778
10
-22.964323
20
-18.0103426
40
41.0082407
50
39.6116598
51
39.6173461
0
LINE
8
DEFAULT_255_2_778
10
8.6277494
20
8.1357234
11
8.6292278
21
8.1339373
0
ARC
8
DEFAULT_255_2_778
10
96.1765854
20
80.6088237
40
113.6536359
50
219.619194
51
219.6209444
0
ARC
8
DEFAULT_255_2_778
10
95.7411404
20
80.2447955
40
113.0860786
50
219.6195673
51
219.621322
0
ARC
8
DEFAULT_255_2_778
10
-46.1961703
20
-37.2687027
40
71.1844356
50
39.6199367
51
39.6236444
0
ARC
8
DEFAULT_255_2_778
10
-22.1090099
20
-17.334598
40
39.9184832
50
39.6215223
51
39.6272878
0
ARC
8
DEFAULT_255_2_778
10
-21.9239118
20
-17.1867195
40
39.6816031
50
39.6217065
51
39.6274893
0
ARC
8
DEFAULT_255_2_778
10
93.8200848
20
78.6516606
40
110.5903765
50
219.6267891
51
219.6285623
0
ARC
8
DEFAULT_255_2_778
10
93.393317
20
78.2948207
40
110.0340868
50
219.6271874
51
219.6289651
0
LINE
8
DEFAULT_255_2_778
10
8.6460643
20
8.1136024
11
8.8346524
21
7.8860239
0
ARC
8
DEFAULT_255_2_778
10
-52.4045876
20
-42.8652622
40
79.5357627
50
39.4009826
51
39.6498338
0
ARC
8
DEFAULT_255_2_778
10
-25.3856023
20
-20.6630013
40
44.5648336
50
39.0082927
51
39.3931938
0
ARC
8
DEFAULT_255_2_778
10
-17.0939361
20
-13.9452529
40
33.8933824
50
38.4812171
51
39.006582
0
ARC
8
DEFAULT_255_2_778
10
48.1506145
20
37.7410796
40
49.343277
50
218.3206792
51
219.0319348
0
ARC
8
DEFAULT_255_2_778
10
42.3199987
20
33.0144545
40
41.8374747
50
219.0322516
51
219.7836545
0
ARC
8
DEFAULT_255_2_778
10
36.6158823
20
28.2548937
40
34.4084577
50
219.7710804
51
220.9870408
0
ARC
8
DEFAULT_255_2_778
10
31.0703341
20
23.4319904
40
27.0590709
50
220.9799544
51
222.5052679
0
ARC
8
DEFAULT_255_2_778
10
26.5587843
20
19.2936964
40
20.9370164
50
222.4982934
51
224.3585633
0
ARC
8
DEFAULT_255_2_778
10
23.0747677
20
15.884521
40
16.0625067
50
224.35268
51
226.5565161
0
ARC
8
DEFAULT_255_2_778
10
20.5008911
20
13.1657265
40
12.3186205
50
226.5528998
51
229.0824888
0
ARC
8
DEFAULT_255_2_778
10
18.5321881
20
10.8884477
40
9.3083432
50
229.0585052
51
232.4240969
0
ARC
8
DEFAULT_255_2_778
10
17.0343238
20
8.9368447
40
6.8481929
50
232.3991304
51
236.7265991
0
ARC
8
DEFAULT_255_2_778
10
16.0006652
20
7.3567143
40
4.9600054
50
236.6952748
51
242.283869
0
ARC
8
DEFAULT_255_2_778
10
15.345115
20
6.1012532
40
3.5437036
50
242.226151
51
249.9027842
0
ARC
8
DEFAULT_255_2_778
10
15.0696779
20
5.3706454
40
2.7629483
50
250.0607789
51
254.814056
0
ARC
8
DEFAULT_255_2_778
10
15.1422394
20
5.6809698
40
3.0814647
50
255.0234687
51
258.1350085
0
ARC
8
DEFAULT_255_2_778
10
15.1008925
20
5.4840453
40
2.8802465
50
258.1345018
51
261.3468573
0
ARC
8
DEFAULT_255_2_778
10
15.0720138
20
5.2936925
40
2.6877157
50
261.3449588
51
264.7761133
0
ARC
8
DEFAULT_255_2_778
10
15.0549232
20
5.1054627
40
2.4987116
50
264.7734013
51
268.4893081
0
ARC
8
DEFAULT_255_2_778
10
15.0507086
20
4.9769255
40
2.3701081
50
268.5092389
51
269.9964994
0
ARC
8
DEFAULT_255_2_778
10
15.0543352
20
4.7698265
40
2.1630126
50
269.9000988
51
277.7262971
0
ARC
8
DEFAULT_255_2_778
10
15.0998295
20
4.4412215
40
1.8312747
50
277.698038
51
286.7218958
0
ARC
8
DEFAULT_255_2_778
10
15.1922846
20
4.1366697
40
1.5130001
50
286.687139
51
297.0714344
0
ARC
8
DEFAULT_255_2_778
10
15.3300805
20
3.8700952
40
1.2129212
50
297.0062132
51
309.749403
0
ARC
8
DEFAULT_255_2_778
10
15.505323
20
3.6623365
40
0.9411328
50
309.6344942
51
326.748904
0
ARC
8
DEFAULT_255_2_778
10
15.6885575
20
3.5463771
40
0.7243251
50
326.4724199
51
359.6564508
0
ARC
8
DEFAULT_255_2_778
10
15.6992096
20
3.5414483
40
0.7136603
50
0.0470294
51
10.8703614
0
ARC
8
DEFAULT_255_2_778
10
15.6433355
20
3.5307621
40
0.7705472
50
10.8671883
51
19.0286743
0
ARC
8
DEFAULT_255_2_778
10
15.5925253
20
3.5140454
40
0.8240317
50
18.9756221
51
21.8266072
0
ARC
8
DEFAULT_255_2_778
10
15.5067098
20
3.477203
40
0.9173962
50
21.9699502
51
32.1591779
0
ARC
8
DEFAULT_255_2_778
10
15.3410451
20
3.3735444
40
1.1128181
50
32.1373291
51
40.4172756
0
ARC
8
DEFAULT_255_2_778
10
15.1519379
20
3.2131417
40
1.3607906
50
40.3968078
51
47.2914834
0
ARC
8
DEFAULT_255_2_778
10
14.9504585
20
2.9958911
40
1.6570866
50
47.2674347
51
52.9130852
0
ARC
8
DEFAULT_255_2_778
10
14.7451709
20
2.7252538
40
1.9967738
50
52.8969858
51
57.6692328
0
ARC
8
DEFAULT_255_2_778
10
14.5375976
20
2.3980762
40
2.3842421
50
57.6591973
51
61.8234141
0
ARC
8
DEFAULT_255_2_778
10
14.3298062
20
2.0110519
40
2.82352
50
61.8149292
51
65.4735517
0
ARC
8
DEFAULT_255_2_778
10
14.1922774
20
1.7155209
40
3.1494762
50
65.42915
51
66.5775652
0
ARC
8
DEFAULT_255_2_778
10
13.6419032
20
0.4198522
40
4.5571691
50
66.7034778
51
72.2263018
0
ARC
8
DEFAULT_255_2_778
10
13.2177375
20
-0.8927531
40
5.9366042
50
72.1950649
51
76.4786618
0
ARC
8
DEFAULT_255_2_778
10
12.8112067
20
-2.5854902
40
7.6774734
50
76.4824799
51
80.452628
0
ARC
8
DEFAULT_255_2_778
10
12.4295801
20
-4.8512678
40
9.9751652
50
80.4495727
51
84.0035056
0
ARC
8
DEFAULT_255_2_778
10
12.1165308
20
-7.8406253
40
12.9808693
50
84.0077196
51
87.3663417
0
ARC
8
DEFAULT_255_2_778
10
11.9484664
20
-11.376565
40
16.5207976
50
87.3475753
51
90.0464709
0
ARC
8
DEFAULT_255_2_778
10
11.9352272
20
-13.4169337
40
18.5611607
50
90.000495
51
90.2937861
0
ARC
8
DEFAULT_255_2_778
10
11.9722927
20
-16.0763651
40
21.2207601
50
90.3570435
51
93.4540221
0
ARC
8
DEFAULT_255_2_778
10
12.1522977
20
-19.3632103
40
24.5124864
50
93.4111391
51
94.8938943
0
ARC
8
DEFAULT_255_2_778
10
12.257045
20
-20.6180001
40
25.771638
50
94.8879324
51
95.9072963
0
ARC
8
DEFAULT_255_2_778
10
12.2910745
20
-20.9546651
40
26.1100176
50
95.9055397
51
96.6324602
0
ARC
8
DEFAULT_255_2_778
10
12.252322
20
-20.6280942
40
25.7811564
50
96.6307395
51
97.5529681
0
ARC
8
DEFAULT_255_2_778
10
12.1266105
20
-19.6775062
40
24.822292
50
97.553723
51
98.1379865
0
ARC
8
DEFAULT_255_2_778
10
11.9499334
20
-18.4440579
40
23.5762544
50
98.1372719
51
98.7232409
0
ARC
8
DEFAULT_255_2_778
10
12.3621348
20
-20.1023635
40
25.2783737
50
99.0766769
51
101.046156
0
ARC
8
DEFAULT_255_2_778
10
11.283926
20
-14.6187228
40
19.6897445
50
101.0241306
51
103.9178275
0
ARC
8
DEFAULT_255_2_778
10
10.2311855
20
-10.3843963
40
15.3265153
50
103.9053003
51
107.6825319
0
ARC
8
DEFAULT_255_2_778
10
9.2610928
20
-7.3548903
40
12.145483
50
107.663333
51
112.7877754
0
ARC
8
DEFAULT_255_2_778
10
8.3499024
20
-5.2063103
40
9.8116905
50
112.7417448
51
120.9281724
0
ARC
8
DEFAULT_255_2_778
10
7.7754157
20
-4.2297185
40
8.6786978
50
120.9884507
51
135.1698115
0
ARC
8
DEFAULT_255_2_778
10
8.1385973
20
-4.5985511
40
9.1962976
50
135.1353579
51
138.3194237
0
ARC
8
DEFAULT_255_2_778
10
4.1777341
20
-1.110212
40
3.9185109
50
137.9016751
51
141.1746308
0
ARC
8
DEFAULT_255_2_778
10
3.7764009
20
-0.7875758
40
3.4035719
50
141.170216
51
144.7506826
0
ARC
8
DEFAULT_255_2_778
10
3.383393
20
-0.5105563
40
2.9227449
50
144.7390907
51
148.9235176
0
ARC
8
DEFAULT_255_2_778
10
3.0020672
20
-0.2811774
40
2.4777461
50
148.9148403
51
153.6040617
0
ARC
8
DEFAULT_255_2_778
10
2.6485689
20
-0.1060738
40
2.0832562
50
153.5956053
51
158.8181147
0
ARC
8
DEFAULT_255_2_778
10
2.3204165
20
0.0204451
40
1.7315595
50
158.7982564
51
164.9839797
0
ARC
8
DEFAULT_255_2_778
10
2.0234219
20
0.0997607
40
1.4241564
50
164.9702672
51
172.0200807
0
ARC
8
DEFAULT_255_2_778
10
1.7731614
20
0.1346914
40
1.1714701
50
172.0127334
51
179.8734181
0
ARC
8
DEFAULT_255_2_778
10
1.5448096
20
0.133352
40
0.9431236
50
179.7614005
51
191.8308892
0
ARC
8
DEFAULT_255_2_778
10
1.3538991
20
0.0922665
40
0.7478459
50
191.7487923
51
208.8394437
0
ARC
8
DEFAULT_255_2_778
10
1.2679104
20
0.0482009
40
0.651273
50
209.0925387
51
253.7313086
0
ARC
8
DEFAULT_255_2_778
10
1.3277294
20
0.2255011
40
0.8382676
50
253.2012785
51
267.5484054
0
ARC
8
DEFAULT_255_2_778
10
1.3379544
20
0.3585114
40
0.9716041
50
267.2815048
51
270.0125858
0
ARC
8
DEFAULT_255_2_778
10
1.3351585
20
0.4914569
40
1.1045538
50
270.1560999
51
279.2611828
0
ARC
8
DEFAULT_255_2_778
10
1.2963181
20
0.7339366
40
1.3501238
50
279.2319243
51
286.7821331
0
ARC
8
DEFAULT_255_2_778
10
1.2172451
20
0.9990766
40
1.6268025
50
286.7522168
51
292.9093548
0
ARC
8
DEFAULT_255_2_778
10
1.0951053
20
1.2885049
40
1.9409473
50
292.9045899
51
298.5915433
0
ARC
8
DEFAULT_255_2_778
10
0.9219491
20
1.6071729
40
2.3036209
50
298.5800495
51
303.6188561
0
ARC
8
DEFAULT_255_2_778
10
0.6995794
20
1.9425073
40
2.7059855
50
303.6085417
51
308.068711
0
ARC
8
DEFAULT_255_2_778
10
0.4369158
20
2.2790253
40
3.1328768
50
308.0557018
51
311.836773
0
ARC
8
DEFAULT_255_2_778
10
0.1973867
20
2.549163
40
3.4939113
50
311.808499
51
313.9556847
0
ARC
8
DEFAULT_255_2_778
10
-0.5267853
20
3.3909577
40
4.6029798
50
313.1717573
51
315.9268339
0
ARC
8
DEFAULT_255_2_778
10
-1.424463
20
4.2631724
40
5.8546104
50
315.9049019
51
317.9224125
0
ARC
8
DEFAULT_255_2_778
10
-2.5305355
20
5.2606274
40
7.3440105
50
317.9292024
51
319.9777374
0
ARC
8
DEFAULT_255_2_778
10
-4.000503
20
6.4958291
40
9.2640437
50
319.9740483
51
321.7843375
0
ARC
8
DEFAULT_255_2_778
10
-5.6584967
20
7.8041162
40
11.3760463
50
321.7730969
51
323.1529309
0
ARC
8
DEFAULT_255_2_778
10
-7.5342133
20
9.2094209
40
13.7198028
50
323.1539847
51
324.4944106
0
ARC
8
DEFAULT_255_2_778
10
-9.5555073
20
10.6544563
40
16.2045064
50
324.4858827
51
325.4639888
0
ARC
8
DEFAULT_255_2_778
10
-11.5381257
20
12.0195256
40
18.6116187
50
325.4624216
51
326.3363474
0
ARC
8
DEFAULT_255_2_778
10
-14.2364316
20
13.8122085
40
21.8511489
50
326.3459312
51
327.5361149
0
ARC
8
DEFAULT_255_2_778
10
-17.540689
20
15.9176445
40
25.7691803
50
327.5298891
51
328.4522115
0
ARC
8
DEFAULT_255_2_778
10
-22.0973493
20
18.7036842
40
31.1100688
50
328.4702856
51
329.9286444
0
ARC
8
DEFAULT_255_2_778
10
-26.7649068
20
21.4200792
40
36.5105106
50
329.9098715
51
330.6590923
0
ARC
8
DEFAULT_255_2_778
10
-30.9154131
20
23.7464404
40
41.2685175
50
330.6671918
51
331.87009
0
ARC
8
DEFAULT_255_2_778
10
-33.9111929
20
25.3561822
40
44.6693877
50
331.8608892
51
332.5804044
0
ARC
8
DEFAULT_255_2_778
10
-34.4869278
20
25.6565855
40
45.3187802
50
332.5784732
51
333.1322862
0
ARC
8
DEFAULT_255_2_778
10
-33.5181811
20
25.1670081
40
44.2333517
50
333.1308884
51
333.6800181
0
ARC
8
DEFAULT_255_2_778
10
-31.2462284
20
24.0433596
40
41.6987204
50
333.6797639
51
334.1297355
0
ARC
8
DEFAULT_255_2_778
10
-28.4811223
20
22.7019926
40
38.6254362
50
334.1303715
51
334.475969
0
ARC
8
DEFAULT_255_2_778
10
-24.9095765
20
20.9986007
40
34.6684827
50
334.4730054
51
334.9481113
0
ARC
8
DEFAULT_255_2_778
10
-20.1157035
20
18.7587454
40
29.377153
50
334.9466055
51
335.444989
0
ARC
8
DEFAULT_255_2_778
10
-16.6795553
20
17.1852943
40
25.5978871
50
335.4521596
51
335.6314154
0
ARC
8
DEFAULT_255_2_778
10
58.3039689
20
-16.8650531
40
56.7547559
50
155.0878827
51
155.5524466
0
ARC
8
DEFAULT_255_2_778
10
103.8608342
20
-37.9745007
40
106.9646723
50
155.0299784
51
155.1117151
0
LINE
8
DEFAULT_255_2_778
10
6.8942796
20
7.1799944
11
6.8958979
21
7.1834699
0
LINE
8
DEFAULT_255_2_778
10
6.8958979
20
7.1834699
11
6.8975098
21
7.1869315
0
LINE
8
DEFAULT_255_2_778
10
6.8975098
20
7.1869315
11
6.8991155
21
7.1903794
0
LINE
8
DEFAULT_255_2_778
10
6.8991155
20
7.1903794
11
6.8999151
21
7.1920966
0
LINE
8
DEFAULT_255_2_778
10
6.8999151
20
7.1920966
11
6.9007133
21
7.1938103
0
LINE
8
DEFAULT_255_2_778
10
6.9007133
20
7.1938103
11
6.9023064
21
7.1972308
0
ARC
8
DEFAULT_255_2_778
10
-255.8778646
20
129.9836434
40
290.051584
50
334.9552416
51
335.0970721
0
ARC
8
DEFAULT_255_2_778
10
-45.1494936
20
32.0838542
40
57.6923903
50
335.1599896
51
335.3963046
0
ARC
8
DEFAULT_255_2_778
10
-8.9524341
20
15.7739528
40
17.9928497
50
334.6283723
51
342.128522
0
ARC
8
DEFAULT_255_2_778
10
-1.5464916
20
13.2693677
40
10.1762548
50
342.7533626
51
348.9886698
0
ARC
8
DEFAULT_255_2_778
10
-0.4571963
20
13.0460875
40
9.0643734
50
349.0589003
51
354.3623919
0
ARC
8
DEFAULT_255_2_778
10
-0.3370812
20
13.030743
40
8.9433326
50
354.3846264
51
359.300104
0
ARC
8
DEFAULT_255_2_778
10
-0.4949748
20
13.0342305
40
9.1012573
50
359.2902925
51
0.0004828
0
ARC
8
DEFAULT_255_2_778
10
-0.6097267
20
13.033934
40
9.2160091
50
0.0023201
51
1.5269076
0
ARC
8
DEFAULT_255_2_778
10
-0.788056
20
13.0292019
40
9.3944013
50
1.5267772
51
2.8829902
0
ARC
8
DEFAULT_255_2_778
10
-0.9963573
20
13.0186718
40
9.6029686
50
2.8832281
51
4.2329113
0
LINE
8
DEFAULT_255_2_778
10
8.5804169
20
13.7274771
11
8.5870169
21
13.4875771
0
ENDSEC
0
EOF