0
SECTION
2
HEADER
9
$MEASUREMENT
70
1
0
ENDSEC
0
SECTION
2
TABLES
0
TABLE
2
LTYPE
0
LTYPE
72
65
70
64
2
CONTINUOUS
3
______
73
0
40
0
0
ENDTAB
0
TABLE
2
LAYER
0
LAYER
2
DEFAULT_255_2_778
70
0
62
255
6
CONTINUOUS
0
ENDTAB
0
ENDSEC
0
SECTION
2
ENTITIES
0
ARC
8
DEFAULT_255_2_778
10
14.1760095
20
4.4081492
40
0.4128242
50
0.0446959
51
89.8162367
0
ARC
8
DEFAULT_255_2_778
10
14.1844759
20
4.4070202
40
0.4043603
50
359.9924084
51
0.2056053
0
ARC
8
DEFAULT_255_2_778
10
14.1784783
20
4.4069497
40
0.410358
50
315.0371945
51
0.0023508
0
ARC
8
DEFAULT_255_2_778
10
14.1785779
20
4.4073171
40
0.4105474
50
269.9841835
51
314.9910957
0
ARC
8
DEFAULT_255_2_778
10
14.178182
20
4.2633958
40
0.2666263
50
269.8176759
51
270.0607116
0
ARC
8
DEFAULT_255_2_778
10
14.1787942
20
4.4031029
40
1.3667325
50
269.9387664
51
301.9057481
0
ARC
8
DEFAULT_255_2_778
10
14.1766198
20
4.4094145
40
1.3732407
50
301.8435865
51
353.0834525
0
ARC
8
DEFAULT_255_2_778
10
14.1624938
20
4.4092047
40
1.3872399
50
353.1623134
51
359.9820962
0
ARC
8
DEFAULT_255_2_778
10
14.1831775
20
4.4102146
40
1.3665568
50
359.9394805
51
31.9836872
0
ARC
8
DEFAULT_255_2_778
10
14.1765205
20
4.4078277
40
1.3734685
50
31.9210533
51
83.0864311
0
ARC
8
DEFAULT_255_2_778
10
14.1767186
20
4.393746
40
1.3874253
50
83.1645508
51
89.9746044
0
ARC
8
DEFAULT_255_2_778
10
8.7045587
20
3.5766186
40
2.8752492
50
269.9357315
51
289.1887399
0
ARC
8
DEFAULT_255_2_778
10
8.6930087
20
3.5910564
40
2.8926877
50
289.3108082
51
334.5888223
0
ARC
8
DEFAULT_255_2_778
10
14.1804273
20
4.4032948
40
2.0535255
50
269.9220514
51
293.5960999
0
ARC
8
DEFAULT_255_2_778
10
14.1762205
20
4.4101963
40
2.0615342
50
293.6264631
51
350.2228353
0
ARC
8
DEFAULT_255_2_778
10
14.166309
20
4.4073583
40
2.0708247
50
350.3467878
51
0.0224917
0
ARC
8
DEFAULT_255_2_778
10
14.1859803
20
4.410898
40
2.0511551
50
359.9238307
51
23.9612605
0
ARC
8
DEFAULT_255_2_778
10
14.1759811
20
4.4051586
40
2.0626238
50
23.9941468
51
79.751381
0
ARC
8
DEFAULT_255_2_778
10
14.1785224
20
4.3949193
40
2.0722522
50
79.8708948
51
90.024575
0
ARC
8
DEFAULT_255_2_778
10
8.7186445
20
3.5921008
40
2.8635978
50
8.1199272
51
33.2247293
0
ARC
8
DEFAULT_255_2_778
10
8.6976583
20
3.5818836
40
2.8867531
50
33.1661408
51
75.2636952
0
ARC
8
DEFAULT_255_2_778
10
8.7034853
20
3.5822566
40
2.8849154
50
75.3737318
51
90.0427354
0
ARC
8
DEFAULT_255_2_778
10
14.186448
20
4.4023119
40
3.0113873
50
341.3587994
51
0.0620133
0
ARC
8
DEFAULT_255_2_778
10
14.1769197
20
4.4117845
40
3.0234495
50
283.853173
51
341.246423
0
ARC
8
DEFAULT_255_2_778
10
14.179463
20
4.4231692
40
3.0338988
50
269.9597844
51
283.7550591
0
ARC
8
DEFAULT_255_2_778
10
8.6967049
20
3.5913163
40
3.8513596
50
286.3213825
51
318.2520871
0
ARC
8
DEFAULT_255_2_778
10
8.7049697
20
3.5864502
40
3.8443725
50
270.0765051
51
286.2235507
0
ARC
8
DEFAULT_255_2_778
10
8.7014223
20
3.5863306
40
3.8442594
50
269.9986781
51
270.1293792
0
ARC
8
DEFAULT_255_2_778
10
8.704273
20
3.5931256
40
3.8350466
50
73.361047
51
90.0409272
0
ARC
8
DEFAULT_255_2_778
10
8.6921615
20
3.5716808
40
3.8590654
50
41.7681029
51
73.2799244
0
ARC
8
DEFAULT_255_2_778
10
14.1793099
20
4.4103115
40
3.0178602
50
71.3182435
51
90.0318255
0
ARC
8
DEFAULT_255_2_778
10
14.1716021
20
4.4024696
40
3.0277615
50
13.6457684
51
71.2276039
0
ARC
8
DEFAULT_255_2_778
10
14.1689925
20
4.4086737
40
3.0288411
50
359.9961702
51
13.5200737
0
ARC
8
DEFAULT_255_2_778
10
8.7131546
20
3.5825741
40
2.1876808
50
337.0784854
51
0.0732567
0
ARC
8
DEFAULT_255_2_778
10
8.7017788
20
3.5893531
40
2.2007994
50
280.1460568
51
337.0312803
0
ARC
8
DEFAULT_255_2_778
10
8.7051361
20
3.597751
40
2.2084799
50
269.976586
51
280.0219404
0
ARC
8
DEFAULT_255_2_778
10
8.7038322
20
3.579617
40
1.2298459
50
270.0186989
51
304.8224101
0
ARC
8
DEFAULT_255_2_778
10
8.7026575
20
3.5848503
40
1.2348144
50
304.7284962
51
354.5908786
0
ARC
8
DEFAULT_255_2_778
10
8.6865556
20
3.5851993
40
1.250878
50
354.644489
51
0.0078753
0
ARC
8
DEFAULT_255_2_778
10
8.7047065
20
3.5846229
40
1.2327272
50
0.0347788
51
34.7898198
0
ARC
8
DEFAULT_255_2_778
10
8.6997058
20
3.5835741
40
1.2374341
50
34.6975908
51
84.4987023
0
ARC
8
DEFAULT_255_2_778
10
8.6993019
20
3.5674221
40
1.2535508
50
84.5511001
51
89.9071374
0
ARC
8
DEFAULT_255_2_778
10
8.7041606
20
3.590738
40
2.190135
50
67.105902
51
90.0739562
0
ARC
8
DEFAULT_255_2_778
10
8.6993392
20
3.5829007
40
2.1992311
50
10.1548884
51
67.0696212
0
ARC
8
DEFAULT_255_2_778
10
8.6901966
20
3.5862974
40
2.2076371
50
359.9759607
51
10.0262759
0
LINE
8
DEFAULT_255_2_778
10
14.1773336
20
5.7808712
11
13.2164336
21
5.7808712
0
LINE
8
DEFAULT_255_2_778
10
13.2164336
20
5.7808712
11
13.2164336
21
4.8209712
0
LINE
8
DEFAULT_255_2_778
10
13.2164336
20
4.8209712
11
14.1773336
21
4.8209712
0
LINE
8
DEFAULT_255_2_778
10
14.1773336
20
3.9967712
11
13.2164336
21
3.9967712
0
LINE
8
DEFAULT_255_2_778
10
13.2164336
20
3.9967712
11
13.2164336
21
3.0363712
0
LINE
8
DEFAULT_255_2_778
10
13.2164336
20
3.0363712
11
14.1773336
21
3.0363712
0
LINE
8
DEFAULT_255_2_778
10
14.1773336
20
5.7811712
11
14.1773336
21
5.7808712
0
LINE
8
DEFAULT_255_2_778
10
11.3058336
20
2.3497712
11
12.5309336
21
2.3497712
0
LINE
8
DEFAULT_255_2_778
10
12.5309336
20
2.3497712
11
12.5309336
21
0.7013712
0
LINE
8
DEFAULT_255_2_778
10
12.5309336
20
0.7013712
11
13.2166336
21
0.7013712
0
LINE
8
DEFAULT_255_2_778
10
13.2166336
20
0.7013712
11
13.2166336
21
2.3497712
0
LINE
8
DEFAULT_255_2_778
10
13.2166336
20
2.3497712
11
14.1776336
21
2.3497712
0
LINE
8
DEFAULT_255_2_778
10
14.1776336
20
6.4671712
11
12.5306336
21
6.4671712
0
LINE
8
DEFAULT_255_2_778
10
12.5306336
20
6.4671712
11
12.5306336
21
3.9965712
0
LINE
8
DEFAULT_255_2_778
10
12.5306336
20
3.9965712
11
11.5535336
21
3.9965712
0
LINE
8
DEFAULT_255_2_778
10
8.7013336
20
6.4671712
11
5.3220336
21
6.4671712
0
LINE
8
DEFAULT_255_2_778
10
5.3220336
20
6.4671712
11
1.9578336
21
0.7013712
0
LINE
8
DEFAULT_255_2_778
10
1.9578336
20
0.7013712
11
2.7595336
21
0.7013712
0
LINE
8
DEFAULT_255_2_778
10
2.7595336
20
0.7013712
11
3.7200336
21
2.3497712
0
LINE
8
DEFAULT_255_2_778
10
3.7200336
20
2.3497712
11
7.1744336
21
2.3497712
0
LINE
8
DEFAULT_255_2_778
10
7.1744336
20
2.3497712
11
7.1744336
21
0.7013712
0
LINE
8
DEFAULT_255_2_778
10
7.1744336
20
0.7013712
11
8.7013336
21
0.7013712
0
LINE
8
DEFAULT_255_2_778
10
14.1773336
20
1.3892712
11
14.1773336
21
-0.2574288
0
LINE
8
DEFAULT_255_2_778
10
14.1773336
20
-0.2574288
11
11.5701336
21
-0.2574288
0
LINE
8
DEFAULT_255_2_778
10
11.5701336
20
-0.2574288
11
11.5701336
21
1.0268712
0
LINE
8
DEFAULT_255_2_778
10
8.7013336
20
-0.2579288
11
6.2142336
21
-0.2579288
0
LINE
8
DEFAULT_255_2_778
10
6.2142336
20
-0.2579288
11
6.2142336
21
1.3892712
0
LINE
8
DEFAULT_255_2_778
10
6.2142336
20
1.3892712
11
4.2721336
21
1.3892712
0
LINE
8
DEFAULT_255_2_778
10
4.2721336
20
1.3892712
11
3.3117336
21
-0.2574288
0
LINE
8
DEFAULT_255_2_778
10
3.3117336
20
-0.2574288
11
0.2645336
21
-0.2574288
0
LINE
8
DEFAULT_255_2_778
10
0.2645336
20
-0.2574288
11
4.7473336
21
7.4281712
0
LINE
8
DEFAULT_255_2_778
10
4.7473336
20
7.4281712
11
8.7015336
21
7.4281712
0
LINE
8
DEFAULT_255_2_778
10
11.5704336
20
6.1422712
11
11.5704336
21
7.4281712
0
LINE
8
DEFAULT_255_2_778
10
11.5704336
20
7.4281712
11
14.1776336
21
7.4281712
0
LINE
8
DEFAULT_255_2_778
10
17.1978336
20
4.4084712
11
17.1978336
21
4.4055712
0
LINE
8
DEFAULT_255_2_778
10
6.2168336
20
5.7779712
11
6.2168336
21
3.9938712
0
LINE
8
DEFAULT_255_2_778
10
6.2168336
20
3.9938712
11
4.6841336
21
3.9938712
0
LINE
8
DEFAULT_255_2_778
10
4.6841336
20
3.9938712
11
4.1242336
21
3.0334712
0
LINE
8
DEFAULT_255_2_778
10
4.1242336
20
3.0334712
11
7.1775336
21
3.0334712
0
LINE
8
DEFAULT_255_2_778
10
7.1775336
20
3.0334712
11
7.1775336
21
5.7808712
0
LINE
8
DEFAULT_255_2_778
10
7.1775336
20
5.7808712
11
6.2168336
21
5.7779712
0
LINE
8
DEFAULT_255_2_778
10
8.7042336
20
1.3892712
11
7.8668336
21
1.3892712
0
LINE
8
DEFAULT_255_2_778
10
7.8668336
20
1.3892712
11
7.8668336
21
2.3497712
0
LINE
8
DEFAULT_255_2_778
10
7.8668336
20
2.3497712
11
8.7042336
21
2.3497712
0
LINE
8
DEFAULT_255_2_778
10
8.7013336
20
4.8209712
11
7.8639336
21
4.8209712
0
LINE
8
DEFAULT_255_2_778
10
7.8639336
20
4.8209712
11
7.8639336
21
5.7808712
0
LINE
8
DEFAULT_255_2_778
10
7.8639336
20
5.7808712
11
8.7013336
21
5.7808712
0
ENDSEC
0
EOF