0
SECTION
2
HEADER
9
$MEASUREMENT
70
1
0
ENDSEC
0
SECTION
2
TABLES
0
TABLE
2
LTYPE
0
LTYPE
72
65
70
64
2
CONTINUOUS
3
______
73
0
40
0
0
ENDTAB
0
TABLE
2
LAYER
0
LAYER
2
DEFAULT_255_2_778
70
0
62
255
6
CONTINUOUS
0
ENDTAB
0
ENDSEC
0
SECTION
2
ENTITIES
0
ARC
8
DEFAULT_255_2_778
10
12.552113
20
2.951198
40
2.0020025
50
352.6730276
51
0.3554644
0
ARC
8
DEFAULT_255_2_778
10
13.3924074
20
2.8389508
40
1.154262
50
339.1458952
51
352.879853
0
ARC
8
DEFAULT_255_2_778
10
13.6426233
20
2.7505736
40
0.8890001
50
322.5595916
51
338.7278316
0
ARC
8
DEFAULT_255_2_778
10
13.4743634
20
2.8636446
40
1.0914078
50
296.3728876
51
323.2165766
0
ARC
8
DEFAULT_255_2_778
10
13.4839689
20
2.8767356
40
1.0989641
50
278.7569268
51
295.6210111
0
ARC
8
DEFAULT_255_2_778
10
13.4323868
20
3.1853689
40
1.4118583
50
269.8088676
51
278.9189957
0
ARC
8
DEFAULT_255_2_778
10
13.4208594
20
3.3221846
40
1.5486812
50
259.4640868
51
270.2522293
0
ARC
8
DEFAULT_255_2_778
10
13.3567204
20
2.979814
40
1.200355
50
245.8557036
51
259.4857816
0
ARC
8
DEFAULT_255_2_778
10
13.274968
20
2.7967157
40
0.9998348
50
228.0325319
51
245.8389005
0
ARC
8
DEFAULT_255_2_778
10
13.223769
20
2.7379089
40
0.9218741
50
208.1058479
51
227.954415
0
ARC
8
DEFAULT_255_2_778
10
13.193357
20
2.7201584
40
0.8866871
50
204.9129993
51
208.0198939
0
ARC
8
DEFAULT_255_2_778
10
13.1630683
20
2.706663
40
0.853532
50
197.4528062
51
204.9478507
0
ARC
8
DEFAULT_255_2_778
10
13.1139272
20
2.6907321
40
0.8018753
50
193.9722044
51
197.4200048
0
ARC
8
DEFAULT_255_2_778
10
13.3070316
20
2.736792
40
0.508924
50
208.0954459
51
244.1430832
0
ARC
8
DEFAULT_255_2_778
10
13.462915
20
2.9129193
40
0.7381365
50
239.2108006
51
262.9153892
0
ARC
8
DEFAULT_255_2_778
10
13.3736539
20
3.1240367
40
0.94362
50
269.892109
51
279.5678527
0
ARC
8
DEFAULT_255_2_778
10
13.3862392
20
3.0368544
40
0.8555612
50
279.7071999
51
280.4378661
0
ARC
8
DEFAULT_255_2_778
10
13.4420213
20
2.8323633
40
0.6445941
50
278.8544603
51
318.0712801
0
ARC
8
DEFAULT_255_2_778
10
13.4434258
20
2.8078509
40
0.6274084
50
319.6511766
51
341.3737483
0
ARC
8
DEFAULT_255_2_778
10
13.1882264
20
2.8952645
40
0.8971612
50
341.2890578
51
355.2948413
0
ARC
8
DEFAULT_255_2_778
10
12.8776719
20
2.9296593
40
1.2095225
50
354.8777574
51
359.2022108
0
ARC
8
DEFAULT_255_2_778
10
13.5574155
20
3.3740658
40
0.6830826
50
314.8772206
51
320.8412109
0
ARC
8
DEFAULT_255_2_778
10
13.48528
20
3.4451568
40
0.7843578
50
311.2208225
51
314.9470271
0
ARC
8
DEFAULT_255_2_778
10
13.4181964
20
3.5250477
40
0.8886579
50
298.0335905
51
311.0798446
0
ARC
8
DEFAULT_255_2_778
10
13.37431
20
3.6064426
40
0.9811293
50
284.2505151
51
298.0617747
0
ARC
8
DEFAULT_255_2_778
10
13.3437145
20
3.7307114
40
1.109106
50
270.9238427
51
284.2021498
0
ARC
8
DEFAULT_255_2_778
10
13.3378137
20
3.8459897
40
1.2244712
50
269.9982846
51
271.1129486
0
ARC
8
DEFAULT_255_2_778
10
13.3293615
20
3.8366317
40
1.2151425
50
247.3183277
51
270.3968054
0
ARC
8
DEFAULT_255_2_778
10
13.2841918
20
3.7130522
40
1.0837189
50
189.6860409
51
247.0023142
0
ARC
8
DEFAULT_255_2_778
10
13.4747838
20
3.7624246
40
1.2800085
50
179.9062774
51
190.4291834
0
ARC
8
DEFAULT_255_2_778
10
13.4463222
20
3.7726979
40
1.2515719
50
161.2365679
51
180.3744511
0
ARC
8
DEFAULT_255_2_778
10
13.2656378
20
3.8340656
40
1.0607504
50
123.814843
51
161.2358739
0
ARC
8
DEFAULT_255_2_778
10
13.3030439
20
3.7624769
40
1.1410796
50
89.5313618
51
123.3749136
0
ARC
8
DEFAULT_255_2_778
10
13.3116182
20
3.786736
40
1.1167827
50
84.8174534
51
89.9610695
0
ARC
8
DEFAULT_255_2_778
10
13.3156794
20
3.7615399
40
1.1415264
50
60.0520362
51
85.1346952
0
ARC
8
DEFAULT_255_2_778
10
13.5811645
20
4.2140189
40
0.616943
50
35.2557235
51
60.4378056
0
ARC
8
DEFAULT_255_2_778
10
13.7406314
20
4.3415393
40
0.4132934
50
30.6798516
51
33.5804591
0
ARC
8
DEFAULT_255_2_778
10
13.406421
20
3.7725492
40
0.6978596
50
179.6166437
51
237.2466301
0
ARC
8
DEFAULT_255_2_778
10
13.3683953
20
3.7252926
40
0.6375759
50
237.8229392
51
270.1421395
0
ARC
8
DEFAULT_255_2_778
10
13.3527642
20
3.7463826
40
0.6588891
50
271.4969677
51
317.2725185
0
ARC
8
DEFAULT_255_2_778
10
13.3840829
20
3.7713748
40
0.6540407
50
313.8005215
51
358.426769
0
ARC
8
DEFAULT_255_2_778
10
13.2976401
20
3.7403175
40
0.7403528
50
1.0139322
51
40.8244543
0
ARC
8
DEFAULT_255_2_778
10
13.4037151
20
3.8151312
40
0.6113078
50
42.0179693
51
90.0027557
0
ARC
8
DEFAULT_255_2_778
10
13.4036905
20
3.8136398
40
0.6127993
50
90.0004465
51
92.7792514
0
ARC
8
DEFAULT_255_2_778
10
13.358928
20
3.7722337
40
0.6536579
50
88.6807734
51
172.6711062
0
ARC
8
DEFAULT_255_2_778
10
13.3911053
20
3.7752161
40
0.6852284
50
173.261665
51
180.0332505
0
ARC
8
DEFAULT_255_2_778
10
17.8633043
20
3.5910928
40
0.5249505
50
182.3007885
51
254.640455
0
ARC
8
DEFAULT_255_2_778
10
17.9177945
20
3.7073062
40
0.6518096
50
252.7271661
51
270.1461207
0
ARC
8
DEFAULT_255_2_778
10
17.9194075
20
3.7483511
40
0.6928524
50
270.0040843
51
272.6115653
0
ARC
8
DEFAULT_255_2_778
10
17.9357783
20
3.9288923
40
0.8728062
50
270.9977782
51
285.7946408
0
ARC
8
DEFAULT_255_2_778
10
18.0474325
20
3.5416571
40
0.469805
50
285.5462239
51
332.6913825
0
ARC
8
DEFAULT_255_2_778
10
17.8404229
20
3.8075608
40
1.2874595
50
306.2592112
51
338.0407186
0
ARC
8
DEFAULT_255_2_778
10
17.9710892
20
3.6813413
40
1.1088267
50
269.849519
51
304.6720652
0
ARC
8
DEFAULT_255_2_778
10
17.9636471
20
3.7384751
40
1.1659655
50
270.0000278
51
270.2226036
0
ARC
8
DEFAULT_255_2_778
10
17.9636494
20
3.7370663
40
1.1645567
50
225.2148429
51
269.9999106
0
ARC
8
DEFAULT_255_2_778
10
17.9635142
20
3.7367589
40
1.1642433
50
180.1840821
51
225.2089098
0
ARC
8
DEFAULT_255_2_778
10
17.9744349
20
3.7406839
40
1.1751829
50
179.9986474
51
180.3737305
0
ARC
8
DEFAULT_255_2_778
10
17.9569228
20
3.7411272
40
1.157671
50
141.113389
51
180.0205687
0
ARC
8
DEFAULT_255_2_778
10
17.968914
20
3.7367995
40
1.1697292
50
93.8819564
51
141.3171153
0
ARC
8
DEFAULT_255_2_778
10
17.9679674
20
3.728627
40
1.1778199
50
90.3984284
51
93.8090967
0
ARC
8
DEFAULT_255_2_778
10
17.9791617
20
3.7841511
40
1.1224347
50
89.999845
51
90.9895585
0
ARC
8
DEFAULT_255_2_778
10
17.9790428
20
3.7851685
40
1.1214174
50
44.5959348
51
89.9937719
0
ARC
8
DEFAULT_255_2_778
10
17.9616681
20
3.7645889
40
1.148241
50
359.2909893
51
44.7184531
0
ARC
8
DEFAULT_255_2_778
10
17.6807243
20
3.7523554
40
1.4290982
50
352.8717858
51
359.9208144
0
ARC
8
DEFAULT_255_2_778
10
18.1600668
20
3.9250541
40
0.401537
50
6.1710885
51
19.2321014
0
ARC
8
DEFAULT_255_2_778
10
18.1062989
20
3.9082945
40
0.4578288
50
18.9959898
51
21.7909387
0
ARC
8
DEFAULT_255_2_778
10
18.0375
20
3.875574
40
0.5338801
50
22.310681
51
49.7368739
0
ARC
8
DEFAULT_255_2_778
10
17.992912
20
3.8247789
40
0.6014596
50
49.6229817
51
74.585881
0
ARC
8
DEFAULT_255_2_778
10
17.9600234
20
3.7079712
40
0.7228076
50
74.5336552
51
90.3081664
0
ARC
8
DEFAULT_255_2_778
10
17.9561159
20
3.613747
40
0.8170214
50
89.998608
51
90.6338882
0
ARC
8
DEFAULT_255_2_778
10
17.9487309
20
3.6744818
40
0.7562384
50
90.1253036
51
108.454958
0
ARC
8
DEFAULT_255_2_778
10
17.8933462
20
3.8400601
40
0.581643
50
108.4430233
51
134.2837579
0
ARC
8
DEFAULT_255_2_778
10
17.8343264
20
3.9003591
40
0.4972671
50
134.2664524
51
163.4908408
0
ARC
8
DEFAULT_255_2_778
10
17.7616212
20
3.9249822
40
0.4205725
50
163.8923894
51
174.0993842
0
ARC
8
DEFAULT_255_2_778
10
20.5914915
20
4.1435561
40
1.7963871
50
324.4713318
51
337.7969211
0
ARC
8
DEFAULT_255_2_778
10
21.0455673
20
3.812829
40
1.2346713
50
279.9533896
51
324.7166273
0
ARC
8
DEFAULT_255_2_778
10
20.9204858
20
4.3908323
40
1.8257435
50
269.6733487
51
280.6843854
0
ARC
8
DEFAULT_255_2_778
10
20.903699
20
4.0682181
40
1.5031132
50
248.7508972
51
270.2431178
0
ARC
8
DEFAULT_255_2_778
10
20.9240103
20
4.0634147
40
1.5061395
50
189.9901209
51
247.9645083
0
ARC
8
DEFAULT_255_2_778
10
21.0837737
20
4.1145083
40
1.6724969
50
179.9619697
51
190.7644815
0
ARC
8
DEFAULT_255_2_778
10
20.9350014
20
4.114239
40
1.523725
50
103.7778478
51
179.9481297
0
ARC
8
DEFAULT_255_2_778
10
20.9036879
20
4.1469339
40
1.4846856
50
89.9270976
51
102.9046517
0
ARC
8
DEFAULT_255_2_778
10
20.9098049
20
4.0076245
40
1.6239994
50
79.5169159
51
90.1491641
0
ARC
8
DEFAULT_255_2_778
10
20.9432505
20
4.1928824
40
1.4357486
50
66.9748844
51
79.484215
0
ARC
8
DEFAULT_255_2_778
10
20.9603767
20
4.2377361
40
1.3877708
50
53.0884441
51
66.9013121
0
ARC
8
DEFAULT_255_2_778
10
20.9282587
20
4.1959751
40
1.440451
50
40.6700519
51
53.0645974
0
ARC
8
DEFAULT_255_2_778
10
20.9102352
20
4.1791635
40
1.4650778
50
37.558107
51
40.7093639
0
ARC
8
DEFAULT_255_2_778
10
20.9334839
20
4.1963364
40
1.4361798
50
31.1150809
51
37.5803692
0
ARC
8
DEFAULT_255_2_778
10
21.0452748
20
4.2630903
40
1.3059766
50
25.4554119
51
31.1422295
0
ARC
8
DEFAULT_255_2_778
10
21.2670506
20
4.3676342
40
1.0607972
50
19.6801237
51
25.505447
0
ARC
8
DEFAULT_255_2_778
10
21.4732993
20
4.4433652
40
0.8410943
50
17.338024
51
19.5541512
0
ARC
8
DEFAULT_255_2_778
10
20.9276545
20
4.2634391
40
0.7856262
50
33.234807
51
61.561903
0
ARC
8
DEFAULT_255_2_778
10
20.9857038
20
4.3087343
40
0.7187576
50
63.9121349
51
81.4764337
0
ARC
8
DEFAULT_255_2_778
10
20.9227485
20
3.9281733
40
1.1044618
50
81.1727123
51
90.3149711
0
ARC
8
DEFAULT_255_2_778
10
20.9104643
20
4.137713
40
0.8949269
50
89.6022439
51
115.1867888
0
ARC
8
DEFAULT_255_2_778
10
20.9574337
20
4.0962495
40
0.9527614
50
116.6818406
51
179.8214616
0
ARC
8
DEFAULT_255_2_778
10
21.1771525
20
4.0901073
40
1.1725109
50
179.5547725
51
180.0009519
0
ARC
8
DEFAULT_255_2_778
10
21.035838
20
4.080729
40
1.031239
50
179.4800193
51
204.9897473
0
ARC
8
DEFAULT_255_2_778
10
20.8757372
20
4.0072748
40
0.8550957
50
205.0606258
51
260.9799526
0
ARC
8
DEFAULT_255_2_778
10
20.9113132
20
4.1658642
40
1.0173534
50
260.4014191
51
270.1010802
0
ARC
8
DEFAULT_255_2_778
10
20.9131662
20
4.2108179
40
1.0623054
50
269.9968608
51
270.189359
0
ARC
8
DEFAULT_255_2_778
10
20.9242161
20
4.0960399
40
0.9475515
50
269.5441296
51
284.8521439
0
ARC
8
DEFAULT_255_2_778
10
20.9809732
20
3.8794757
40
0.7236745
50
284.903605
51
306.4478641
0
ARC
8
DEFAULT_255_2_778
10
20.9882254
20
3.863088
40
0.7061946
50
306.7644593
51
325.7382354
0
ARC
8
DEFAULT_255_2_778
10
24.2292531
20
3.6778777
40
1.4708934
50
140.6756111
51
141.8481709
0
ARC
8
DEFAULT_255_2_778
10
23.6788755
20
4.1520368
40
0.7448759
50
119.8283049
51
142.0615043
0
ARC
8
DEFAULT_255_2_778
10
23.6238942
20
4.2185987
40
0.6599455
50
99.427594
51
118.5615763
0
ARC
8
DEFAULT_255_2_778
10
23.6639093
20
4.0009242
40
0.8812425
50
90.6002698
51
99.6759167
0
ARC
8
DEFAULT_255_2_778
10
23.6201495
20
3.6647623
40
0.7253786
50
88.9472374
51
107.2122671
0
ARC
8
DEFAULT_255_2_778
10
23.529617
20
3.9644958
40
0.412285
50
107.5203494
51
170.1401995
0
ARC
8
DEFAULT_255_2_778
10
23.988269
20
3.8433464
40
0.8858489
50
167.4989802
51
180.6486172
0
ARC
8
DEFAULT_255_2_778
10
25.0367884
20
3.1855942
40
0.5966416
50
308.3126356
51
334.6047534
0
ARC
8
DEFAULT_255_2_778
10
24.9438088
20
3.3834142
40
0.811025
50
269.6460697
51
304.8004922
0
ARC
8
DEFAULT_255_2_778
10
24.8382533
20
4.6019515
40
2.0320358
50
269.9076219
51
272.8361692
0
ARC
8
DEFAULT_255_2_778
10
24.8677929
20
3.7079106
40
1.1384652
50
194.3958427
51
268.3482414
0
ARC
8
DEFAULT_255_2_778
10
24.8697501
20
3.7221287
40
1.1439732
50
180.010531
51
195.0612373
0
ARC
8
DEFAULT_255_2_778
10
25.0472448
20
3.7291522
40
1.3214876
50
160.2754159
51
180.3136393
0
ARC
8
DEFAULT_255_2_778
10
24.8696805
20
3.7952187
40
1.1320465
50
126.6925048
51
160.3899132
0
ARC
8
DEFAULT_255_2_778
10
24.831125
20
3.8370123
40
1.075513
50
89.7947928
51
126.3758861
0
ARC
8
DEFAULT_255_2_778
10
24.8435073
20
3.5407453
40
1.3717996
50
80.239763
51
90.3562857
0
ARC
8
DEFAULT_255_2_778
10
24.9275053
20
4.0143508
40
0.8908129
50
65.4757214
51
80.4001709
0
ARC
8
DEFAULT_255_2_778
10
25.0381848
20
4.2561781
40
0.6248613
50
43.7652629
51
65.5048144
0
ARC
8
DEFAULT_255_2_778
10
25.07701
20
4.2985899
40
0.5674986
50
27.5895882
51
43.3842831
0
ARC
8
DEFAULT_255_2_778
10
24.9088917
20
3.7039944
40
0.611826
50
269.2681547
51
289.1186032
0
ARC
8
DEFAULT_255_2_778
10
24.8980787
20
3.6783882
40
0.5914662
50
290.9210097
51
323.9896169
0
ARC
8
DEFAULT_255_2_778
10
24.3377998
20
4.1425242
40
1.3183662
50
321.988387
51
325.1832233
0
ARC
8
DEFAULT_255_2_778
10
23.7840134
20
4.5333753
40
1.9961784
50
325.0484576
51
325.5588698
0
ARC
8
DEFAULT_255_2_778
10
24.8931119
20
3.7481402
40
0.6377233
50
327.3855928
51
355.2848848
0
ARC
8
DEFAULT_255_2_778
10
24.8253068
20
3.7256694
40
0.7040077
50
357.5616964
51
0.0000839
0
ARC
8
DEFAULT_255_2_778
10
24.8242575
20
3.725625
40
0.7050568
50
0.0036938
51
22.1292948
0
ARC
8
DEFAULT_255_2_778
10
24.8737255
20
3.7487983
40
0.6505095
50
21.8798714
51
70.2993693
0
ARC
8
DEFAULT_255_2_778
10
24.914153
20
3.809175
40
0.5803088
50
72.0479987
51
90.2155668
0
ARC
8
DEFAULT_255_2_778
10
24.9119554
20
3.7598857
40
0.629594
50
89.998696
51
90.7988958
0
ARC
8
DEFAULT_255_2_778
10
24.9011714
20
3.6740348
40
0.7153864
50
89.8393699
51
113.0806763
0
ARC
8
DEFAULT_255_2_778
10
24.8802474
20
3.767438
40
0.6214999
50
114.6819821
51
177.8075463
0
ARC
8
DEFAULT_255_2_778
10
25.10605
20
3.7217048
40
0.8496955
50
175.3076732
51
180.0251774
0
ARC
8
DEFAULT_255_2_778
10
25.1422569
20
3.7213679
40
0.8859023
50
180.0023579
51
181.283876
0
ARC
8
DEFAULT_255_2_778
10
24.8945165
20
3.7277464
40
0.6384784
50
182.3543137
51
270.0511515
0
ARC
8
DEFAULT_255_2_778
10
24.8950645
20
3.7447803
40
0.655512
50
270.0019175
51
270.7090987
0
ARC
8
DEFAULT_255_2_778
10
27.5897032
20
4.9495209
40
0.9712544
50
169.1911823
51
180.4366882
0
ARC
8
DEFAULT_255_2_778
10
27.236875
20
5.0190744
40
0.6116461
50
151.4464581
51
169.3928444
0
ARC
8
DEFAULT_255_2_778
10
27.1653028
20
5.0352102
40
0.5414375
50
99.8986849
51
149.3256387
0
ARC
8
DEFAULT_255_2_778
10
27.3363311
20
4.4144746
40
1.1839461
50
95.3003763
51
102.889517
0
ARC
8
DEFAULT_255_2_778
10
27.4426019
20
3.2143375
40
2.3887738
50
90.3368988
51
95.1792767
0
ARC
8
DEFAULT_255_2_778
10
27.5346479
20
-3.0141923
40
8.6179153
50
90.2823669
51
90.7053648
0
ARC
8
DEFAULT_255_2_778
10
27.4734324
20
4.2281231
40
0.9131877
50
88.8238289
51
89.9947957
0
ARC
8
DEFAULT_255_2_778
10
27.4589552
20
4.5606178
40
0.5808754
50
88.5636846
51
109.5960903
0
ARC
8
DEFAULT_255_2_778
10
27.3222958
20
4.9135946
40
0.2027739
50
106.667441
51
178.6651198
0
ARC
8
DEFAULT_255_2_778
10
4.9465632
20
6.501062
40
1.1885479
50
127.2842424
51
152.2744431
0
ARC
8
DEFAULT_255_2_778
10
4.6610911
20
6.9165797
40
0.6854557
50
90.0044322
51
129.3388476
0
ARC
8
DEFAULT_255_2_778
10
4.6610375
20
6.9171032
40
0.6849322
50
84.7748712
51
89.9999535
0
ARC
8
DEFAULT_255_2_778
10
4.6609498
20
6.9161549
40
0.6858844
50
80.8535491
51
84.7747936
0
ARC
8
DEFAULT_255_2_778
10
4.5924549
20
6.8207072
40
0.7927434
50
45.2603242
51
77.059804
0
ARC
8
DEFAULT_255_2_778
10
4.1105587
20
6.220063
40
1.5606656
50
47.4029278
51
48.2165706
0
ARC
8
DEFAULT_255_2_778
10
4.2070412
20
6.3896496
40
1.3712228
50
29.1858542
51
45.5741769
0
ARC
8
DEFAULT_255_2_778
10
8.0191471
20
0.5252475
40
0.9995746
50
0.0228458
51
30.8631378
0
ARC
8
DEFAULT_255_2_778
10
8.0152351
20
0.5256903
40
1.0034863
50
355.2514306
51
359.9974748
0
ARC
8
DEFAULT_255_2_778
10
8.3710216
20
0.4842215
40
0.6455973
50
297.6052799
51
356.3052243
0
ARC
8
DEFAULT_255_2_778
10
8.207453
20
0.7941419
40
0.9960316
50
273.5471281
51
297.6822415
0
LINE
8
DEFAULT_255_2_778
10
10.083377
20
2.6167184
11
9.466877
21
2.6167184
0
LINE
8
DEFAULT_255_2_778
10
9.466877
20
2.6167184
11
10.609877
21
5.5499184
0
LINE
8
DEFAULT_255_2_778
10
10.609877
20
5.5499184
11
11.106477
21
5.5499184
0
LINE
8
DEFAULT_255_2_778
10
11.106477
20
5.5499184
11
12.224077
21
2.6167184
0
LINE
8
DEFAULT_255_2_778
10
12.224077
20
2.6167184
11
11.603177
21
2.6167184
0
LINE
8
DEFAULT_255_2_778
10
11.603177
20
2.6167184
11
11.371877
21
3.2247184
0
LINE
8
DEFAULT_255_2_778
10
11.371877
20
3.2247184
11
10.301377
21
3.2247184
0
LINE
8
DEFAULT_255_2_778
10
10.301377
20
3.2247184
11
10.083377
21
2.6167184
0
LINE
8
DEFAULT_255_2_778
10
10.832677
20
4.7321184
11
10.480277
21
3.7817184
0
LINE
8
DEFAULT_255_2_778
10
10.480277
20
3.7817184
11
11.173977
21
3.7817184
0
LINE
8
DEFAULT_255_2_778
10
11.173977
20
3.7817184
11
10.832677
21
4.7321184
0
LINE
8
DEFAULT_255_2_778
10
12.335777
20
2.4971184
11
12.858077
21
2.4971184
0
LINE
8
DEFAULT_255_2_778
10
14.087077
20
2.9128184
11
14.087077
21
2.9427184
0
LINE
8
DEFAULT_255_2_778
10
14.096077
20
4.5524184
11
14.096077
21
4.8392184
0
LINE
8
DEFAULT_255_2_778
10
14.096077
20
4.8392184
11
14.550077
21
4.8392184
0
LINE
8
DEFAULT_255_2_778
10
14.550077
20
4.8392184
11
14.554077
21
2.9636184
0
LINE
8
DEFAULT_255_2_778
10
12.705877
20
3.7748184
11
12.708577
21
3.7772184
0
LINE
8
DEFAULT_255_2_778
10
14.982377
20
5.5457184
11
15.513377
21
5.5457184
0
LINE
8
DEFAULT_255_2_778
10
15.513377
20
5.5457184
11
15.513377
21
5.0789184
0
LINE
8
DEFAULT_255_2_778
10
15.513377
20
5.0789184
11
14.982377
21
5.0789184
0
LINE
8
DEFAULT_255_2_778
10
14.982377
20
5.0789184
11
14.982377
21
5.5457184
0
LINE
8
DEFAULT_255_2_778
10
14.982377
20
4.8347184
11
15.513377
21
4.8347184
0
LINE
8
DEFAULT_255_2_778
10
15.513377
20
4.8347184
11
15.513377
21
2.6167184
0
LINE
8
DEFAULT_255_2_778
10
15.513377
20
2.6167184
11
14.982377
21
2.6167184
0
LINE
8
DEFAULT_255_2_778
10
14.982377
20
2.6167184
11
14.982377
21
4.8347184
0
LINE
8
DEFAULT_255_2_778
10
15.962977
20
5.5457184
11
16.455077
21
5.5457184
0
LINE
8
DEFAULT_255_2_778
10
16.455077
20
5.5457184
11
16.455077
21
2.6122184
0
LINE
8
DEFAULT_255_2_778
10
16.455077
20
2.6122184
11
15.962977
21
2.6122184
0
LINE
8
DEFAULT_255_2_778
10
15.962977
20
2.6122184
11
15.962977
21
5.5457184
0
LINE
8
DEFAULT_255_2_778
10
18.464877
20
3.3261184
11
19.034477
21
3.3261184
0
LINE
8
DEFAULT_255_2_778
10
19.098777
20
3.5750184
11
17.338777
21
3.5700184
0
LINE
8
DEFAULT_255_2_778
10
17.343277
20
3.9682184
11
18.559277
21
3.9682184
0
LINE
8
DEFAULT_255_2_778
10
22.276177
20
4.6940184
11
21.584777
21
4.6940184
0
LINE
8
DEFAULT_255_2_778
10
21.571877
20
3.4655184
11
22.254677
21
3.4647184
0
LINE
8
DEFAULT_255_2_778
10
22.597377
20
4.8519184
11
23.072577
21
4.8519184
0
LINE
8
DEFAULT_255_2_778
10
23.072577
20
4.8519184
11
23.072577
21
4.5865184
0
LINE
8
DEFAULT_255_2_778
10
23.654677
20
4.8821184
11
23.654677
21
4.3900184
0
LINE
8
DEFAULT_255_2_778
10
23.654677
20
4.3900184
11
23.633477
21
4.3900184
0
LINE
8
DEFAULT_255_2_778
10
23.102477
20
3.8333184
11
23.102477
21
2.6342184
0
LINE
8
DEFAULT_255_2_778
10
23.102477
20
2.6342184
11
22.601377
21
2.6342184
0
LINE
8
DEFAULT_255_2_778
10
22.601377
20
2.6342184
11
22.601377
21
4.8522184
0
LINE
8
DEFAULT_255_2_778
10
22.601377
20
4.8522184
11
22.597377
21
4.8519184
0
LINE
8
DEFAULT_255_2_778
10
26.078477
20
2.6255184
11
25.575777
21
2.6255184
0
LINE
8
DEFAULT_255_2_778
10
25.575777
20
2.6255184
11
25.575777
21
2.9297184
0
LINE
8
DEFAULT_255_2_778
10
25.579977
20
4.5614184
11
25.579977
21
4.8480184
0
LINE
8
DEFAULT_255_2_778
10
25.579977
20
4.8480184
11
26.076677
21
4.8522184
0
LINE
8
DEFAULT_255_2_778
10
26.076677
20
4.8522184
11
26.078477
21
2.6255184
0
LINE
8
DEFAULT_255_2_778
10
24.903177
20
3.0893184
11
24.901077
21
3.0922184
0
LINE
8
DEFAULT_255_2_778
10
26.631477
20
4.3939184
11
26.357377
21
4.3939184
0
LINE
8
DEFAULT_255_2_778
10
26.357377
20
4.3939184
11
26.357377
21
4.8480184
0
LINE
8
DEFAULT_255_2_778
10
26.357377
20
4.8480184
11
26.618477
21
4.8480184
0
LINE
8
DEFAULT_255_2_778
10
26.618477
20
4.8480184
11
26.618477
21
4.9421184
0
LINE
8
DEFAULT_255_2_778
10
27.492177
20
5.6036184
11
27.492177
21
5.1411184
0
LINE
8
DEFAULT_255_2_778
10
27.119577
20
4.9183184
11
27.119577
21
4.8390184
0
LINE
8
DEFAULT_255_2_778
10
27.119577
20
4.8390184
11
27.492177
21
4.8390184
0
LINE
8
DEFAULT_255_2_778
10
27.492177
20
4.8390184
11
27.492177
21
4.3902184
0
LINE
8
DEFAULT_255_2_778
10
27.492177
20
4.3902184
11
27.119577
21
4.3902184
0
LINE
8
DEFAULT_255_2_778
10
27.119577
20
4.3902184
11
27.119577
21
2.6260184
0
LINE
8
DEFAULT_255_2_778
10
27.119577
20
2.6260184
11
26.627477
21
2.6260184
0
LINE
8
DEFAULT_255_2_778
10
26.627477
20
2.6260184
11
26.631477
21
4.3939184
0
LINE
8
DEFAULT_255_2_778
10
27.997477
20
4.3982184
11
27.654877
21
4.3982184
0
LINE
8
DEFAULT_255_2_778
10
27.654877
20
4.3982184
11
27.654877
21
4.8392184
0
LINE
8
DEFAULT_255_2_778
10
27.654877
20
4.8392184
11
27.997477
21
4.8392184
0
LINE
8
DEFAULT_255_2_778
10
27.997477
20
4.8392184
11
27.997477
21
5.5756184
0
LINE
8
DEFAULT_255_2_778
10
27.997477
20
5.5756184
11
28.489677
21
5.5756184
0
LINE
8
DEFAULT_255_2_778
10
28.489677
20
5.5756184
11
28.489677
21
4.8390184
0
LINE
8
DEFAULT_255_2_778
10
28.489677
20
4.8390184
11
28.842277
21
4.8390184
0
LINE
8
DEFAULT_255_2_778
10
28.842277
20
4.8390184
11
28.842277
21
4.3979184
0
LINE
8
DEFAULT_255_2_778
10
28.842277
20
4.3979184
11
28.486977
21
4.3979184
0
LINE
8
DEFAULT_255_2_778
10
28.486977
20
4.3979184
11
28.491177
21
2.6294184
0
LINE
8
DEFAULT_255_2_778
10
28.491177
20
2.6294184
11
27.999077
21
2.6294184
0
LINE
8
DEFAULT_255_2_778
10
27.999077
20
2.6294184
11
27.997477
21
4.3982184
0
LINE
8
DEFAULT_255_2_778
10
5.649977
20
-0.1931816
11
4.821877
21
1.2520184
0
LINE
8
DEFAULT_255_2_778
10
4.821877
20
1.2520184
11
7.082477
21
1.2562184
0
LINE
8
DEFAULT_255_2_778
10
7.082477
20
1.2562184
11
4.645077
21
5.4795184
0
LINE
8
DEFAULT_255_2_778
10
4.645077
20
5.4795184
11
3.514777
21
3.5253184
0
LINE
8
DEFAULT_255_2_778
10
3.514777
20
3.5253184
11
2.686677
21
4.9575184
0
LINE
8
DEFAULT_255_2_778
10
2.686677
20
4.9575184
11
3.894477
21
7.0540184
0
LINE
8
DEFAULT_255_2_778
10
5.404177
20
7.0583184
11
8.113577
21
2.3794184
0
LINE
8
DEFAULT_255_2_778
10
8.113577
20
2.3794184
11
8.877177
21
1.0380184
0
LINE
8
DEFAULT_255_2_778
10
8.269077
20
-0.1999816
11
5.650577
21
-0.1957816
0
LINE
8
DEFAULT_255_2_778
10
5.650577
20
-0.1957816
11
5.649977
21
-0.1931816
0
ARC
8
DEFAULT_255_2_778
10
1.030547
20
0.5620816
40
0.7483225
50
264.6398654
51
269.9523372
0
ARC
8
DEFAULT_255_2_778
10
1.0529175
20
0.7261087
40
0.9137485
50
234.2011965
51
264.2040701
0
ARC
8
DEFAULT_255_2_778
10
0.8288606
20
0.4230078
40
0.5368689
50
213.7987931
51
234.6740991
0
ARC
8
DEFAULT_255_2_778
10
1.1637035
20
0.5758748
40
0.9021055
50
181.2840618
51
210.033941
0
ARC
8
DEFAULT_255_2_778
10
1.4424309
20
0.4416399
40
1.1860995
50
160.9853067
51
174.4836542
0
ARC
8
DEFAULT_255_2_778
10
1.8532201
20
0.2971022
40
1.6215682
50
152.3482899
51
160.8859676
0
ARC
8
DEFAULT_255_2_778
10
2.520192
20
-0.0416596
40
2.3695988
50
148.9355104
51
152.5772356
0
ARC
8
DEFAULT_255_2_778
10
0.3575515
20
1.269806
40
0.1597848
50
326.2607759
51
330.4832837
0
ARC
8
DEFAULT_255_2_778
10
-3.728417
20
3.7035917
40
4.9156336
50
329.2611374
51
329.6246388
0
ARC
8
DEFAULT_255_2_778
10
-17.2381542
20
11.6359164
40
20.5819904
50
329.5909767
51
329.7185897
0
ARC
8
DEFAULT_255_2_778
10
-43.6287603
20
27.0519151
40
51.1453195
50
329.7127294
51
329.7762016
0
ARC
8
DEFAULT_255_2_778
10
-96.385913
20
57.7858573
40
112.2017881
50
329.7765533
51
329.8278534
0
ARC
8
DEFAULT_255_2_778
10
-204.0323033
20
120.3726161
40
236.7202513
50
329.8267861
51
329.8583315
0
ARC
8
DEFAULT_255_2_778
10
-385.5979445
20
225.803867
40
446.6769867
50
329.8577945
51
329.8777225
0
ARC
8
DEFAULT_255_2_778
10
-646.4325297
20
377.1473456
40
748.2388036
50
329.8772303
51
329.8889069
0
ARC
8
DEFAULT_255_2_778
10
-1132.0940944
20
658.7985303
40
1309.6606994
50
329.8890059
51
329.8986405
0
ARC
8
DEFAULT_255_2_778
10
-2211.7268998
20
1284.6790663
40
2557.5923641
50
329.8985424
51
329.9043595
0
LINE
8
DEFAULT_255_2_778
10
1.0753556
20
2.1873979
11
1.1007776
21
2.2312606
0
LINE
8
DEFAULT_255_2_778
10
1.1007776
20
2.2312606
11
1.1127893
21
2.2519858
0
LINE
8
DEFAULT_255_2_778
10
1.1127893
20
2.2519858
11
1.1362258
21
2.2924242
0
LINE
8
DEFAULT_255_2_778
10
1.1362258
20
2.2924242
11
1.3175888
21
2.6053645
0
ARC
8
DEFAULT_255_2_778
10
4073.0610608
20
-2357.1409643
40
4706.1127948
50
149.9013632
51
149.905907
0
LINE
8
DEFAULT_255_2_778
10
1.504737
20
2.9282593
11
1.5064354
21
2.9311894
0
ARC
8
DEFAULT_255_2_778
10
1695.1127329
20
-978.7384861
40
1957.5437779
50
149.8856051
51
149.9020146
0
ARC
8
DEFAULT_255_2_778
10
946.7556011
20
-544.6965578
40
1092.4248313
50
149.8696584
51
149.8848447
0
ARC
8
DEFAULT_255_2_778
10
629.3954925
20
-360.5055629
40
725.4864698
50
149.8507437
51
149.8696018
0
ARC
8
DEFAULT_255_2_778
10
428.7531833
20
-243.9653595
40
493.454241
50
149.8283213
51
149.8508803
0
ARC
8
DEFAULT_255_2_778
10
294.4059139
20
-165.8612276
40
338.0533265
50
149.8019567
51
149.8284724
0
ARC
8
DEFAULT_255_2_778
10
203.9932583
20
-113.2429664
40
233.4439115
50
149.7714964
51
149.802163
0
ARC
8
DEFAULT_255_2_778
10
128.356073
20
-69.1664003
40
145.9011936
50
149.7160663
51
149.77295
0
ARC
8
DEFAULT_255_2_778
10
68.6223369
20
-34.2809687
40
76.7266856
50
149.6317984
51
149.7175624
0
ARC
8
DEFAULT_255_2_778
10
33.5416606
20
-13.7235897
40
36.0663896
50
149.503977
51
149.6343078
0
ARC
8
DEFAULT_255_2_778
10
15.9513079
20
-3.3634362
40
15.6518532
50
149.3301218
51
149.5048871
0
ARC
8
DEFAULT_255_2_778
10
6.3775527
20
2.319487
40
4.5184649
50
148.8092627
51
149.3873696
0
ARC
8
DEFAULT_255_2_778
10
2.7429743
20
4.5246065
40
0.2672965
50
145.7253602
51
149.6791101
0
ARC
8
DEFAULT_255_2_778
10
2.5228748
20
4.6746676
40
0.0009109
50
119.6331882
51
148.956727
0
LINE
8
DEFAULT_255_2_778
10
2.5224245
20
4.6733593
11
3.3505245
21
3.2411593
0
LINE
8
DEFAULT_255_2_778
10
3.3505245
20
3.2411593
11
2.1988245
21
1.2416593
0
LINE
8
DEFAULT_255_2_778
10
2.1988245
20
1.2416593
11
4.5113245
21
1.2459593
0
LINE
8
DEFAULT_255_2_778
10
4.5113245
20
1.2459593
11
5.3310245
21
-0.1820407
0
LINE
8
DEFAULT_255_2_778
10
5.3310245
20
-0.1820407
11
1.0299245
21
-0.1862407
0
LINE
8
DEFAULT_255_2_778
10
2.5224245
20
4.6754593
11
2.5224245
21
4.6733593
0
ENDSEC
0
EOF