0
SECTION
2
HEADER
9
$MEASUREMENT
70
1
0
ENDSEC
0
SECTION
2
TABLES
0
TABLE
2
LTYPE
0
LTYPE
72
65
70
64
2
CONTINUOUS
3
______
73
0
40
0
0
ENDTAB
0
TABLE
2
LAYER
0
LAYER
2
DEFAULT_255_2_778
70
0
62
255
6
CONTINUOUS
0
ENDTAB
0
ENDSEC
0
SECTION
2
ENTITIES
0
ARC
8
DEFAULT_255_2_778
10
15.1549275
20
6.7352371
40
0.5991731
50
270.0165562
51
359.9930102
0
ARC
8
DEFAULT_255_2_778
10
15.1552739
20
6.7352372
40
0.5991733
50
180.0070033
51
269.9834342
0
ARC
8
DEFAULT_255_2_778
10
15.1552524
20
6.7350123
40
0.5991518
50
90.0145143
51
179.9854953
0
ARC
8
DEFAULT_255_2_778
10
15.1570464
20
6.7038627
40
0.6303043
50
90.0061183
51
90.1768743
0
ARC
8
DEFAULT_255_2_778
10
15.1569089
20
6.7369169
40
0.59725
50
45.0037504
51
89.9932632
0
ARC
8
DEFAULT_255_2_778
10
15.1571014
20
6.7370746
40
0.5970022
50
359.9972004
51
45.0061212
0
ARC
8
DEFAULT_255_2_778
10
15.1218682
20
6.7371128
40
0.6322354
50
359.8233888
51
359.9938908
0
ARC
8
DEFAULT_255_2_778
10
12.437191
20
4.6015427
40
1.1515209
50
42.7410592
51
90.0061044
0
ARC
8
DEFAULT_255_2_778
10
12.4370643
20
4.5987441
40
1.1543195
50
89.9997993
51
92.2621821
0
ARC
8
DEFAULT_255_2_778
10
12.3721044
20
3.9909039
40
1.7613668
50
89.3690423
51
90.0009983
0
ARC
8
DEFAULT_255_2_778
10
12.3722208
20
3.9875112
40
1.7647596
50
90.0047782
51
135.6765101
0
ARC
8
DEFAULT_255_2_778
10
12.3721285
20
3.987535
40
1.7646769
50
135.6749684
51
180.0026915
0
ARC
8
DEFAULT_255_2_778
10
12.3749801
20
3.9874506
40
1.7675284
50
179.9999521
51
181.974077
0
ARC
8
DEFAULT_255_2_778
10
12.3746966
20
3.8638576
40
1.7673088
50
177.9666469
51
179.9997183
0
ARC
8
DEFAULT_255_2_778
10
12.3721454
20
3.8638586
40
1.7647575
50
179.9997487
51
224.2664878
0
ARC
8
DEFAULT_255_2_778
10
12.3723184
20
3.8638669
40
1.7648871
50
224.2627615
51
270.0044031
0
ARC
8
DEFAULT_255_2_778
10
12.3724497
20
3.8704266
40
1.7714467
50
270.000141
51
270.5579759
0
ARC
8
DEFAULT_255_2_778
10
12.4412675
20
3.2199011
40
1.1220227
50
267.3658261
51
269.9994569
0
ARC
8
DEFAULT_255_2_778
10
12.4412384
20
3.2173858
40
1.1195075
50
270.0009427
51
318.6083036
0
ARC
8
DEFAULT_255_2_778
10
13.4059988
20
2.3184208
40
0.1249118
50
179.1545202
51
179.9997055
0
ARC
8
DEFAULT_255_2_778
10
13.4082488
20
2.3186494
40
0.1271619
50
180.1027145
51
224.8525627
0
ARC
8
DEFAULT_255_2_778
10
13.407745
20
2.3190134
40
0.127063
50
225.1291511
51
269.9191042
0
ARC
8
DEFAULT_255_2_778
10
13.407551
20
2.3195974
40
0.1276468
50
270.0065357
51
270.8302512
0
ARC
8
DEFAULT_255_2_778
10
13.41956
20
5.5335046
40
0.1322158
50
91.6726851
51
178.3272824
0
ARC
8
DEFAULT_255_2_778
10
12.5415799
20
3.8475024
40
0.9157574
50
270.0017664
51
324.0487278
0
ARC
8
DEFAULT_255_2_778
10
12.5416408
20
3.8603026
40
0.9285576
50
269.6334685
51
269.9979841
0
ARC
8
DEFAULT_255_2_778
10
12.5244217
20
4.1475658
40
1.2158541
50
249.0280802
51
270.5315157
0
ARC
8
DEFAULT_255_2_778
10
12.4069705
20
3.85911
40
0.9044927
50
192.887946
51
249.4353606
0
ARC
8
DEFAULT_255_2_778
10
12.6438656
20
3.9211269
40
1.1492778
50
179.7289418
51
193.2676531
0
ARC
8
DEFAULT_255_2_778
10
12.5984836
20
3.9361441
40
1.1039245
50
161.4543877
51
180.4972334
0
ARC
8
DEFAULT_255_2_778
10
12.4252111
20
3.9819409
40
0.9251577
50
100.9712979
51
160.7302507
0
ARC
8
DEFAULT_255_2_778
10
12.5312102
20
3.6341198
40
1.287352
50
89.8001442
51
102.6568049
0
ARC
8
DEFAULT_255_2_778
10
12.5283254
20
3.9795319
40
0.941961
50
36.7677406
51
89.5513874
0
ARC
8
DEFAULT_255_2_778
10
27.8859685
20
4.6018139
40
1.1515744
50
87.7041137
51
90.0001178
0
ARC
8
DEFAULT_255_2_778
10
27.8861102
20
4.6026055
40
1.150783
50
90.0071738
51
137.2766916
0
ARC
8
DEFAULT_255_2_778
10
26.8920724
20
2.3265924
40
0.1322867
50
271.7016669
51
358.2982858
0
ARC
8
DEFAULT_255_2_778
10
27.8736363
20
3.2423162
40
1.1415612
50
221.9256606
51
269.9955522
0
ARC
8
DEFAULT_255_2_778
10
27.8735386
20
3.2442857
40
1.1435307
50
270.0004557
51
272.0177164
0
ARC
8
DEFAULT_255_2_778
10
27.927407
20
3.8747434
40
1.7733317
50
269.5603794
51
270.0007542
0
ARC
8
DEFAULT_255_2_778
10
27.9274829
20
3.8718469
40
1.7704353
50
269.9982999
51
315.6735958
0
ARC
8
DEFAULT_255_2_778
10
27.927648
20
3.8715708
40
1.7701243
50
315.6762558
51
359.9975885
0
ARC
8
DEFAULT_255_2_778
10
27.9265763
20
3.8714988
40
1.7711961
50
359.9999184
51
1.7977534
0
ARC
8
DEFAULT_255_2_778
10
27.9288487
20
3.9843745
40
1.7689806
50
358.1434372
51
359.9999541
0
ARC
8
DEFAULT_255_2_778
10
27.9297078
20
3.9842242
40
1.7681215
50
0.004824
51
44.3342713
0
ARC
8
DEFAULT_255_2_778
10
27.9284597
20
3.9828421
40
1.7699801
50
44.338038
51
90.009363
0
ARC
8
DEFAULT_255_2_778
10
27.9281984
20
3.9719243
40
1.7808979
50
90.0008965
51
90.4632139
0
ARC
8
DEFAULT_255_2_778
10
27.7686601
20
3.8443705
40
0.9039977
50
270.0003591
51
270.8138681
0
ARC
8
DEFAULT_255_2_778
10
27.7686895
20
3.8423093
40
0.9019364
50
215.49908
51
269.9984923
0
ARC
8
DEFAULT_255_2_778
10
27.8181362
20
3.933015
40
1.0002201
50
92.0990704
51
141.5879783
0
ARC
8
DEFAULT_255_2_778
10
27.7927917
20
3.7165239
40
1.2160925
50
69.0298815
51
90.5319797
0
ARC
8
DEFAULT_255_2_778
10
27.9103102
20
4.005198
40
0.9045033
50
12.8851472
51
69.4368131
0
ARC
8
DEFAULT_255_2_778
10
27.6731378
20
3.9431047
40
1.1495756
50
359.728827
51
13.2659755
0
ARC
8
DEFAULT_255_2_778
10
27.7191232
20
3.9280871
40
1.103619
50
341.4516717
51
0.4972013
0
ARC
8
DEFAULT_255_2_778
10
27.8920926
20
3.882424
40
0.925183
50
280.9672297
51
340.7251484
0
ARC
8
DEFAULT_255_2_778
10
27.7859957
20
4.2305757
40
1.2877194
50
269.7999981
51
282.6548738
0
ARC
8
DEFAULT_255_2_778
10
22.8892336
20
4.1603649
40
1.9163212
50
359.5694242
51
7.198414
0
ARC
8
DEFAULT_255_2_778
10
23.8896321
20
4.2931513
40
0.9071913
50
6.7952109
51
21.644167
0
ARC
8
DEFAULT_255_2_778
10
24.2883206
20
4.4537069
40
0.4773987
50
21.3822272
51
80.5023068
0
ARC
8
DEFAULT_255_2_778
10
24.14143
20
3.8534456
40
1.0946295
50
78.1027886
51
90.0742493
0
ARC
8
DEFAULT_255_2_778
10
24.1229634
20
3.3262679
40
1.6218959
50
89.3977383
51
90.0022152
0
ARC
8
DEFAULT_255_2_778
10
24.1575235
20
3.958691
40
0.9900785
50
92.0040297
51
139.0442235
0
ARC
8
DEFAULT_255_2_778
10
23.2152413
20
5.5335045
40
0.1322158
50
1.6727574
51
88.3272987
0
ARC
8
DEFAULT_255_2_778
10
24.2427577
20
4.4903813
40
1.2686507
50
90.0011949
51
134.8906041
0
ARC
8
DEFAULT_255_2_778
10
24.2427335
20
4.4883086
40
1.2707234
50
88.0081429
51
90.0001017
0
ARC
8
DEFAULT_255_2_778
10
24.3398794
20
4.3322718
40
1.426976
50
90.0001661
51
92.1276877
0
ARC
8
DEFAULT_255_2_778
10
24.3399051
20
4.3336965
40
1.4255513
50
50.0645629
51
90.0011979
0
ARC
8
DEFAULT_255_2_778
10
24.5846822
20
4.5890267
40
1.0729075
50
12.0692816
51
51.3348306
0
ARC
8
DEFAULT_255_2_778
10
23.7549745
20
4.3781944
40
1.9286358
50
4.2815609
51
13.0403258
0
ARC
8
DEFAULT_255_2_778
10
22.4053465
20
4.2662609
40
3.282872
50
359.8115609
51
4.4711138
0
ARC
8
DEFAULT_255_2_778
10
20.3331763
20
4.6004162
40
1.1524592
50
87.7211901
51
89.9999157
0
ARC
8
DEFAULT_255_2_778
10
20.3332922
20
4.6014206
40
1.1514548
50
90.0056859
51
137.261177
0
ARC
8
DEFAULT_255_2_778
10
19.3392724
20
2.3265923
40
0.1322866
50
271.7016506
51
358.2983257
0
ARC
8
DEFAULT_255_2_778
10
20.3208748
20
3.2422272
40
1.1415305
50
221.9210475
51
270.0069913
0
ARC
8
DEFAULT_255_2_778
10
20.3210018
20
3.244885
40
1.1441883
50
270.0006195
51
272.0985761
0
ARC
8
DEFAULT_255_2_778
10
20.376507
20
3.8747434
40
1.7733316
50
269.5603794
51
270.0007542
0
ARC
8
DEFAULT_255_2_778
10
20.3766502
20
3.8714499
40
1.7700383
50
269.9961197
51
315.6790053
0
ARC
8
DEFAULT_255_2_778
10
20.377097
20
3.8713886
40
1.7696758
50
315.670317
51
0.0026132
0
ARC
8
DEFAULT_255_2_778
10
20.3738641
20
3.8714591
40
1.7729087
50
0.0003309
51
1.7972994
0
ARC
8
DEFAULT_255_2_778
10
20.3846262
20
3.9946116
40
1.7625693
50
357.8036944
51
359.9996515
0
ARC
8
DEFAULT_255_2_778
10
20.3886816
20
3.9947461
40
1.7585138
50
359.9952686
51
44.3157026
0
ARC
8
DEFAULT_255_2_778
10
20.3892012
20
3.9949673
40
1.7579876
50
44.3223732
51
90.0117681
0
ARC
8
DEFAULT_255_2_778
10
20.3888229
20
3.9919581
40
1.7609967
50
89.9994381
51
90.8434353
0
ARC
8
DEFAULT_255_2_778
10
20.2174601
20
3.8443705
40
0.9039977
50
270.0003591
51
270.8138681
0
ARC
8
DEFAULT_255_2_778
10
20.2174895
20
3.8423093
40
0.9019364
50
215.49908
51
269.9984923
0
ARC
8
DEFAULT_255_2_778
10
20.2669362
20
3.933015
40
1.0002201
50
92.0990704
51
141.5879783
0
ARC
8
DEFAULT_255_2_778
10
20.2415917
20
3.7165239
40
1.2160925
50
69.0298815
51
90.5319797
0
ARC
8
DEFAULT_255_2_778
10
20.3591102
20
4.005198
40
0.9045033
50
12.8851472
51
69.4368131
0
ARC
8
DEFAULT_255_2_778
10
20.1219378
20
3.9431047
40
1.1495756
50
359.728827
51
13.2659755
0
ARC
8
DEFAULT_255_2_778
10
20.1679232
20
3.9280871
40
1.103619
50
341.4516717
51
0.4972013
0
ARC
8
DEFAULT_255_2_778
10
20.3408926
20
3.882424
40
0.925183
50
280.9672297
51
340.7251484
0
ARC
8
DEFAULT_255_2_778
10
20.2347957
20
4.2305757
40
1.2877194
50
269.7999981
51
282.6548738
0
ARC
8
DEFAULT_255_2_778
10
17.8735992
20
4.3603549
40
1.3933587
50
89.9995885
51
91.8794895
0
ARC
8
DEFAULT_255_2_778
10
17.872822
20
4.3415887
40
1.4121251
50
75.1682183
51
89.9680614
0
ARC
8
DEFAULT_255_2_778
10
18.1369609
20
4.5863832
40
0.3154735
50
72.0280519
51
73.1851263
0
ARC
8
DEFAULT_255_2_778
10
18.0172673
20
4.1936767
40
0.7260152
50
73.1082814
51
74.3592138
0
ARC
8
DEFAULT_255_2_778
10
17.9303364
20
3.8838287
40
1.0478269
50
74.3496296
51
75.8951367
0
ARC
8
DEFAULT_255_2_778
10
17.8688167
20
3.639509
40
1.2997728
50
75.8896324
51
77.8552674
0
ARC
8
DEFAULT_255_2_778
10
17.8417293
20
3.5160578
40
1.4261597
50
77.8348044
51
78.8055154
0
ARC
8
DEFAULT_255_2_778
10
17.8276216
20
3.4434715
40
1.5001038
50
78.8151638
51
81.4331699
0
ARC
8
DEFAULT_255_2_778
10
17.8233434
20
3.4168754
40
1.5270407
50
81.4230905
51
84.7998833
0
ARC
8
DEFAULT_255_2_778
10
17.8281812
20
3.47472
40
1.4689956
50
84.7833135
51
89.2644996
0
ARC
8
DEFAULT_255_2_778
10
17.8296121
20
3.5352141
40
1.4084882
50
89.2911152
51
89.9990015
0
ARC
8
DEFAULT_255_2_778
10
17.8282734
20
3.6226954
40
1.3210076
50
89.9408704
51
96.2419808
0
ARC
8
DEFAULT_255_2_778
10
17.8085193
20
3.7939273
40
1.1486434
50
96.1911372
51
105.4417382
0
ARC
8
DEFAULT_255_2_778
10
17.7837936
20
3.8913142
40
1.0481907
50
105.5563567
51
108.0225094
0
ARC
8
DEFAULT_255_2_778
10
17.758242
20
3.9639602
40
0.9712052
50
107.9150276
51
120.4083521
0
ARC
8
DEFAULT_255_2_778
10
17.7387297
20
4.0001841
40
0.9300893
50
120.5011795
51
131.7751768
0
ARC
8
DEFAULT_255_2_778
10
17.7653541
20
3.9705812
40
0.9699037
50
131.7830824
51
138.7357846
0
ARC
8
DEFAULT_255_2_778
10
16.88801
20
5.5335733
40
0.132145
50
1.6437798
51
88.3562202
0
ARC
8
DEFAULT_255_2_778
10
17.8927237
20
4.5488891
40
1.2114177
50
93.3279017
51
136.0819043
0
ARC
8
DEFAULT_255_2_778
10
-78.253168
20
-36.3851339
40
95.2036074
50
24.6483709
51
27.4396749
0
ARC
8
DEFAULT_255_2_778
10
3.6285601
20
6.7956377
40
2.6434849
50
26.635928
51
39.7832462
0
ARC
8
DEFAULT_255_2_778
10
4.4934789
20
7.561129
40
1.4894005
50
38.4440534
51
89.9927374
0
ARC
8
DEFAULT_255_2_778
10
4.4936931
20
7.5536601
40
1.4968693
50
90.0009705
51
90.5355961
0
ARC
8
DEFAULT_255_2_778
10
4.4848147
20
7.5029175
40
1.547555
50
90.1893384
51
139.99529
0
ARC
8
DEFAULT_255_2_778
10
5.7757299
20
6.5150035
40
3.1723092
50
141.3162561
51
152.2645438
0
ARC
8
DEFAULT_255_2_778
10
104.6558427
20
-45.0623601
40
114.6924382
50
152.7215358
51
153.8685077
0
ARC
8
DEFAULT_255_2_778
10
89.5139343
20
-37.6257646
40
97.8229309
50
153.872887
51
154.9044383
0
ARC
8
DEFAULT_255_2_778
10
80.9398836
20
-33.5906659
40
88.3468546
50
154.9159084
51
155.2930839
0
ARC
8
DEFAULT_255_2_778
10
-3.7933342
20
4.9812899
40
4.7643896
50
334.3243349
51
339.5744275
0
ARC
8
DEFAULT_255_2_778
10
16.5010094
20
-4.4191052
40
17.6020067
50
155.3687762
51
155.5839587
0
ARC
8
DEFAULT_255_2_778
10
10.3380217
20
-1.6180671
40
10.8323526
50
155.5998623
51
155.6624892
0
ARC
8
DEFAULT_255_2_778
10
5.9023935
20
0.3715887
40
5.9709625
50
155.5173196
51
158.9684039
0
ARC
8
DEFAULT_255_2_778
10
2.2696904
20
1.7952872
40
2.0694723
50
159.6644811
51
180.0048533
0
ARC
8
DEFAULT_255_2_778
10
2.2729686
20
1.795121
40
2.0727507
50
180.000253
51
182.1272279
0
ARC
8
DEFAULT_255_2_778
10
2.2736603
20
1.7951585
40
2.0734433
50
182.1275524
51
187.6353608
0
ARC
8
DEFAULT_255_2_778
10
2.1591859
20
1.8053713
40
1.9615044
50
188.3753405
51
247.7542835
0
ARC
8
DEFAULT_255_2_778
10
2.150466
20
1.7360012
40
1.8940838
50
247.2039918
51
270.0011327
0
ARC
8
DEFAULT_255_2_778
10
2.1505306
20
1.7313531
40
1.8894357
50
269.9991755
51
270.402407
0
ARC
8
DEFAULT_255_2_778
10
2.1319512
20
1.8929062
40
2.0511895
50
270.8896853
51
277.5849663
0
ARC
8
DEFAULT_255_2_778
10
2.094284
20
2.2764634
40
2.4363991
50
277.272417
51
300.3268622
0
ARC
8
DEFAULT_255_2_778
10
0.9325958
20
4.1838913
40
4.6695542
50
300.8127571
51
319.1976604
0
ARC
8
DEFAULT_255_2_778
10
8.1165518
20
4.3201161
40
4.8453609
50
221.1366005
51
238.8480507
0
ARC
8
DEFAULT_255_2_778
10
6.8398321
20
2.2753322
40
2.435228
50
239.6675226
51
262.7332049
0
ARC
8
DEFAULT_255_2_778
10
6.802911
20
1.8977766
40
2.0560651
50
262.4229795
51
269.1023666
0
ARC
8
DEFAULT_255_2_778
10
6.790321
20
1.7070038
40
1.865143
50
269.3972677
51
269.9999204
0
ARC
8
DEFAULT_255_2_778
10
6.7905118
20
1.7033057
40
1.8614449
50
269.9940472
51
293.0021544
0
ARC
8
DEFAULT_255_2_778
10
6.7756695
20
1.805094
40
1.9611138
50
292.239209
51
351.631167
0
ARC
8
DEFAULT_255_2_778
10
7.0100722
20
1.8713136
40
1.7416969
50
348.3518782
51
358.3369115
0
ARC
8
DEFAULT_255_2_778
10
7.0103387
20
1.8712799
40
1.7414295
50
358.3377646
51
359.9997373
0
ARC
8
DEFAULT_255_2_778
10
7.0118264
20
1.8713438
40
1.7399417
50
359.9976325
51
21.3736825
0
ARC
8
DEFAULT_255_2_778
10
10.3239389
20
6.6759173
40
7.4666517
50
214.0996198
51
218.4966008
0
ARC
8
DEFAULT_255_2_778
10
8.7420863
20
5.6069052
40
5.5574526
50
209.0738318
51
214.1164158
0
ARC
8
DEFAULT_255_2_778
10
7.3504005
20
4.8374249
40
3.9672107
50
202.5839361
51
209.1279793
0
ARC
8
DEFAULT_255_2_778
10
6.1658065
20
4.348826
40
2.6858166
50
193.8739334
51
202.6648971
0
ARC
8
DEFAULT_255_2_778
10
5.631368
20
4.2048784
40
2.1324849
50
192.4961529
51
193.5623436
0
ARC
8
DEFAULT_255_2_778
10
4.9925429
20
4.0985162
40
1.4861769
50
179.9993158
51
193.8218076
0
ARC
8
DEFAULT_255_2_778
10
4.9917162
20
4.0985464
40
1.4853502
50
179.1439094
51
180.000482
0
ARC
8
DEFAULT_255_2_778
10
4.9922966
20
4.0985512
40
1.4859304
50
172.00735
51
179.1444278
0
ARC
8
DEFAULT_255_2_778
10
4.406616
20
4.1882628
40
0.8934958
50
145.6772475
51
172.4821093
0
ARC
8
DEFAULT_255_2_778
10
4.4631633
20
4.1190731
40
0.9795353
50
90.0006894
51
144.1996988
0
ARC
8
DEFAULT_255_2_778
10
4.4631658
20
4.1171956
40
0.9814129
50
89.0171154
51
90.0008326
0
ARC
8
DEFAULT_255_2_778
10
4.5163982
20
4.1544334
40
0.944732
50
90.0004222
51
92.2079702
0
ARC
8
DEFAULT_255_2_778
10
4.5160746
20
4.1557107
40
0.9434547
50
34.756447
51
89.9807734
0
ARC
8
DEFAULT_255_2_778
10
4.5541432
20
4.1900604
40
0.8926195
50
7.5125157
51
34.3380198
0
ARC
8
DEFAULT_255_2_778
10
3.9716712
20
4.0999356
40
1.4819336
50
0.8662182
51
8.0227677
0
ARC
8
DEFAULT_255_2_778
10
3.9720903
20
4.0999225
40
1.4815148
50
0.0000349
51
0.8669682
0
ARC
8
DEFAULT_255_2_778
10
3.9714378
20
4.0999131
40
1.4821672
50
346.1481421
51
0.0003986
0
ARC
8
DEFAULT_255_2_778
10
2.9606758
20
4.3149985
40
2.5152469
50
338.0368364
51
346.9034952
0
ARC
8
DEFAULT_255_2_778
10
1.7307704
20
4.804953
40
3.8391434
50
331.6801896
51
338.1204355
0
ARC
8
DEFAULT_255_2_778
10
0.1640334
20
5.6426545
40
5.6157655
50
326.960367
51
331.7394534
0
ARC
8
DEFAULT_255_2_778
10
-1.6933638
20
6.8445343
40
7.8280991
50
323.3415261
51
326.9981353
0
ARC
8
DEFAULT_255_2_778
10
-3.0849684
20
7.8632181
40
9.5526648
50
322.362579
51
323.4234103
0
ARC
8
DEFAULT_255_2_778
10
6.8035306
20
1.7943188
40
1.3695424
50
292.0961619
51
351.6343417
0
ARC
8
DEFAULT_255_2_778
10
6.7744621
20
1.8131718
40
1.3980861
50
270.0131969
51
292.9093332
0
ARC
8
DEFAULT_255_2_778
10
6.7747786
20
1.8072878
40
1.3922019
50
267.2721157
51
270.0002281
0
ARC
8
DEFAULT_255_2_778
10
6.774707
20
1.8058184
40
1.3907308
50
263.5965586
51
267.2721823
0
ARC
8
DEFAULT_255_2_778
10
6.8427451
20
2.224902
40
1.8149082
50
239.4043626
51
262.9375665
0
ARC
8
DEFAULT_255_2_778
10
8.1466506
20
4.3511392
40
4.3089759
50
220.4758581
51
238.8701761
0
ARC
8
DEFAULT_255_2_778
10
-1.7399252
20
6.947258
40
8.5301302
50
320.7835145
51
324.7000955
0
ARC
8
DEFAULT_255_2_778
10
-0.1168497
20
5.8011786
40
6.5432072
50
324.6778114
51
329.5027288
0
ARC
8
DEFAULT_255_2_778
10
1.275082
20
4.9842243
40
4.9292431
50
329.4740166
51
335.4957868
0
ARC
8
DEFAULT_255_2_778
10
2.4156295
20
4.466647
40
3.6767541
50
335.4631537
51
343.0298379
0
ARC
8
DEFAULT_255_2_778
10
3.072243
20
4.2582568
40
2.987918
50
343.176878
51
347.1129872
0
ARC
8
DEFAULT_255_2_778
10
3.7344192
20
4.118173
40
2.3112049
50
346.8370886
51
0.0036909
0
ARC
8
DEFAULT_255_2_778
10
3.7304753
20
4.1183191
40
2.3151489
50
0.0000675
51
1.0500664
0
ARC
8
DEFAULT_255_2_778
10
3.7297069
20
4.1182914
40
2.3159176
50
1.0504038
51
6.398001
0
ARC
8
DEFAULT_255_2_778
10
4.5502213
20
4.151
40
1.4980283
50
8.6524495
51
34.7077749
0
ARC
8
DEFAULT_255_2_778
10
4.5096507
20
4.1123094
40
1.5534346
50
35.0288732
51
89.9969964
0
ARC
8
DEFAULT_255_2_778
10
4.5097498
20
4.1064133
40
1.5593306
50
90.0006476
51
91.0858131
0
ARC
8
DEFAULT_255_2_778
10
4.4598847
20
4.082952
40
1.5826424
50
89.2644896
51
89.9997117
0
ARC
8
DEFAULT_255_2_778
10
4.4601152
20
4.087694
40
1.5779004
50
90.0080809
51
144.1836566
0
ARC
8
DEFAULT_255_2_778
10
4.407816
20
4.1597953
40
1.4935582
50
145.2525497
51
171.3872361
0
ARC
8
DEFAULT_255_2_778
10
4.8305937
20
4.1012591
40
1.920342
50
171.5494643
51
178.8108707
0
ARC
8
DEFAULT_255_2_778
10
4.8259381
20
4.1014119
40
1.9156843
50
178.8125489
51
180.0001931
0
ARC
8
DEFAULT_255_2_778
10
4.821283
20
4.1011898
40
1.9110291
50
179.9935354
51
195.2333906
0
ARC
8
DEFAULT_255_2_778
10
6.1132186
20
4.3308945
40
3.2200823
50
193.1364425
51
201.6489712
0
ARC
8
DEFAULT_255_2_778
10
7.2721822
20
4.7863504
40
4.4653227
50
201.5946293
51
208.103235
0
ARC
8
DEFAULT_255_2_778
10
8.6665077
20
5.526264
40
6.043804
50
208.0640315
51
213.1791311
0
ARC
8
DEFAULT_255_2_778
10
10.2743973
20
6.573614
40
7.9627212
50
213.1551189
51
217.3481853
0
ARC
8
DEFAULT_255_2_778
10
11.5151717
20
7.504376
40
9.5137538
50
217.2710814
51
218.729386
0
ARC
8
DEFAULT_255_2_778
10
0.9252795
20
4.2204927
40
4.1420972
50
300.753145
51
319.8944658
0
ARC
8
DEFAULT_255_2_778
10
2.105644
20
2.2117299
40
1.8122873
50
277.4555394
51
301.1572404
0
ARC
8
DEFAULT_255_2_778
10
2.1776974
20
1.8771676
40
1.471471
50
272.4961658
51
276.3639511
0
ARC
8
DEFAULT_255_2_778
10
2.1776974
20
1.8774014
40
1.4717046
50
270.0001721
51
272.4957697
0
ARC
8
DEFAULT_255_2_778
10
2.1776977
20
1.8773548
40
1.471658
50
248.5781233
51
270.0001612
0
ARC
8
DEFAULT_255_2_778
10
2.1551945
20
1.7761804
40
1.369348
50
188.3610029
51
247.9084912
0
ARC
8
DEFAULT_255_2_778
10
2.3179727
20
1.7603197
40
1.5285966
50
182.2781443
51
186.8854637
0
ARC
8
DEFAULT_255_2_778
10
2.3172002
20
1.7602753
40
1.5278229
50
180.000102
51
182.2776302
0
ARC
8
DEFAULT_255_2_778
10
2.3154449
20
1.7603451
40
1.5260676
50
159.6851218
51
180.0027243
0
ARC
8
DEFAULT_255_2_778
10
1.7833637
20
2.0119276
40
0.9411322
50
159.5107965
51
162.8040799
0
ARC
8
DEFAULT_255_2_778
10
4.8696074
20
0.7789664
40
4.2643629
50
155.946953
51
158.5073309
0
ARC
8
DEFAULT_255_2_778
10
-1.7022812
20
3.6612681
40
2.9120261
50
336.8630491
51
338.2959341
0
ARC
8
DEFAULT_255_2_778
10
15.2064624
20
-3.688655
40
15.5267695
50
154.5867438
51
156.1706995
0
ARC
8
DEFAULT_255_2_778
10
-31.3960646
20
18.2260176
40
35.9714495
50
334.9133974
51
335.0390762
0
ARC
8
DEFAULT_255_2_778
10
90.6447247
20
-38.2031227
40
98.483158
50
152.5443784
51
155.2269649
0
ARC
8
DEFAULT_255_2_778
10
5.3072027
20
6.8094931
40
2.0108156
50
139.9835046
51
153.8957381
0
ARC
8
DEFAULT_255_2_778
10
4.5044165
20
7.4749264
40
0.9681377
50
90.0009365
51
139.5946942
0
ARC
8
DEFAULT_255_2_778
10
4.5043894
20
7.4747197
40
0.9683442
50
40.4109572
51
89.9993341
0
ARC
8
DEFAULT_255_2_778
10
3.6634026
20
6.8422525
40
2.0196925
50
25.0580003
51
38.6060454
0
ARC
8
DEFAULT_255_2_778
10
-111.461533
20
-52.5381992
40
131.5577799
50
26.0124421
51
27.0159265
0
ARC
8
DEFAULT_255_2_778
10
-94.2104991
20
-44.1127451
40
112.3591756
50
25.1233512
51
26.0092686
0
ARC
8
DEFAULT_255_2_778
10
-83.8219473
20
-39.2212764
40
100.8766623
50
24.7875586
51
25.1130912
0
ARC
8
DEFAULT_255_2_778
10
2.0313467
20
0.2901185
40
6.3650335
50
23.5486523
51
25.8228475
0
LINE
8
DEFAULT_255_2_778
10
7.8663075
20
2.8331253
11
7.8669007
21
2.831789
0
ARC
8
DEFAULT_255_2_778
10
13.656634
20
5.3544678
40
6.3154509
50
203.5435224
51
205.8476042
0
ARC
8
DEFAULT_255_2_778
10
11.0037578
20
3.8699786
40
3.2856709
50
202.7180409
51
202.8889077
0
ARC
8
DEFAULT_255_2_778
10
11.1754454
20
3.9425916
40
3.4720824
50
202.8908606
51
203.0469691
0
ARC
8
DEFAULT_255_2_778
10
4.592389
20
1.0327718
40
3.7260476
50
20.5582304
51
24.5909938
0
ARC
8
DEFAULT_255_2_778
10
7.3153384
20
2.0809422
40
0.8088261
50
16.2122802
51
18.770699
0
ARC
8
DEFAULT_255_2_778
10
6.6145038
20
1.8141523
40
1.5574541
50
359.99777
51
18.4388809
0
ARC
8
DEFAULT_255_2_778
10
6.6133346
20
1.8140984
40
1.5586233
50
358.3869975
51
359.999756
0
ARC
8
DEFAULT_255_2_778
10
6.614084
20
1.8140768
40
1.5578737
50
351.8700361
51
358.387013
0
LINE
8
DEFAULT_255_2_778
10
15.7541007
20
6.735164
11
15.7541007
21
6.735164
0
LINE
8
DEFAULT_255_2_778
10
13.2829007
20
5.531264
11
13.2829007
21
5.383064
0
LINE
8
DEFAULT_255_2_778
10
13.2811007
20
2.477164
11
13.2811007
21
2.320264
0
LINE
8
DEFAULT_255_2_778
10
13.4094007
20
2.191964
11
14.1566007
21
2.191964
0
LINE
8
DEFAULT_255_2_778
10
14.1566007
20
2.191964
11
14.1566007
21
5.665664
0
LINE
8
DEFAULT_255_2_778
10
14.1566007
20
5.665664
11
13.4157007
21
5.665664
0
LINE
8
DEFAULT_255_2_778
10
13.2874007
20
5.537364
11
13.2829007
21
5.531264
0
LINE
8
DEFAULT_255_2_778
10
13.2829007
20
4.543364
11
13.2829007
21
3.307764
0
LINE
8
DEFAULT_255_2_778
10
13.2829007
20
3.307764
11
13.2829007
21
3.309864
0
LINE
8
DEFAULT_255_2_778
10
14.7117007
20
5.659864
11
15.6033007
21
5.659864
0
LINE
8
DEFAULT_255_2_778
10
15.6033007
20
5.659864
11
15.6033007
21
2.193864
0
LINE
8
DEFAULT_255_2_778
10
15.6033007
20
2.193864
11
14.7117007
21
2.193864
0
LINE
8
DEFAULT_255_2_778
10
14.7117007
20
2.193864
11
14.7117007
21
5.665664
0
LINE
8
DEFAULT_255_2_778
10
14.7117007
20
5.665664
11
14.7117007
21
5.659864
0
LINE
8
DEFAULT_255_2_778
10
27.0407007
20
5.383364
11
27.0407007
21
7.328564
0
LINE
8
DEFAULT_255_2_778
10
27.0407007
20
7.328564
11
26.1491007
21
7.328564
0
LINE
8
DEFAULT_255_2_778
10
26.1491007
20
7.328564
11
26.1491007
21
2.194364
0
LINE
8
DEFAULT_255_2_778
10
26.1491007
20
2.194364
11
26.8960007
21
2.194364
0
LINE
8
DEFAULT_255_2_778
10
27.0243007
20
2.322664
11
27.0243007
21
2.479564
0
LINE
8
DEFAULT_255_2_778
10
27.9138007
20
5.752764
11
27.9321007
21
5.752464
0
LINE
8
DEFAULT_255_2_778
10
27.0344007
20
3.318564
11
27.0344007
21
4.554464
0
LINE
8
DEFAULT_255_2_778
10
27.7815007
20
2.942864
11
27.7815007
21
2.940464
0
LINE
8
DEFAULT_255_2_778
10
25.6971007
20
4.249064
11
25.6971007
21
2.184564
0
LINE
8
DEFAULT_255_2_778
10
25.6971007
20
2.184564
11
24.8055007
21
2.184564
0
LINE
8
DEFAULT_255_2_778
10
24.8055007
20
2.184564
11
24.8055007
21
4.145964
0
LINE
8
DEFAULT_255_2_778
10
23.4098007
20
4.607664
11
23.4098007
21
2.193564
0
LINE
8
DEFAULT_255_2_778
10
23.4098007
20
2.193564
11
22.5182007
21
2.193564
0
LINE
8
DEFAULT_255_2_778
10
22.5182007
20
2.193564
11
22.5182007
21
5.665664
0
LINE
8
DEFAULT_255_2_778
10
22.5182007
20
5.665664
11
23.2191007
21
5.665664
0
LINE
8
DEFAULT_255_2_778
10
23.3474007
20
5.537364
11
23.3474007
21
5.389164
0
LINE
8
DEFAULT_255_2_778
10
25.6882007
20
4.255464
11
25.6971007
21
4.249064
0
LINE
8
DEFAULT_255_2_778
10
19.4876007
20
5.382864
11
19.4876007
21
7.328064
0
LINE
8
DEFAULT_255_2_778
10
19.4876007
20
7.328064
11
18.5960007
21
7.328064
0
LINE
8
DEFAULT_255_2_778
10
18.5960007
20
7.328064
11
18.5960007
21
2.194364
0
LINE
8
DEFAULT_255_2_778
10
18.5960007
20
2.194364
11
19.3432007
21
2.194364
0
LINE
8
DEFAULT_255_2_778
10
19.4715007
20
2.322664
11
19.4715007
21
2.479564
0
LINE
8
DEFAULT_255_2_778
10
20.3629007
20
5.752764
11
20.3790007
21
5.751964
0
LINE
8
DEFAULT_255_2_778
10
19.4832007
20
3.318564
11
19.4832007
21
4.554464
0
LINE
8
DEFAULT_255_2_778
10
20.2303007
20
2.942864
11
20.2303007
21
2.940464
0
LINE
8
DEFAULT_255_2_778
10
18.2343007
20
5.706664
11
18.2343007
21
4.886464
0
LINE
8
DEFAULT_255_2_778
10
17.0363007
20
4.610264
11
17.0363007
21
2.185364
0
LINE
8
DEFAULT_255_2_778
10
17.0363007
20
2.185364
11
16.1446007
21
2.185364
0
LINE
8
DEFAULT_255_2_778
10
16.1446007
20
2.185364
11
16.1446007
21
5.665664
0
LINE
8
DEFAULT_255_2_778
10
16.1446007
20
5.665664
11
16.8918007
21
5.665664
0
LINE
8
DEFAULT_255_2_778
10
17.0201007
20
5.537364
11
17.0201007
21
5.389164
0
LINE
8
DEFAULT_255_2_778
10
17.8224007
20
5.758264
11
17.8279007
21
5.752964
0
LINE
8
DEFAULT_255_2_778
10
8.6363007
20
2.507864
11
8.4971007
21
2.839364
0
LINE
8
DEFAULT_255_2_778
10
8.4971007
20
2.839364
11
8.2849007
21
3.310364
0
LINE
8
DEFAULT_255_2_778
10
8.2849007
20
3.310364
11
8.2759007
21
3.319364
0
LINE
8
DEFAULT_255_2_778
10
6.2397007
20
7.486064
11
6.2111007
21
7.538964
0
LINE
8
DEFAULT_255_2_778
10
6.2111007
20
7.538964
11
5.9915007
21
7.980764
0
LINE
8
DEFAULT_255_2_778
10
2.9679007
20
7.991364
11
2.7184007
21
7.502964
0
LINE
8
DEFAULT_255_2_778
10
0.6805007
20
3.336264
11
0.6715007
21
3.318564
0
LINE
8
DEFAULT_255_2_778
10
8.6321007
20
2.505464
11
8.6363007
21
2.507864
0
LINE
8
DEFAULT_255_2_778
10
4.4797007
20
2.029764
11
4.4802007
21
2.028164
0
LINE
8
DEFAULT_255_2_778
10
1.2155007
20
3.046064
11
1.2245007
21
3.063764
0
LINE
8
DEFAULT_255_2_778
10
3.2539007
20
7.203664
11
3.2803007
21
7.269864
0
LINE
8
DEFAULT_255_2_778
10
3.2803007
20
7.269864
11
3.5015007
21
7.694264
0
LINE
8
DEFAULT_255_2_778
10
5.4930007
20
7.697664
11
5.7142007
21
7.273264
0
LINE
8
DEFAULT_255_2_778
10
5.7142007
20
7.273264
11
5.7407007
21
7.220364
0
LINE
8
DEFAULT_255_2_778
10
7.7608007
20
3.071764
11
7.7608007
21
3.062664
0
LINE
8
DEFAULT_255_2_778
10
8.1563007
20
1.593764
11
8.1585007
21
1.595064
0
ENDSEC
0
EOF