0
SECTION
2
HEADER
9
$MEASUREMENT
70
1
0
ENDSEC
0
SECTION
2
TABLES
0
TABLE
2
LTYPE
0
LTYPE
72
65
70
64
2
CONTINUOUS
3
______
73
0
40
0
0
ENDTAB
0
TABLE
2
LAYER
0
LAYER
2
DEFAULT_255_2_778
70
0
62
255
6
CONTINUOUS
0
ENDTAB
0
ENDSEC
0
SECTION
2
ENTITIES
0
ARC
8
DEFAULT_255_2_778
10
7.1096214
20
8.8251864
40
3.6718438
50
234.9444815
51
242.1135699
0
ARC
8
DEFAULT_255_2_778
10
6.7354621
20
8.0921155
40
2.8489237
50
241.8689806
51
247.1485365
0
ARC
8
DEFAULT_255_2_778
10
6.2967861
20
7.0795201
40
1.74548
50
247.509997
51
251.2952268
0
ARC
8
DEFAULT_255_2_778
10
6.4339394
20
7.421813
40
2.1137739
50
250.7493398
51
259.1494216
0
ARC
8
DEFAULT_255_2_778
10
6.3087222
20
6.7879727
40
1.4676984
50
259.2922628
51
269.1646641
0
ARC
8
DEFAULT_255_2_778
10
13.0517656
20
5.7086384
40
0.3100803
50
230.5705144
51
239.0781004
0
ARC
8
DEFAULT_255_2_778
10
13.2944398
20
6.0813962
40
0.7547436
50
237.8152496
51
246.5611088
0
ARC
8
DEFAULT_255_2_778
10
13.3046366
20
6.106405
40
0.7817451
50
246.6045271
51
259.5484443
0
ARC
8
DEFAULT_255_2_778
10
13.3940686
20
6.4880488
40
1.1734293
50
258.6345248
51
270.107006
0
ARC
8
DEFAULT_255_2_778
10
13.3962601
20
6.5509978
40
1.2363763
50
270.0000004
51
270.216173
0
ARC
8
DEFAULT_255_2_778
10
13.3880741
20
6.855523
40
1.5409463
50
270.4778271
51
279.9233003
0
ARC
8
DEFAULT_255_2_778
10
13.3140427
20
7.2314353
40
1.9240098
50
280.1657927
51
289.4505518
0
ARC
8
DEFAULT_255_2_778
10
13.0751953
20
7.8965851
40
2.6307361
50
289.5316982
51
297.8440655
0
ARC
8
DEFAULT_255_2_778
10
12.5727957
20
8.8518337
40
3.7100426
50
297.8142263
51
305.0157644
0
ARC
8
DEFAULT_255_2_778
10
4.4851041
20
8.8358155
40
3.6862946
50
234.9201266
51
242.1553493
0
ARC
8
DEFAULT_255_2_778
10
4.0615416
20
8.0490372
40
2.7927846
50
242.2996993
51
248.7720212
0
ARC
8
DEFAULT_255_2_778
10
3.9908777
20
7.8751924
40
2.6051514
50
248.836317
51
250.2797065
0
ARC
8
DEFAULT_255_2_778
10
3.7466227
20
7.2114189
40
1.8978982
50
250.4594381
51
259.8487986
0
ARC
8
DEFAULT_255_2_778
10
3.6714437
20
6.786279
40
1.4661637
50
259.8125611
51
269.7413426
0
ARC
8
DEFAULT_255_2_778
10
3.6678724
20
6.5413043
40
1.2211778
50
269.8570142
51
269.9961273
0
ARC
8
DEFAULT_255_2_778
10
3.6681155
20
6.5248882
40
1.2047617
50
269.9845151
51
281.2389471
0
ARC
8
DEFAULT_255_2_778
10
3.7372729
20
6.1897105
40
0.8625366
50
281.0725653
51
292.7931992
0
ARC
8
DEFAULT_255_2_778
10
3.8344002
20
5.9838166
40
0.6351685
50
291.9111356
51
302.248879
0
ARC
8
DEFAULT_255_2_778
10
10.2434619
20
5.7085826
40
0.308444
50
230.7780804
51
239.4590488
0
ARC
8
DEFAULT_255_2_778
10
10.4309776
20
5.9814623
40
0.6391609
50
237.4115455
51
247.7175198
0
ARC
8
DEFAULT_255_2_778
10
10.541251
20
6.2458881
40
0.9256554
50
247.6076102
51
258.5265168
0
ARC
8
DEFAULT_255_2_778
10
10.587858
20
6.4868581
40
1.1710829
50
258.6369319
51
268.7431783
0
ARC
8
DEFAULT_255_2_778
10
10.595923
20
6.6509995
40
1.3353693
50
268.5516937
51
270.0043693
0
ARC
8
DEFAULT_255_2_778
10
10.5817405
20
6.8656346
40
1.5500702
50
270.5280042
51
279.9180922
0
ARC
8
DEFAULT_255_2_778
10
10.5353259
20
7.1334924
40
1.8219194
50
279.9050454
51
289.711311
0
ARC
8
DEFAULT_255_2_778
10
10.2648318
20
7.910944
40
2.6450588
50
289.5472127
51
297.8164801
0
ARC
8
DEFAULT_255_2_778
10
9.7734538
20
8.8431203
40
3.6988163
50
297.8103761
51
305.0324759
0
LINE
8
DEFAULT_255_2_778
10
6.2852249
20
5.3217303
11
6.2852249
21
7.1063303
0
LINE
8
DEFAULT_255_2_778
10
6.2852249
20
7.1063303
11
5.0006249
21
5.8194303
0
LINE
8
DEFAULT_255_2_778
10
14.7016249
20
5.8133303
11
13.7266249
21
6.7658303
0
LINE
8
DEFAULT_255_2_778
10
13.7266249
20
6.7658303
11
10.4960249
21
10.0091303
0
LINE
8
DEFAULT_255_2_778
10
10.4960249
20
10.0091303
11
9.0789249
21
8.5920303
0
LINE
8
DEFAULT_255_2_778
10
9.0789249
20
8.5920303
11
7.1660249
21
10.5644303
0
LINE
8
DEFAULT_255_2_778
10
7.1660249
20
10.5644303
11
2.3665249
21
5.8191303
0
LINE
8
DEFAULT_255_2_778
10
4.1733249
20
5.4466303
11
4.2117249
21
5.4741303
0
LINE
8
DEFAULT_255_2_778
10
4.2117249
20
5.4741303
11
6.3794249
21
7.6419303
0
LINE
8
DEFAULT_255_2_778
10
6.3794249
20
7.6419303
11
7.1530249
21
8.3848303
0
LINE
8
DEFAULT_255_2_778
10
7.1530249
20
8.3848303
11
9.2977249
21
6.2401303
0
LINE
8
DEFAULT_255_2_778
10
9.2977249
20
6.2401303
11
10.0484249
21
5.4696303
0
LINE
8
DEFAULT_255_2_778
10
11.8967249
20
5.8144303
11
10.1748249
21
7.4998303
0
LINE
8
DEFAULT_255_2_778
10
10.1748249
20
7.4998303
11
10.4923249
21
7.8173303
0
LINE
8
DEFAULT_255_2_778
10
10.4923249
20
7.8173303
11
11.9819249
21
6.3277303
0
LINE
8
DEFAULT_255_2_778
10
11.9819249
20
6.3277303
11
12.8506249
21
5.4667303
0
LINE
8
DEFAULT_255_2_778
10
12.8320249
20
14.4520303
11
17.0649249
21
7.1193303
0
LINE
8
DEFAULT_255_2_778
10
17.0649249
20
7.1193303
11
12.8344249
21
-0.2080697
0
LINE
8
DEFAULT_255_2_778
10
12.8344249
20
-0.2080697
11
4.3659249
21
-0.2080697
0
LINE
8
DEFAULT_255_2_778
10
4.3659249
20
-0.2080697
11
0.1331249
21
7.1243303
0
LINE
8
DEFAULT_255_2_778
10
0.1331249
20
7.1243303
11
4.3659249
21
14.4570303
0
LINE
8
DEFAULT_255_2_778
10
4.3659249
20
14.4570303
11
12.8320249
21
14.4520303
0
LINE
8
DEFAULT_255_2_778
10
10.1930287
20
7.4807497
11
9.0654287
21
8.6068497
0
LINE
8
DEFAULT_255_2_778
10
9.0654287
20
8.6068497
11
9.1458287
21
8.6872497
0
LINE
8
DEFAULT_255_2_778
10
9.1458287
20
8.6872497
11
10.2835287
21
7.5643497
0
LINE
8
DEFAULT_255_2_778
10
10.2835287
20
7.5643497
11
10.1930287
21
7.4807497
0
ENDSEC
0
EOF