0
SECTION
2
HEADER
9
$MEASUREMENT
70
1
0
ENDSEC
0
SECTION
2
TABLES
0
TABLE
2
LTYPE
0
LTYPE
72
65
70
64
2
CONTINUOUS
3
______
73
0
40
0
0
ENDTAB
0
TABLE
2
LAYER
0
LAYER
2
DEFAULT_255_2_778
70
0
62
255
6
CONTINUOUS
0
ENDTAB
0
ENDSEC
0
SECTION
2
ENTITIES
0
ARC
8
DEFAULT_255_2_778
10
8.2993697
20
7.8656446
40
8.1688093
50
349.5217559
51
0.0250903
0
ARC
8
DEFAULT_255_2_778
10
8.3960016
20
7.850006
40
8.070945
50
335.6495836
51
349.506167
0
ARC
8
DEFAULT_255_2_778
10
8.3074444
20
7.8964055
40
8.1707574
50
293.3379013
51
335.609205
0
ARC
8
DEFAULT_255_2_778
10
8.3535733
20
7.8074399
40
8.0707996
50
279.7392028
51
293.2874201
0
ARC
8
DEFAULT_255_2_778
10
8.3375503
20
7.9109384
40
8.1755173
50
269.9777696
51
279.7271763
0
ARC
8
DEFAULT_255_2_778
10
8.330801
20
7.9042303
40
8.1688093
50
259.5217559
51
270.0250903
0
ARC
8
DEFAULT_255_2_778
10
8.3151625
20
7.8075984
40
8.070945
50
245.6495836
51
259.506167
0
ARC
8
DEFAULT_255_2_778
10
8.361562
20
7.8961556
40
8.1707574
50
203.3379013
51
245.609205
0
ARC
8
DEFAULT_255_2_778
10
8.2725964
20
7.8500267
40
8.0707996
50
189.7392028
51
203.2874201
0
ARC
8
DEFAULT_255_2_778
10
8.3760949
20
7.8660497
40
8.1755173
50
179.9777696
51
189.7271763
0
ARC
8
DEFAULT_255_2_778
10
8.3693868
20
7.872799
40
8.1688093
50
169.5217559
51
180.0250903
0
ARC
8
DEFAULT_255_2_778
10
8.2727548
20
7.8884375
40
8.070945
50
155.6495836
51
169.506167
0
ARC
8
DEFAULT_255_2_778
10
8.361312
20
7.842038
40
8.1707574
50
113.3379013
51
155.609205
0
ARC
8
DEFAULT_255_2_778
10
8.3151831
20
7.9310036
40
8.0707996
50
99.7392028
51
113.2874201
0
ARC
8
DEFAULT_255_2_778
10
8.3312062
20
7.8275051
40
8.1755173
50
89.9777696
51
99.7271763
0
ARC
8
DEFAULT_255_2_778
10
8.3379554
20
7.8342132
40
8.1688093
50
79.5217559
51
90.0250903
0
ARC
8
DEFAULT_255_2_778
10
8.353594
20
7.9308452
40
8.070945
50
65.6495836
51
79.506167
0
ARC
8
DEFAULT_255_2_778
10
8.3071945
20
7.842288
40
8.1707574
50
23.3379013
51
65.609205
0
ARC
8
DEFAULT_255_2_778
10
8.3961601
20
7.8884169
40
8.0707996
50
9.7392028
51
23.2874201
0
ARC
8
DEFAULT_255_2_778
10
8.2926616
20
7.8723938
40
8.1755173
50
359.9777696
51
9.7271763
0
LINE
8
DEFAULT_255_2_778
10
16.4681782
20
7.8692218
11
16.4681782
21
7.8692218
0
LINE
8
DEFAULT_255_2_778
10
0.2005782
20
8.5349447
11
16.4681782
21
8.5349447
0
LINE
8
DEFAULT_255_2_778
10
16.4681782
20
8.5349447
11
16.4681782
21
7.8692447
0
LINE
8
DEFAULT_255_2_778
10
16.4681782
20
7.8692447
11
0.2005782
21
7.8692447
0
LINE
8
DEFAULT_255_2_778
10
0.2005782
20
7.8692447
11
0.2005782
21
8.5349447
0
ARC
8
DEFAULT_255_2_778
10
8.2988025
20
8.5313425
40
8.1693765
50
349.5225065
51
0.0251029
0
ARC
8
DEFAULT_255_2_778
10
8.3957588
20
8.5156414
40
8.071182
50
335.6508489
51
349.5069453
0
ARC
8
DEFAULT_255_2_778
10
8.3077835
20
8.5617444
40
8.1703419
50
293.3375399
51
335.6106645
0
ARC
8
DEFAULT_255_2_778
10
8.3536969
20
8.4732827
40
8.0709322
50
279.7386968
51
293.2870429
0
ARC
8
DEFAULT_255_2_778
10
8.3375591
20
8.5774234
40
8.1763023
50
269.9777097
51
279.726709
0
ARC
8
DEFAULT_255_2_778
10
8.3307908
20
8.570693
40
8.169572
50
259.5222463
51
270.0251596
0
ARC
8
DEFAULT_255_2_778
10
8.3150254
20
8.4733947
40
8.0710292
50
245.6499181
51
259.5066888
0
ARC
8
DEFAULT_255_2_778
10
8.3612266
20
8.5614999
40
8.1703483
50
203.3364224
51
245.6094931
0
ARC
8
DEFAULT_255_2_778
10
8.2728489
20
8.5156653
40
8.0710471
50
189.7384596
51
203.2861897
0
ARC
8
DEFAULT_255_2_778
10
8.3766726
20
8.5317464
40
8.1760949
50
179.9777477
51
189.7264586
0
ARC
8
DEFAULT_255_2_778
10
8.3693868
20
8.538499
40
8.1688093
50
169.5217559
51
180.0250903
0
ARC
8
DEFAULT_255_2_778
10
8.2727548
20
8.5541375
40
8.070945
50
155.6495836
51
169.506167
0
ARC
8
DEFAULT_255_2_778
10
8.361312
20
8.507738
40
8.1707574
50
113.3379013
51
155.609205
0
ARC
8
DEFAULT_255_2_778
10
8.3151831
20
8.5967036
40
8.0707996
50
99.7392028
51
113.2874201
0
ARC
8
DEFAULT_255_2_778
10
8.3312062
20
8.4932051
40
8.1755173
50
89.9777696
51
99.7271763
0
ARC
8
DEFAULT_255_2_778
10
8.3379554
20
8.4999132
40
8.1688093
50
79.5217559
51
90.0250903
0
ARC
8
DEFAULT_255_2_778
10
8.353594
20
8.5965452
40
8.070945
50
65.6495836
51
79.506167
0
ARC
8
DEFAULT_255_2_778
10
8.3071945
20
8.507988
40
8.1707574
50
23.3379013
51
65.609205
0
ARC
8
DEFAULT_255_2_778
10
8.3961601
20
8.5541169
40
8.0707996
50
9.7392028
51
23.2874201
0
ARC
8
DEFAULT_255_2_778
10
8.2926616
20
8.5380938
40
8.1755173
50
359.9777696
51
9.7271763
0
LINE
8
DEFAULT_255_2_778
10
16.4681782
20
8.5349218
11
16.4681782
21
8.5349218
0
LINE
8
DEFAULT_255_2_778
10
7.2455714
20
14.2663084
11
9.4228714
21
14.2663084
0
LINE
8
DEFAULT_255_2_778
10
9.4228714
20
14.2663084
11
8.8560714
21
9.4165084
0
LINE
8
DEFAULT_255_2_778
10
8.8560714
20
9.4165084
11
7.8032714
21
9.4165084
0
LINE
8
DEFAULT_255_2_778
10
7.8032714
20
9.4165084
11
7.2455714
21
14.2663084
0
ARC
8
DEFAULT_255_2_778
10
8.3373986
20
14.2632459
40
1.5085818
50
331.5626024
51
0.1132748
0
ARC
8
DEFAULT_255_2_778
10
8.3372748
20
14.2637277
40
1.5089201
50
278.4566772
51
331.548752
0
ARC
8
DEFAULT_255_2_778
10
8.3349206
20
14.288324
40
1.5335957
50
269.9797091
51
278.4085355
0
ARC
8
DEFAULT_255_2_778
10
8.3313752
20
14.2634256
40
1.5087002
50
241.563981
51
270.1140185
0
ARC
8
DEFAULT_255_2_778
10
8.3317501
20
14.2633281
40
1.508793
50
188.4563245
51
241.5496995
0
ARC
8
DEFAULT_255_2_778
10
8.3563673
20
14.2656862
40
1.5334898
50
179.9797455
51
188.4082157
0
ARC
8
DEFAULT_255_2_778
10
8.3318123
20
14.2692305
40
1.5089378
50
151.5678624
51
180.1139966
0
ARC
8
DEFAULT_255_2_778
10
8.3314589
20
14.2690203
40
1.5087272
50
98.456858
51
151.554451
0
ARC
8
DEFAULT_255_2_778
10
8.3338332
20
14.2442814
40
1.533547
50
89.9796641
51
98.4086711
0
ARC
8
DEFAULT_255_2_778
10
8.3203807
20
14.2447056
40
1.5331866
50
60.65188
51
89.4769259
0
ARC
8
DEFAULT_255_2_778
10
8.3346352
20
14.2612375
40
1.5117965
50
5.1423905
51
60.8157035
0
ARC
8
DEFAULT_255_2_778
10
8.3345614
20
14.2664009
40
1.5114161
50
359.9934584
51
4.9471881
0
LINE
8
DEFAULT_255_2_778
10
8.3343775
20
7.7969283
11
11.3305775
21
7.5090283
0
LINE
8
DEFAULT_255_2_778
10
11.3305775
20
7.5090283
11
13.0399775
21
5.8535283
0
LINE
8
DEFAULT_255_2_778
10
13.0399775
20
5.8535283
11
13.4537775
21
6.1954283
0
LINE
8
DEFAULT_255_2_778
10
13.4537775
20
6.1954283
11
11.9332775
21
8.4719283
0
LINE
8
DEFAULT_255_2_778
10
11.9332775
20
8.4719283
11
8.6042775
21
9.6326283
0
LINE
8
DEFAULT_255_2_778
10
8.6042775
20
9.6326283
11
8.3343775
21
7.7969283
0
LINE
8
DEFAULT_255_2_778
10
8.3343775
20
7.7969283
11
5.3292775
21
7.5090283
0
LINE
8
DEFAULT_255_2_778
10
5.3292775
20
7.5090283
11
3.6287775
21
5.8535283
0
LINE
8
DEFAULT_255_2_778
10
3.6287775
20
5.8535283
11
3.2149775
21
6.1954283
0
LINE
8
DEFAULT_255_2_778
10
3.2149775
20
6.1954283
11
4.7355775
21
8.4719283
0
LINE
8
DEFAULT_255_2_778
10
4.7355775
20
8.4719283
11
8.0644775
21
9.6326283
0
LINE
8
DEFAULT_255_2_778
10
8.0644775
20
9.6326283
11
8.3343775
21
7.7969283
0
LINE
8
DEFAULT_255_2_778
10
9.8459775
20
14.2662283
11
9.8459775
21
14.2662283
0
ARC
8
DEFAULT_255_2_778
10
8.3343053
20
14.2684608
40
1.3654432
50
89.9961931
51
124.9053935
0
ARC
8
DEFAULT_255_2_778
10
8.3389735
20
14.2520065
40
1.3816199
50
124.6736941
51
174.8357269
0
ARC
8
DEFAULT_255_2_778
10
8.329644
20
14.2574261
40
1.3718479
50
175.0260861
51
180.0051002
0
ARC
8
DEFAULT_255_2_778
10
8.3232392
20
14.2572132
40
1.3654432
50
179.9961931
51
214.9053935
0
ARC
8
DEFAULT_255_2_778
10
8.3396935
20
14.2618814
40
1.3816199
50
214.6736941
51
264.8357269
0
ARC
8
DEFAULT_255_2_778
10
8.3342739
20
14.2525519
40
1.3718479
50
265.0260861
51
270.0051002
0
ARC
8
DEFAULT_255_2_778
10
8.3344868
20
14.2461471
40
1.3654432
50
269.9961931
51
304.9053935
0
ARC
8
DEFAULT_255_2_778
10
8.3298186
20
14.2626014
40
1.3816199
50
304.6736941
51
354.8357269
0
ARC
8
DEFAULT_255_2_778
10
8.3391481
20
14.2571818
40
1.3718479
50
355.0260861
51
0.0051002
0
ARC
8
DEFAULT_255_2_778
10
8.3414181
20
14.2600461
40
1.3695807
50
359.8852851
51
29.9871903
0
ARC
8
DEFAULT_255_2_778
10
8.3339174
20
14.2558332
40
1.3781829
50
29.9830339
51
84.5887335
0
ARC
8
DEFAULT_255_2_778
10
8.3345654
20
14.2440868
40
1.3898171
50
84.6609949
51
90.0069823
0
ARC
8
DEFAULT_255_2_778
10
8.3337395
20
14.2609279
40
1.641124
50
242.1677419
51
270.0229203
0
ARC
8
DEFAULT_255_2_778
10
8.3374885
20
14.2688946
40
1.6499195
50
188.6989874
51
242.1817812
0
ARC
8
DEFAULT_255_2_778
10
8.3491093
20
14.2676003
40
1.6612137
50
180.0447134
51
188.5942431
0
ARC
8
DEFAULT_255_2_778
10
8.32902
20
14.2669605
40
1.641124
50
152.1677419
51
180.0229203
0
ARC
8
DEFAULT_255_2_778
10
8.3369867
20
14.2632115
40
1.6499195
50
98.6989874
51
152.1817812
0
ARC
8
DEFAULT_255_2_778
10
8.3356925
20
14.2515907
40
1.6612137
50
90.0447134
51
98.5942431
0
ARC
8
DEFAULT_255_2_778
10
8.3350526
20
14.27168
40
1.641124
50
62.1677419
51
90.0229203
0
ARC
8
DEFAULT_255_2_778
10
8.3313036
20
14.2637133
40
1.6499195
50
8.6989874
51
62.1817812
0
ARC
8
DEFAULT_255_2_778
10
8.3196828
20
14.2650075
40
1.6612137
50
0.0447134
51
8.5942431
0
ARC
8
DEFAULT_255_2_778
10
8.3397721
20
14.2656474
40
1.641124
50
332.1677419
51
0.0229203
0
ARC
8
DEFAULT_255_2_778
10
8.3318054
20
14.2693964
40
1.6499195
50
278.6989874
51
332.1817812
0
ARC
8
DEFAULT_255_2_778
10
8.3330997
20
14.2810172
40
1.6612137
50
270.0447134
51
278.5942431
0
ARC
8
DEFAULT_255_2_778
10
8.3291172
20
14.2715828
40
0.5001067
50
270.6047925
51
359.3952075
0
ARC
8
DEFAULT_255_2_778
10
8.3396749
20
14.2715828
40
0.5001067
50
180.6047925
51
269.3952075
0
ARC
8
DEFAULT_255_2_778
10
8.3396749
20
14.2610251
40
0.5001067
50
90.6047925
51
179.3952075
0
ARC
8
DEFAULT_255_2_778
10
8.3240784
20
14.2559864
40
0.5052229
50
1.1701575
51
88.8298284
0
LINE
8
DEFAULT_255_2_778
10
8.3343961
20
15.6339039
11
8.3343961
21
15.6339039
0
LINE
8
DEFAULT_255_2_778
10
8.3343961
20
12.6198039
11
8.3343961
21
12.6198039
0
LINE
8
DEFAULT_255_2_778
10
8.8291961
20
14.2663039
11
8.8291961
21
14.2663039
0
ARC
8
DEFAULT_255_2_778
10
8.3390158
20
8.7310027
40
1.0841278
50
321.7993059
51
0.0929697
0
ARC
8
DEFAULT_255_2_778
10
8.3355194
20
8.7309037
40
1.0868166
50
273.5693987
51
321.9173991
0
ARC
8
DEFAULT_255_2_778
10
8.3345181
20
8.7499996
40
1.1059379
50
269.996069
51
273.5595803
0
ARC
8
DEFAULT_255_2_778
10
8.3326978
20
8.728342
40
1.0842816
50
231.8021232
51
270.092176
0
ARC
8
DEFAULT_255_2_778
10
8.3324675
20
8.7317278
40
1.0868023
50
183.5717235
51
231.9220465
0
ARC
8
DEFAULT_255_2_778
10
8.351579
20
8.7326924
40
1.1059368
50
179.9964001
51
183.5599155
0
ARC
8
DEFAULT_255_2_778
10
8.3298301
20
8.7344897
40
1.0841893
50
141.7971684
51
180.0913107
0
ARC
8
DEFAULT_255_2_778
10
8.3334299
20
8.734568
40
1.0869719
50
93.5723372
51
141.9177642
0
ARC
8
DEFAULT_255_2_778
10
8.3343728
20
8.7156117
40
1.1059502
50
89.996403
51
93.5598975
0
ARC
8
DEFAULT_255_2_778
10
8.3361848
20
8.7375276
40
1.0840356
50
51.7943509
51
90.0921043
0
ARC
8
DEFAULT_255_2_778
10
8.3361318
20
8.7338173
40
1.0869862
50
3.5700127
51
51.9131169
0
ARC
8
DEFAULT_255_2_778
10
8.317191
20
8.7328377
40
1.1059513
50
359.9960718
51
3.5595622
0
LINE
8
DEFAULT_255_2_778
10
9.4231422
20
8.7327618
11
9.4231422
21
8.7327618
0
ARC
8
DEFAULT_255_2_778
10
8.3324816
20
8.7385121
40
0.9480878
50
89.88394
51
130.113418
0
ARC
8
DEFAULT_255_2_778
10
8.3343925
20
8.7326688
40
0.9537904
50
129.9750452
51
179.9922434
0
ARC
8
DEFAULT_255_2_778
10
8.3286879
20
8.7308774
40
0.9480878
50
179.88394
51
220.113418
0
ARC
8
DEFAULT_255_2_778
10
8.3345312
20
8.7327883
40
0.9537904
50
219.9750452
51
269.9922434
0
ARC
8
DEFAULT_255_2_778
10
8.3362792
20
8.7271023
40
0.9481063
50
269.8865657
51
310.2859122
0
ARC
8
DEFAULT_255_2_778
10
8.3344433
20
8.7329524
40
0.9537588
50
310.1428002
51
359.9907161
0
ARC
8
DEFAULT_255_2_778
10
8.3307802
20
8.7274657
40
0.9574367
50
0.3190944
51
44.7305357
0
ARC
8
DEFAULT_255_2_778
10
8.3290497
20
8.7290664
40
0.9575426
50
44.5896139
51
89.4941818
0
ARC
8
DEFAULT_255_2_778
10
8.3275657
20
8.6863519
40
1.0002692
50
89.4307818
51
89.6084035
0
ARC
8
DEFAULT_255_2_778
10
8.3337411
20
8.7284046
40
1.2193069
50
235.2305756
51
270.0310636
0
ARC
8
DEFAULT_255_2_778
10
8.3348865
20
8.7335952
40
1.2242257
50
185.4694275
51
235.3250755
0
ARC
8
DEFAULT_255_2_778
10
8.3505277
20
8.7339089
40
1.2398262
50
180.0513412
51
185.4149597
0
ARC
8
DEFAULT_255_2_778
10
8.3300088
20
8.7334589
40
1.2193069
50
145.2305756
51
180.0310636
0
ARC
8
DEFAULT_255_2_778
10
8.3351995
20
8.7323135
40
1.2242257
50
95.4694275
51
145.3250755
0
ARC
8
DEFAULT_255_2_778
10
8.3355131
20
8.7166723
40
1.2398262
50
90.0513412
51
95.4149597
0
ARC
8
DEFAULT_255_2_778
10
8.3350632
20
8.7371912
40
1.2193069
50
55.2305756
51
90.0310636
0
ARC
8
DEFAULT_255_2_778
10
8.3339177
20
8.7320005
40
1.2242257
50
5.4694275
51
55.3250755
0
ARC
8
DEFAULT_255_2_778
10
8.3182765
20
8.7316869
40
1.2398262
50
0.0513412
51
5.4149597
0
ARC
8
DEFAULT_255_2_778
10
8.3387954
20
8.7321368
40
1.2193069
50
325.2305756
51
0.0310636
0
ARC
8
DEFAULT_255_2_778
10
8.3336048
20
8.7332823
40
1.2242257
50
275.4694275
51
325.3250755
0
ARC
8
DEFAULT_255_2_778
10
8.3332911
20
8.7489235
40
1.2398262
50
270.0513412
51
275.4149597
0
ARC
8
DEFAULT_255_2_778
10
8.3351027
20
8.7319977
40
0.3321004
50
269.879138
51
0.1380498
0
ARC
8
DEFAULT_255_2_778
10
8.3337005
20
8.7319963
40
0.3320991
50
179.8616997
51
270.1210523
0
ARC
8
DEFAULT_255_2_778
10
8.3336157
20
8.7335842
40
0.3320146
50
89.8642949
51
180.1356915
0
ARC
8
DEFAULT_255_2_778
10
8.3286502
20
8.727046
40
0.3386007
50
0.9733406
51
89.0266594
0
LINE
8
DEFAULT_255_2_778
10
8.3344021
20
9.6865979
11
8.3344021
21
9.6865979
0
LINE
8
DEFAULT_255_2_778
10
8.3344021
20
7.5090979
11
8.3344021
21
7.5090979
0
LINE
8
DEFAULT_255_2_778
10
8.6672021
20
8.7327979
11
8.6672021
21
8.7327979
0
LINE
8
DEFAULT_255_2_778
10
4.8251604
20
6.2227006
11
11.8432604
21
6.2227006
0
LINE
8
DEFAULT_255_2_778
10
11.8432604
20
6.2227006
11
11.8432604
21
2.3447006
0
LINE
8
DEFAULT_255_2_778
10
11.8432604
20
2.3447006
11
4.8251604
21
2.3447006
0
LINE
8
DEFAULT_255_2_778
10
4.8251604
20
2.3447006
11
4.8251604
21
6.2227006
0
LINE
8
DEFAULT_255_2_778
10
5.1762698
20
5.9076126
11
5.7070698
21
5.9076126
0
LINE
8
DEFAULT_255_2_778
10
5.7070698
20
5.9076126
11
5.7070698
21
2.6596126
0
LINE
8
DEFAULT_255_2_778
10
5.7070698
20
2.6596126
11
5.1762698
21
2.6596126
0
LINE
8
DEFAULT_255_2_778
10
5.1762698
20
2.6596126
11
5.1762698
21
5.9076126
0
LINE
8
DEFAULT_255_2_778
10
6.1390698
20
5.9076126
11
6.6698698
21
5.9076126
0
LINE
8
DEFAULT_255_2_778
10
6.6698698
20
5.9076126
11
6.6698698
21
2.6596126
0
LINE
8
DEFAULT_255_2_778
10
6.6698698
20
2.6596126
11
6.1390698
21
2.6596126
0
LINE
8
DEFAULT_255_2_778
10
6.1390698
20
2.6596126
11
6.1390698
21
5.9076126
0
LINE
8
DEFAULT_255_2_778
10
7.1018698
20
5.9076126
11
7.6326698
21
5.9076126
0
LINE
8
DEFAULT_255_2_778
10
7.6326698
20
5.9076126
11
7.6326698
21
2.6596126
0
LINE
8
DEFAULT_255_2_778
10
7.6326698
20
2.6596126
11
7.1018698
21
2.6596126
0
LINE
8
DEFAULT_255_2_778
10
7.1018698
20
2.6596126
11
7.1018698
21
5.9076126
0
LINE
8
DEFAULT_255_2_778
10
8.0647698
20
5.9076126
11
8.5954698
21
5.9076126
0
LINE
8
DEFAULT_255_2_778
10
8.5954698
20
5.9076126
11
8.5954698
21
2.6596126
0
LINE
8
DEFAULT_255_2_778
10
8.5954698
20
2.6596126
11
8.0647698
21
2.6596126
0
LINE
8
DEFAULT_255_2_778
10
8.0647698
20
2.6596126
11
8.0647698
21
5.9076126
0
LINE
8
DEFAULT_255_2_778
10
9.0275698
20
5.9076126
11
9.5675698
21
5.9076126
0
LINE
8
DEFAULT_255_2_778
10
9.5675698
20
5.9076126
11
9.5675698
21
2.6596126
0
LINE
8
DEFAULT_255_2_778
10
9.5675698
20
2.6596126
11
9.0275698
21
2.6596126
0
LINE
8
DEFAULT_255_2_778
10
9.0275698
20
2.6596126
11
9.0275698
21
5.9076126
0
LINE
8
DEFAULT_255_2_778
10
9.9903698
20
5.9076126
11
10.5300698
21
5.9076126
0
LINE
8
DEFAULT_255_2_778
10
10.5300698
20
5.9076126
11
10.5300698
21
2.6596126
0
LINE
8
DEFAULT_255_2_778
10
10.5300698
20
2.6596126
11
9.9903698
21
2.6596126
0
LINE
8
DEFAULT_255_2_778
10
9.9903698
20
2.6596126
11
9.9903698
21
5.9076126
0
LINE
8
DEFAULT_255_2_778
10
10.9531698
20
5.9076126
11
11.4929698
21
5.9076126
0
LINE
8
DEFAULT_255_2_778
10
11.4929698
20
5.9076126
11
11.4929698
21
2.6596126
0
LINE
8
DEFAULT_255_2_778
10
11.4929698
20
2.6596126
11
10.9531698
21
2.6596126
0
LINE
8
DEFAULT_255_2_778
10
10.9531698
20
2.6596126
11
10.9531698
21
5.9076126
0
ENDSEC
0
EOF