0
SECTION
2
HEADER
9
$MEASUREMENT
70
1
0
ENDSEC
0
SECTION
2
TABLES
0
TABLE
2
LTYPE
0
LTYPE
72
65
70
64
2
CONTINUOUS
3
______
73
0
40
0
0
ENDTAB
0
TABLE
2
LAYER
0
LAYER
2
DEFAULT_255_2_778
70
0
62
255
6
CONTINUOUS
0
ENDTAB
0
ENDSEC
0
SECTION
2
ENTITIES
0
ARC
8
DEFAULT_255_2_778
10
74.4203364
20
98.1908285
40
0.5682179
50
47.9456294
51
90.3516577
0
ARC
8
DEFAULT_255_2_778
10
74.4796807
20
98.2557249
40
0.4802812
50
0.4188383
51
48.0164731
0
ARC
8
DEFAULT_255_2_778
10
75.4404828
20
87.5555148
40
0.4805483
50
131.9814512
51
179.5563458
0
ARC
8
DEFAULT_255_2_778
10
75.4996614
20
87.4908285
40
0.5682179
50
89.6483423
51
132.0543706
0
ARC
8
DEFAULT_255_2_778
10
98.9793684
20
87.4903902
40
0.5686558
50
47.9626512
51
90.3445431
0
ARC
8
DEFAULT_255_2_778
10
99.0387168
20
87.5556514
40
0.4804454
50
0.4274508
51
48.0078041
0
ARC
8
DEFAULT_255_2_778
10
50.8812808
20
0.2627199
40
0.4804453
50
180.427434
51
228.0078101
0
ARC
8
DEFAULT_255_2_778
10
50.9406294
20
0.3279817
40
0.5686562
50
227.9626748
51
270.3445371
0
LINE
8
DEFAULT_255_2_778
10
51.8134489
20
78.8589357
11
51.8134489
21
88.0590357
0
LINE
8
DEFAULT_255_2_778
10
73.5473489
20
88.2090357
11
73.5473489
21
98.7590357
0
LINE
8
DEFAULT_255_2_778
10
73.5473489
20
98.7590357
11
74.4168489
21
98.7590357
0
LINE
8
DEFAULT_255_2_778
10
74.9599489
20
98.2592357
11
74.9599489
21
87.5592357
0
LINE
8
DEFAULT_255_2_778
10
75.5031489
20
88.0590357
11
76.3726489
21
88.0590357
0
LINE
8
DEFAULT_255_2_778
10
76.3726489
20
88.0590357
11
76.3726489
21
88.2090357
0
LINE
8
DEFAULT_255_2_778
10
76.3726489
20
88.2090357
11
98.1065489
21
88.2090357
0
LINE
8
DEFAULT_255_2_778
10
98.1065489
20
88.2090357
11
98.1065489
21
88.0590357
0
LINE
8
DEFAULT_255_2_778
10
98.1065489
20
88.0590357
11
98.9759489
21
88.0590357
0
LINE
8
DEFAULT_255_2_778
10
99.5191489
20
87.5592357
11
99.5191489
21
78.7666357
0
LINE
8
DEFAULT_255_2_778
10
50.4008489
20
0.9010357
11
50.4008489
21
0.2591357
0
LINE
8
DEFAULT_255_2_778
10
50.9440489
20
-0.2406643
11
51.8134489
21
-0.2406643
0
LINE
8
DEFAULT_255_2_778
10
51.8134489
20
-0.2406643
11
51.8134489
21
10.3093357
0
LINE
8
DEFAULT_255_2_778
10
66.1036489
20
97.4091357
11
66.1036489
21
98.7590357
0
LINE
8
DEFAULT_255_2_778
10
66.1036489
20
98.7590357
11
73.5473489
21
98.7590357
0
ARC
8
DEFAULT_255_2_778
10
99.125504
20
20.4287464
40
0.7832271
50
269.855415
51
300.2031194
0
ARC
8
DEFAULT_255_2_778
10
99.1235261
20
20.4461101
40
0.8005885
50
266.941196
51
270.0001011
0
ARC
8
DEFAULT_255_2_778
10
99.1233283
20
20.4434227
40
0.7978944
50
259.3609264
51
266.9450847
0
ARC
8
DEFAULT_255_2_778
10
75.3724778
20
20.5360665
40
0.8865602
50
273.1429037
51
278.4999963
0
ARC
8
DEFAULT_255_2_778
10
75.3723182
20
20.5384787
40
0.8889775
50
269.9997941
51
273.1446507
0
ARC
8
DEFAULT_255_2_778
10
75.3708035
20
20.5250626
40
0.8755626
50
242.0198571
51
270.0989146
0
ARC
8
DEFAULT_255_2_778
10
74.4795886
20
87.5554603
40
0.4804445
50
0.427428
51
48.0078698
0
ARC
8
DEFAULT_255_2_778
10
74.4204072
20
87.4906372
40
0.5682179
50
47.9456294
51
90.3516577
0
ARC
8
DEFAULT_255_2_778
10
50.9407002
20
87.4901985
40
0.5686562
50
89.6554629
51
132.0373319
0
ARC
8
DEFAULT_255_2_778
10
50.8813512
20
87.5554603
40
0.4804449
50
131.992164
51
179.572575
0
LINE
8
DEFAULT_255_2_778
10
98.9760197
20
19.6592444
11
75.5035197
21
19.6592444
0
LINE
8
DEFAULT_255_2_778
10
74.9600197
20
19.7518444
11
74.9600197
21
78.7663444
0
LINE
8
DEFAULT_255_2_778
10
74.9600197
20
78.7663444
11
74.9600197
21
87.5590444
0
LINE
8
DEFAULT_255_2_778
10
74.4169197
20
88.0588444
11
73.5474197
21
88.0588444
0
LINE
8
DEFAULT_255_2_778
10
73.5474197
20
88.0588444
11
73.5474197
21
88.2088444
0
LINE
8
DEFAULT_255_2_778
10
73.5474197
20
88.2088444
11
51.8135197
21
88.2088444
0
LINE
8
DEFAULT_255_2_778
10
51.8135197
20
88.2088444
11
51.8135197
21
88.0588444
0
LINE
8
DEFAULT_255_2_778
10
51.8135197
20
88.0588444
11
50.9441197
21
88.0588444
0
ARC
8
DEFAULT_255_2_778
10
50.8813625
20
10.9627534
40
0.4804445
50
180.4273931
51
228.0078475
0
ARC
8
DEFAULT_255_2_778
10
50.9406409
20
11.0278292
40
0.5684702
50
227.9554048
51
270.3518038
0
ARC
8
DEFAULT_255_2_778
10
74.4202508
20
11.0280156
40
0.5686563
50
269.6554656
51
312.0373243
0
ARC
8
DEFAULT_255_2_778
10
74.4795995
20
10.9627541
40
0.4804454
50
311.9921675
51
359.5725311
0
ARC
8
DEFAULT_255_2_778
10
75.4408311
20
0.2629194
40
0.4808144
50
180.4468399
51
227.9884311
0
ARC
8
DEFAULT_255_2_778
10
75.4998118
20
0.3280155
40
0.5686561
50
227.9626729
51
270.3445427
0
ARC
8
DEFAULT_255_2_778
10
98.9797479
20
98.1906764
40
0.5684035
50
47.9528789
51
90.3443939
0
ARC
8
DEFAULT_255_2_778
10
99.0390008
20
98.2556859
40
0.4804439
50
0.4273792
51
48.0078873
0
ARC
8
DEFAULT_255_2_778
10
99.0393253
20
0.2624074
40
0.4801184
50
311.9749791
51
359.5897454
0
ARC
8
DEFAULT_255_2_778
10
98.979932
20
0.3270804
40
0.567922
50
269.6367424
51
312.0659257
0
ARC
8
DEFAULT_255_2_778
10
3.9400974
20
96.9449926
40
0.5641969
50
89.5192482
51
134.7948142
0
ARC
8
DEFAULT_255_2_778
10
3.87821
20
97.0065851
40
0.476885
50
134.7321891
51
179.7014924
0
ARC
8
DEFAULT_255_2_778
10
48.5029346
20
13.077032
40
0.5681738
50
269.636635
51
312.0562176
0
ARC
8
DEFAULT_255_2_778
10
48.5618951
20
13.0123459
40
0.4806504
50
312.0029521
51
359.561768
0
ARC
8
DEFAULT_255_2_778
10
48.5320791
20
96.993067
40
0.5109967
50
1.7721655
51
79.8516522
0
ARC
8
DEFAULT_255_2_778
10
48.4997733
20
96.9178336
40
0.5910362
50
78.0536396
51
90.0428432
0
ARC
8
DEFAULT_255_2_778
10
1.7629674
20
98.2552935
40
0.4806501
50
132.0029458
51
179.5617855
0
ARC
8
DEFAULT_255_2_778
10
1.8226256
20
98.1899476
40
0.5691311
50
90.0004824
51
132.0638672
0
ARC
8
DEFAULT_255_2_778
10
1.8226553
20
98.1987624
40
0.5603163
50
89.6752271
51
90.0035277
0
ARC
8
DEFAULT_255_2_778
10
49.8611509
20
98.1904241
40
0.5686558
50
47.9626503
51
90.3445458
0
ARC
8
DEFAULT_255_2_778
10
49.9201316
20
98.2555199
40
0.4808144
50
0.4468399
51
47.9884311
0
ARC
8
DEFAULT_255_2_778
10
49.8901791
20
0.2749723
40
0.5109967
50
280.1483478
51
358.2278345
0
ARC
8
DEFAULT_255_2_778
10
49.8578733
20
0.3502056
40
0.5910362
50
269.9571568
51
281.9463604
0
LINE
8
DEFAULT_255_2_778
10
98.1068314
20
78.8589696
11
98.1068314
21
88.0590696
0
LINE
8
DEFAULT_255_2_778
10
50.4009314
20
0.9013696
11
50.4009314
21
10.9591696
0
LINE
8
DEFAULT_255_2_778
10
50.9441314
20
10.4593696
11
51.8135314
21
10.4593696
0
LINE
8
DEFAULT_255_2_778
10
51.8135314
20
10.4593696
11
51.8135314
21
10.3093696
0
LINE
8
DEFAULT_255_2_778
10
51.8135314
20
10.3093696
11
73.5474314
21
10.3093696
0
LINE
8
DEFAULT_255_2_778
10
73.5474314
20
10.3093696
11
73.5474314
21
10.4593696
0
LINE
8
DEFAULT_255_2_778
10
73.5474314
20
10.4593696
11
74.4168314
21
10.4593696
0
LINE
8
DEFAULT_255_2_778
10
74.9600314
20
10.9591696
11
74.9600314
21
11.6007696
0
LINE
8
DEFAULT_255_2_778
10
74.9600314
20
11.6007696
11
74.9600314
21
19.7518696
0
LINE
8
DEFAULT_255_2_778
10
74.9600314
20
19.7518696
11
74.9600314
21
0.2591696
0
LINE
8
DEFAULT_255_2_778
10
75.5032314
20
-0.2406304
11
76.3726314
21
-0.2406304
0
LINE
8
DEFAULT_255_2_778
10
76.3726314
20
-0.2406304
11
76.3726314
21
10.3093696
0
LINE
8
DEFAULT_255_2_778
10
98.1068314
20
88.2090696
11
98.1068314
21
98.7590696
0
LINE
8
DEFAULT_255_2_778
10
98.1068314
20
98.7590696
11
98.9763314
21
98.7590696
0
LINE
8
DEFAULT_255_2_778
10
99.5194314
20
98.2592696
11
99.5194314
21
87.5592696
0
LINE
8
DEFAULT_255_2_778
10
99.5194314
20
10.9589696
11
99.5194314
21
0.2589696
0
LINE
8
DEFAULT_255_2_778
10
98.9763314
20
-0.2408304
11
98.1068314
21
-0.2408304
0
LINE
8
DEFAULT_255_2_778
10
98.1068314
20
-0.2408304
11
98.1068314
21
10.3088696
0
LINE
8
DEFAULT_255_2_778
10
90.6630314
20
97.4091696
11
90.6630314
21
98.7590696
0
LINE
8
DEFAULT_255_2_778
10
90.6630314
20
98.7590696
11
98.1068314
21
98.7590696
0
LINE
8
DEFAULT_255_2_778
10
3.4013314
20
97.0090696
11
3.4013314
21
64.9090696
0
LINE
8
DEFAULT_255_2_778
10
3.4013314
20
64.9090696
11
21.4949314
21
64.9090696
0
LINE
8
DEFAULT_255_2_778
10
21.4949314
20
64.9090696
11
21.4949314
21
43.7590696
0
LINE
8
DEFAULT_255_2_778
10
21.4949314
20
17.7589696
11
21.4949314
21
12.5088696
0
LINE
8
DEFAULT_255_2_778
10
21.4949314
20
12.5088696
11
48.4993314
21
12.5088696
0
LINE
8
DEFAULT_255_2_778
10
1.2823314
20
43.7590696
11
1.2823314
21
98.2589696
0
LINE
8
DEFAULT_255_2_778
10
1.8258314
20
98.7590696
11
49.8577314
21
98.7590696
0
LINE
8
DEFAULT_255_2_778
10
49.8574314
20
-0.2408304
11
49.0425314
21
-0.2408304
0
LINE
8
DEFAULT_255_2_778
10
49.0425314
20
-0.2408304
11
49.0425314
21
10.4591696
0
LINE
8
DEFAULT_255_2_778
10
27.2001314
20
10.4591696
11
27.2001314
21
-0.2408304
0
LINE
8
DEFAULT_255_2_778
10
27.2001314
20
-0.2408304
11
24.4833314
21
-0.2408304
0
LINE
8
DEFAULT_255_2_778
10
24.4833314
20
-0.2408304
11
24.4833314
21
10.4591696
0
ARC
8
DEFAULT_255_2_778
10
50.813038
20
20.5357579
40
0.8865602
50
273.1429037
51
278.4999963
0
ARC
8
DEFAULT_255_2_778
10
50.8128784
20
20.53817
40
0.8889775
50
269.9997941
51
273.1446507
0
ARC
8
DEFAULT_255_2_778
10
50.8113636
20
20.524754
40
0.8755626
50
242.0198571
51
270.0989146
0
ARC
8
DEFAULT_255_2_778
10
50.8113636
20
77.9931175
40
0.8755625
50
89.9010854
51
117.9801429
0
ARC
8
DEFAULT_255_2_778
10
50.8128784
20
77.9797014
40
0.8889774
50
86.8553493
51
90.0002059
0
ARC
8
DEFAULT_255_2_778
10
50.813038
20
77.9821136
40
0.8865602
50
81.5000037
51
86.8570963
0
ARC
8
DEFAULT_255_2_778
10
74.5476257
20
77.9820756
40
0.8865984
50
93.1592809
51
98.4998857
0
ARC
8
DEFAULT_255_2_778
10
74.5477808
20
77.979563
40
0.8891157
50
89.9998423
51
93.1603391
0
ARC
8
DEFAULT_255_2_778
10
74.5493462
20
77.9937209
40
0.8749593
50
62.0100006
51
90.1023496
0
ARC
8
DEFAULT_255_2_778
10
74.5661102
20
20.428196
40
0.7826854
50
269.8518129
51
300.2138317
0
ARC
8
DEFAULT_255_2_778
10
74.564085
20
20.4460344
40
0.8005214
50
266.9228806
51
270.0000597
0
ARC
8
DEFAULT_255_2_778
10
74.5638898
20
20.4434282
40
0.7979086
50
259.3610143
51
266.9268331
0
ARC
8
DEFAULT_255_2_778
10
75.5000604
20
98.1903897
40
0.5686563
50
89.6554656
51
132.0373243
0
ARC
8
DEFAULT_255_2_778
10
75.4409157
20
98.2555597
40
0.4806499
50
132.0029271
51
179.561792
0
ARC
8
DEFAULT_255_2_778
10
75.3710103
20
77.9936318
40
0.8753482
50
89.9002606
51
117.983642
0
ARC
8
DEFAULT_255_2_778
10
75.3725338
20
77.9795565
40
0.8894223
50
86.6812838
51
89.9999836
0
ARC
8
DEFAULT_255_2_778
10
75.3726769
20
77.9816177
40
0.8873565
50
81.5036985
51
86.6828011
0
ARC
8
DEFAULT_255_2_778
10
99.1073257
20
77.9823756
40
0.8865984
50
93.1592809
51
98.4998857
0
ARC
8
DEFAULT_255_2_778
10
99.1074808
20
77.979863
40
0.8891157
50
89.9998423
51
93.1603391
0
ARC
8
DEFAULT_255_2_778
10
99.1090462
20
77.9940209
40
0.8749593
50
62.0100006
51
90.1023496
0
ARC
8
DEFAULT_255_2_778
10
99.0396265
20
10.9626509
40
0.4800662
50
311.9721064
51
359.5804668
0
ARC
8
DEFAULT_255_2_778
10
98.9800105
20
11.0274015
40
0.5680767
50
269.6438945
51
312.0749348
0
ARC
8
DEFAULT_255_2_778
10
75.5003201
20
11.0275876
40
0.5682624
50
227.9323283
51
270.3488319
0
ARC
8
DEFAULT_255_2_778
10
75.4406337
20
10.9626511
40
0.4800668
50
180.419559
51
228.0278618
0
ARC
8
DEFAULT_255_2_778
10
74.4797801
20
0.2628855
40
0.4808144
50
312.0115689
51
359.5531601
0
ARC
8
DEFAULT_255_2_778
10
74.4207993
20
0.3279818
40
0.5686563
50
269.6554656
51
312.0373243
0
LINE
8
DEFAULT_255_2_778
10
50.9442798
20
98.7590357
11
49.8576798
21
98.7590357
0
LINE
8
DEFAULT_255_2_778
10
98.1282798
20
79.1412357
11
76.3728798
21
79.1412357
0
LINE
8
DEFAULT_255_2_778
10
73.5397798
20
79.1412357
11
51.8134798
21
79.1412357
0
LINE
8
DEFAULT_255_2_778
10
73.5473798
20
19.6589357
11
50.9440798
21
19.6589357
0
LINE
8
DEFAULT_255_2_778
10
50.4005798
20
19.7515357
11
50.4005798
21
78.7663357
0
LINE
8
DEFAULT_255_2_778
10
50.9440798
20
78.8589357
11
74.4165798
21
78.8589357
0
LINE
8
DEFAULT_255_2_778
10
74.9599798
20
78.7663357
11
74.9599798
21
19.7518357
0
LINE
8
DEFAULT_255_2_778
10
74.4165798
20
19.6592357
11
73.5471798
21
19.6592357
0
LINE
8
DEFAULT_255_2_778
10
73.5471798
20
19.6592357
11
73.5471798
21
10.4591357
0
LINE
8
DEFAULT_255_2_778
10
76.3728798
20
78.8589357
11
76.3728798
21
88.0590357
0
LINE
8
DEFAULT_255_2_778
10
73.5476798
20
78.8589357
11
73.5476798
21
88.0590357
0
LINE
8
DEFAULT_255_2_778
10
76.3728798
20
88.2090357
11
76.3728798
21
98.7590357
0
LINE
8
DEFAULT_255_2_778
10
76.3728798
20
98.7590357
11
75.5034798
21
98.7590357
0
LINE
8
DEFAULT_255_2_778
10
74.9602798
20
98.2592357
11
74.9602798
21
97.6171357
0
LINE
8
DEFAULT_255_2_778
10
74.9602798
20
97.6171357
11
74.9602798
21
78.7666357
0
LINE
8
DEFAULT_255_2_778
10
75.5037798
20
78.8592357
11
98.9762798
21
78.8592357
0
LINE
8
DEFAULT_255_2_778
10
99.5196798
20
78.7666357
11
99.5196798
21
11.6008357
0
LINE
8
DEFAULT_255_2_778
10
99.5196798
20
11.6008357
11
99.5196798
21
10.9591357
0
LINE
8
DEFAULT_255_2_778
10
98.9764798
20
10.4593357
11
98.1070798
21
10.4593357
0
LINE
8
DEFAULT_255_2_778
10
98.1070798
20
10.4593357
11
98.1070798
21
10.3093357
0
LINE
8
DEFAULT_255_2_778
10
98.1070798
20
10.3093357
11
76.3731798
21
10.3093357
0
LINE
8
DEFAULT_255_2_778
10
76.3731798
20
10.3093357
11
76.3731798
21
10.4593357
0
LINE
8
DEFAULT_255_2_778
10
76.3731798
20
10.4593357
11
75.5037798
21
10.4593357
0
LINE
8
DEFAULT_255_2_778
10
74.9605798
20
10.9591357
11
74.9605798
21
0.9013357
0
LINE
8
DEFAULT_255_2_778
10
74.9605798
20
0.9013357
11
74.9605798
21
0.2591357
0
LINE
8
DEFAULT_255_2_778
10
74.4173798
20
-0.2406643
11
73.5479798
21
-0.2406643
0
LINE
8
DEFAULT_255_2_778
10
73.5479798
20
-0.2406643
11
73.5479798
21
10.3093357
0
LINE
8
DEFAULT_255_2_778
10
2.6406798
20
43.7590357
11
2.6406798
21
97.5091357
0
LINE
8
DEFAULT_255_2_778
10
2.6406798
20
97.5091357
11
49.0424798
21
97.5091357
0
LINE
8
DEFAULT_255_2_778
10
49.0424798
20
97.5091357
11
49.0424798
21
11.7092357
0
LINE
8
DEFAULT_255_2_778
10
49.0424798
20
11.7092357
11
2.6406798
21
11.7092357
0
LINE
8
DEFAULT_255_2_778
10
2.6406798
20
11.7092357
11
2.6406798
21
17.7592357
0
ARC
8
DEFAULT_255_2_778
10
50.9408217
20
98.1908577
40
0.5682179
50
89.6483423
51
132.0543706
0
ARC
8
DEFAULT_255_2_778
10
50.8814798
20
98.2556173
40
0.4803845
50
131.9728358
51
179.5649459
0
ARC
8
DEFAULT_255_2_778
10
49.8900798
20
10.9750426
40
0.511276
50
279.8324889
51
358.220392
0
ARC
8
DEFAULT_255_2_778
10
49.8584237
20
11.0494721
40
0.5903073
50
269.9597637
51
281.626555
0
ARC
8
DEFAULT_255_2_778
10
1.8207277
20
11.022864
40
0.5637194
50
225.1872903
51
270.4859828
0
ARC
8
DEFAULT_255_2_778
10
1.7592148
20
10.9616107
40
0.4769119
50
180.2938357
51
225.2434318
0
LINE
8
DEFAULT_255_2_778
10
51.8137091
20
88.2090649
11
51.8137091
21
98.7590649
0
LINE
8
DEFAULT_255_2_778
10
51.8137091
20
98.7590649
11
50.9443091
21
98.7590649
0
LINE
8
DEFAULT_255_2_778
10
50.4011091
20
98.2592649
11
50.4011091
21
10.9591649
0
LINE
8
DEFAULT_255_2_778
10
49.8580091
20
10.4591649
11
1.8255091
21
10.4591649
0
LINE
8
DEFAULT_255_2_778
10
1.2823091
20
10.9591649
11
1.2823091
21
17.7592649
0
LINE
8
DEFAULT_255_2_778
10
76.3729091
20
98.7590649
11
83.8167091
21
98.7590649
0
LINE
8
DEFAULT_255_2_778
10
83.8167091
20
98.7590649
11
83.8167091
21
97.4091649
0
LINE
8
DEFAULT_255_2_778
10
74.4168091
20
-0.2408351
11
75.5035091
21
-0.2408351
0
LINE
8
DEFAULT_255_2_778
10
75.5035091
20
98.7590649
11
74.4168091
21
98.7590649
0
LINE
8
DEFAULT_255_2_778
10
49.8574091
20
-0.2408351
11
50.9441091
21
-0.2408351
0
LINE
8
DEFAULT_255_2_778
10
51.8137091
20
98.7590649
11
59.2575091
21
98.7590649
0
LINE
8
DEFAULT_255_2_778
10
59.2575091
20
98.7590649
11
59.2575091
21
97.4091649
0
ARC
8
DEFAULT_255_2_778
10
18.7415037
20
62.1730534
40
1.1358359
50
47.9113664
51
90.3567695
0
ARC
8
DEFAULT_255_2_778
10
18.8594935
20
62.3011798
40
0.9616675
50
0.4520612
51
48.0115035
0
ARC
8
DEFAULT_255_2_778
10
18.8587869
20
52.9164715
40
0.9623759
50
312.0071428
51
359.5353586
0
ARC
8
DEFAULT_255_2_778
10
18.7415036
20
53.0442815
40
1.1358363
50
269.6432377
51
312.0886237
0
ARC
8
DEFAULT_255_2_778
10
9.5993327
20
53.0442156
40
1.13577
50
227.9101241
51
270.3530522
0
ARC
8
DEFAULT_255_2_778
10
9.4812155
20
52.9160847
40
0.9615129
50
180.4420043
51
228.0155073
0
ARC
8
DEFAULT_255_2_778
10
9.4814913
20
62.3011245
40
0.9617905
50
131.9917167
51
179.544703
0
ARC
8
DEFAULT_255_2_778
10
9.5993327
20
62.1731188
40
1.13577
50
89.6469478
51
132.0898759
0
LINE
8
DEFAULT_255_2_778
10
20.1365312
20
51.0589672
11
20.1365312
21
64.1589672
0
LINE
8
DEFAULT_255_2_778
10
7.6394312
20
51.0589672
11
20.6797312
21
51.0589672
0
LINE
8
DEFAULT_255_2_778
10
20.6797312
20
51.0589672
11
20.6797312
21
64.1589672
0
LINE
8
DEFAULT_255_2_778
10
20.6797312
20
64.1589672
11
7.6394312
21
64.1589672
0
LINE
8
DEFAULT_255_2_778
10
7.6394312
20
64.1589672
11
7.6394312
21
51.0589672
0
LINE
8
DEFAULT_255_2_778
10
19.8211312
20
62.3087672
11
19.8211312
21
52.9086672
0
LINE
8
DEFAULT_255_2_778
10
18.7344312
20
51.9084672
11
9.6063312
21
51.9084672
0
LINE
8
DEFAULT_255_2_778
10
8.5197312
20
52.9086672
11
8.5197312
21
62.3087672
0
LINE
8
DEFAULT_255_2_778
10
9.6063312
20
63.3088672
11
18.7344312
21
63.3088672
0
LINE
8
DEFAULT_255_2_778
10
20.1362312
20
63.6538672
11
8.2046312
21
63.6538672
0
LINE
8
DEFAULT_255_2_778
10
8.2046312
20
63.6538672
11
8.2046312
21
51.5640672
0
LINE
8
DEFAULT_255_2_778
10
8.2046312
20
51.5640672
11
20.1365312
21
51.5640672
0
LINE
8
DEFAULT_255_2_778
10
13.5618312
20
51.5640672
11
13.5618312
21
51.0589672
0
LINE
8
DEFAULT_255_2_778
10
13.5618312
20
64.1589672
11
13.5618312
21
63.6538672
0
LINE
8
DEFAULT_255_2_778
10
62.6807312
20
97.4649672
11
62.6807312
21
98.0147672
0
LINE
8
DEFAULT_255_2_778
10
62.6807312
20
97.4358672
11
62.6807312
21
97.4088672
0
LINE
8
DEFAULT_255_2_778
10
62.6807312
20
97.4088672
11
62.6807312
21
97.4628672
0
LINE
8
DEFAULT_255_2_778
10
65.9406312
20
97.7605672
11
66.1036312
21
97.7605672
0
LINE
8
DEFAULT_255_2_778
10
59.2575312
20
97.7605672
11
59.4205312
21
97.7605672
0
LINE
8
DEFAULT_255_2_778
10
59.4205312
20
97.4358672
11
59.4205312
21
98.7090672
0
LINE
8
DEFAULT_255_2_778
10
59.4205312
20
98.7090672
11
62.6807312
21
98.7090672
0
LINE
8
DEFAULT_255_2_778
10
62.6807312
20
98.7090672
11
62.6807312
21
98.0589672
0
LINE
8
DEFAULT_255_2_778
10
62.6807312
20
98.0589672
11
59.4205312
21
98.0589672
0
LINE
8
DEFAULT_255_2_778
10
65.9406312
20
98.0589672
11
65.9406312
21
98.7090672
0
LINE
8
DEFAULT_255_2_778
10
65.9406312
20
98.7090672
11
62.6804312
21
98.7090672
0
LINE
8
DEFAULT_255_2_778
10
62.6804312
20
98.7090672
11
62.6804312
21
98.0589672
0
LINE
8
DEFAULT_255_2_778
10
62.6804312
20
98.0589672
11
65.9406312
21
98.0589672
0
LINE
8
DEFAULT_255_2_778
10
65.9406312
20
98.0589672
11
65.9406312
21
97.4088672
0
LINE
8
DEFAULT_255_2_778
10
87.2398312
20
97.4361672
11
87.2398312
21
97.4091672
0
LINE
8
DEFAULT_255_2_778
10
87.2398312
20
97.4091672
11
87.2398312
21
97.4631672
0
LINE
8
DEFAULT_255_2_778
10
87.2398312
20
97.4652672
11
87.2398312
21
98.0147672
0
LINE
8
DEFAULT_255_2_778
10
83.8166312
20
97.7605672
11
83.9796312
21
97.7605672
0
LINE
8
DEFAULT_255_2_778
10
90.4997312
20
97.7605672
11
90.6627312
21
97.7605672
0
LINE
8
DEFAULT_255_2_778
10
83.9796312
20
98.0587672
11
83.9796312
21
98.7090672
0
LINE
8
DEFAULT_255_2_778
10
83.9796312
20
98.7090672
11
87.2398312
21
98.7090672
0
LINE
8
DEFAULT_255_2_778
10
87.2398312
20
98.7090672
11
87.2398312
21
98.0589672
0
LINE
8
DEFAULT_255_2_778
10
87.2398312
20
98.0589672
11
83.9796312
21
98.0589672
0
LINE
8
DEFAULT_255_2_778
10
83.9796312
20
98.0589672
11
83.9796312
21
97.4088672
0
LINE
8
DEFAULT_255_2_778
10
90.4997312
20
97.4358672
11
90.4997312
21
98.0589672
0
LINE
8
DEFAULT_255_2_778
10
90.4997312
20
98.7090672
11
90.4997312
21
98.0589672
0
LINE
8
DEFAULT_255_2_778
10
90.4997312
20
98.0589672
11
87.2396312
21
98.0589672
0
LINE
8
DEFAULT_255_2_778
10
87.2396312
20
98.0589672
11
87.2396312
21
98.7090672
0
LINE
8
DEFAULT_255_2_778
10
87.2396312
20
98.7090672
11
90.4997312
21
98.7090672
0
ARC
8
DEFAULT_255_2_778
10
73.1212715
20
76.8553237
40
0.4806507
50
0.4382351
51
47.9970215
0
ARC
8
DEFAULT_255_2_778
10
73.0621276
20
76.7901542
40
0.568656
50
47.9626652
51
90.3445455
0
LINE
8
DEFAULT_255_2_778
10
51.7592627
20
77.3590374
11
51.7592627
21
21.1591374
0
LINE
8
DEFAULT_255_2_778
10
51.7592627
20
21.1591374
11
73.6019627
21
21.1591374
0
LINE
8
DEFAULT_255_2_778
10
73.6019627
20
21.1591374
11
73.6019627
21
77.3590374
0
LINE
8
DEFAULT_255_2_778
10
73.6019627
20
77.3590374
11
51.7592627
21
77.3590374
0
ARC
8
DEFAULT_255_2_778
10
53.0597642
20
76.7908938
40
0.5681736
50
89.6366099
51
132.0562114
0
ARC
8
DEFAULT_255_2_778
10
53.0004368
20
76.8557447
40
0.480282
50
131.9835809
51
179.5811277
0
ARC
8
DEFAULT_255_2_778
10
53.0004363
20
22.4628668
40
0.4802814
50
180.4188376
51
228.0164384
0
ARC
8
DEFAULT_255_2_778
10
53.0597645
20
22.5277186
40
0.5681743
50
227.943806
51
270.363359
0
ARC
8
DEFAULT_255_2_778
10
73.0621388
20
22.5272805
40
0.5677364
50
269.6295178
51
312.073242
0
ARC
8
DEFAULT_255_2_778
10
73.1212982
20
22.463003
40
0.4803834
50
311.9727762
51
359.5650033
0
LINE
8
DEFAULT_255_2_778
10
52.5201677
20
76.8592559
11
52.5201677
21
22.4593559
0
LINE
8
DEFAULT_255_2_778
10
53.0633677
20
21.9595559
11
73.0584677
21
21.9595559
0
ARC
8
DEFAULT_255_2_778
10
69.9001825
20
57.0899646
40
1.1886734
50
114.5081163
51
179.0736394
0
ARC
8
DEFAULT_255_2_778
10
70.0108042
20
56.91511
40
1.393946
50
90.2158082
51
115.6640751
0
ARC
8
DEFAULT_255_2_778
10
70.0158315
20
56.8500779
40
1.4590043
50
89.9987029
51
90.4036123
0
ARC
8
DEFAULT_255_2_778
10
70.0203869
20
56.9132513
40
1.3958383
50
64.9881378
51
90.1856349
0
ARC
8
DEFAULT_255_2_778
10
70.1287263
20
57.0882853
40
1.1916577
50
1.6624309
51
66.1505171
0
ARC
8
DEFAULT_255_2_778
10
70.1813217
20
57.1091747
40
1.1386429
50
0.000383
51
0.6884639
0
ARC
8
DEFAULT_255_2_778
10
70.1311972
20
57.1286068
40
1.188926
50
294.5175503
51
359.0638671
0
ARC
8
DEFAULT_255_2_778
10
70.020879
20
57.3026332
40
1.3933246
50
270.2177329
51
295.6754177
0
ARC
8
DEFAULT_255_2_778
10
70.0158975
20
57.3678591
40
1.4585766
50
269.9987027
51
270.403675
0
ARC
8
DEFAULT_255_2_778
10
70.0113407
20
57.3052216
40
1.3959467
50
244.98732
51
270.1856773
0
ARC
8
DEFAULT_255_2_778
10
69.9029563
20
57.1301503
40
1.1917132
50
181.6656695
51
246.1507092
0
ARC
8
DEFAULT_255_2_778
10
69.8499714
20
57.1091899
40
1.138307
50
180.0003832
51
180.6885649
0
LINE
8
DEFAULT_255_2_778
10
68.7116645
20
57.1091823
11
68.7116645
21
57.1091823
0
ARC
8
DEFAULT_255_2_778
10
69.9001825
20
52.2898646
40
1.1886734
50
114.5081163
51
179.0736394
0
ARC
8
DEFAULT_255_2_778
10
70.0108042
20
52.11501
40
1.393946
50
90.2158082
51
115.6640751
0
ARC
8
DEFAULT_255_2_778
10
70.0158315
20
52.0499779
40
1.4590043
50
89.9987029
51
90.4036123
0
ARC
8
DEFAULT_255_2_778
10
70.0203869
20
52.1131513
40
1.3958383
50
64.9881378
51
90.1856349
0
ARC
8
DEFAULT_255_2_778
10
70.1287263
20
52.2881853
40
1.1916577
50
1.6624309
51
66.1505171
0
ARC
8
DEFAULT_255_2_778
10
70.1813217
20
52.3090747
40
1.1386429
50
0.000383
51
0.6884639
0
ARC
8
DEFAULT_255_2_778
10
70.1311972
20
52.3285068
40
1.188926
50
294.5175503
51
359.0638671
0
ARC
8
DEFAULT_255_2_778
10
70.020879
20
52.5025332
40
1.3933246
50
270.2177329
51
295.6754177
0
ARC
8
DEFAULT_255_2_778
10
70.0158975
20
52.5677591
40
1.4585766
50
269.9987027
51
270.403675
0
ARC
8
DEFAULT_255_2_778
10
70.0113407
20
52.5051216
40
1.3959467
50
244.98732
51
270.1856773
0
ARC
8
DEFAULT_255_2_778
10
69.9029563
20
52.3300503
40
1.1917132
50
181.6656695
51
246.1507092
0
ARC
8
DEFAULT_255_2_778
10
69.8499714
20
52.3090899
40
1.138307
50
180.0003832
51
180.6885649
0
LINE
8
DEFAULT_255_2_778
10
68.7116645
20
52.3090823
11
68.7116645
21
52.3090823
0
ARC
8
DEFAULT_255_2_778
10
60.1198162
20
57.0899634
40
1.188699
50
114.5106911
51
179.0736021
0
ARC
8
DEFAULT_255_2_778
10
60.2303244
20
56.9153485
40
1.3937075
50
90.2162874
51
115.6663126
0
ARC
8
DEFAULT_255_2_778
10
60.2353396
20
56.8505056
40
1.4585766
50
89.9987027
51
90.403675
0
ARC
8
DEFAULT_255_2_778
10
60.239906
20
56.913007
40
1.3960827
50
64.9903605
51
90.1860545
0
ARC
8
DEFAULT_255_2_778
10
60.3483589
20
57.0882858
40
1.1916332
50
1.6624398
51
66.1531129
0
ARC
8
DEFAULT_255_2_778
10
60.4009298
20
57.1091747
40
1.1386429
50
0.000383
51
0.6884639
0
ARC
8
DEFAULT_255_2_778
10
60.3508309
20
57.1286056
40
1.1889004
50
294.5149755
51
359.0639043
0
ARC
8
DEFAULT_255_2_778
10
60.2403992
20
57.3028716
40
1.3935629
50
270.2172533
51
295.6731796
0
ARC
8
DEFAULT_255_2_778
10
60.2354056
20
57.3682868
40
1.4590043
50
269.9987029
51
270.4036123
0
ARC
8
DEFAULT_255_2_778
10
60.2308598
20
57.3049774
40
1.3957023
50
244.985097
51
270.1852576
0
ARC
8
DEFAULT_255_2_778
10
60.1225889
20
57.1301508
40
1.1917376
50
181.6656606
51
246.1481135
0
ARC
8
DEFAULT_255_2_778
10
60.0695795
20
57.1091899
40
1.138307
50
180.0003832
51
180.6885649
0
LINE
8
DEFAULT_255_2_778
10
58.9312726
20
57.1091823
11
58.9312726
21
57.1091823
0
ARC
8
DEFAULT_255_2_778
10
60.1198162
20
52.2898634
40
1.188699
50
114.5106911
51
179.0736021
0
ARC
8
DEFAULT_255_2_778
10
60.2303244
20
52.1152485
40
1.3937075
50
90.2162874
51
115.6663126
0
ARC
8
DEFAULT_255_2_778
10
60.2353396
20
52.0504056
40
1.4585766
50
89.9987027
51
90.403675
0
ARC
8
DEFAULT_255_2_778
10
60.239906
20
52.112907
40
1.3960827
50
64.9903605
51
90.1860545
0
ARC
8
DEFAULT_255_2_778
10
60.3483589
20
52.2881858
40
1.1916332
50
1.6624398
51
66.1531129
0
ARC
8
DEFAULT_255_2_778
10
60.4009298
20
52.3090747
40
1.1386429
50
0.000383
51
0.6884639
0
ARC
8
DEFAULT_255_2_778
10
60.3508309
20
52.3285056
40
1.1889004
50
294.5149755
51
359.0639043
0
ARC
8
DEFAULT_255_2_778
10
60.2403992
20
52.5027716
40
1.3935629
50
270.2172533
51
295.6731796
0
ARC
8
DEFAULT_255_2_778
10
60.2354056
20
52.5681868
40
1.4590043
50
269.9987029
51
270.4036123
0
ARC
8
DEFAULT_255_2_778
10
60.2308598
20
52.5048774
40
1.3957023
50
244.985097
51
270.1852576
0
ARC
8
DEFAULT_255_2_778
10
60.1225889
20
52.3300508
40
1.1917376
50
181.6656606
51
246.1481135
0
ARC
8
DEFAULT_255_2_778
10
60.0695795
20
52.3090899
40
1.138307
50
180.0003832
51
180.6885649
0
LINE
8
DEFAULT_255_2_778
10
58.9312726
20
52.3090823
11
58.9312726
21
52.3090823
0
ARC
8
DEFAULT_255_2_778
10
65.0101082
20
52.2898634
40
1.188699
50
114.5106911
51
179.0736021
0
ARC
8
DEFAULT_255_2_778
10
65.1206164
20
52.1152485
40
1.3937075
50
90.2162874
51
115.6663126
0
ARC
8
DEFAULT_255_2_778
10
65.1256315
20
52.0504056
40
1.4585766
50
89.9987027
51
90.403675
0
ARC
8
DEFAULT_255_2_778
10
65.130198
20
52.112907
40
1.3960827
50
64.9903605
51
90.1860545
0
ARC
8
DEFAULT_255_2_778
10
65.2386508
20
52.2881858
40
1.1916332
50
1.6624398
51
66.1531129
0
ARC
8
DEFAULT_255_2_778
10
65.2912217
20
52.3090747
40
1.1386429
50
0.000383
51
0.6884639
0
ARC
8
DEFAULT_255_2_778
10
65.2411228
20
52.3285056
40
1.1889004
50
294.5149755
51
359.0639043
0
ARC
8
DEFAULT_255_2_778
10
65.1306911
20
52.5027716
40
1.3935629
50
270.2172533
51
295.6731796
0
ARC
8
DEFAULT_255_2_778
10
65.1256976
20
52.5681868
40
1.4590043
50
269.9987029
51
270.4036123
0
ARC
8
DEFAULT_255_2_778
10
65.1211517
20
52.5048774
40
1.3957023
50
244.985097
51
270.1852576
0
ARC
8
DEFAULT_255_2_778
10
65.0128808
20
52.3300508
40
1.1917376
50
181.6656606
51
246.1481135
0
ARC
8
DEFAULT_255_2_778
10
64.9598714
20
52.3090899
40
1.138307
50
180.0003832
51
180.6885649
0
LINE
8
DEFAULT_255_2_778
10
63.8215645
20
52.3090823
11
63.8215645
21
52.3090823
0
ARC
8
DEFAULT_255_2_778
10
65.0101082
20
57.0899634
40
1.188699
50
114.5106911
51
179.0736021
0
ARC
8
DEFAULT_255_2_778
10
65.1206164
20
56.9153485
40
1.3937075
50
90.2162874
51
115.6663126
0
ARC
8
DEFAULT_255_2_778
10
65.1256315
20
56.8505056
40
1.4585766
50
89.9987027
51
90.403675
0
ARC
8
DEFAULT_255_2_778
10
65.130198
20
56.913007
40
1.3960827
50
64.9903605
51
90.1860545
0
ARC
8
DEFAULT_255_2_778
10
65.2386508
20
57.0882858
40
1.1916332
50
1.6624398
51
66.1531129
0
ARC
8
DEFAULT_255_2_778
10
65.2912217
20
57.1091747
40
1.1386429
50
0.000383
51
0.6884639
0
ARC
8
DEFAULT_255_2_778
10
65.2411228
20
57.1286056
40
1.1889004
50
294.5149755
51
359.0639043
0
ARC
8
DEFAULT_255_2_778
10
65.1306911
20
57.3028716
40
1.3935629
50
270.2172533
51
295.6731796
0
ARC
8
DEFAULT_255_2_778
10
65.1256976
20
57.3682868
40
1.4590043
50
269.9987029
51
270.4036123
0
ARC
8
DEFAULT_255_2_778
10
65.1211517
20
57.3049774
40
1.3957023
50
244.985097
51
270.1852576
0
ARC
8
DEFAULT_255_2_778
10
65.0128808
20
57.1301508
40
1.1917376
50
181.6656606
51
246.1481135
0
ARC
8
DEFAULT_255_2_778
10
64.9598714
20
57.1091899
40
1.138307
50
180.0003832
51
180.6885649
0
LINE
8
DEFAULT_255_2_778
10
63.8215645
20
57.1091823
11
63.8215645
21
57.1091823
0
ARC
8
DEFAULT_255_2_778
10
55.2298162
20
52.2898634
40
1.188699
50
114.5106911
51
179.0736021
0
ARC
8
DEFAULT_255_2_778
10
55.3403244
20
52.1152485
40
1.3937075
50
90.2162874
51
115.6663126
0
ARC
8
DEFAULT_255_2_778
10
55.3453396
20
52.0504056
40
1.4585766
50
89.9987027
51
90.403675
0
ARC
8
DEFAULT_255_2_778
10
55.349906
20
52.112907
40
1.3960827
50
64.9903605
51
90.1860545
0
ARC
8
DEFAULT_255_2_778
10
55.4583589
20
52.2881858
40
1.1916332
50
1.6624398
51
66.1531129
0
ARC
8
DEFAULT_255_2_778
10
55.5109298
20
52.3090747
40
1.1386429
50
0.000383
51
0.6884639
0
ARC
8
DEFAULT_255_2_778
10
55.4608309
20
52.3285056
40
1.1889004
50
294.5149755
51
359.0639043
0
ARC
8
DEFAULT_255_2_778
10
55.3503992
20
52.5027716
40
1.3935629
50
270.2172533
51
295.6731796
0
ARC
8
DEFAULT_255_2_778
10
55.3454056
20
52.5681868
40
1.4590043
50
269.9987029
51
270.4036123
0
ARC
8
DEFAULT_255_2_778
10
55.3408598
20
52.5048774
40
1.3957023
50
244.985097
51
270.1852576
0
ARC
8
DEFAULT_255_2_778
10
55.2325889
20
52.3300508
40
1.1917376
50
181.6656606
51
246.1481135
0
ARC
8
DEFAULT_255_2_778
10
55.1795795
20
52.3090899
40
1.138307
50
180.0003832
51
180.6885649
0
LINE
8
DEFAULT_255_2_778
10
54.0412726
20
52.3090823
11
54.0412726
21
52.3090823
0
ARC
8
DEFAULT_255_2_778
10
55.2298162
20
57.0899634
40
1.188699
50
114.5106911
51
179.0736021
0
ARC
8
DEFAULT_255_2_778
10
55.3403244
20
56.9153485
40
1.3937075
50
90.2162874
51
115.6663126
0
ARC
8
DEFAULT_255_2_778
10
55.3453396
20
56.8505056
40
1.4585766
50
89.9987027
51
90.403675
0
ARC
8
DEFAULT_255_2_778
10
55.349906
20
56.913007
40
1.3960827
50
64.9903605
51
90.1860545
0
ARC
8
DEFAULT_255_2_778
10
55.4583589
20
57.0882858
40
1.1916332
50
1.6624398
51
66.1531129
0
ARC
8
DEFAULT_255_2_778
10
55.5109298
20
57.1091747
40
1.1386429
50
0.000383
51
0.6884639
0
ARC
8
DEFAULT_255_2_778
10
55.4608309
20
57.1286056
40
1.1889004
50
294.5149755
51
359.0639043
0
ARC
8
DEFAULT_255_2_778
10
55.3503992
20
57.3028716
40
1.3935629
50
270.2172533
51
295.6731796
0
ARC
8
DEFAULT_255_2_778
10
55.3454056
20
57.3682868
40
1.4590043
50
269.9987029
51
270.4036123
0
ARC
8
DEFAULT_255_2_778
10
55.3408598
20
57.3049774
40
1.3957023
50
244.985097
51
270.1852576
0
ARC
8
DEFAULT_255_2_778
10
55.2325889
20
57.1301508
40
1.1917376
50
181.6656606
51
246.1481135
0
ARC
8
DEFAULT_255_2_778
10
55.1795795
20
57.1091899
40
1.138307
50
180.0003832
51
180.6885649
0
LINE
8
DEFAULT_255_2_778
10
54.0412726
20
57.1091823
11
54.0412726
21
57.1091823
0
ARC
8
DEFAULT_255_2_778
10
97.6806715
20
76.8553237
40
0.4806507
50
0.4382351
51
47.9970215
0
ARC
8
DEFAULT_255_2_778
10
97.6215276
20
76.7901542
40
0.568656
50
47.9626652
51
90.3445455
0
LINE
8
DEFAULT_255_2_778
10
76.3186627
20
77.3590374
11
76.3186627
21
21.1591374
0
LINE
8
DEFAULT_255_2_778
10
76.3186627
20
21.1591374
11
98.1613627
21
21.1591374
0
LINE
8
DEFAULT_255_2_778
10
98.1613627
20
21.1591374
11
98.1613627
21
77.3590374
0
LINE
8
DEFAULT_255_2_778
10
98.1613627
20
77.3590374
11
76.3186627
21
77.3590374
0
ARC
8
DEFAULT_255_2_778
10
77.6191642
20
76.7908938
40
0.5681736
50
89.6366099
51
132.0562114
0
ARC
8
DEFAULT_255_2_778
10
77.5598368
20
76.8557447
40
0.480282
50
131.9835809
51
179.5811277
0
ARC
8
DEFAULT_255_2_778
10
77.5598363
20
22.4628668
40
0.4802814
50
180.4188376
51
228.0164384
0
ARC
8
DEFAULT_255_2_778
10
77.6191645
20
22.5277186
40
0.5681743
50
227.943806
51
270.363359
0
ARC
8
DEFAULT_255_2_778
10
97.6215388
20
22.5272805
40
0.5677364
50
269.6295178
51
312.073242
0
ARC
8
DEFAULT_255_2_778
10
97.6806982
20
22.463003
40
0.4803834
50
311.9727762
51
359.5650033
0
LINE
8
DEFAULT_255_2_778
10
77.0795677
20
76.8592559
11
77.0795677
21
22.4593559
0
LINE
8
DEFAULT_255_2_778
10
77.6227677
20
21.9595559
11
97.6178677
21
21.9595559
0
ARC
8
DEFAULT_255_2_778
10
79.7892162
20
41.3897634
40
1.188699
50
114.5106911
51
179.0736021
0
ARC
8
DEFAULT_255_2_778
10
79.8997244
20
41.2151485
40
1.3937075
50
90.2162874
51
115.6663126
0
ARC
8
DEFAULT_255_2_778
10
79.9047396
20
41.1503056
40
1.4585766
50
89.9987027
51
90.403675
0
ARC
8
DEFAULT_255_2_778
10
79.909306
20
41.212807
40
1.3960827
50
64.9903605
51
90.1860545
0
ARC
8
DEFAULT_255_2_778
10
80.0177589
20
41.3880858
40
1.1916332
50
1.6624398
51
66.1531129
0
ARC
8
DEFAULT_255_2_778
10
80.0703298
20
41.4089747
40
1.1386429
50
0.000383
51
0.6884639
0
ARC
8
DEFAULT_255_2_778
10
80.0202309
20
41.4284056
40
1.1889004
50
294.5149755
51
359.0639043
0
ARC
8
DEFAULT_255_2_778
10
79.9097992
20
41.6026716
40
1.3935629
50
270.2172533
51
295.6731796
0
ARC
8
DEFAULT_255_2_778
10
79.9048056
20
41.6680868
40
1.4590043
50
269.9987029
51
270.4036123
0
ARC
8
DEFAULT_255_2_778
10
79.9002598
20
41.6047774
40
1.3957023
50
244.985097
51
270.1852576
0
ARC
8
DEFAULT_255_2_778
10
79.7919889
20
41.4299508
40
1.1917376
50
181.6656606
51
246.1481135
0
ARC
8
DEFAULT_255_2_778
10
79.7389795
20
41.4089899
40
1.138307
50
180.0003832
51
180.6885649
0
LINE
8
DEFAULT_255_2_778
10
78.6006726
20
41.4089823
11
78.6006726
21
41.4089823
0
ARC
8
DEFAULT_255_2_778
10
79.7892162
20
46.1898634
40
1.188699
50
114.5106911
51
179.0736021
0
ARC
8
DEFAULT_255_2_778
10
79.8997244
20
46.0152485
40
1.3937075
50
90.2162874
51
115.6663126
0
ARC
8
DEFAULT_255_2_778
10
79.9047396
20
45.9504056
40
1.4585766
50
89.9987027
51
90.403675
0
ARC
8
DEFAULT_255_2_778
10
79.909306
20
46.012907
40
1.3960827
50
64.9903605
51
90.1860545
0
ARC
8
DEFAULT_255_2_778
10
80.0177589
20
46.1881858
40
1.1916332
50
1.6624398
51
66.1531129
0
ARC
8
DEFAULT_255_2_778
10
80.0703298
20
46.2090747
40
1.1386429
50
0.000383
51
0.6884639
0
ARC
8
DEFAULT_255_2_778
10
80.0202309
20
46.2285056
40
1.1889004
50
294.5149755
51
359.0639043
0
ARC
8
DEFAULT_255_2_778
10
79.9097992
20
46.4027716
40
1.3935629
50
270.2172533
51
295.6731796
0
ARC
8
DEFAULT_255_2_778
10
79.9048056
20
46.4681868
40
1.4590043
50
269.9987029
51
270.4036123
0
ARC
8
DEFAULT_255_2_778
10
79.9002598
20
46.4048774
40
1.3957023
50
244.985097
51
270.1852576
0
ARC
8
DEFAULT_255_2_778
10
79.7919889
20
46.2300508
40
1.1917376
50
181.6656606
51
246.1481135
0
ARC
8
DEFAULT_255_2_778
10
79.7389795
20
46.2090899
40
1.138307
50
180.0003832
51
180.6885649
0
LINE
8
DEFAULT_255_2_778
10
78.6006726
20
46.2090823
11
78.6006726
21
46.2090823
0
ARC
8
DEFAULT_255_2_778
10
79.7892162
20
52.2898634
40
1.188699
50
114.5106911
51
179.0736021
0
ARC
8
DEFAULT_255_2_778
10
79.8997244
20
52.1152485
40
1.3937075
50
90.2162874
51
115.6663126
0
ARC
8
DEFAULT_255_2_778
10
79.9047396
20
52.0504056
40
1.4585766
50
89.9987027
51
90.403675
0
ARC
8
DEFAULT_255_2_778
10
79.909306
20
52.112907
40
1.3960827
50
64.9903605
51
90.1860545
0
ARC
8
DEFAULT_255_2_778
10
80.0177589
20
52.2881858
40
1.1916332
50
1.6624398
51
66.1531129
0
ARC
8
DEFAULT_255_2_778
10
80.0703298
20
52.3090747
40
1.1386429
50
0.000383
51
0.6884639
0
ARC
8
DEFAULT_255_2_778
10
80.0202309
20
52.3285056
40
1.1889004
50
294.5149755
51
359.0639043
0
ARC
8
DEFAULT_255_2_778
10
79.9097992
20
52.5027716
40
1.3935629
50
270.2172533
51
295.6731796
0
ARC
8
DEFAULT_255_2_778
10
79.9048056
20
52.5681868
40
1.4590043
50
269.9987029
51
270.4036123
0
ARC
8
DEFAULT_255_2_778
10
79.9002598
20
52.5048774
40
1.3957023
50
244.985097
51
270.1852576
0
ARC
8
DEFAULT_255_2_778
10
79.7919889
20
52.3300508
40
1.1917376
50
181.6656606
51
246.1481135
0
ARC
8
DEFAULT_255_2_778
10
79.7389795
20
52.3090899
40
1.138307
50
180.0003832
51
180.6885649
0
LINE
8
DEFAULT_255_2_778
10
78.6006726
20
52.3090823
11
78.6006726
21
52.3090823
0
ARC
8
DEFAULT_255_2_778
10
79.7892162
20
57.0899634
40
1.188699
50
114.5106911
51
179.0736021
0
ARC
8
DEFAULT_255_2_778
10
79.8997244
20
56.9153485
40
1.3937075
50
90.2162874
51
115.6663126
0
ARC
8
DEFAULT_255_2_778
10
79.9047396
20
56.8505056
40
1.4585766
50
89.9987027
51
90.403675
0
ARC
8
DEFAULT_255_2_778
10
79.909306
20
56.913007
40
1.3960827
50
64.9903605
51
90.1860545
0
ARC
8
DEFAULT_255_2_778
10
80.0177589
20
57.0882858
40
1.1916332
50
1.6624398
51
66.1531129
0
ARC
8
DEFAULT_255_2_778
10
80.0703298
20
57.1091747
40
1.1386429
50
0.000383
51
0.6884639
0
ARC
8
DEFAULT_255_2_778
10
80.0202309
20
57.1286056
40
1.1889004
50
294.5149755
51
359.0639043
0
ARC
8
DEFAULT_255_2_778
10
79.9097992
20
57.3028716
40
1.3935629
50
270.2172533
51
295.6731796
0
ARC
8
DEFAULT_255_2_778
10
79.9048056
20
57.3682868
40
1.4590043
50
269.9987029
51
270.4036123
0
ARC
8
DEFAULT_255_2_778
10
79.9002598
20
57.3049774
40
1.3957023
50
244.985097
51
270.1852576
0
ARC
8
DEFAULT_255_2_778
10
79.7919889
20
57.1301508
40
1.1917376
50
181.6656606
51
246.1481135
0
ARC
8
DEFAULT_255_2_778
10
79.7389795
20
57.1091899
40
1.138307
50
180.0003832
51
180.6885649
0
LINE
8
DEFAULT_255_2_778
10
78.6006726
20
57.1091823
11
78.6006726
21
57.1091823
0
ARC
8
DEFAULT_255_2_778
10
84.6793082
20
41.3897634
40
1.188699
50
114.5106911
51
179.0736021
0
ARC
8
DEFAULT_255_2_778
10
84.7898164
20
41.2151485
40
1.3937075
50
90.2162874
51
115.6663126
0
ARC
8
DEFAULT_255_2_778
10
84.7948315
20
41.1503056
40
1.4585766
50
89.9987027
51
90.403675
0
ARC
8
DEFAULT_255_2_778
10
84.799398
20
41.212807
40
1.3960827
50
64.9903605
51
90.1860545
0
ARC
8
DEFAULT_255_2_778
10
84.9078508
20
41.3880858
40
1.1916332
50
1.6624398
51
66.1531129
0
ARC
8
DEFAULT_255_2_778
10
84.9604217
20
41.4089747
40
1.1386429
50
0.000383
51
0.6884639
0
ARC
8
DEFAULT_255_2_778
10
84.9103228
20
41.4284056
40
1.1889004
50
294.5149755
51
359.0639043
0
ARC
8
DEFAULT_255_2_778
10
84.7998911
20
41.6026716
40
1.3935629
50
270.2172533
51
295.6731796
0
ARC
8
DEFAULT_255_2_778
10
84.7948976
20
41.6680868
40
1.4590043
50
269.9987029
51
270.4036123
0
ARC
8
DEFAULT_255_2_778
10
84.7903517
20
41.6047774
40
1.3957023
50
244.985097
51
270.1852576
0
ARC
8
DEFAULT_255_2_778
10
84.6820808
20
41.4299508
40
1.1917376
50
181.6656606
51
246.1481135
0
ARC
8
DEFAULT_255_2_778
10
84.6290714
20
41.4089899
40
1.138307
50
180.0003832
51
180.6885649
0
LINE
8
DEFAULT_255_2_778
10
83.4907645
20
41.4089823
11
83.4907645
21
41.4089823
0
ARC
8
DEFAULT_255_2_778
10
84.6793082
20
46.1898634
40
1.188699
50
114.5106911
51
179.0736021
0
ARC
8
DEFAULT_255_2_778
10
84.7898164
20
46.0152485
40
1.3937075
50
90.2162874
51
115.6663126
0
ARC
8
DEFAULT_255_2_778
10
84.7948315
20
45.9504056
40
1.4585766
50
89.9987027
51
90.403675
0
ARC
8
DEFAULT_255_2_778
10
84.799398
20
46.012907
40
1.3960827
50
64.9903605
51
90.1860545
0
ARC
8
DEFAULT_255_2_778
10
84.9078508
20
46.1881858
40
1.1916332
50
1.6624398
51
66.1531129
0
ARC
8
DEFAULT_255_2_778
10
84.9604217
20
46.2090747
40
1.1386429
50
0.000383
51
0.6884639
0
ARC
8
DEFAULT_255_2_778
10
84.9103228
20
46.2285056
40
1.1889004
50
294.5149755
51
359.0639043
0
ARC
8
DEFAULT_255_2_778
10
84.7998911
20
46.4027716
40
1.3935629
50
270.2172533
51
295.6731796
0
ARC
8
DEFAULT_255_2_778
10
84.7948976
20
46.4681868
40
1.4590043
50
269.9987029
51
270.4036123
0
ARC
8
DEFAULT_255_2_778
10
84.7903517
20
46.4048774
40
1.3957023
50
244.985097
51
270.1852576
0
ARC
8
DEFAULT_255_2_778
10
84.6820808
20
46.2300508
40
1.1917376
50
181.6656606
51
246.1481135
0
ARC
8
DEFAULT_255_2_778
10
84.6290714
20
46.2090899
40
1.138307
50
180.0003832
51
180.6885649
0
LINE
8
DEFAULT_255_2_778
10
83.4907645
20
46.2090823
11
83.4907645
21
46.2090823
0
ARC
8
DEFAULT_255_2_778
10
84.6793082
20
52.2898634
40
1.188699
50
114.5106911
51
179.0736021
0
ARC
8
DEFAULT_255_2_778
10
84.7898164
20
52.1152485
40
1.3937075
50
90.2162874
51
115.6663126
0
ARC
8
DEFAULT_255_2_778
10
84.7948315
20
52.0504056
40
1.4585766
50
89.9987027
51
90.403675
0
ARC
8
DEFAULT_255_2_778
10
84.799398
20
52.112907
40
1.3960827
50
64.9903605
51
90.1860545
0
ARC
8
DEFAULT_255_2_778
10
84.9078508
20
52.2881858
40
1.1916332
50
1.6624398
51
66.1531129
0
ARC
8
DEFAULT_255_2_778
10
84.9604217
20
52.3090747
40
1.1386429
50
0.000383
51
0.6884639
0
ARC
8
DEFAULT_255_2_778
10
84.9103228
20
52.3285056
40
1.1889004
50
294.5149755
51
359.0639043
0
ARC
8
DEFAULT_255_2_778
10
84.7998911
20
52.5027716
40
1.3935629
50
270.2172533
51
295.6731796
0
ARC
8
DEFAULT_255_2_778
10
84.7948976
20
52.5681868
40
1.4590043
50
269.9987029
51
270.4036123
0
ARC
8
DEFAULT_255_2_778
10
84.7903517
20
52.5048774
40
1.3957023
50
244.985097
51
270.1852576
0
ARC
8
DEFAULT_255_2_778
10
84.6820808
20
52.3300508
40
1.1917376
50
181.6656606
51
246.1481135
0
ARC
8
DEFAULT_255_2_778
10
84.6290714
20
52.3090899
40
1.138307
50
180.0003832
51
180.6885649
0
LINE
8
DEFAULT_255_2_778
10
83.4907645
20
52.3090823
11
83.4907645
21
52.3090823
0
ARC
8
DEFAULT_255_2_778
10
84.6793082
20
57.0899634
40
1.188699
50
114.5106911
51
179.0736021
0
ARC
8
DEFAULT_255_2_778
10
84.7898164
20
56.9153485
40
1.3937075
50
90.2162874
51
115.6663126
0
ARC
8
DEFAULT_255_2_778
10
84.7948315
20
56.8505056
40
1.4585766
50
89.9987027
51
90.403675
0
ARC
8
DEFAULT_255_2_778
10
84.799398
20
56.913007
40
1.3960827
50
64.9903605
51
90.1860545
0
ARC
8
DEFAULT_255_2_778
10
84.9078508
20
57.0882858
40
1.1916332
50
1.6624398
51
66.1531129
0
ARC
8
DEFAULT_255_2_778
10
84.9604217
20
57.1091747
40
1.1386429
50
0.000383
51
0.6884639
0
ARC
8
DEFAULT_255_2_778
10
84.9103228
20
57.1286056
40
1.1889004
50
294.5149755
51
359.0639043
0
ARC
8
DEFAULT_255_2_778
10
84.7998911
20
57.3028716
40
1.3935629
50
270.2172533
51
295.6731796
0
ARC
8
DEFAULT_255_2_778
10
84.7948976
20
57.3682868
40
1.4590043
50
269.9987029
51
270.4036123
0
ARC
8
DEFAULT_255_2_778
10
84.7903517
20
57.3049774
40
1.3957023
50
244.985097
51
270.1852576
0
ARC
8
DEFAULT_255_2_778
10
84.6820808
20
57.1301508
40
1.1917376
50
181.6656606
51
246.1481135
0
ARC
8
DEFAULT_255_2_778
10
84.6290714
20
57.1091899
40
1.138307
50
180.0003832
51
180.6885649
0
LINE
8
DEFAULT_255_2_778
10
83.4907645
20
57.1091823
11
83.4907645
21
57.1091823
0
ARC
8
DEFAULT_255_2_778
10
89.5695162
20
41.3897634
40
1.188699
50
114.5106911
51
179.0736021
0
ARC
8
DEFAULT_255_2_778
10
89.6800244
20
41.2151485
40
1.3937075
50
90.2162874
51
115.6663126
0
ARC
8
DEFAULT_255_2_778
10
89.6850396
20
41.1503056
40
1.4585766
50
89.9987027
51
90.403675
0
ARC
8
DEFAULT_255_2_778
10
89.689606
20
41.212807
40
1.3960827
50
64.9903605
51
90.1860545
0
ARC
8
DEFAULT_255_2_778
10
89.7980589
20
41.3880858
40
1.1916332
50
1.6624398
51
66.1531129
0
ARC
8
DEFAULT_255_2_778
10
89.8506298
20
41.4089747
40
1.1386429
50
0.000383
51
0.6884639
0
ARC
8
DEFAULT_255_2_778
10
89.8005309
20
41.4284056
40
1.1889004
50
294.5149755
51
359.0639043
0
ARC
8
DEFAULT_255_2_778
10
89.6900992
20
41.6026716
40
1.3935629
50
270.2172533
51
295.6731796
0
ARC
8
DEFAULT_255_2_778
10
89.6851056
20
41.6680868
40
1.4590043
50
269.9987029
51
270.4036123
0
ARC
8
DEFAULT_255_2_778
10
89.6805598
20
41.6047774
40
1.3957023
50
244.985097
51
270.1852576
0
ARC
8
DEFAULT_255_2_778
10
89.5722889
20
41.4299508
40
1.1917376
50
181.6656606
51
246.1481135
0
ARC
8
DEFAULT_255_2_778
10
89.5192795
20
41.4089899
40
1.138307
50
180.0003832
51
180.6885649
0
LINE
8
DEFAULT_255_2_778
10
88.3809726
20
41.4089823
11
88.3809726
21
41.4089823
0
ARC
8
DEFAULT_255_2_778
10
89.5695162
20
46.1898634
40
1.188699
50
114.5106911
51
179.0736021
0
ARC
8
DEFAULT_255_2_778
10
89.6800244
20
46.0152485
40
1.3937075
50
90.2162874
51
115.6663126
0
ARC
8
DEFAULT_255_2_778
10
89.6850396
20
45.9504056
40
1.4585766
50
89.9987027
51
90.403675
0
ARC
8
DEFAULT_255_2_778
10
89.689606
20
46.012907
40
1.3960827
50
64.9903605
51
90.1860545
0
ARC
8
DEFAULT_255_2_778
10
89.7980589
20
46.1881858
40
1.1916332
50
1.6624398
51
66.1531129
0
ARC
8
DEFAULT_255_2_778
10
89.8506298
20
46.2090747
40
1.1386429
50
0.000383
51
0.6884639
0
ARC
8
DEFAULT_255_2_778
10
89.8005309
20
46.2285056
40
1.1889004
50
294.5149755
51
359.0639043
0
ARC
8
DEFAULT_255_2_778
10
89.6900992
20
46.4027716
40
1.3935629
50
270.2172533
51
295.6731796
0
ARC
8
DEFAULT_255_2_778
10
89.6851056
20
46.4681868
40
1.4590043
50
269.9987029
51
270.4036123
0
ARC
8
DEFAULT_255_2_778
10
89.6805598
20
46.4048774
40
1.3957023
50
244.985097
51
270.1852576
0
ARC
8
DEFAULT_255_2_778
10
89.5722889
20
46.2300508
40
1.1917376
50
181.6656606
51
246.1481135
0
ARC
8
DEFAULT_255_2_778
10
89.5192795
20
46.2090899
40
1.138307
50
180.0003832
51
180.6885649
0
LINE
8
DEFAULT_255_2_778
10
88.3809726
20
46.2090823
11
88.3809726
21
46.2090823
0
ARC
8
DEFAULT_255_2_778
10
89.5695162
20
52.2898634
40
1.188699
50
114.5106911
51
179.0736021
0
ARC
8
DEFAULT_255_2_778
10
89.6800244
20
52.1152485
40
1.3937075
50
90.2162874
51
115.6663126
0
ARC
8
DEFAULT_255_2_778
10
89.6850396
20
52.0504056
40
1.4585766
50
89.9987027
51
90.403675
0
ARC
8
DEFAULT_255_2_778
10
89.689606
20
52.112907
40
1.3960827
50
64.9903605
51
90.1860545
0
ARC
8
DEFAULT_255_2_778
10
89.7980589
20
52.2881858
40
1.1916332
50
1.6624398
51
66.1531129
0
ARC
8
DEFAULT_255_2_778
10
89.8506298
20
52.3090747
40
1.1386429
50
0.000383
51
0.6884639
0
ARC
8
DEFAULT_255_2_778
10
89.8005309
20
52.3285056
40
1.1889004
50
294.5149755
51
359.0639043
0
ARC
8
DEFAULT_255_2_778
10
89.6900992
20
52.5027716
40
1.3935629
50
270.2172533
51
295.6731796
0
ARC
8
DEFAULT_255_2_778
10
89.6851056
20
52.5681868
40
1.4590043
50
269.9987029
51
270.4036123
0
ARC
8
DEFAULT_255_2_778
10
89.6805598
20
52.5048774
40
1.3957023
50
244.985097
51
270.1852576
0
ARC
8
DEFAULT_255_2_778
10
89.5722889
20
52.3300508
40
1.1917376
50
181.6656606
51
246.1481135
0
ARC
8
DEFAULT_255_2_778
10
89.5192795
20
52.3090899
40
1.138307
50
180.0003832
51
180.6885649
0
LINE
8
DEFAULT_255_2_778
10
88.3809726
20
52.3090823
11
88.3809726
21
52.3090823
0
ARC
8
DEFAULT_255_2_778
10
89.5695162
20
57.0899634
40
1.188699
50
114.5106911
51
179.0736021
0
ARC
8
DEFAULT_255_2_778
10
89.6800244
20
56.9153485
40
1.3937075
50
90.2162874
51
115.6663126
0
ARC
8
DEFAULT_255_2_778
10
89.6850396
20
56.8505056
40
1.4585766
50
89.9987027
51
90.403675
0
ARC
8
DEFAULT_255_2_778
10
89.689606
20
56.913007
40
1.3960827
50
64.9903605
51
90.1860545
0
ARC
8
DEFAULT_255_2_778
10
89.7980589
20
57.0882858
40
1.1916332
50
1.6624398
51
66.1531129
0
ARC
8
DEFAULT_255_2_778
10
89.8506298
20
57.1091747
40
1.1386429
50
0.000383
51
0.6884639
0
ARC
8
DEFAULT_255_2_778
10
89.8005309
20
57.1286056
40
1.1889004
50
294.5149755
51
359.0639043
0
ARC
8
DEFAULT_255_2_778
10
89.6900992
20
57.3028716
40
1.3935629
50
270.2172533
51
295.6731796
0
ARC
8
DEFAULT_255_2_778
10
89.6851056
20
57.3682868
40
1.4590043
50
269.9987029
51
270.4036123
0
ARC
8
DEFAULT_255_2_778
10
89.6805598
20
57.3049774
40
1.3957023
50
244.985097
51
270.1852576
0
ARC
8
DEFAULT_255_2_778
10
89.5722889
20
57.1301508
40
1.1917376
50
181.6656606
51
246.1481135
0
ARC
8
DEFAULT_255_2_778
10
89.5192795
20
57.1091899
40
1.138307
50
180.0003832
51
180.6885649
0
LINE
8
DEFAULT_255_2_778
10
88.3809726
20
57.1091823
11
88.3809726
21
57.1091823
0
ARC
8
DEFAULT_255_2_778
10
94.4595825
20
41.3897646
40
1.1886734
50
114.5081163
51
179.0736394
0
ARC
8
DEFAULT_255_2_778
10
94.5702042
20
41.21491
40
1.393946
50
90.2158082
51
115.6640751
0
ARC
8
DEFAULT_255_2_778
10
94.5752315
20
41.1498779
40
1.4590043
50
89.9987029
51
90.4036123
0
ARC
8
DEFAULT_255_2_778
10
94.5797869
20
41.2130513
40
1.3958383
50
64.9881378
51
90.1856349
0
ARC
8
DEFAULT_255_2_778
10
94.6881263
20
41.3880853
40
1.1916577
50
1.6624309
51
66.1505171
0
ARC
8
DEFAULT_255_2_778
10
94.7407217
20
41.4089747
40
1.1386429
50
0.000383
51
0.6884639
0
ARC
8
DEFAULT_255_2_778
10
94.6905972
20
41.4284068
40
1.188926
50
294.5175503
51
359.0638671
0
ARC
8
DEFAULT_255_2_778
10
94.580279
20
41.6024332
40
1.3933246
50
270.2177329
51
295.6754177
0
ARC
8
DEFAULT_255_2_778
10
94.5752975
20
41.6676591
40
1.4585766
50
269.9987027
51
270.403675
0
ARC
8
DEFAULT_255_2_778
10
94.5707407
20
41.6050216
40
1.3959467
50
244.98732
51
270.1856773
0
ARC
8
DEFAULT_255_2_778
10
94.4623563
20
41.4299503
40
1.1917132
50
181.6656695
51
246.1507092
0
ARC
8
DEFAULT_255_2_778
10
94.4093714
20
41.4089899
40
1.138307
50
180.0003832
51
180.6885649
0
LINE
8
DEFAULT_255_2_778
10
93.2710645
20
41.4089823
11
93.2710645
21
41.4089823
0
ARC
8
DEFAULT_255_2_778
10
94.4595825
20
46.1898646
40
1.1886734
50
114.5081163
51
179.0736394
0
ARC
8
DEFAULT_255_2_778
10
94.5702042
20
46.01501
40
1.393946
50
90.2158082
51
115.6640751
0
ARC
8
DEFAULT_255_2_778
10
94.5752315
20
45.9499779
40
1.4590043
50
89.9987029
51
90.4036123
0
ARC
8
DEFAULT_255_2_778
10
94.5797869
20
46.0131513
40
1.3958383
50
64.9881378
51
90.1856349
0
ARC
8
DEFAULT_255_2_778
10
94.6881263
20
46.1881853
40
1.1916577
50
1.6624309
51
66.1505171
0
ARC
8
DEFAULT_255_2_778
10
94.7407217
20
46.2090747
40
1.1386429
50
0.000383
51
0.6884639
0
ARC
8
DEFAULT_255_2_778
10
94.6905972
20
46.2285068
40
1.188926
50
294.5175503
51
359.0638671
0
ARC
8
DEFAULT_255_2_778
10
94.580279
20
46.4025332
40
1.3933246
50
270.2177329
51
295.6754177
0
ARC
8
DEFAULT_255_2_778
10
94.5752975
20
46.4677591
40
1.4585766
50
269.9987027
51
270.403675
0
ARC
8
DEFAULT_255_2_778
10
94.5707407
20
46.4051216
40
1.3959467
50
244.98732
51
270.1856773
0
ARC
8
DEFAULT_255_2_778
10
94.4623563
20
46.2300503
40
1.1917132
50
181.6656695
51
246.1507092
0
ARC
8
DEFAULT_255_2_778
10
94.4093714
20
46.2090899
40
1.138307
50
180.0003832
51
180.6885649
0
LINE
8
DEFAULT_255_2_778
10
93.2710645
20
46.2090823
11
93.2710645
21
46.2090823
0
ARC
8
DEFAULT_255_2_778
10
94.4595825
20
52.2898646
40
1.1886734
50
114.5081163
51
179.0736394
0
ARC
8
DEFAULT_255_2_778
10
94.5702042
20
52.11501
40
1.393946
50
90.2158082
51
115.6640751
0
ARC
8
DEFAULT_255_2_778
10
94.5752315
20
52.0499779
40
1.4590043
50
89.9987029
51
90.4036123
0
ARC
8
DEFAULT_255_2_778
10
94.5797869
20
52.1131513
40
1.3958383
50
64.9881378
51
90.1856349
0
ARC
8
DEFAULT_255_2_778
10
94.6881263
20
52.2881853
40
1.1916577
50
1.6624309
51
66.1505171
0
ARC
8
DEFAULT_255_2_778
10
94.7407217
20
52.3090747
40
1.1386429
50
0.000383
51
0.6884639
0
ARC
8
DEFAULT_255_2_778
10
94.6905972
20
52.3285068
40
1.188926
50
294.5175503
51
359.0638671
0
ARC
8
DEFAULT_255_2_778
10
94.580279
20
52.5025332
40
1.3933246
50
270.2177329
51
295.6754177
0
ARC
8
DEFAULT_255_2_778
10
94.5752975
20
52.5677591
40
1.4585766
50
269.9987027
51
270.403675
0
ARC
8
DEFAULT_255_2_778
10
94.5707407
20
52.5051216
40
1.3959467
50
244.98732
51
270.1856773
0
ARC
8
DEFAULT_255_2_778
10
94.4623563
20
52.3300503
40
1.1917132
50
181.6656695
51
246.1507092
0
ARC
8
DEFAULT_255_2_778
10
94.4093714
20
52.3090899
40
1.138307
50
180.0003832
51
180.6885649
0
LINE
8
DEFAULT_255_2_778
10
93.2710645
20
52.3090823
11
93.2710645
21
52.3090823
0
ARC
8
DEFAULT_255_2_778
10
94.4595825
20
57.0899646
40
1.1886734
50
114.5081163
51
179.0736394
0
ARC
8
DEFAULT_255_2_778
10
94.5702042
20
56.91511
40
1.393946
50
90.2158082
51
115.6640751
0
ARC
8
DEFAULT_255_2_778
10
94.5752315
20
56.8500779
40
1.4590043
50
89.9987029
51
90.4036123
0
ARC
8
DEFAULT_255_2_778
10
94.5797869
20
56.9132513
40
1.3958383
50
64.9881378
51
90.1856349
0
ARC
8
DEFAULT_255_2_778
10
94.6881263
20
57.0882853
40
1.1916577
50
1.6624309
51
66.1505171
0
ARC
8
DEFAULT_255_2_778
10
94.7407217
20
57.1091747
40
1.1386429
50
0.000383
51
0.6884639
0
ARC
8
DEFAULT_255_2_778
10
94.6905972
20
57.1286068
40
1.188926
50
294.5175503
51
359.0638671
0
ARC
8
DEFAULT_255_2_778
10
94.580279
20
57.3026332
40
1.3933246
50
270.2177329
51
295.6754177
0
ARC
8
DEFAULT_255_2_778
10
94.5752975
20
57.3678591
40
1.4585766
50
269.9987027
51
270.403675
0
ARC
8
DEFAULT_255_2_778
10
94.5707407
20
57.3052216
40
1.3959467
50
244.98732
51
270.1856773
0
ARC
8
DEFAULT_255_2_778
10
94.4623563
20
57.1301503
40
1.1917132
50
181.6656695
51
246.1507092
0
ARC
8
DEFAULT_255_2_778
10
94.4093714
20
57.1091899
40
1.138307
50
180.0003832
51
180.6885649
0
LINE
8
DEFAULT_255_2_778
10
93.2710645
20
57.1091823
11
93.2710645
21
57.1091823
0
LINE
8
DEFAULT_255_2_778
10
25.787184
20
46.6591456
11
32.741984
21
46.6591456
0
LINE
8
DEFAULT_255_2_778
10
32.741984
20
46.6591456
11
32.741984
21
54.2590456
0
LINE
8
DEFAULT_255_2_778
10
32.741984
20
54.2590456
11
25.787184
21
54.2590456
0
LINE
8
DEFAULT_255_2_778
10
25.787184
20
54.2590456
11
25.787184
21
46.6591456
0
LINE
8
DEFAULT_255_2_778
10
25.2437588
20
54.7591039
11
25.2437588
21
46.1591039
0
LINE
8
DEFAULT_255_2_778
10
25.2437588
20
46.1591039
11
33.2852588
21
46.1591039
0
LINE
8
DEFAULT_255_2_778
10
33.2852588
20
46.1591039
11
33.2852588
21
54.7591039
0
LINE
8
DEFAULT_255_2_778
10
33.2852588
20
54.7591039
11
25.2437588
21
54.7591039
0
LINE
8
DEFAULT_255_2_778
10
26.1132051
20
47.1592165
11
26.1132051
21
53.7592165
0
LINE
8
DEFAULT_255_2_778
10
26.1132051
20
53.7592165
11
31.9814051
21
53.7592165
0
LINE
8
DEFAULT_255_2_778
10
31.9814051
20
53.7592165
11
31.9814051
21
47.1592165
0
LINE
8
DEFAULT_255_2_778
10
31.9814051
20
47.1592165
11
26.1132051
21
47.1592165
0
LINE
8
DEFAULT_255_2_778
10
30.0250701
20
52.7641615
11
28.0689701
21
52.7641615
0
LINE
8
DEFAULT_255_2_778
10
28.0689701
20
52.7641615
11
28.0689701
21
51.9640615
0
LINE
8
DEFAULT_255_2_778
10
28.0689701
20
51.9640615
11
30.0250701
21
51.9640615
0
LINE
8
DEFAULT_255_2_778
10
30.0250701
20
51.9640615
11
30.0250701
21
52.7641615
0
LINE
8
DEFAULT_255_2_778
10
30.6769701
20
52.8641615
11
27.4167701
21
52.8641615
0
LINE
8
DEFAULT_255_2_778
10
27.4167701
20
52.8641615
11
27.4167701
21
51.8640615
0
LINE
8
DEFAULT_255_2_778
10
27.4167701
20
51.8640615
11
30.6769701
21
51.8640615
0
LINE
8
DEFAULT_255_2_778
10
30.6769701
20
51.8640615
11
30.6769701
21
52.8641615
0
LINE
8
DEFAULT_255_2_778
10
27.4170701
20
50.5940615
11
30.6772701
21
50.5940615
0
LINE
8
DEFAULT_255_2_778
10
30.6772701
20
50.5940615
11
30.6772701
21
51.5941615
0
LINE
8
DEFAULT_255_2_778
10
30.6772701
20
51.5941615
11
27.4170701
21
51.5941615
0
LINE
8
DEFAULT_255_2_778
10
27.4170701
20
51.5941615
11
27.4170701
21
50.5940615
0
LINE
8
DEFAULT_255_2_778
10
28.0689701
20
51.4941615
11
28.0689701
21
50.6940615
0
LINE
8
DEFAULT_255_2_778
10
28.0689701
20
50.6940615
11
30.0250701
21
50.6940615
0
LINE
8
DEFAULT_255_2_778
10
30.0250701
20
50.6940615
11
30.0250701
21
51.4941615
0
LINE
8
DEFAULT_255_2_778
10
30.0250701
20
51.4941615
11
28.0689701
21
51.4941615
0
LINE
8
DEFAULT_255_2_778
10
28.0689701
20
50.2241615
11
28.0689701
21
49.4240615
0
LINE
8
DEFAULT_255_2_778
10
28.0689701
20
49.4240615
11
30.0250701
21
49.4240615
0
LINE
8
DEFAULT_255_2_778
10
30.0250701
20
49.4240615
11
30.0250701
21
50.2241615
0
LINE
8
DEFAULT_255_2_778
10
30.0250701
20
50.2241615
11
28.0689701
21
50.2241615
0
LINE
8
DEFAULT_255_2_778
10
30.6769701
20
50.3241615
11
27.4167701
21
50.3241615
0
LINE
8
DEFAULT_255_2_778
10
27.4167701
20
50.3241615
11
27.4167701
21
49.3240615
0
LINE
8
DEFAULT_255_2_778
10
27.4167701
20
49.3240615
11
30.6769701
21
49.3240615
0
LINE
8
DEFAULT_255_2_778
10
30.6769701
20
49.3240615
11
30.6769701
21
50.3241615
0
LINE
8
DEFAULT_255_2_778
10
30.0250701
20
48.1540615
11
30.0250701
21
48.9541615
0
LINE
8
DEFAULT_255_2_778
10
30.0250701
20
48.9541615
11
28.0689701
21
48.9541615
0
LINE
8
DEFAULT_255_2_778
10
28.0689701
20
48.9541615
11
28.0689701
21
48.1540615
0
LINE
8
DEFAULT_255_2_778
10
28.0689701
20
48.1540615
11
30.0250701
21
48.1540615
0
LINE
8
DEFAULT_255_2_778
10
30.6769701
20
49.0541615
11
27.4167701
21
49.0541615
0
LINE
8
DEFAULT_255_2_778
10
27.4167701
20
49.0541615
11
27.4167701
21
48.0540615
0
LINE
8
DEFAULT_255_2_778
10
27.4167701
20
48.0540615
11
30.6769701
21
48.0540615
0
LINE
8
DEFAULT_255_2_778
10
30.6769701
20
48.0540615
11
30.6769701
21
49.0541615
0
ARC
8
DEFAULT_255_2_778
10
39.6472473
20
50.4404577
40
1.4718623
50
119.3514147
51
179.2734853
0
ARC
8
DEFAULT_255_2_778
10
39.7913777
20
50.2444224
40
1.7136349
50
96.0462667
51
120.339098
0
ARC
8
DEFAULT_255_2_778
10
39.8051595
20
50.1557035
40
1.8033171
50
89.9858972
51
96.1847999
0
ARC
8
DEFAULT_255_2_778
10
39.8101068
20
50.2064828
40
1.7525435
50
67.93118
51
90.1472307
0
ARC
8
DEFAULT_255_2_778
10
39.8743119
20
50.3484032
40
1.5969101
50
34.5429851
51
68.1528682
0
ARC
8
DEFAULT_255_2_778
10
40.0262347
20
50.4582908
40
1.4094689
50
0.0337274
51
34.3653158
0
ARC
8
DEFAULT_255_2_778
10
39.9638295
20
50.4779109
40
1.4719938
50
299.3543331
51
359.268585
0
ARC
8
DEFAULT_255_2_778
10
39.8195317
20
50.6742727
40
1.714134
50
275.8068218
51
300.3408452
0
ARC
8
DEFAULT_255_2_778
10
39.8060125
20
50.7629981
40
1.8037776
50
269.9870021
51
275.9489044
0
ARC
8
DEFAULT_255_2_778
10
39.8010775
20
50.7122195
40
1.7530049
50
247.9380828
51
270.1479242
0
ARC
8
DEFAULT_255_2_778
10
39.7365579
20
50.5695083
40
1.5965211
50
214.5440303
51
248.1602957
0
ARC
8
DEFAULT_255_2_778
10
39.5851354
20
50.4598676
40
1.4096323
50
180.0303663
51
214.3632569
0
ARC
8
DEFAULT_255_2_778
10
39.683778
20
50.4396106
40
1.2367286
50
115.2053281
51
179.0960958
0
ARC
8
DEFAULT_255_2_778
10
39.7995177
20
50.2610622
40
1.4478504
50
91.0640763
51
116.3404575
0
ARC
8
DEFAULT_255_2_778
10
39.8055934
20
50.1895917
40
1.5194289
50
89.9996264
51
91.2430962
0
ARC
8
DEFAULT_255_2_778
10
39.810082
20
50.2537165
40
1.4553109
50
65.6413873
51
90.1763259
0
ARC
8
DEFAULT_255_2_778
10
39.8886529
20
50.4000833
40
1.2896159
50
21.8794246
51
66.139359
0
ARC
8
DEFAULT_255_2_778
10
39.9993879
20
50.4600038
40
1.1646157
50
359.9565453
51
21.173992
0
ARC
8
DEFAULT_255_2_778
10
39.9274286
20
50.4786305
40
1.2367286
50
295.2053281
51
359.0960958
0
ARC
8
DEFAULT_255_2_778
10
39.811689
20
50.6571788
40
1.4478504
50
271.0640763
51
296.3404575
0
ARC
8
DEFAULT_255_2_778
10
39.8056132
20
50.7286493
40
1.5194289
50
269.9996264
51
271.2430962
0
ARC
8
DEFAULT_255_2_778
10
39.8011247
20
50.6645245
40
1.4553109
50
245.6413873
51
270.1763259
0
ARC
8
DEFAULT_255_2_778
10
39.7225537
20
50.5181577
40
1.2896159
50
201.8794246
51
246.139359
0
ARC
8
DEFAULT_255_2_778
10
39.6118187
20
50.4582372
40
1.1646157
50
179.9565453
51
201.173992
0
LINE
8
DEFAULT_255_2_778
10
38.1755033
20
50.4591205
11
38.1755033
21
50.4591205
0
LINE
8
DEFAULT_255_2_778
10
38.4472033
20
50.4591205
11
38.4472033
21
50.4591205
0
LINE
8
DEFAULT_255_2_778
10
28.2321829
20
61.1588296
11
28.7210829
21
61.1588296
0
LINE
8
DEFAULT_255_2_778
10
28.7210829
20
61.1588296
11
28.7210829
21
59.3588296
0
LINE
8
DEFAULT_255_2_778
10
28.7210829
20
59.3588296
11
29.3730829
21
59.3588296
0
LINE
8
DEFAULT_255_2_778
10
29.3730829
20
59.3588296
11
29.3730829
21
61.1588296
0
LINE
8
DEFAULT_255_2_778
10
29.3730829
20
61.1588296
11
29.8619829
21
61.1588296
0
LINE
8
DEFAULT_255_2_778
10
29.8619829
20
61.1588296
11
29.0470829
21
61.9589296
0
LINE
8
DEFAULT_255_2_778
10
29.0470829
20
61.9589296
11
28.2321829
21
61.1588296
0
ARC
8
DEFAULT_255_2_778
10
28.6456493
20
60.6618153
40
3.72789
50
162.1598095
51
180.042261
0
ARC
8
DEFAULT_255_2_778
10
28.882043
20
60.5549249
40
3.9857719
50
126.6063225
51
161.7382098
0
ARC
8
DEFAULT_255_2_778
10
29.168356
20
60.2150574
40
4.4294168
50
109.6300662
51
126.9577846
0
ARC
8
DEFAULT_255_2_778
10
29.2432858
20
60.0123801
40
4.6454878
50
95.8057126
51
109.6607317
0
ARC
8
DEFAULT_255_2_778
10
29.2634989
20
59.8470229
40
4.8120427
50
89.9873617
51
95.8459889
0
ARC
8
DEFAULT_255_2_778
10
29.2689693
20
59.9093085
40
4.7497593
50
77.4487293
51
90.0531855
0
ARC
8
DEFAULT_255_2_778
10
29.3152026
20
60.1126128
40
4.5412665
50
61.9511202
51
77.4606856
0
ARC
8
DEFAULT_255_2_778
10
29.4469097
20
60.348463
40
4.271189
50
41.6587422
51
62.0226886
0
ARC
8
DEFAULT_255_2_778
10
29.7948671
20
60.6383355
40
3.8185764
50
6.3283496
51
41.8795488
0
ARC
8
DEFAULT_255_2_778
10
29.8512688
20
60.6597192
40
3.7601914
50
359.9900426
51
6.0992316
0
ARC
8
DEFAULT_255_2_778
10
29.8836665
20
60.6563108
40
3.7277948
50
342.1595599
51
0.0423424
0
ARC
8
DEFAULT_255_2_778
10
29.6473769
20
60.7631754
40
3.9855697
50
306.604592
51
341.7378494
0
ARC
8
DEFAULT_255_2_778
10
29.3608944
20
61.1032844
40
4.4295087
50
289.6286135
51
306.9561184
0
ARC
8
DEFAULT_255_2_778
10
29.2858574
20
61.3062765
40
4.645912
50
275.8051412
51
289.6592853
0
ARC
8
DEFAULT_255_2_778
10
29.2656243
20
61.4718021
40
4.8126364
50
269.9873325
51
275.8454654
0
ARC
8
DEFAULT_255_2_778
10
29.2601488
20
61.4092551
40
4.7500915
50
257.4501247
51
270.0532117
0
ARC
8
DEFAULT_255_2_778
10
29.2138504
20
61.2056492
40
4.5412902
50
241.9532492
51
257.4621205
0
ARC
8
DEFAULT_255_2_778
10
29.0819634
20
60.9694447
40
4.2708157
50
221.6599602
51
242.0248525
0
ARC
8
DEFAULT_255_2_778
10
28.7341803
20
60.6796618
40
3.818393
50
186.3271013
51
221.8801885
0
ARC
8
DEFAULT_255_2_778
10
28.6784864
20
60.6584095
40
3.7607261
50
179.9900033
51
186.0987982
0
LINE
8
DEFAULT_255_2_778
10
24.9177603
20
60.6590657
11
24.9177603
21
60.6590657
0
ARC
8
DEFAULT_255_2_778
10
28.7229781
20
60.6616313
40
3.2617644
50
160.2538267
51
180.0443347
0
ARC
8
DEFAULT_255_2_778
10
28.9475813
20
60.5544411
40
3.5094643
50
125.4575288
51
159.8456028
0
ARC
8
DEFAULT_255_2_778
10
29.1890568
20
60.2541069
40
3.8942448
50
107.82608
51
125.7881179
0
ARC
8
DEFAULT_255_2_778
10
29.2519166
20
60.0651231
40
4.0933992
50
93.3349036
51
107.8539143
0
ARC
8
DEFAULT_255_2_778
10
29.2642837
20
59.925395
40
4.2336124
50
89.9955204
51
93.3919863
0
ARC
8
DEFAULT_255_2_778
10
29.2691315
20
60.0118641
40
4.1471457
50
76.2977298
51
90.0624035
0
ARC
8
DEFAULT_255_2_778
10
29.3165708
20
60.2018582
40
3.9513218
50
59.3777443
51
76.3134481
0
ARC
8
DEFAULT_255_2_778
10
29.4648832
20
60.4380187
40
3.6725557
50
35.9013609
51
59.4921764
0
ARC
8
DEFAULT_255_2_778
10
29.7621847
20
60.6515655
40
3.3065114
50
5.3124664
51
35.9248631
0
ARC
8
DEFAULT_255_2_778
10
29.7738154
20
60.6595401
40
3.2941993
50
359.9924736
51
5.19309
0
ARC
8
DEFAULT_255_2_778
10
29.8066961
20
60.6566038
40
3.2613195
50
340.0616324
51
0.0439838
0
ARC
8
DEFAULT_255_2_778
10
29.5797275
20
60.7654035
40
3.5118735
50
305.3723941
51
339.6557171
0
ARC
8
DEFAULT_255_2_778
10
29.3395778
20
61.0650174
40
3.895265
50
287.7850431
51
305.7015366
0
ARC
8
DEFAULT_255_2_778
10
29.2771669
20
61.253203
40
4.0935207
50
273.2923314
51
287.8123022
0
ARC
8
DEFAULT_255_2_778
10
29.2649368
20
61.3924173
40
4.2332098
50
269.9956397
51
273.3493774
0
ARC
8
DEFAULT_255_2_778
10
29.2600912
20
61.3065793
40
4.1473744
50
256.2981084
51
270.0624913
0
ARC
8
DEFAULT_255_2_778
10
29.2125849
20
61.1163055
40
3.9512628
50
239.3777345
51
256.3138297
0
ARC
8
DEFAULT_255_2_778
10
29.064229
20
60.8800612
40
3.6724025
50
215.9004933
51
239.4920897
0
ARC
8
DEFAULT_255_2_778
10
28.7670871
20
60.6666242
40
3.3065519
50
185.3119642
51
215.9238178
0
ARC
8
DEFAULT_255_2_778
10
28.7556088
20
60.6586747
40
3.2943941
50
179.9924746
51
185.1927827
0
LINE
8
DEFAULT_255_2_778
10
25.4612147
20
60.6591074
11
25.4612147
21
60.6591074
0
ARC
8
DEFAULT_255_2_778
10
28.8576654
20
60.6416625
40
1.6580225
50
122.4793698
51
179.398974
0
ARC
8
DEFAULT_255_2_778
10
29.0246705
20
60.4332198
40
1.9237605
50
99.2730186
51
123.3416302
0
ARC
8
DEFAULT_255_2_778
10
29.0460338
20
60.3282094
40
2.0308454
50
89.9689598
51
99.3904648
0
ARC
8
DEFAULT_255_2_778
10
29.0516006
20
60.367838
40
1.9912217
50
69.5681138
51
90.1285209
0
ARC
8
DEFAULT_255_2_778
10
29.110142
20
60.5117753
40
1.8359091
50
40.1671348
51
69.7120118
0
ARC
8
DEFAULT_255_2_778
10
29.2847432
20
60.6556356
40
1.6096945
50
0.1217004
51
40.2628129
0
ARC
8
DEFAULT_255_2_778
10
29.2358646
20
60.6768255
40
1.6586646
50
302.3095585
51
359.3861261
0
ARC
8
DEFAULT_255_2_778
10
29.0692874
20
60.8853617
40
1.9241716
50
279.2319696
51
303.182807
0
ARC
8
DEFAULT_255_2_778
10
29.0482201
20
60.9894674
40
2.030313
50
269.9693512
51
279.3474618
0
ARC
8
DEFAULT_255_2_778
10
29.0426757
20
60.9505202
40
1.9913705
50
249.5690053
51
270.128277
0
ARC
8
DEFAULT_255_2_778
10
28.9842762
20
60.8068694
40
1.8363759
50
220.2360117
51
249.7119122
0
ARC
8
DEFAULT_255_2_778
10
28.8093465
20
60.6625481
40
1.6096163
50
180.1243531
51
220.3364024
0
ARC
8
DEFAULT_255_2_778
10
28.8406747
20
60.6426398
40
1.7497177
50
124.2254392
51
179.4624745
0
ARC
8
DEFAULT_255_2_778
10
29.0190619
20
60.4301969
40
2.0258995
50
101.1122794
51
125.0175612
0
ARC
8
DEFAULT_255_2_778
10
29.0455122
20
60.3159149
40
2.1431403
50
89.9566398
51
101.2173065
0
ARC
8
DEFAULT_255_2_778
10
29.0516213
20
60.3479241
40
2.1111353
50
70.2282308
51
90.1217844
0
ARC
8
DEFAULT_255_2_778
10
29.1085997
20
60.4943591
40
1.954063
50
42.31687
51
70.3479842
0
ARC
8
DEFAULT_255_2_778
10
29.2930934
20
60.6541936
40
1.7100475
50
0.1628733
51
42.5185685
0
ARC
8
DEFAULT_255_2_778
10
29.2535607
20
60.6755138
40
1.7496507
50
304.2250571
51
359.4610056
0
ARC
8
DEFAULT_255_2_778
10
29.0751511
20
60.887935
40
2.0258277
50
281.1132649
51
305.0181289
0
ARC
8
DEFAULT_255_2_778
10
29.0487527
20
61.0019835
40
2.1428294
50
269.95672
51
281.2180962
0
ARC
8
DEFAULT_255_2_778
10
29.0426409
20
60.9705874
40
2.1114375
50
250.2297575
51
270.1219249
0
ARC
8
DEFAULT_255_2_778
10
28.986069
20
60.8248228
40
1.9551334
50
222.5795881
51
250.3450036
0
ARC
8
DEFAULT_255_2_778
10
28.8016022
20
60.6641105
40
1.7105755
50
180.1693461
51
222.7964421
0
LINE
8
DEFAULT_255_2_778
10
27.199734
20
60.6590547
11
27.199734
21
60.6590547
0
LINE
8
DEFAULT_255_2_778
10
27.091034
20
60.6590547
11
27.091034
21
60.6590547
0
LINE
8
DEFAULT_255_2_778
10
38.7731829
20
61.1588296
11
39.2620829
21
61.1588296
0
LINE
8
DEFAULT_255_2_778
10
39.2620829
20
61.1588296
11
39.2620829
21
59.3588296
0
LINE
8
DEFAULT_255_2_778
10
39.2620829
20
59.3588296
11
39.9140829
21
59.3588296
0
LINE
8
DEFAULT_255_2_778
10
39.9140829
20
59.3588296
11
39.9140829
21
61.1588296
0
LINE
8
DEFAULT_255_2_778
10
39.9140829
20
61.1588296
11
40.4029829
21
61.1588296
0
LINE
8
DEFAULT_255_2_778
10
40.4029829
20
61.1588296
11
39.5880829
21
61.9589296
0
LINE
8
DEFAULT_255_2_778
10
39.5880829
20
61.9589296
11
38.7731829
21
61.1588296
0
ARC
8
DEFAULT_255_2_778
10
39.2639781
20
60.6616313
40
3.2617644
50
160.2538267
51
180.0443347
0
ARC
8
DEFAULT_255_2_778
10
39.4885813
20
60.5544411
40
3.5094643
50
125.4575288
51
159.8456028
0
ARC
8
DEFAULT_255_2_778
10
39.7300568
20
60.2541069
40
3.8942448
50
107.82608
51
125.7881179
0
ARC
8
DEFAULT_255_2_778
10
39.7929166
20
60.0651231
40
4.0933992
50
93.3349036
51
107.8539143
0
ARC
8
DEFAULT_255_2_778
10
39.8052837
20
59.925395
40
4.2336124
50
89.9955204
51
93.3919863
0
ARC
8
DEFAULT_255_2_778
10
39.8101315
20
60.0118641
40
4.1471457
50
76.2977298
51
90.0624035
0
ARC
8
DEFAULT_255_2_778
10
39.8575708
20
60.2018582
40
3.9513218
50
59.3777443
51
76.3134481
0
ARC
8
DEFAULT_255_2_778
10
40.0058832
20
60.4380187
40
3.6725557
50
35.9013609
51
59.4921764
0
ARC
8
DEFAULT_255_2_778
10
40.3031847
20
60.6515655
40
3.3065114
50
5.3124664
51
35.9248631
0
ARC
8
DEFAULT_255_2_778
10
40.3148154
20
60.6595401
40
3.2941993
50
359.9924736
51
5.19309
0
ARC
8
DEFAULT_255_2_778
10
40.3476961
20
60.6566038
40
3.2613195
50
340.0616324
51
0.0439838
0
ARC
8
DEFAULT_255_2_778
10
40.1207275
20
60.7654035
40
3.5118735
50
305.3723941
51
339.6557171
0
ARC
8
DEFAULT_255_2_778
10
39.8805778
20
61.0650174
40
3.895265
50
287.7850431
51
305.7015366
0
ARC
8
DEFAULT_255_2_778
10
39.8181669
20
61.253203
40
4.0935207
50
273.2923314
51
287.8123022
0
ARC
8
DEFAULT_255_2_778
10
39.8059368
20
61.3924173
40
4.2332098
50
269.9956397
51
273.3493774
0
ARC
8
DEFAULT_255_2_778
10
39.8010912
20
61.3065793
40
4.1473744
50
256.2981084
51
270.0624913
0
ARC
8
DEFAULT_255_2_778
10
39.7535849
20
61.1163055
40
3.9512628
50
239.3777345
51
256.3138297
0
ARC
8
DEFAULT_255_2_778
10
39.605229
20
60.8800612
40
3.6724025
50
215.9004933
51
239.4920897
0
ARC
8
DEFAULT_255_2_778
10
39.3080871
20
60.6666242
40
3.3065519
50
185.3119642
51
215.9238178
0
ARC
8
DEFAULT_255_2_778
10
39.2966088
20
60.6586747
40
3.2943941
50
179.9924746
51
185.1927827
0
LINE
8
DEFAULT_255_2_778
10
36.0022147
20
60.6591074
11
36.0022147
21
60.6591074
0
ARC
8
DEFAULT_255_2_778
10
39.1866493
20
60.6618153
40
3.72789
50
162.1598095
51
180.042261
0
ARC
8
DEFAULT_255_2_778
10
39.423043
20
60.5549249
40
3.9857719
50
126.6063225
51
161.7382098
0
ARC
8
DEFAULT_255_2_778
10
39.709356
20
60.2150574
40
4.4294168
50
109.6300662
51
126.9577846
0
ARC
8
DEFAULT_255_2_778
10
39.7842858
20
60.0123801
40
4.6454878
50
95.8057126
51
109.6607317
0
ARC
8
DEFAULT_255_2_778
10
39.8044989
20
59.8470229
40
4.8120427
50
89.9873617
51
95.8459889
0
ARC
8
DEFAULT_255_2_778
10
39.8099693
20
59.9093085
40
4.7497593
50
77.4487293
51
90.0531855
0
ARC
8
DEFAULT_255_2_778
10
39.8562026
20
60.1126128
40
4.5412665
50
61.9511202
51
77.4606856
0
ARC
8
DEFAULT_255_2_778
10
39.9879097
20
60.348463
40
4.271189
50
41.6587422
51
62.0226886
0
ARC
8
DEFAULT_255_2_778
10
40.3358671
20
60.6383355
40
3.8185764
50
6.3283496
51
41.8795488
0
ARC
8
DEFAULT_255_2_778
10
40.3922688
20
60.6597192
40
3.7601914
50
359.9900426
51
6.0992316
0
ARC
8
DEFAULT_255_2_778
10
40.4246665
20
60.6563108
40
3.7277948
50
342.1595599
51
0.0423424
0
ARC
8
DEFAULT_255_2_778
10
40.1883769
20
60.7631754
40
3.9855697
50
306.604592
51
341.7378494
0
ARC
8
DEFAULT_255_2_778
10
39.9018944
20
61.1032844
40
4.4295087
50
289.6286135
51
306.9561184
0
ARC
8
DEFAULT_255_2_778
10
39.8268574
20
61.3062765
40
4.645912
50
275.8051412
51
289.6592853
0
ARC
8
DEFAULT_255_2_778
10
39.8066243
20
61.4718021
40
4.8126364
50
269.9873325
51
275.8454654
0
ARC
8
DEFAULT_255_2_778
10
39.801155
20
61.4088459
40
4.7496822
50
257.4489496
51
270.0531415
0
ARC
8
DEFAULT_255_2_778
10
39.7549294
20
61.2055648
40
4.541214
50
241.9516076
51
257.4608856
0
ARC
8
DEFAULT_255_2_778
10
39.6231997
20
60.9696696
40
4.2710863
50
221.6592706
51
242.0231909
0
ARC
8
DEFAULT_255_2_778
10
39.2752349
20
60.6797798
40
3.8184567
50
186.3282899
51
221.8800276
0
ARC
8
DEFAULT_255_2_778
10
39.2189211
20
60.6584116
40
3.7601607
50
179.9900336
51
186.0992563
0
LINE
8
DEFAULT_255_2_778
10
35.4587603
20
60.6590657
11
35.4587603
21
60.6590657
0
ARC
8
DEFAULT_255_2_778
10
39.3816774
20
60.6426197
40
1.749737
50
124.2240716
51
179.4611884
0
ARC
8
DEFAULT_255_2_778
10
39.5601201
20
60.4301569
40
2.0259665
50
101.1131916
51
125.0173339
0
ARC
8
DEFAULT_255_2_778
10
39.5865005
20
60.3161922
40
2.1428823
50
89.9567578
51
101.2179839
0
ARC
8
DEFAULT_255_2_778
10
39.5925987
20
60.3478266
40
2.1112522
50
70.2287864
51
90.1216053
0
ARC
8
DEFAULT_255_2_778
10
39.6495571
20
60.4941937
40
1.9542505
50
42.3191915
51
70.3486953
0
ARC
8
DEFAULT_255_2_778
10
39.8342449
20
60.6541943
40
1.7099799
50
0.163505
51
42.5214932
0
ARC
8
DEFAULT_255_2_778
10
39.7946583
20
60.6755688
40
1.7496372
50
304.2223266
51
359.4598363
0
ARC
8
DEFAULT_255_2_778
10
39.6161066
20
60.8881461
40
2.0260223
50
281.1131368
51
305.0165338
0
ARC
8
DEFAULT_255_2_778
10
39.589734
20
61.0020765
40
2.1429029
50
269.9567851
51
281.2179023
0
ARC
8
DEFAULT_255_2_778
10
39.5836379
20
60.9704468
40
2.1112775
50
250.2290032
51
270.1215749
0
ARC
8
DEFAULT_255_2_778
10
39.5266864
20
60.8241064
40
1.9543033
50
222.32054
51
250.3489983
0
ARC
8
DEFAULT_255_2_778
10
39.3418404
20
60.663978
40
1.7098298
50
180.1643294
51
222.5234566
0
ARC
8
DEFAULT_255_2_778
10
39.3987556
20
60.6417206
40
1.6580287
50
122.4821901
51
179.4003124
0
ARC
8
DEFAULT_255_2_778
10
39.5656282
20
60.4334265
40
1.9235709
50
99.2730543
51
123.3431939
0
ARC
8
DEFAULT_255_2_778
10
39.5870158
20
60.3282924
40
2.0307818
50
89.9689089
51
99.3906131
0
ARC
8
DEFAULT_255_2_778
10
39.5925843
20
60.3678574
40
1.9912217
50
69.5681138
51
90.1285209
0
ARC
8
DEFAULT_255_2_778
10
39.6511257
20
60.5117947
40
1.8359091
50
40.1671348
51
69.7120118
0
ARC
8
DEFAULT_255_2_778
10
39.8257269
20
60.655655
40
1.6096945
50
0.1217004
51
40.2628129
0
ARC
8
DEFAULT_255_2_778
10
39.7768483
20
60.6768449
40
1.6586646
50
302.3095585
51
359.3861261
0
ARC
8
DEFAULT_255_2_778
10
39.6102711
20
60.8853811
40
1.9241716
50
279.2319696
51
303.182807
0
ARC
8
DEFAULT_255_2_778
10
39.5892038
20
60.9894868
40
2.030313
50
269.9693512
51
279.3474618
0
ARC
8
DEFAULT_255_2_778
10
39.5836528
20
60.9504203
40
1.9912513
50
249.5683829
51
270.1284741
0
ARC
8
DEFAULT_255_2_778
10
39.525236
20
60.8067087
40
1.8361936
50
220.2334644
51
249.7110954
0
ARC
8
DEFAULT_255_2_778
10
39.350506
20
60.6625511
40
1.609692
50
180.1237601
51
220.3333432
0
ARC
8
DEFAULT_255_2_778
10
15.7081999
20
46.1433249
40
1.8421503
50
125.6244571
51
179.5070432
0
ARC
8
DEFAULT_255_2_778
10
15.8974462
20
45.9264099
40
2.1288778
50
102.679662
51
126.3641398
0
ARC
8
DEFAULT_255_2_778
10
15.9287558
20
45.8038904
40
2.2552848
50
89.9450767
51
102.772467
0
ARC
8
DEFAULT_255_2_778
10
15.935385
20
45.8282401
40
2.2309384
50
70.8823565
51
90.1147302
0
ARC
8
DEFAULT_255_2_778
10
15.9905632
20
45.9763376
40
2.0729407
50
44.2901938
51
70.9827371
0
ARC
8
DEFAULT_255_2_778
10
16.1848872
20
46.1525159
40
1.8108426
50
0.2106691
51
44.5934534
0
ARC
8
DEFAULT_255_2_778
10
16.1536496
20
46.1749857
40
1.842136
50
305.6258425
51
359.5082062
0
ARC
8
DEFAULT_255_2_778
10
15.9644712
20
46.3918622
40
2.1287928
50
282.6788161
51
306.3644855
0
ARC
8
DEFAULT_255_2_778
10
15.9330856
20
46.5146956
40
2.2555226
50
269.9449312
51
282.771793
0
ARC
8
DEFAULT_255_2_778
10
15.9264631
20
46.4899424
40
2.2307727
50
250.8816438
51
270.1144152
0
ARC
8
DEFAULT_255_2_778
10
15.8713825
20
46.3421387
40
2.0730845
50
224.291267
51
250.9820736
0
ARC
8
DEFAULT_255_2_778
10
15.6769235
20
46.1658574
40
1.810818
50
180.2114661
51
224.5953351
0
ARC
8
DEFAULT_255_2_778
10
15.9307718
20
46.479591
40
2.120317
50
270.040352
51
284.8480771
0
LINE
8
DEFAULT_255_2_778
10
15.9322651
20
44.3592746
11
15.9307802
21
44.3592741
0
ARC
8
DEFAULT_255_2_778
10
15.9307514
20
46.4787336
40
2.1194595
50
255.1489178
51
270.0007799
0
ARC
8
DEFAULT_255_2_778
10
15.9010686
20
46.3808005
40
2.0171931
50
233.6716195
51
255.2508927
0
ARC
8
DEFAULT_255_2_778
10
15.7246381
20
46.1786149
40
1.7499284
50
180.6365392
51
234.4037914
0
ARC
8
DEFAULT_255_2_778
10
15.730268
20
46.1378075
40
1.7555803
50
123.9263335
51
179.3026554
0
ARC
8
DEFAULT_255_2_778
10
15.9024868
20
45.9330882
40
2.0217702
50
104.7565195
51
124.7380085
0
ARC
8
DEFAULT_255_2_778
10
15.9307594
20
45.8416961
40
2.117353
50
89.9994359
51
104.8664219
0
LINE
8
DEFAULT_255_2_778
10
15.9307802
20
47.9590491
11
15.9322651
21
47.9590486
0
ARC
8
DEFAULT_255_2_778
10
15.9307645
20
45.8408393
40
2.1182098
50
75.1366069
51
89.9594104
0
ARC
8
DEFAULT_255_2_778
10
15.9609518
20
45.9380045
40
2.0165566
50
53.6726782
51
75.2574414
0
ARC
8
DEFAULT_255_2_778
10
16.1370026
20
46.1398106
40
1.7498223
50
0.6340463
51
54.4023989
0
ARC
8
DEFAULT_255_2_778
10
16.1310265
20
46.1805634
40
1.7558215
50
303.9319797
51
359.3020097
0
ARC
8
DEFAULT_255_2_778
10
15.9591776
20
46.3847428
40
2.0213593
50
284.7587388
51
304.7429199
0
ARC
8
DEFAULT_255_2_778
10
13.1511906
20
47.8554714
40
0.4804863
50
131.9943381
51
179.5703909
0
ARC
8
DEFAULT_255_2_778
10
13.2103142
20
47.7907114
40
0.5681741
50
89.6366095
51
132.0561765
0
ARC
8
DEFAULT_255_2_778
10
18.6510209
20
47.7907106
40
0.5681749
50
47.9438469
51
90.3633495
0
ARC
8
DEFAULT_255_2_778
10
18.7101449
20
47.8554714
40
0.4804863
50
0.4296091
51
48.0056619
0
LINE
8
DEFAULT_255_2_778
10
37.6320177
20
60.6590741
11
37.6320177
21
60.6590741
0
LINE
8
DEFAULT_255_2_778
10
37.7408177
20
60.6590741
11
37.7408177
21
60.6590741
0
LINE
8
DEFAULT_255_2_778
10
13.8661177
20
46.1591741
11
13.8661177
21
46.1591741
0
LINE
8
DEFAULT_255_2_778
10
15.3875177
20
47.8881741
11
15.3875177
21
44.4298741
0
LINE
8
DEFAULT_255_2_778
10
16.4741177
20
44.4300741
11
16.4741177
21
47.8884741
0
LINE
8
DEFAULT_255_2_778
10
20.1362177
20
48.5393741
11
20.1362177
21
49.0592741
0
LINE
8
DEFAULT_255_2_778
10
12.6707177
20
43.7591741
11
12.6707177
21
47.8590741
0
LINE
8
DEFAULT_255_2_778
10
13.2139177
20
48.3588741
11
18.6474177
21
48.3588741
0
LINE
8
DEFAULT_255_2_778
10
19.1906177
20
47.8590741
11
19.1906177
21
43.7591741
0
LINE
8
DEFAULT_255_2_778
10
13.5616177
20
49.0592741
11
13.5616177
21
48.5393741
0
LINE
8
DEFAULT_255_2_778
10
20.1362177
20
43.7593741
11
20.1362177
21
48.5393741
0
LINE
8
DEFAULT_255_2_778
10
20.1362177
20
48.5393741
11
11.3340177
21
48.5393741
0
LINE
8
DEFAULT_255_2_778
10
11.3340177
20
48.5393741
11
11.3340177
21
43.7593741
0
LINE
8
DEFAULT_255_2_778
10
11.3340177
20
48.5393741
11
10.7906177
21
48.5393741
0
LINE
8
DEFAULT_255_2_778
10
10.7906177
20
48.5393741
11
10.7906177
21
43.7593741
0
LINE
8
DEFAULT_255_2_778
10
20.6794177
20
43.7593741
11
20.6794177
21
49.0592741
0
LINE
8
DEFAULT_255_2_778
10
20.6794177
20
49.0592741
11
10.2474177
21
49.0592741
0
LINE
8
DEFAULT_255_2_778
10
10.2474177
20
49.0592741
11
10.2474177
21
43.7593741
0
ARC
8
DEFAULT_255_2_778
10
15.7082125
20
15.3433945
40
1.842136
50
125.6258425
51
179.5082062
0
ARC
8
DEFAULT_255_2_778
10
15.8973909
20
15.1265181
40
2.1287928
50
102.6788161
51
126.3644855
0
ARC
8
DEFAULT_255_2_778
10
15.9287765
20
15.0036846
40
2.2555226
50
89.9449312
51
102.771793
0
ARC
8
DEFAULT_255_2_778
10
15.935399
20
15.0284379
40
2.2307727
50
70.8816438
51
90.1144152
0
ARC
8
DEFAULT_255_2_778
10
15.9904796
20
15.1762416
40
2.0730845
50
44.291267
51
70.9820736
0
ARC
8
DEFAULT_255_2_778
10
16.1849386
20
15.3525228
40
1.810818
50
0.2114661
51
44.5953351
0
ARC
8
DEFAULT_255_2_778
10
16.1536622
20
15.3750553
40
1.8421503
50
305.6244571
51
359.5070432
0
ARC
8
DEFAULT_255_2_778
10
15.9644159
20
15.5919703
40
2.1288778
50
282.679662
51
306.3641398
0
ARC
8
DEFAULT_255_2_778
10
15.9331063
20
15.7144898
40
2.2552848
50
269.9450767
51
282.772467
0
ARC
8
DEFAULT_255_2_778
10
15.9264771
20
15.6901401
40
2.2309384
50
250.8823565
51
270.1147302
0
ARC
8
DEFAULT_255_2_778
10
15.8712989
20
15.5420426
40
2.0729407
50
224.2901938
51
250.9827371
0
ARC
8
DEFAULT_255_2_778
10
15.6769749
20
15.3658644
40
1.8108426
50
180.2106691
51
224.5934534
0
ARC
8
DEFAULT_255_2_778
10
15.930793
20
15.0389647
40
2.1203414
50
89.9999622
51
104.8479769
0
ARC
8
DEFAULT_255_2_778
10
15.9307958
20
15.0389647
40
2.1203414
50
75.1520231
51
90.0000378
0
ARC
8
DEFAULT_255_2_778
10
15.9605738
20
15.5806301
40
2.0170023
50
284.7511116
51
306.3307214
0
ARC
8
DEFAULT_255_2_778
10
16.1368642
20
15.3786536
40
1.7499883
50
305.5985732
51
359.3632658
0
ARC
8
DEFAULT_255_2_778
10
16.131236
20
15.3378338
40
1.7556385
50
0.6975105
51
56.071192
0
ARC
8
DEFAULT_255_2_778
10
15.9591594
20
15.1333315
40
2.0215698
50
55.2596724
51
75.2415184
0
ARC
8
DEFAULT_255_2_778
10
15.9307878
20
15.6772651
40
2.118234
50
270.0001787
51
284.8633136
0
ARC
8
DEFAULT_255_2_778
10
15.930801
20
15.6772651
40
2.118234
50
255.1366864
51
269.9998213
0
ARC
8
DEFAULT_255_2_778
10
15.9006103
20
15.1380366
40
2.0165566
50
104.7425586
51
126.3273218
0
ARC
8
DEFAULT_255_2_778
10
15.7245596
20
15.3398427
40
1.7498223
50
125.5976011
51
179.3659537
0
ARC
8
DEFAULT_255_2_778
10
15.7305356
20
15.3805954
40
1.7558215
50
180.6979903
51
236.0680203
0
ARC
8
DEFAULT_255_2_778
10
15.9023845
20
15.5847749
40
2.0213593
50
235.2570801
51
255.2412612
0
ARC
8
DEFAULT_255_2_778
10
18.7107907
20
13.6627213
40
0.4800666
50
311.972141
51
359.5804675
0
ARC
8
DEFAULT_255_2_778
10
18.651104
20
13.7276576
40
0.5682622
50
269.6511808
51
312.067713
0
ARC
8
DEFAULT_255_2_778
10
13.210617
20
13.7272198
40
0.5678246
50
227.9152611
51
270.3559274
0
ARC
8
DEFAULT_255_2_778
10
13.1510998
20
13.6628581
40
0.4801694
50
180.4357723
51
228.0386296
0
LINE
8
DEFAULT_255_2_778
10
13.8661444
20
15.3592062
11
13.8661444
21
15.3592062
0
LINE
8
DEFAULT_255_2_778
10
16.4741444
20
17.0885062
11
16.4741444
21
13.6301062
0
LINE
8
DEFAULT_255_2_778
10
15.3874444
20
13.6299062
11
15.3874444
21
17.0882062
0
LINE
8
DEFAULT_255_2_778
10
19.1908444
20
17.7592062
11
19.1908444
21
13.6592062
0
LINE
8
DEFAULT_255_2_778
10
18.6476444
20
13.1594062
11
13.2141444
21
13.1594062
0
LINE
8
DEFAULT_255_2_778
10
12.6709444
20
13.6592062
11
12.6709444
21
17.7592062
0
LINE
8
DEFAULT_255_2_778
10
14.1052444
20
12.9793062
11
14.1052444
21
12.4594062
0
LINE
8
DEFAULT_255_2_778
10
13.0186444
20
12.9793062
11
13.0186444
21
12.4594062
0
LINE
8
DEFAULT_255_2_778
10
20.1364444
20
12.4594062
11
20.1364444
21
12.9793062
0
LINE
8
DEFAULT_255_2_778
10
20.1364444
20
17.7592062
11
20.1364444
21
12.9793062
0
LINE
8
DEFAULT_255_2_778
10
20.1364444
20
12.9793062
11
11.3340444
21
12.9793062
0
LINE
8
DEFAULT_255_2_778
10
11.3340444
20
12.9793062
11
11.3340444
21
17.7592062
0
LINE
8
DEFAULT_255_2_778
10
10.7905444
20
17.7592062
11
10.7905444
21
12.9793062
0
LINE
8
DEFAULT_255_2_778
10
10.7905444
20
12.9793062
11
11.3340444
21
12.9793062
0
LINE
8
DEFAULT_255_2_778
10
10.2474444
20
17.7592062
11
10.2474444
21
12.4594062
0
LINE
8
DEFAULT_255_2_778
10
10.2474444
20
12.4594062
11
20.6796444
21
12.4594062
0
LINE
8
DEFAULT_255_2_778
10
20.6796444
20
12.4594062
11
20.6796444
21
17.7592062
0
LINE
8
DEFAULT_255_2_778
10
20.1362444
20
13.2592062
11
20.6796444
21
13.2592062
0
LINE
8
DEFAULT_255_2_778
10
14.1050444
20
12.7591062
11
17.9629444
21
12.7591062
0
LINE
8
DEFAULT_255_2_778
10
17.9629444
20
12.7591062
11
17.9629444
21
12.4591062
0
LINE
8
DEFAULT_255_2_778
10
10.2474444
20
12.7591062
11
13.0183444
21
12.7591062
0
LINE
8
DEFAULT_255_2_778
10
18.6148444
20
12.9790062
11
18.6148444
21
12.8589062
0
LINE
8
DEFAULT_255_2_778
10
18.6148444
20
12.8589062
11
20.1362444
21
12.8589062
0
LINE
8
DEFAULT_255_2_778
10
4.0315444
20
43.7593062
11
4.0315444
21
17.7592062
0
LINE
8
DEFAULT_255_2_778
10
8.3783444
20
17.7592062
11
4.0315444
21
17.7592062
0
LINE
8
DEFAULT_255_2_778
10
4.0316444
20
43.7593378
11
0.2282444
21
43.7593378
0
LINE
8
DEFAULT_255_2_778
10
0.2282444
20
43.7593378
11
0.2282444
21
17.7592378
0
LINE
8
DEFAULT_255_2_778
10
0.2282444
20
17.7592378
11
4.0316444
21
17.7592378
0
LINE
8
DEFAULT_255_2_778
10
8.3784444
20
43.7593378
11
4.0316444
21
43.7593378
0
LINE
8
DEFAULT_255_2_778
10
8.3784444
20
43.7593378
11
8.3792444
21
42.9179378
0
LINE
8
DEFAULT_255_2_778
10
14.3554444
20
43.7593378
11
8.3784444
21
43.7593378
0
LINE
8
DEFAULT_255_2_778
10
14.3554444
20
42.7256378
11
14.3554444
21
43.7593378
0
LINE
8
DEFAULT_255_2_778
10
22.3968444
20
43.7593378
11
14.3554444
21
43.7593378
0
LINE
8
DEFAULT_255_2_778
10
22.3968444
20
17.7592378
11
31.6337444
21
17.7592378
0
LINE
8
DEFAULT_255_2_778
10
31.6337444
20
17.7592378
11
31.6337444
21
43.7593378
0
LINE
8
DEFAULT_255_2_778
10
31.6337444
20
43.7593378
11
22.3968444
21
43.7593378
0
LINE
8
DEFAULT_255_2_778
10
14.3554444
20
17.7592378
11
22.3968444
21
17.7592378
0
LINE
8
DEFAULT_255_2_778
10
14.3553365
20
32.5679988
11
14.3553365
21
34.0308988
0
LINE
8
DEFAULT_255_2_778
10
8.3784365
20
32.7579988
11
8.3776365
21
33.8406988
0
LINE
8
DEFAULT_255_2_778
10
14.3553365
20
39.1129988
11
14.3561365
21
37.6453988
0
LINE
8
DEFAULT_255_2_778
10
8.3784318
20
38.9206846
11
8.3784318
21
37.8379846
0
LINE
8
DEFAULT_255_2_778
10
14.3553318
20
18.7908846
11
14.3553318
21
17.7592846
0
LINE
8
DEFAULT_255_2_778
10
8.3784318
20
17.7592846
11
14.3553318
21
17.7592846
0
LINE
8
DEFAULT_255_2_778
10
14.3553442
20
28.9529513
11
14.3553442
21
27.4877513
0
LINE
8
DEFAULT_255_2_778
10
8.3791442
20
28.7606513
11
8.3784442
21
27.6779513
0
LINE
8
DEFAULT_255_2_778
10
14.3561442
20
22.4053513
11
14.3553442
21
23.8729513
0
LINE
8
DEFAULT_255_2_778
10
8.3784442
20
17.7592513
11
8.3784442
21
18.6006513
0
LINE
8
DEFAULT_255_2_778
10
8.3791442
20
23.6806513
11
8.3784442
21
22.5979513
0
LINE
8
DEFAULT_255_2_778
10
8.0257442
20
38.9206513
11
10.2799442
21
39.4193513
0
LINE
8
DEFAULT_255_2_778
10
14.4281442
20
39.1132513
11
14.4281442
21
42.7255513
0
LINE
8
DEFAULT_255_2_778
10
8.0254442
20
42.9179513
11
8.0254442
21
38.9206513
0
LINE
8
DEFAULT_255_2_778
10
8.0254442
20
38.9206513
11
8.3781442
21
38.9206513
0
LINE
8
DEFAULT_255_2_778
10
8.3781442
20
38.9206513
11
14.3550442
21
39.1129513
0
LINE
8
DEFAULT_255_2_778
10
14.3550442
20
39.1129513
11
14.4281442
21
39.1129513
0
LINE
8
DEFAULT_255_2_778
10
14.4281442
20
39.1129513
11
13.7573442
21
39.4191513
0
LINE
8
DEFAULT_255_2_778
10
13.7573442
20
42.4192513
11
10.2802442
21
42.4192513
0
LINE
8
DEFAULT_255_2_778
10
10.2802442
20
42.4192513
11
8.0257442
21
42.9179513
0
LINE
8
DEFAULT_255_2_778
10
8.0257442
20
42.9179513
11
8.3794442
21
42.9179513
0
LINE
8
DEFAULT_255_2_778
10
8.3794442
20
42.9179513
11
14.3553442
21
42.7255513
0
LINE
8
DEFAULT_255_2_778
10
14.3553442
20
42.7255513
11
14.4283442
21
42.7255513
0
LINE
8
DEFAULT_255_2_778
10
14.4283442
20
42.7255513
11
13.7576442
21
42.4194513
0
LINE
8
DEFAULT_255_2_778
10
13.7576442
20
42.4194513
11
13.7576442
21
39.4193513
0
LINE
8
DEFAULT_255_2_778
10
13.7576442
20
39.4193513
11
10.2799442
21
39.4193513
0
LINE
8
DEFAULT_255_2_778
10
10.2799442
20
39.4193513
11
10.2799442
21
42.4194513
0
LINE
8
DEFAULT_255_2_778
10
14.4283442
20
37.6453513
11
13.7576442
21
37.3392513
0
LINE
8
DEFAULT_255_2_778
10
8.0257442
20
33.8406513
11
8.0257442
21
37.8379513
0
LINE
8
DEFAULT_255_2_778
10
14.4283442
20
34.0329513
11
14.4283442
21
37.6453513
0
LINE
8
DEFAULT_255_2_778
10
14.4283442
20
37.6453513
11
14.3561442
21
37.6453513
0
LINE
8
DEFAULT_255_2_778
10
14.3561442
20
37.6453513
11
8.3784442
21
37.8379513
0
LINE
8
DEFAULT_255_2_778
10
8.3784442
20
37.8379513
11
8.0257442
21
37.8379513
0
LINE
8
DEFAULT_255_2_778
10
8.0257442
20
37.8379513
11
10.2802442
21
37.3392513
0
LINE
8
DEFAULT_255_2_778
10
10.2802442
20
37.3392513
11
10.2804442
21
34.3393513
0
LINE
8
DEFAULT_255_2_778
10
10.2804442
20
34.3393513
11
13.7576442
21
34.3393513
0
LINE
8
DEFAULT_255_2_778
10
13.7576442
20
34.3393513
11
14.4283442
21
34.0332513
0
LINE
8
DEFAULT_255_2_778
10
14.4283442
20
34.0332513
11
14.3553442
21
34.0308513
0
LINE
8
DEFAULT_255_2_778
10
14.3553442
20
34.0308513
11
14.3553442
21
34.0332513
0
LINE
8
DEFAULT_255_2_778
10
10.2804442
20
34.3396513
11
8.0257442
21
33.8408513
0
LINE
8
DEFAULT_255_2_778
10
8.0257442
20
33.8408513
11
8.3776442
21
33.8408513
0
LINE
8
DEFAULT_255_2_778
10
8.3776442
20
33.8408513
11
14.3553442
21
34.0311513
0
LINE
8
DEFAULT_255_2_778
10
13.7576442
20
34.3396513
11
13.7576442
21
37.3394513
0
LINE
8
DEFAULT_255_2_778
10
13.7576442
20
37.3394513
11
10.2802442
21
37.3394513
0
LINE
8
DEFAULT_255_2_778
10
13.7576442
20
29.2593513
11
14.4283442
21
28.9532513
0
LINE
8
DEFAULT_255_2_778
10
14.4283442
20
28.9532513
11
14.4283442
21
32.5655513
0
LINE
8
DEFAULT_255_2_778
10
8.0257442
20
28.7606513
11
8.3794442
21
28.7606513
0
LINE
8
DEFAULT_255_2_778
10
8.3794442
20
28.7606513
11
14.3553442
21
28.9529513
0
LINE
8
DEFAULT_255_2_778
10
14.3553442
20
28.9529513
11
14.4283442
21
28.9529513
0
LINE
8
DEFAULT_255_2_778
10
10.2802442
20
29.2590513
11
13.7576442
21
29.2590513
0
LINE
8
DEFAULT_255_2_778
10
13.7576442
20
29.2590513
11
13.7576442
21
32.2592513
0
LINE
8
DEFAULT_255_2_778
10
13.7576442
20
32.2592513
11
10.2802442
21
32.2592513
0
LINE
8
DEFAULT_255_2_778
10
8.0257442
20
32.7579513
11
8.0257442
21
28.7606513
0
LINE
8
DEFAULT_255_2_778
10
8.0257442
20
28.7606513
11
10.2802442
21
29.2593513
0
LINE
8
DEFAULT_255_2_778
10
10.2802442
20
29.2593513
11
10.2802442
21
32.2594513
0
LINE
8
DEFAULT_255_2_778
10
10.2802442
20
32.2594513
11
8.0257442
21
32.7582513
0
LINE
8
DEFAULT_255_2_778
10
8.0257442
20
32.7582513
11
8.3784442
21
32.7582513
0
LINE
8
DEFAULT_255_2_778
10
8.3784442
20
32.7582513
11
14.3553442
21
32.5679513
0
LINE
8
DEFAULT_255_2_778
10
14.3553442
20
32.5679513
11
14.3553442
21
32.5655513
0
LINE
8
DEFAULT_255_2_778
10
14.3553442
20
32.5679513
11
14.4283442
21
32.5655513
0
LINE
8
DEFAULT_255_2_778
10
14.4283442
20
32.5655513
11
13.7576442
21
32.2594513
0
LINE
8
DEFAULT_255_2_778
10
14.3553052
20
27.487731
11
14.3553052
21
27.485431
0
LINE
8
DEFAULT_255_2_778
10
13.7576052
20
24.179131
11
14.4283052
21
23.873031
0
LINE
8
DEFAULT_255_2_778
10
14.4283052
20
23.873031
11
14.4283052
21
27.485431
0
LINE
8
DEFAULT_255_2_778
10
8.0257052
20
23.680731
11
8.3792052
21
23.680731
0
LINE
8
DEFAULT_255_2_778
10
8.3792052
20
23.680731
11
14.3551052
21
23.873031
0
LINE
8
DEFAULT_255_2_778
10
14.3551052
20
23.873031
11
14.4281052
21
23.873031
0
LINE
8
DEFAULT_255_2_778
10
10.2799052
20
24.179131
11
13.7574052
21
24.179131
0
LINE
8
DEFAULT_255_2_778
10
13.7574052
20
24.179131
11
13.7574052
21
27.179231
0
LINE
8
DEFAULT_255_2_778
10
13.7574052
20
27.179231
11
10.2802052
21
27.179231
0
LINE
8
DEFAULT_255_2_778
10
8.0257052
20
27.678031
11
8.0257052
21
23.680731
0
LINE
8
DEFAULT_255_2_778
10
8.0257052
20
23.680731
11
10.2802052
21
24.179431
0
LINE
8
DEFAULT_255_2_778
10
10.2802052
20
24.179431
11
10.2802052
21
27.179531
0
LINE
8
DEFAULT_255_2_778
10
10.2802052
20
27.179531
11
8.0257052
21
27.678231
0
LINE
8
DEFAULT_255_2_778
10
8.0257052
20
27.678231
11
8.3784052
21
27.678231
0
LINE
8
DEFAULT_255_2_778
10
8.3784052
20
27.678231
11
14.3553052
21
27.488031
0
LINE
8
DEFAULT_255_2_778
10
14.3553052
20
27.488031
11
14.4283052
21
27.485631
0
LINE
8
DEFAULT_255_2_778
10
14.4283052
20
27.485631
11
13.7576052
21
27.179531
0
LINE
8
DEFAULT_255_2_778
10
14.4283052
20
18.793031
11
14.3553052
21
18.790631
0
LINE
8
DEFAULT_255_2_778
10
14.3553052
20
18.790631
11
14.3553052
21
18.793031
0
LINE
8
DEFAULT_255_2_778
10
8.0257052
20
18.600731
11
8.3784052
21
18.600731
0
LINE
8
DEFAULT_255_2_778
10
8.3784052
20
18.600731
11
14.3553052
21
18.790931
0
LINE
8
DEFAULT_255_2_778
10
8.0257052
20
22.598031
11
8.0257052
21
18.600731
0
LINE
8
DEFAULT_255_2_778
10
8.0257052
20
18.600731
11
10.2805052
21
19.099431
0
LINE
8
DEFAULT_255_2_778
10
13.7576052
20
22.099231
11
10.2802052
21
22.099231
0
LINE
8
DEFAULT_255_2_778
10
10.2802052
20
22.099231
11
8.0257052
21
22.598031
0
LINE
8
DEFAULT_255_2_778
10
8.0257052
20
22.598031
11
8.3784052
21
22.598031
0
LINE
8
DEFAULT_255_2_778
10
8.3784052
20
22.598031
11
14.3561052
21
22.405431
0
LINE
8
DEFAULT_255_2_778
10
14.3561052
20
22.405431
11
14.4283052
21
22.405431
0
LINE
8
DEFAULT_255_2_778
10
13.7576052
20
19.099131
11
14.4283052
21
18.793031
0
LINE
8
DEFAULT_255_2_778
10
14.4283052
20
18.793031
11
14.4283052
21
22.405431
0
LINE
8
DEFAULT_255_2_778
10
14.4283052
20
22.405431
11
13.7576052
21
22.099231
0
LINE
8
DEFAULT_255_2_778
10
13.7576052
20
22.099231
11
13.7576052
21
19.099431
0
LINE
8
DEFAULT_255_2_778
10
13.7576052
20
19.099431
11
10.2805052
21
19.099431
0
LINE
8
DEFAULT_255_2_778
10
10.2805052
20
19.099431
11
10.2802052
21
22.099231
0
LINE
8
DEFAULT_255_2_778
10
22.3968052
20
42.725631
11
22.3968052
21
43.759431
0
LINE
8
DEFAULT_255_2_778
10
22.3968052
20
18.793331
11
22.3968052
21
17.759531
0
LINE
8
DEFAULT_255_2_778
10
22.3968052
20
23.873331
11
22.3968052
21
22.405631
0
LINE
8
DEFAULT_255_2_778
10
22.3968052
20
28.953331
11
22.3968052
21
27.485631
0
LINE
8
DEFAULT_255_2_778
10
22.3968052
20
34.033331
11
22.3968052
21
32.565631
0
LINE
8
DEFAULT_255_2_778
10
22.3968052
20
39.113331
11
22.3968052
21
37.645631
0
LINE
8
DEFAULT_255_2_778
10
16.7199052
20
18.793331
11
22.3968052
21
18.793331
0
LINE
8
DEFAULT_255_2_778
10
22.3968052
20
18.793331
11
22.5839052
21
18.798331
0
LINE
8
DEFAULT_255_2_778
10
22.5839052
20
18.798331
11
21.5819052
21
19.099431
0
LINE
8
DEFAULT_255_2_778
10
16.7199052
20
22.405631
11
22.3968052
21
22.405631
0
LINE
8
DEFAULT_255_2_778
10
22.3968052
20
22.405631
11
22.5839052
21
22.400631
0
LINE
8
DEFAULT_255_2_778
10
21.5819052
20
22.099531
11
18.1042052
21
22.099531
0
LINE
8
DEFAULT_255_2_778
10
18.1042052
20
22.099531
11
16.7199052
21
22.405631
0
LINE
8
DEFAULT_255_2_778
10
16.7199052
20
22.405631
11
16.7199052
21
18.793331
0
LINE
8
DEFAULT_255_2_778
10
16.7199052
20
18.793331
11
18.1042052
21
19.099431
0
LINE
8
DEFAULT_255_2_778
10
18.1042052
20
22.099531
11
18.1042052
21
19.099431
0
LINE
8
DEFAULT_255_2_778
10
18.1042052
20
19.099431
11
21.5816052
21
19.099431
0
LINE
8
DEFAULT_255_2_778
10
21.5816052
20
19.099431
11
21.5816052
21
22.099531
0
LINE
8
DEFAULT_255_2_778
10
21.5816052
20
22.099531
11
22.5836052
21
22.400631
0
LINE
8
DEFAULT_255_2_778
10
22.5836052
20
22.400631
11
22.5836052
21
18.798631
0
LINE
8
DEFAULT_255_2_778
10
16.7199052
20
23.873331
11
22.3968052
21
23.873331
0
LINE
8
DEFAULT_255_2_778
10
22.3968052
20
23.873331
11
22.5839052
21
23.878331
0
LINE
8
DEFAULT_255_2_778
10
22.5839052
20
23.878331
11
21.5819052
21
24.179431
0
LINE
8
DEFAULT_255_2_778
10
16.7199052
20
27.485631
11
22.3965052
21
27.485631
0
LINE
8
DEFAULT_255_2_778
10
22.3965052
20
27.485631
11
22.5836052
21
27.480631
0
LINE
8
DEFAULT_255_2_778
10
21.5816052
20
27.179531
11
18.1039052
21
27.179531
0
LINE
8
DEFAULT_255_2_778
10
18.1039052
20
27.179531
11
16.7199052
21
27.485631
0
LINE
8
DEFAULT_255_2_778
10
16.7199052
20
27.485631
11
16.7199052
21
23.873331
0
LINE
8
DEFAULT_255_2_778
10
16.7199052
20
23.873331
11
18.1039052
21
24.179431
0
LINE
8
DEFAULT_255_2_778
10
18.1039052
20
27.179531
11
18.1039052
21
24.179431
0
LINE
8
DEFAULT_255_2_778
10
18.1039052
20
24.179431
11
21.5816052
21
24.179431
0
LINE
8
DEFAULT_255_2_778
10
21.5816052
20
24.179431
11
21.5816052
21
27.179531
0
LINE
8
DEFAULT_255_2_778
10
21.5816052
20
27.179531
11
22.5836052
21
27.480631
0
LINE
8
DEFAULT_255_2_778
10
22.5836052
20
27.480631
11
22.5836052
21
23.878331
0
LINE
8
DEFAULT_255_2_778
10
22.5836052
20
32.560631
11
22.3965052
21
32.565631
0
LINE
8
DEFAULT_255_2_778
10
22.3965052
20
32.565631
11
16.7199052
21
32.565631
0
LINE
8
DEFAULT_255_2_778
10
16.7199052
20
32.565631
11
16.7199052
21
28.953331
0
LINE
8
DEFAULT_255_2_778
10
18.1042052
20
32.259531
11
16.7199052
21
32.565631
0
LINE
8
DEFAULT_255_2_778
10
21.5816052
20
32.259531
11
18.1042052
21
32.259531
0
LINE
8
DEFAULT_255_2_778
10
18.1042052
20
32.259531
11
18.1042052
21
29.259431
0
LINE
8
DEFAULT_255_2_778
10
18.1042052
20
29.259431
11
21.5816052
21
29.259431
0
LINE
8
DEFAULT_255_2_778
10
21.5816052
20
29.259431
11
21.5816052
21
32.259531
0
LINE
8
DEFAULT_255_2_778
10
21.5816052
20
32.259531
11
22.5836052
21
32.560631
0
LINE
8
DEFAULT_255_2_778
10
22.5836052
20
32.560631
11
22.5836052
21
28.958331
0
LINE
8
DEFAULT_255_2_778
10
22.5836052
20
28.958331
11
22.3965052
21
28.953331
0
LINE
8
DEFAULT_255_2_778
10
22.3965052
20
28.953331
11
16.7199052
21
28.953331
0
LINE
8
DEFAULT_255_2_778
10
16.7199052
20
28.953331
11
18.1042052
21
29.259731
0
LINE
8
DEFAULT_255_2_778
10
22.5836052
20
28.958631
11
21.5816052
21
29.259731
0
LINE
8
DEFAULT_255_2_778
10
22.5836052
20
37.640631
11
22.3965052
21
37.645631
0
LINE
8
DEFAULT_255_2_778
10
22.3965052
20
37.645631
11
16.7199052
21
37.645631
0
LINE
8
DEFAULT_255_2_778
10
16.7199052
20
37.645631
11
16.7199052
21
34.033331
0
LINE
8
DEFAULT_255_2_778
10
18.1042052
20
37.339531
11
16.7199052
21
37.645631
0
LINE
8
DEFAULT_255_2_778
10
21.5816052
20
37.339531
11
18.1042052
21
37.339531
0
LINE
8
DEFAULT_255_2_778
10
18.1042052
20
37.339531
11
18.1042052
21
34.339431
0
LINE
8
DEFAULT_255_2_778
10
18.1042052
20
34.339431
11
21.5816052
21
34.339431
0
LINE
8
DEFAULT_255_2_778
10
21.5816052
20
34.339431
11
21.5816052
21
37.339531
0
LINE
8
DEFAULT_255_2_778
10
21.5816052
20
37.339531
11
22.5836052
21
37.640631
0
LINE
8
DEFAULT_255_2_778
10
22.5836052
20
37.640631
11
22.5836052
21
34.038331
0
LINE
8
DEFAULT_255_2_778
10
22.5836052
20
34.038331
11
22.3965052
21
34.033331
0
LINE
8
DEFAULT_255_2_778
10
22.3965052
20
34.033331
11
16.7199052
21
34.033331
0
LINE
8
DEFAULT_255_2_778
10
16.7199052
20
34.033331
11
18.1042052
21
34.339431
0
LINE
8
DEFAULT_255_2_778
10
22.5836052
20
34.038331
11
21.5816052
21
34.339431
0
LINE
8
DEFAULT_255_2_778
10
18.1042052
20
39.419431
11
16.7199052
21
39.113331
0
LINE
8
DEFAULT_255_2_778
10
22.5836052
20
39.118331
11
22.3965052
21
39.113331
0
LINE
8
DEFAULT_255_2_778
10
22.3965052
20
39.113331
11
16.7199052
21
39.113331
0
LINE
8
DEFAULT_255_2_778
10
16.7199052
20
39.113331
11
16.7199052
21
42.725631
0
LINE
8
DEFAULT_255_2_778
10
16.7199052
20
42.725631
11
18.1042052
21
42.419531
0
LINE
8
DEFAULT_255_2_778
10
18.1042052
20
42.419531
11
21.5816052
21
42.419531
0
LINE
8
DEFAULT_255_2_778
10
22.5836052
20
42.720631
11
22.3965052
21
42.725631
0
LINE
8
DEFAULT_255_2_778
10
22.3965052
20
42.725631
11
16.7199052
21
42.725631
0
LINE
8
DEFAULT_255_2_778
10
21.5816052
20
39.419431
11
22.5836052
21
39.118331
0
LINE
8
DEFAULT_255_2_778
10
22.5836052
20
39.118331
11
22.5836052
21
42.720331
0
LINE
8
DEFAULT_255_2_778
10
22.5836052
20
42.720331
11
21.5816052
21
42.419231
0
LINE
8
DEFAULT_255_2_778
10
21.5816052
20
42.419231
11
21.5816052
21
39.419131
0
LINE
8
DEFAULT_255_2_778
10
21.5816052
20
39.419131
11
18.1042052
21
39.419131
0
LINE
8
DEFAULT_255_2_778
10
18.1042052
20
39.419131
11
18.1042052
21
42.419231
0
LINE
8
DEFAULT_255_2_778
10
43.0113052
20
91.759031
11
26.0589052
21
91.759031
0
LINE
8
DEFAULT_255_2_778
10
26.0589052
20
91.759031
11
26.0589052
21
79.759131
0
LINE
8
DEFAULT_255_2_778
10
26.0589052
20
79.759131
11
43.0113052
21
79.759131
0
LINE
8
DEFAULT_255_2_778
10
43.0113052
20
79.759131
11
43.0113052
21
91.759031
0
ARC
8
DEFAULT_255_2_778
10
18.8444131
20
78.2405239
40
1.4247258
50
118.6636405
51
179.2482906
0
ARC
8
DEFAULT_255_2_778
10
18.9826082
20
78.0488983
40
1.6594149
50
95.4444576
51
119.6768398
0
ARC
8
DEFAULT_255_2_778
10
18.9950549
20
77.9637683
40
1.7453472
50
89.9883466
51
95.5860536
0
ARC
8
DEFAULT_255_2_778
10
18.999906
20
78.015784
40
1.6933375
50
67.6069861
51
90.1521321
0
ARC
8
DEFAULT_255_2_778
10
19.065403
20
78.1573567
40
1.5375032
50
33.08162
51
67.8538627
0
ARC
8
DEFAULT_255_2_778
10
19.210429
20
78.2588873
40
1.3605809
50
0.0138212
51
32.8326649
0
ARC
8
DEFAULT_255_2_778
10
19.1464066
20
78.2779071
40
1.4247258
50
298.6636405
51
359.2482906
0
ARC
8
DEFAULT_255_2_778
10
19.0082115
20
78.4695327
40
1.6594149
50
275.4444576
51
299.6768398
0
ARC
8
DEFAULT_255_2_778
10
18.9957648
20
78.5546627
40
1.7453472
50
269.9883466
51
275.5860536
0
ARC
8
DEFAULT_255_2_778
10
18.9909137
20
78.502647
40
1.6933375
50
247.6069861
51
270.1521321
0
ARC
8
DEFAULT_255_2_778
10
18.9254167
20
78.3610743
40
1.5375032
50
213.08162
51
247.8538627
0
ARC
8
DEFAULT_255_2_778
10
18.7803907
20
78.2595437
40
1.3605809
50
180.0138212
51
212.8326649
0
LINE
8
DEFAULT_255_2_778
10
17.4198098
20
78.2592155
11
17.4198098
21
78.2592155
0
ARC
8
DEFAULT_255_2_778
10
18.8444131
20
83.2405239
40
1.4247258
50
118.6636405
51
179.2482906
0
ARC
8
DEFAULT_255_2_778
10
18.9826082
20
83.0488983
40
1.6594149
50
95.4444576
51
119.6768398
0
ARC
8
DEFAULT_255_2_778
10
18.9950549
20
82.9637683
40
1.7453472
50
89.9883466
51
95.5860536
0
ARC
8
DEFAULT_255_2_778
10
18.999906
20
83.015784
40
1.6933375
50
67.6069861
51
90.1521321
0
ARC
8
DEFAULT_255_2_778
10
19.065403
20
83.1573567
40
1.5375032
50
33.08162
51
67.8538627
0
ARC
8
DEFAULT_255_2_778
10
19.210429
20
83.2588873
40
1.3605809
50
0.0138212
51
32.8326649
0
ARC
8
DEFAULT_255_2_778
10
19.1464066
20
83.2779071
40
1.4247258
50
298.6636405
51
359.2482906
0
ARC
8
DEFAULT_255_2_778
10
19.0082115
20
83.4695327
40
1.6594149
50
275.4444576
51
299.6768398
0
ARC
8
DEFAULT_255_2_778
10
18.9957648
20
83.5546627
40
1.7453472
50
269.9883466
51
275.5860536
0
ARC
8
DEFAULT_255_2_778
10
18.9909137
20
83.502647
40
1.6933375
50
247.6069861
51
270.1521321
0
ARC
8
DEFAULT_255_2_778
10
18.9254167
20
83.3610743
40
1.5375032
50
213.08162
51
247.8538627
0
ARC
8
DEFAULT_255_2_778
10
18.7803907
20
83.2595437
40
1.3605809
50
180.0138212
51
212.8326649
0
LINE
8
DEFAULT_255_2_778
10
17.4198098
20
83.2592155
11
17.4198098
21
83.2592155
0
ARC
8
DEFAULT_255_2_778
10
18.8444131
20
88.2404259
40
1.4247258
50
118.6636405
51
179.2482906
0
ARC
8
DEFAULT_255_2_778
10
18.9826082
20
88.0488003
40
1.6594149
50
95.4444576
51
119.6768398
0
ARC
8
DEFAULT_255_2_778
10
18.9950549
20
87.9636703
40
1.7453472
50
89.9883466
51
95.5860536
0
ARC
8
DEFAULT_255_2_778
10
18.999906
20
88.015686
40
1.6933375
50
67.6069861
51
90.1521321
0
ARC
8
DEFAULT_255_2_778
10
19.065403
20
88.1572588
40
1.5375032
50
33.08162
51
67.8538627
0
ARC
8
DEFAULT_255_2_778
10
19.210429
20
88.2587893
40
1.3605809
50
0.0138212
51
32.8326649
0
ARC
8
DEFAULT_255_2_778
10
19.1464066
20
88.2778091
40
1.4247258
50
298.6636405
51
359.2482906
0
ARC
8
DEFAULT_255_2_778
10
19.0082115
20
88.4694347
40
1.6594149
50
275.4444576
51
299.6768398
0
ARC
8
DEFAULT_255_2_778
10
18.9957648
20
88.5545647
40
1.7453472
50
269.9883466
51
275.5860536
0
ARC
8
DEFAULT_255_2_778
10
18.9909137
20
88.502549
40
1.6933375
50
247.6069861
51
270.1521321
0
ARC
8
DEFAULT_255_2_778
10
18.9254167
20
88.3609763
40
1.5375032
50
213.08162
51
247.8538627
0
ARC
8
DEFAULT_255_2_778
10
18.7803907
20
88.2594457
40
1.3605809
50
180.0138212
51
212.8326649
0
LINE
8
DEFAULT_255_2_778
10
17.4198098
20
88.2591175
11
17.4198098
21
88.2591175
0
ARC
8
DEFAULT_255_2_778
10
18.8444131
20
93.2405239
40
1.4247258
50
118.6636405
51
179.2482906
0
ARC
8
DEFAULT_255_2_778
10
18.9826082
20
93.0488983
40
1.6594149
50
95.4444576
51
119.6768398
0
ARC
8
DEFAULT_255_2_778
10
18.9950549
20
92.9637683
40
1.7453472
50
89.9883466
51
95.5860536
0
ARC
8
DEFAULT_255_2_778
10
18.999906
20
93.015784
40
1.6933375
50
67.6069861
51
90.1521321
0
ARC
8
DEFAULT_255_2_778
10
19.065403
20
93.1573567
40
1.5375032
50
33.08162
51
67.8538627
0
ARC
8
DEFAULT_255_2_778
10
19.210429
20
93.2588873
40
1.3605809
50
0.0138212
51
32.8326649
0
ARC
8
DEFAULT_255_2_778
10
19.1464066
20
93.2779071
40
1.4247258
50
298.6636405
51
359.2482906
0
ARC
8
DEFAULT_255_2_778
10
19.0082115
20
93.4695327
40
1.6594149
50
275.4444576
51
299.6768398
0
ARC
8
DEFAULT_255_2_778
10
18.9957648
20
93.5546627
40
1.7453472
50
269.9883466
51
275.5860536
0
ARC
8
DEFAULT_255_2_778
10
18.9909137
20
93.502647
40
1.6933375
50
247.6069861
51
270.1521321
0
ARC
8
DEFAULT_255_2_778
10
18.9254167
20
93.3610743
40
1.5375032
50
213.08162
51
247.8538627
0
ARC
8
DEFAULT_255_2_778
10
18.7803907
20
93.2595437
40
1.3605809
50
180.0138212
51
212.8326649
0
LINE
8
DEFAULT_255_2_778
10
17.4198098
20
93.2592155
11
17.4198098
21
93.2592155
0
ARC
8
DEFAULT_255_2_778
10
29.6741723
20
6.5250522
40
1.9309078
50
127.9030748
51
179.5836641
0
ARC
8
DEFAULT_255_2_778
10
29.8751278
20
6.3076067
40
2.2260761
50
104.6357398
51
128.5460725
0
ARC
8
DEFAULT_255_2_778
10
29.9136846
20
6.1737598
40
2.3653248
50
89.9290063
51
104.7201864
0
ARC
8
DEFAULT_255_2_778
10
29.9209955
20
6.188912
40
2.3501749
50
71.5369755
51
90.1067851
0
ARC
8
DEFAULT_255_2_778
10
29.9743313
20
6.3381384
40
2.191741
50
46.0261991
51
71.6240689
0
ARC
8
DEFAULT_255_2_778
10
30.1778584
20
6.5304038
40
1.9121051
50
0.4476201
51
46.4149724
0
ARC
8
DEFAULT_255_2_778
10
30.2070799
20
6.5390839
40
1.8828356
50
359.9999686
51
0.190435
0
ARC
8
DEFAULT_255_2_778
10
30.1590535
20
6.5531479
40
1.9309131
50
307.9016169
51
359.5826442
0
ARC
8
DEFAULT_255_2_778
10
29.9580123
20
6.7706527
40
2.2261806
50
284.6365013
51
308.5455791
0
ARC
8
DEFAULT_255_2_778
10
29.9195388
20
6.9041873
40
2.3651062
50
269.9291797
51
284.7208709
0
ARC
8
DEFAULT_255_2_778
10
29.9122236
20
6.8894277
40
2.350349
50
251.537663
51
270.1070617
0
ARC
8
DEFAULT_255_2_778
10
29.858822
20
6.7399642
40
2.1916694
50
226.0417698
51
251.6244778
0
ARC
8
DEFAULT_255_2_778
10
29.655445
20
6.5477498
40
1.9121777
50
180.4473167
51
226.4306298
0
ARC
8
DEFAULT_255_2_778
10
29.6275578
20
6.5390817
40
1.8842425
50
179.9999641
51
180.1903636
0
ARC
8
DEFAULT_255_2_778
10
30.0246411
20
6.4189699
40
1.9835714
50
36.7533686
51
57.9917698
0
ARC
8
DEFAULT_255_2_778
10
29.935696
20
6.2802054
40
2.1483852
50
57.9418438
51
79.2680501
0
ARC
8
DEFAULT_255_2_778
10
29.9179838
20
6.203968
40
2.2265898
50
79.1855549
51
88.7502193
0
ARC
8
DEFAULT_255_2_778
10
29.9173223
20
6.1915979
40
2.2389715
50
88.7402003
51
90.0003369
0
ARC
8
DEFAULT_255_2_778
10
29.9029158
20
6.2830165
40
2.1476012
50
89.6159961
51
132.096094
0
ARC
8
DEFAULT_255_2_778
10
29.7604351
20
6.4614772
40
1.9197143
50
132.5113155
51
147.5195822
0
ARC
8
DEFAULT_255_2_778
10
29.6529138
20
6.5290579
40
1.7927204
50
147.4962264
51
170.7518039
0
ARC
8
DEFAULT_255_2_778
10
29.6109445
20
6.538422
40
1.7497937
50
170.8335835
51
179.9959237
0
ARC
8
DEFAULT_255_2_778
10
29.6070136
20
6.538552
40
1.7458628
50
180.0001806
51
181.4941423
0
ARC
8
DEFAULT_255_2_778
10
29.6178644
20
6.5398192
40
1.7567432
50
181.5262289
51
202.6960211
0
ARC
8
DEFAULT_255_2_778
10
29.6978484
20
6.573426
40
1.8435008
50
202.7004743
51
216.2282589
0
ARC
8
DEFAULT_255_2_778
10
29.7613396
20
6.6166744
40
1.9202788
50
216.1495968
51
216.5804383
0
ARC
8
DEFAULT_255_2_778
10
29.806195
20
6.6569331
40
1.9802988
50
216.7423736
51
238.0142883
0
ARC
8
DEFAULT_255_2_778
10
29.8975278
20
6.797853
40
2.1482058
50
237.9390663
51
259.2686766
0
ARC
8
DEFAULT_255_2_778
10
29.9152707
20
6.8741848
40
2.2265088
50
259.1858338
51
268.7519417
0
ARC
8
DEFAULT_255_2_778
10
29.9159589
20
6.8886195
40
2.2409551
50
268.7423885
51
269.9996387
0
ARC
8
DEFAULT_255_2_778
10
29.9303944
20
6.7946585
40
2.1470427
50
269.6143955
51
312.1031099
0
ARC
8
DEFAULT_255_2_778
10
30.072752
20
6.6169331
40
1.9197828
50
312.5071618
51
327.5161286
0
ARC
8
DEFAULT_255_2_778
10
30.180423
20
6.5492523
40
1.7926091
50
327.4926563
51
350.7504491
0
ARC
8
DEFAULT_255_2_778
10
30.2224922
20
6.5398656
40
1.7495799
50
350.8324052
51
359.9958399
0
ARC
8
DEFAULT_255_2_778
10
30.2265174
20
6.5397332
40
1.7455546
50
0.0001785
51
1.4851826
0
ARC
8
DEFAULT_255_2_778
10
30.2156962
20
6.5384747
40
1.7564051
50
1.5170715
51
22.694331
0
ARC
8
DEFAULT_255_2_778
10
30.1358019
20
6.5049048
40
1.8430656
50
22.6988821
51
36.2317617
0
ARC
8
DEFAULT_255_2_778
10
30.080662
20
6.4677881
40
1.909483
50
36.1522162
51
36.5855545
0
LINE
8
DEFAULT_255_2_778
10
27.7433154
20
6.5390828
11
27.7433154
21
6.5390828
0
LINE
8
DEFAULT_255_2_778
10
28.2193154
20
5.4722828
11
31.0760154
21
8.1011828
0
LINE
8
DEFAULT_255_2_778
10
31.6139154
20
7.6058828
11
28.7572154
21
4.9769828
0
ARC
8
DEFAULT_255_2_778
10
35.1076682
20
6.5250522
40
1.9309078
50
127.9030748
51
179.5836641
0
ARC
8
DEFAULT_255_2_778
10
35.3086238
20
6.3076067
40
2.2260761
50
104.6357398
51
128.5460725
0
ARC
8
DEFAULT_255_2_778
10
35.3471806
20
6.1737598
40
2.3653248
50
89.9290063
51
104.7201864
0
ARC
8
DEFAULT_255_2_778
10
35.3544915
20
6.188912
40
2.3501749
50
71.5369755
51
90.1067851
0
ARC
8
DEFAULT_255_2_778
10
35.4078273
20
6.3381384
40
2.191741
50
46.0261991
51
71.6240689
0
ARC
8
DEFAULT_255_2_778
10
35.6113544
20
6.5304038
40
1.9121051
50
0.4476201
51
46.4149724
0
ARC
8
DEFAULT_255_2_778
10
35.6405758
20
6.5390839
40
1.8828356
50
359.9999686
51
0.190435
0
ARC
8
DEFAULT_255_2_778
10
35.5925494
20
6.5531479
40
1.9309131
50
307.9016169
51
359.5826442
0
ARC
8
DEFAULT_255_2_778
10
35.3915083
20
6.7706527
40
2.2261806
50
284.6365013
51
308.5455791
0
ARC
8
DEFAULT_255_2_778
10
35.3530347
20
6.9041873
40
2.3651062
50
269.9291797
51
284.7208709
0
ARC
8
DEFAULT_255_2_778
10
35.3457196
20
6.8894277
40
2.350349
50
251.537663
51
270.1070617
0
ARC
8
DEFAULT_255_2_778
10
35.292318
20
6.7399642
40
2.1916694
50
226.0417698
51
251.6244778
0
ARC
8
DEFAULT_255_2_778
10
35.0889409
20
6.5477498
40
1.9121777
50
180.4473167
51
226.4306298
0
ARC
8
DEFAULT_255_2_778
10
35.0610538
20
6.5390817
40
1.8842425
50
179.9999641
51
180.1903636
0
ARC
8
DEFAULT_255_2_778
10
35.458137
20
6.4189699
40
1.9835714
50
36.7533686
51
57.9917698
0
ARC
8
DEFAULT_255_2_778
10
35.369192
20
6.2802054
40
2.1483852
50
57.9418438
51
79.2680501
0
ARC
8
DEFAULT_255_2_778
10
35.3514798
20
6.203968
40
2.2265898
50
79.1855549
51
88.7502193
0
ARC
8
DEFAULT_255_2_778
10
35.3508183
20
6.1915979
40
2.2389715
50
88.7402003
51
90.0003369
0
ARC
8
DEFAULT_255_2_778
10
35.3364117
20
6.2830165
40
2.1476012
50
89.6159961
51
132.096094
0
ARC
8
DEFAULT_255_2_778
10
35.193931
20
6.4614772
40
1.9197143
50
132.5113155
51
147.5195822
0
ARC
8
DEFAULT_255_2_778
10
35.0864097
20
6.5290579
40
1.7927204
50
147.4962264
51
170.7518039
0
ARC
8
DEFAULT_255_2_778
10
35.0444405
20
6.538422
40
1.7497937
50
170.8335835
51
179.9959237
0
ARC
8
DEFAULT_255_2_778
10
35.0405095
20
6.538552
40
1.7458628
50
180.0001806
51
181.4941423
0
ARC
8
DEFAULT_255_2_778
10
35.0513603
20
6.5398192
40
1.7567432
50
181.5262289
51
202.6960211
0
ARC
8
DEFAULT_255_2_778
10
35.1313444
20
6.573426
40
1.8435008
50
202.7004743
51
216.2282589
0
ARC
8
DEFAULT_255_2_778
10
35.1948355
20
6.6166744
40
1.9202788
50
216.1495968
51
216.5804383
0
ARC
8
DEFAULT_255_2_778
10
35.239691
20
6.6569331
40
1.9802988
50
216.7423736
51
238.0142883
0
ARC
8
DEFAULT_255_2_778
10
35.3310238
20
6.797853
40
2.1482058
50
237.9390663
51
259.2686766
0
ARC
8
DEFAULT_255_2_778
10
35.3487666
20
6.8741848
40
2.2265088
50
259.1858338
51
268.7519417
0
ARC
8
DEFAULT_255_2_778
10
35.3494549
20
6.8886195
40
2.2409551
50
268.7423885
51
269.9996387
0
ARC
8
DEFAULT_255_2_778
10
35.3638904
20
6.7946585
40
2.1470427
50
269.6143955
51
312.1031099
0
ARC
8
DEFAULT_255_2_778
10
35.506248
20
6.6169331
40
1.9197828
50
312.5071618
51
327.5161286
0
ARC
8
DEFAULT_255_2_778
10
35.613919
20
6.5492523
40
1.7926091
50
327.4926563
51
350.7504491
0
ARC
8
DEFAULT_255_2_778
10
35.6559881
20
6.5398656
40
1.7495799
50
350.8324052
51
359.9958399
0
ARC
8
DEFAULT_255_2_778
10
35.6600134
20
6.5397332
40
1.7455546
50
0.0001785
51
1.4851826
0
ARC
8
DEFAULT_255_2_778
10
35.6491922
20
6.5384747
40
1.7564051
50
1.5170715
51
22.694331
0
ARC
8
DEFAULT_255_2_778
10
35.5692978
20
6.5049048
40
1.8430656
50
22.6988821
51
36.2317617
0
ARC
8
DEFAULT_255_2_778
10
35.514158
20
6.4677881
40
1.909483
50
36.1522162
51
36.5855545
0
LINE
8
DEFAULT_255_2_778
10
33.1768114
20
6.5390828
11
33.1768114
21
6.5390828
0
LINE
8
DEFAULT_255_2_778
10
33.6528114
20
5.4722828
11
36.5095114
21
8.1011828
0
LINE
8
DEFAULT_255_2_778
10
37.0474114
20
7.6058828
11
34.1907114
21
4.9769828
0
ARC
8
DEFAULT_255_2_778
10
40.5410723
20
6.5250522
40
1.9309078
50
127.9030748
51
179.5836641
0
ARC
8
DEFAULT_255_2_778
10
40.7420278
20
6.3076067
40
2.2260761
50
104.6357398
51
128.5460725
0
ARC
8
DEFAULT_255_2_778
10
40.7805846
20
6.1737598
40
2.3653248
50
89.9290063
51
104.7201864
0
ARC
8
DEFAULT_255_2_778
10
40.7878955
20
6.188912
40
2.3501749
50
71.5369755
51
90.1067851
0
ARC
8
DEFAULT_255_2_778
10
40.8412313
20
6.3381384
40
2.191741
50
46.0261991
51
71.6240689
0
ARC
8
DEFAULT_255_2_778
10
41.0447584
20
6.5304038
40
1.9121051
50
0.4476201
51
46.4149724
0
ARC
8
DEFAULT_255_2_778
10
41.0739799
20
6.5390839
40
1.8828356
50
359.9999686
51
0.190435
0
ARC
8
DEFAULT_255_2_778
10
41.0259535
20
6.5531479
40
1.9309131
50
307.9016169
51
359.5826442
0
ARC
8
DEFAULT_255_2_778
10
40.8249123
20
6.7706527
40
2.2261806
50
284.6365013
51
308.5455791
0
ARC
8
DEFAULT_255_2_778
10
40.7864388
20
6.9041873
40
2.3651062
50
269.9291797
51
284.7208709
0
ARC
8
DEFAULT_255_2_778
10
40.7791236
20
6.8894277
40
2.350349
50
251.537663
51
270.1070617
0
ARC
8
DEFAULT_255_2_778
10
40.725722
20
6.7399642
40
2.1916694
50
226.0417698
51
251.6244778
0
ARC
8
DEFAULT_255_2_778
10
40.522345
20
6.5477498
40
1.9121777
50
180.4473167
51
226.4306298
0
ARC
8
DEFAULT_255_2_778
10
40.4944578
20
6.5390817
40
1.8842425
50
179.9999641
51
180.1903636
0
ARC
8
DEFAULT_255_2_778
10
40.8915411
20
6.4189699
40
1.9835714
50
36.7533686
51
57.9917698
0
ARC
8
DEFAULT_255_2_778
10
40.802596
20
6.2802054
40
2.1483852
50
57.9418438
51
79.2680501
0
ARC
8
DEFAULT_255_2_778
10
40.7848838
20
6.203968
40
2.2265898
50
79.1855549
51
88.7502193
0
ARC
8
DEFAULT_255_2_778
10
40.7842223
20
6.1915979
40
2.2389715
50
88.7402003
51
90.0003369
0
ARC
8
DEFAULT_255_2_778
10
40.7698158
20
6.2830165
40
2.1476012
50
89.6159961
51
132.096094
0
ARC
8
DEFAULT_255_2_778
10
40.6273351
20
6.4614772
40
1.9197143
50
132.5113155
51
147.5195822
0
ARC
8
DEFAULT_255_2_778
10
40.5198138
20
6.5290579
40
1.7927204
50
147.4962264
51
170.7518039
0
ARC
8
DEFAULT_255_2_778
10
40.4778445
20
6.538422
40
1.7497937
50
170.8335835
51
179.9959237
0
ARC
8
DEFAULT_255_2_778
10
40.4739136
20
6.538552
40
1.7458628
50
180.0001806
51
181.4941423
0
ARC
8
DEFAULT_255_2_778
10
40.4847644
20
6.5398192
40
1.7567432
50
181.5262289
51
202.6960211
0
ARC
8
DEFAULT_255_2_778
10
40.5647484
20
6.573426
40
1.8435008
50
202.7004743
51
216.2282589
0
ARC
8
DEFAULT_255_2_778
10
40.6282396
20
6.6166744
40
1.9202788
50
216.1495968
51
216.5804383
0
ARC
8
DEFAULT_255_2_778
10
40.673095
20
6.6569331
40
1.9802988
50
216.7423736
51
238.0142883
0
ARC
8
DEFAULT_255_2_778
10
40.7644278
20
6.797853
40
2.1482058
50
237.9390663
51
259.2686766
0
ARC
8
DEFAULT_255_2_778
10
40.7821707
20
6.8741848
40
2.2265088
50
259.1858338
51
268.7519417
0
ARC
8
DEFAULT_255_2_778
10
40.7828589
20
6.8886195
40
2.2409551
50
268.7423885
51
269.9996387
0
ARC
8
DEFAULT_255_2_778
10
40.7972944
20
6.7946585
40
2.1470427
50
269.6143955
51
312.1031099
0
ARC
8
DEFAULT_255_2_778
10
40.939652
20
6.6169331
40
1.9197828
50
312.5071618
51
327.5161286
0
ARC
8
DEFAULT_255_2_778
10
41.047323
20
6.5492523
40
1.7926091
50
327.4926563
51
350.7504491
0
ARC
8
DEFAULT_255_2_778
10
41.0893922
20
6.5398656
40
1.7495799
50
350.8324052
51
359.9958399
0
ARC
8
DEFAULT_255_2_778
10
41.0934174
20
6.5397332
40
1.7455546
50
0.0001785
51
1.4851826
0
ARC
8
DEFAULT_255_2_778
10
41.0825962
20
6.5384747
40
1.7564051
50
1.5170715
51
22.694331
0
ARC
8
DEFAULT_255_2_778
10
41.0027019
20
6.5049048
40
1.8430656
50
22.6988821
51
36.2317617
0
ARC
8
DEFAULT_255_2_778
10
40.947562
20
6.4677881
40
1.909483
50
36.1522162
51
36.5855545
0
LINE
8
DEFAULT_255_2_778
10
38.6102154
20
6.5390828
11
38.6102154
21
6.5390828
0
LINE
8
DEFAULT_255_2_778
10
39.0862154
20
5.4722828
11
41.9429154
21
8.1011828
0
LINE
8
DEFAULT_255_2_778
10
42.4808154
20
7.6058828
11
39.6241154
21
4.9769828
0
ARC
8
DEFAULT_255_2_778
10
45.9745642
20
6.5250522
40
1.9309078
50
127.9030748
51
179.5836641
0
ARC
8
DEFAULT_255_2_778
10
46.1755197
20
6.3076067
40
2.2260761
50
104.6357398
51
128.5460725
0
ARC
8
DEFAULT_255_2_778
10
46.2140765
20
6.1737598
40
2.3653248
50
89.9290063
51
104.7201864
0
ARC
8
DEFAULT_255_2_778
10
46.2213875
20
6.188912
40
2.3501749
50
71.5369755
51
90.1067851
0
ARC
8
DEFAULT_255_2_778
10
46.2747233
20
6.3381384
40
2.191741
50
46.0261991
51
71.6240689
0
ARC
8
DEFAULT_255_2_778
10
46.4782503
20
6.5304038
40
1.9121051
50
0.4476201
51
46.4149724
0
ARC
8
DEFAULT_255_2_778
10
46.5074718
20
6.5390839
40
1.8828356
50
359.9999686
51
0.190435
0
ARC
8
DEFAULT_255_2_778
10
46.4594454
20
6.5531479
40
1.9309131
50
307.9016169
51
359.5826442
0
ARC
8
DEFAULT_255_2_778
10
46.2584042
20
6.7706527
40
2.2261806
50
284.6365013
51
308.5455791
0
ARC
8
DEFAULT_255_2_778
10
46.2199307
20
6.9041873
40
2.3651062
50
269.9291797
51
284.7208709
0
ARC
8
DEFAULT_255_2_778
10
46.2126155
20
6.8894277
40
2.350349
50
251.537663
51
270.1070617
0
ARC
8
DEFAULT_255_2_778
10
46.1592139
20
6.7399642
40
2.1916694
50
226.0417698
51
251.6244778
0
ARC
8
DEFAULT_255_2_778
10
45.9558369
20
6.5477498
40
1.9121777
50
180.4473167
51
226.4306298
0
ARC
8
DEFAULT_255_2_778
10
45.9279497
20
6.5390817
40
1.8842425
50
179.9999641
51
180.1903636
0
ARC
8
DEFAULT_255_2_778
10
46.325033
20
6.4189699
40
1.9835714
50
36.7533686
51
57.9917698
0
ARC
8
DEFAULT_255_2_778
10
46.2362146
20
6.2805925
40
2.1479899
50
57.9392271
51
79.2739998
0
ARC
8
DEFAULT_255_2_778
10
46.2184224
20
6.203998
40
2.2265599
50
79.1909809
51
88.7583484
0
ARC
8
DEFAULT_255_2_778
10
46.217738
20
6.19007
40
2.2404994
50
88.7485687
51
89.9998729
0
ARC
8
DEFAULT_255_2_778
10
46.2033412
20
6.2829297
40
2.1476881
50
89.6157885
51
132.095204
0
ARC
8
DEFAULT_255_2_778
10
46.060827
20
6.4614772
40
1.9197143
50
132.5113155
51
147.5195822
0
ARC
8
DEFAULT_255_2_778
10
45.9533057
20
6.5290579
40
1.7927204
50
147.4962264
51
170.7518039
0
ARC
8
DEFAULT_255_2_778
10
45.9113364
20
6.538422
40
1.7497937
50
170.8335835
51
179.9959237
0
ARC
8
DEFAULT_255_2_778
10
45.9074055
20
6.538552
40
1.7458628
50
180.0001806
51
181.4941423
0
ARC
8
DEFAULT_255_2_778
10
45.9182563
20
6.5398192
40
1.7567432
50
181.5262289
51
202.6960211
0
ARC
8
DEFAULT_255_2_778
10
45.9982404
20
6.573426
40
1.8435008
50
202.7004743
51
216.2282589
0
ARC
8
DEFAULT_255_2_778
10
46.0617315
20
6.6166744
40
1.9202788
50
216.1495968
51
216.5804383
0
ARC
8
DEFAULT_255_2_778
10
46.106587
20
6.6569331
40
1.9802988
50
216.7423736
51
238.0142883
0
ARC
8
DEFAULT_255_2_778
10
46.1979198
20
6.797853
40
2.1482058
50
237.9390663
51
259.2686766
0
ARC
8
DEFAULT_255_2_778
10
46.2156626
20
6.8741848
40
2.2265088
50
259.1858338
51
268.7519417
0
ARC
8
DEFAULT_255_2_778
10
46.2163508
20
6.8886195
40
2.2409551
50
268.7423885
51
269.9996387
0
ARC
8
DEFAULT_255_2_778
10
46.2307863
20
6.7946585
40
2.1470427
50
269.6143955
51
312.1031099
0
ARC
8
DEFAULT_255_2_778
10
46.3731439
20
6.6169331
40
1.9197828
50
312.5071618
51
327.5161286
0
ARC
8
DEFAULT_255_2_778
10
46.4808149
20
6.5492523
40
1.7926091
50
327.4926563
51
350.7504491
0
ARC
8
DEFAULT_255_2_778
10
46.5228841
20
6.5398656
40
1.7495799
50
350.8324052
51
359.9958399
0
ARC
8
DEFAULT_255_2_778
10
46.5269094
20
6.5397332
40
1.7455546
50
0.0001785
51
1.4851826
0
ARC
8
DEFAULT_255_2_778
10
46.5160882
20
6.5384747
40
1.7564051
50
1.5170715
51
22.694331
0
ARC
8
DEFAULT_255_2_778
10
46.4361938
20
6.5049048
40
1.8430656
50
22.6988821
51
36.2317617
0
ARC
8
DEFAULT_255_2_778
10
46.381054
20
6.4677881
40
1.909483
50
36.1522162
51
36.5855545
0
LINE
8
DEFAULT_255_2_778
10
44.0437073
20
6.5390828
11
44.0437073
21
6.5390828
0
LINE
8
DEFAULT_255_2_778
10
44.5197073
20
5.4722828
11
47.3764073
21
8.1011828
0
LINE
8
DEFAULT_255_2_778
10
47.9143073
20
7.6058828
11
45.0576073
21
4.9769828
0
LINE
8
DEFAULT_255_2_778
10
41.5407807
20
0.5338837
11
41.5407807
21
1.1087837
0
LINE
8
DEFAULT_255_2_778
10
34.6983807
20
1.1087837
11
34.6983807
21
0.5586837
0
LINE
8
DEFAULT_255_2_778
10
34.6983807
20
0.5586837
11
27.2000807
21
0.5586837
0
LINE
8
DEFAULT_255_2_778
10
48.9339807
20
10.1765837
11
48.9339807
21
1.8887837
0
LINE
8
DEFAULT_255_2_778
10
48.9339807
20
1.8887837
11
27.2000807
21
1.8887837
0
LINE
8
DEFAULT_255_2_778
10
27.1968807
20
10.1765837
11
48.9315807
21
10.1765837
0
LINE
8
DEFAULT_255_2_778
10
27.2000807
20
1.4085837
11
48.9339807
21
1.4085837
0
LINE
8
DEFAULT_255_2_778
10
48.9339807
20
1.4085837
11
48.9339807
21
1.8884837
0
LINE
8
DEFAULT_255_2_778
10
48.9339807
20
1.4085837
11
48.9339807
21
1.1084837
0
LINE
8
DEFAULT_255_2_778
10
48.9339807
20
1.1084837
11
27.2000807
21
1.1084837
0
LINE
8
DEFAULT_255_2_778
10
27.2000807
20
-0.2414163
11
27.6347807
21
-0.2414163
0
LINE
8
DEFAULT_255_2_778
10
27.6347807
20
-0.2414163
11
34.6983807
21
-0.2414163
0
LINE
8
DEFAULT_255_2_778
10
34.6983807
20
-0.2414163
11
34.6983807
21
0.5586837
0
LINE
8
DEFAULT_255_2_778
10
49.0426807
20
0.5586837
11
41.5444807
21
0.5586837
0
LINE
8
DEFAULT_255_2_778
10
41.5444807
20
0.5586837
11
41.5444807
21
-0.2414163
0
LINE
8
DEFAULT_255_2_778
10
41.5444807
20
-0.2414163
11
34.6980807
21
-0.2414163
0
LINE
8
DEFAULT_255_2_778
10
41.5441807
20
-0.2414163
11
49.0424807
21
-0.2414163
0
LINE
8
DEFAULT_255_2_778
10
51.8134807
20
10.4588837
11
51.8134807
21
19.6589837
0
LINE
8
DEFAULT_255_2_778
10
73.5028807
20
19.3769837
11
51.8134807
21
19.3769837
0
ARC
8
DEFAULT_255_2_778
10
54.2877642
20
15.7248522
40
1.9309078
50
127.9030748
51
179.5836641
0
ARC
8
DEFAULT_255_2_778
10
54.4887197
20
15.5074067
40
2.2260761
50
104.6357398
51
128.5460725
0
ARC
8
DEFAULT_255_2_778
10
54.5272765
20
15.3735598
40
2.3653248
50
89.9290063
51
104.7201864
0
ARC
8
DEFAULT_255_2_778
10
54.5345991
20
15.3885379
40
2.350349
50
71.537663
51
90.1070617
0
ARC
8
DEFAULT_255_2_778
10
54.5880007
20
15.5380015
40
2.1916694
50
46.0417698
51
71.6244778
0
ARC
8
DEFAULT_255_2_778
10
54.7913777
20
15.7302158
40
1.9121777
50
0.4473167
51
46.4306298
0
ARC
8
DEFAULT_255_2_778
10
54.8192649
20
15.738884
40
1.8842425
50
359.9999641
51
0.1903636
0
ARC
8
DEFAULT_255_2_778
10
54.7726505
20
15.7529135
40
1.9309078
50
307.9030748
51
359.5836641
0
ARC
8
DEFAULT_255_2_778
10
54.5716949
20
15.970359
40
2.2260761
50
284.6357398
51
308.5460725
0
ARC
8
DEFAULT_255_2_778
10
54.5331381
20
16.1042059
40
2.3653248
50
269.9290063
51
284.7201864
0
ARC
8
DEFAULT_255_2_778
10
54.5258155
20
16.0892277
40
2.350349
50
251.537663
51
270.1070617
0
ARC
8
DEFAULT_255_2_778
10
54.4724139
20
15.9397642
40
2.1916694
50
226.0417698
51
251.6244778
0
ARC
8
DEFAULT_255_2_778
10
54.2690369
20
15.7475498
40
1.9121777
50
180.4473167
51
226.4306298
0
ARC
8
DEFAULT_255_2_778
10
54.2411497
20
15.7388817
40
1.8842425
50
179.9999641
51
180.1903636
0
ARC
8
DEFAULT_255_2_778
10
54.638233
20
15.6187699
40
1.9835714
50
36.7533686
51
57.9917698
0
ARC
8
DEFAULT_255_2_778
10
54.5494146
20
15.4803925
40
2.1479899
50
57.9392271
51
79.2739998
0
ARC
8
DEFAULT_255_2_778
10
54.5316224
20
15.403798
40
2.2265599
50
79.1909809
51
88.7583484
0
ARC
8
DEFAULT_255_2_778
10
54.530938
20
15.38987
40
2.2404994
50
88.7485687
51
89.9998729
0
ARC
8
DEFAULT_255_2_778
10
54.5165412
20
15.4827297
40
2.1476881
50
89.6157885
51
132.095204
0
ARC
8
DEFAULT_255_2_778
10
54.374027
20
15.6612772
40
1.9197143
50
132.5113155
51
147.5195822
0
ARC
8
DEFAULT_255_2_778
10
54.2665057
20
15.7288579
40
1.7927204
50
147.4962264
51
170.7518039
0
ARC
8
DEFAULT_255_2_778
10
54.2245364
20
15.738222
40
1.7497937
50
170.8335835
51
179.9959237
0
ARC
8
DEFAULT_255_2_778
10
54.2206055
20
15.738352
40
1.7458628
50
180.0001806
51
181.4941423
0
ARC
8
DEFAULT_255_2_778
10
54.2314563
20
15.7396192
40
1.7567432
50
181.5262289
51
202.6960211
0
ARC
8
DEFAULT_255_2_778
10
54.3114404
20
15.773226
40
1.8435008
50
202.7004743
51
216.2282589
0
ARC
8
DEFAULT_255_2_778
10
54.3749315
20
15.8164744
40
1.9202788
50
216.1495968
51
216.5804383
0
ARC
8
DEFAULT_255_2_778
10
54.419787
20
15.8567331
40
1.9802988
50
216.7423736
51
238.0142883
0
ARC
8
DEFAULT_255_2_778
10
54.5111212
20
15.9976588
40
2.1482115
50
237.9391154
51
259.2718297
0
ARC
8
DEFAULT_255_2_778
10
54.5288722
20
16.0740545
40
2.2265787
50
259.1889782
51
268.7563005
0
ARC
8
DEFAULT_255_2_778
10
54.5295495
20
16.0879297
40
2.2404652
50
268.7466856
51
269.9998764
0
ARC
8
DEFAULT_255_2_778
10
54.5439663
20
15.994771
40
2.147355
50
269.6152008
51
312.0998959
0
ARC
8
DEFAULT_255_2_778
10
54.6863738
20
15.8166017
40
1.9197333
50
312.5113542
51
327.5194571
0
ARC
8
DEFAULT_255_2_778
10
54.7939213
20
15.7490065
40
1.7927097
50
327.4960339
51
350.751475
0
ARC
8
DEFAULT_255_2_778
10
54.8359732
20
15.7396262
40
1.7496986
50
350.8333357
51
359.9958911
0
ARC
8
DEFAULT_255_2_778
10
54.840783
20
15.7395032
40
1.744889
50
359.9999208
51
1.4867343
0
ARC
8
DEFAULT_255_2_778
10
54.8292081
20
15.7382396
40
1.7564931
50
1.5181406
51
22.6943743
0
ARC
8
DEFAULT_255_2_778
10
54.7493712
20
15.7046902
40
1.8430925
50
22.6990242
51
36.2317122
0
ARC
8
DEFAULT_255_2_778
10
54.694254
20
15.6675881
40
1.909483
50
36.1522162
51
36.5855545
0
LINE
8
DEFAULT_255_2_778
10
52.3569073
20
15.7388828
11
52.3569073
21
15.7388828
0
LINE
8
DEFAULT_255_2_778
10
52.8329073
20
14.6720828
11
55.6896073
21
17.3009828
0
LINE
8
DEFAULT_255_2_778
10
56.2275073
20
16.8056828
11
53.3708073
21
14.1767828
0
ARC
8
DEFAULT_255_2_778
10
59.7212642
20
15.7248522
40
1.9309078
50
127.9030748
51
179.5836641
0
ARC
8
DEFAULT_255_2_778
10
59.9222197
20
15.5074067
40
2.2260761
50
104.6357398
51
128.5460725
0
ARC
8
DEFAULT_255_2_778
10
59.9607765
20
15.3735598
40
2.3653248
50
89.9290063
51
104.7201864
0
ARC
8
DEFAULT_255_2_778
10
59.9680991
20
15.3885379
40
2.350349
50
71.537663
51
90.1070617
0
ARC
8
DEFAULT_255_2_778
10
60.0215007
20
15.5380015
40
2.1916694
50
46.0417698
51
71.6244778
0
ARC
8
DEFAULT_255_2_778
10
60.2248777
20
15.7302158
40
1.9121777
50
0.4473167
51
46.4306298
0
ARC
8
DEFAULT_255_2_778
10
60.2527649
20
15.738884
40
1.8842425
50
359.9999641
51
0.1903636
0
ARC
8
DEFAULT_255_2_778
10
60.2061505
20
15.7529135
40
1.9309078
50
307.9030748
51
359.5836641
0
ARC
8
DEFAULT_255_2_778
10
60.0051949
20
15.970359
40
2.2260761
50
284.6357398
51
308.5460725
0
ARC
8
DEFAULT_255_2_778
10
59.9666381
20
16.1042059
40
2.3653248
50
269.9290063
51
284.7201864
0
ARC
8
DEFAULT_255_2_778
10
59.9593155
20
16.0892277
40
2.350349
50
251.537663
51
270.1070617
0
ARC
8
DEFAULT_255_2_778
10
59.9059139
20
15.9397642
40
2.1916694
50
226.0417698
51
251.6244778
0
ARC
8
DEFAULT_255_2_778
10
59.7025369
20
15.7475498
40
1.9121777
50
180.4473167
51
226.4306298
0
ARC
8
DEFAULT_255_2_778
10
59.6746497
20
15.7388817
40
1.8842425
50
179.9999641
51
180.1903636
0
ARC
8
DEFAULT_255_2_778
10
60.071733
20
15.6187699
40
1.9835714
50
36.7533686
51
57.9917698
0
ARC
8
DEFAULT_255_2_778
10
59.9827879
20
15.4800054
40
2.1483852
50
57.9418438
51
79.2680501
0
ARC
8
DEFAULT_255_2_778
10
59.9650758
20
15.403768
40
2.2265898
50
79.1855549
51
88.7502193
0
ARC
8
DEFAULT_255_2_778
10
59.9644143
20
15.3913979
40
2.2389715
50
88.7402003
51
90.0003369
0
ARC
8
DEFAULT_255_2_778
10
59.9500077
20
15.4828165
40
2.1476012
50
89.6159961
51
132.096094
0
ARC
8
DEFAULT_255_2_778
10
59.807527
20
15.6612772
40
1.9197143
50
132.5113155
51
147.5195822
0
ARC
8
DEFAULT_255_2_778
10
59.7000057
20
15.7288579
40
1.7927204
50
147.4962264
51
170.7518039
0
ARC
8
DEFAULT_255_2_778
10
59.6580364
20
15.738222
40
1.7497937
50
170.8335835
51
179.9959237
0
ARC
8
DEFAULT_255_2_778
10
59.6541055
20
15.738352
40
1.7458628
50
180.0001806
51
181.4941423
0
ARC
8
DEFAULT_255_2_778
10
59.6649563
20
15.7396192
40
1.7567432
50
181.5262289
51
202.6960211
0
ARC
8
DEFAULT_255_2_778
10
59.7449404
20
15.773226
40
1.8435008
50
202.7004743
51
216.2282589
0
ARC
8
DEFAULT_255_2_778
10
59.8084315
20
15.8164744
40
1.9202788
50
216.1495968
51
216.5804383
0
ARC
8
DEFAULT_255_2_778
10
59.853287
20
15.8567331
40
1.9802988
50
216.7423736
51
238.0142883
0
ARC
8
DEFAULT_255_2_778
10
59.9446212
20
15.9976588
40
2.1482115
50
237.9391154
51
259.2718297
0
ARC
8
DEFAULT_255_2_778
10
59.9623722
20
16.0740545
40
2.2265787
50
259.1889782
51
268.7563005
0
ARC
8
DEFAULT_255_2_778
10
59.9630495
20
16.0879297
40
2.2404652
50
268.7466856
51
269.9998764
0
ARC
8
DEFAULT_255_2_778
10
59.9774663
20
15.994771
40
2.147355
50
269.6152008
51
312.0998959
0
ARC
8
DEFAULT_255_2_778
10
60.1198738
20
15.8166017
40
1.9197333
50
312.5113542
51
327.5194571
0
ARC
8
DEFAULT_255_2_778
10
60.2274213
20
15.7490065
40
1.7927097
50
327.4960339
51
350.751475
0
ARC
8
DEFAULT_255_2_778
10
60.2694732
20
15.7396262
40
1.7496986
50
350.8333357
51
359.9958911
0
ARC
8
DEFAULT_255_2_778
10
60.274283
20
15.7395032
40
1.744889
50
359.9999208
51
1.4867343
0
ARC
8
DEFAULT_255_2_778
10
60.2627081
20
15.7382396
40
1.7564931
50
1.5181406
51
22.6943743
0
ARC
8
DEFAULT_255_2_778
10
60.1828712
20
15.7046902
40
1.8430925
50
22.6990242
51
36.2317122
0
ARC
8
DEFAULT_255_2_778
10
60.127754
20
15.6675881
40
1.909483
50
36.1522162
51
36.5855545
0
LINE
8
DEFAULT_255_2_778
10
57.7904073
20
15.7388828
11
57.7904073
21
15.7388828
0
LINE
8
DEFAULT_255_2_778
10
58.2664073
20
14.6720828
11
61.1231073
21
17.3009828
0
LINE
8
DEFAULT_255_2_778
10
61.6610073
20
16.8056828
11
58.8043073
21
14.1767828
0
ARC
8
DEFAULT_255_2_778
10
65.1547723
20
15.7248522
40
1.9309078
50
127.9030748
51
179.5836641
0
ARC
8
DEFAULT_255_2_778
10
65.3557278
20
15.5074067
40
2.2260761
50
104.6357398
51
128.5460725
0
ARC
8
DEFAULT_255_2_778
10
65.3942846
20
15.3735598
40
2.3653248
50
89.9290063
51
104.7201864
0
ARC
8
DEFAULT_255_2_778
10
65.4016072
20
15.3885379
40
2.350349
50
71.537663
51
90.1070617
0
ARC
8
DEFAULT_255_2_778
10
65.4550088
20
15.5380015
40
2.1916694
50
46.0417698
51
71.6244778
0
ARC
8
DEFAULT_255_2_778
10
65.6583858
20
15.7302158
40
1.9121777
50
0.4473167
51
46.4306298
0
ARC
8
DEFAULT_255_2_778
10
65.686273
20
15.738884
40
1.8842425
50
359.9999641
51
0.1903636
0
ARC
8
DEFAULT_255_2_778
10
65.6396585
20
15.7529135
40
1.9309078
50
307.9030748
51
359.5836641
0
ARC
8
DEFAULT_255_2_778
10
65.438703
20
15.970359
40
2.2260761
50
284.6357398
51
308.5460725
0
ARC
8
DEFAULT_255_2_778
10
65.4001462
20
16.1042059
40
2.3653248
50
269.9290063
51
284.7201864
0
ARC
8
DEFAULT_255_2_778
10
65.3928236
20
16.0892277
40
2.350349
50
251.537663
51
270.1070617
0
ARC
8
DEFAULT_255_2_778
10
65.339422
20
15.9397642
40
2.1916694
50
226.0417698
51
251.6244778
0
ARC
8
DEFAULT_255_2_778
10
65.136045
20
15.7475498
40
1.9121777
50
180.4473167
51
226.4306298
0
ARC
8
DEFAULT_255_2_778
10
65.1081578
20
15.7388817
40
1.8842425
50
179.9999641
51
180.1903636
0
ARC
8
DEFAULT_255_2_778
10
65.5052411
20
15.6187699
40
1.9835714
50
36.7533686
51
57.9917698
0
ARC
8
DEFAULT_255_2_778
10
65.416296
20
15.4800054
40
2.1483852
50
57.9418438
51
79.2680501
0
ARC
8
DEFAULT_255_2_778
10
65.3985838
20
15.403768
40
2.2265898
50
79.1855549
51
88.7502193
0
ARC
8
DEFAULT_255_2_778
10
65.3979223
20
15.3913979
40
2.2389715
50
88.7402003
51
90.0003369
0
ARC
8
DEFAULT_255_2_778
10
65.3835158
20
15.4828165
40
2.1476012
50
89.6159961
51
132.096094
0
ARC
8
DEFAULT_255_2_778
10
65.2410351
20
15.6612772
40
1.9197143
50
132.5113155
51
147.5195822
0
ARC
8
DEFAULT_255_2_778
10
65.1335138
20
15.7288579
40
1.7927204
50
147.4962264
51
170.7518039
0
ARC
8
DEFAULT_255_2_778
10
65.0915445
20
15.738222
40
1.7497937
50
170.8335835
51
179.9959237
0
ARC
8
DEFAULT_255_2_778
10
65.0876136
20
15.738352
40
1.7458628
50
180.0001806
51
181.4941423
0
ARC
8
DEFAULT_255_2_778
10
65.0984644
20
15.7396192
40
1.7567432
50
181.5262289
51
202.6960211
0
ARC
8
DEFAULT_255_2_778
10
65.1784484
20
15.773226
40
1.8435008
50
202.7004743
51
216.2282589
0
ARC
8
DEFAULT_255_2_778
10
65.2419396
20
15.8164744
40
1.9202788
50
216.1495968
51
216.5804383
0
ARC
8
DEFAULT_255_2_778
10
65.286795
20
15.8567331
40
1.9802988
50
216.7423736
51
238.0142883
0
ARC
8
DEFAULT_255_2_778
10
65.3781293
20
15.9976588
40
2.1482115
50
237.9391154
51
259.2718297
0
ARC
8
DEFAULT_255_2_778
10
65.3958803
20
16.0740545
40
2.2265787
50
259.1889782
51
268.7563005
0
ARC
8
DEFAULT_255_2_778
10
65.3965576
20
16.0879297
40
2.2404652
50
268.7466856
51
269.9998764
0
ARC
8
DEFAULT_255_2_778
10
65.4109743
20
15.994771
40
2.147355
50
269.6152008
51
312.0998959
0
ARC
8
DEFAULT_255_2_778
10
65.5533819
20
15.8166017
40
1.9197333
50
312.5113542
51
327.5194571
0
ARC
8
DEFAULT_255_2_778
10
65.6609293
20
15.7490065
40
1.7927097
50
327.4960339
51
350.751475
0
ARC
8
DEFAULT_255_2_778
10
65.7029813
20
15.7396262
40
1.7496986
50
350.8333357
51
359.9958911
0
ARC
8
DEFAULT_255_2_778
10
65.7077911
20
15.7395032
40
1.744889
50
359.9999208
51
1.4867343
0
ARC
8
DEFAULT_255_2_778
10
65.6962162
20
15.7382396
40
1.7564931
50
1.5181406
51
22.6943743
0
ARC
8
DEFAULT_255_2_778
10
65.6163792
20
15.7046902
40
1.8430925
50
22.6990242
51
36.2317122
0
ARC
8
DEFAULT_255_2_778
10
65.561262
20
15.6675881
40
1.909483
50
36.1522162
51
36.5855545
0
LINE
8
DEFAULT_255_2_778
10
63.2239154
20
15.7388828
11
63.2239154
21
15.7388828
0
LINE
8
DEFAULT_255_2_778
10
63.6999154
20
14.6720828
11
66.5566154
21
17.3009828
0
LINE
8
DEFAULT_255_2_778
10
67.0945154
20
16.8056828
11
64.2378154
21
14.1767828
0
ARC
8
DEFAULT_255_2_778
10
70.5882723
20
15.7248522
40
1.9309078
50
127.9030748
51
179.5836641
0
ARC
8
DEFAULT_255_2_778
10
70.7892278
20
15.5074067
40
2.2260761
50
104.6357398
51
128.5460725
0
ARC
8
DEFAULT_255_2_778
10
70.8277846
20
15.3735598
40
2.3653248
50
89.9290063
51
104.7201864
0
ARC
8
DEFAULT_255_2_778
10
70.8350955
20
15.388712
40
2.3501749
50
71.5369755
51
90.1067851
0
ARC
8
DEFAULT_255_2_778
10
70.8884313
20
15.5379384
40
2.191741
50
46.0261991
51
71.6240689
0
ARC
8
DEFAULT_255_2_778
10
71.0919584
20
15.7302038
40
1.9121051
50
0.4476201
51
46.4149724
0
ARC
8
DEFAULT_255_2_778
10
71.1211799
20
15.7388839
40
1.8828356
50
359.9999686
51
0.190435
0
ARC
8
DEFAULT_255_2_778
10
71.0731535
20
15.7529479
40
1.9309131
50
307.9016169
51
359.5826442
0
ARC
8
DEFAULT_255_2_778
10
70.8721123
20
15.9704527
40
2.2261806
50
284.6365013
51
308.5455791
0
ARC
8
DEFAULT_255_2_778
10
70.8336388
20
16.1039873
40
2.3651062
50
269.9291797
51
284.7208709
0
ARC
8
DEFAULT_255_2_778
10
70.8263236
20
16.0892277
40
2.350349
50
251.537663
51
270.1070617
0
ARC
8
DEFAULT_255_2_778
10
70.772922
20
15.9397642
40
2.1916694
50
226.0417698
51
251.6244778
0
ARC
8
DEFAULT_255_2_778
10
70.569545
20
15.7475498
40
1.9121777
50
180.4473167
51
226.4306298
0
ARC
8
DEFAULT_255_2_778
10
70.5416578
20
15.7388817
40
1.8842425
50
179.9999641
51
180.1903636
0
ARC
8
DEFAULT_255_2_778
10
70.9387411
20
15.6187699
40
1.9835714
50
36.7533686
51
57.9917698
0
ARC
8
DEFAULT_255_2_778
10
70.849796
20
15.4800054
40
2.1483852
50
57.9418438
51
79.2680501
0
ARC
8
DEFAULT_255_2_778
10
70.8320838
20
15.403768
40
2.2265898
50
79.1855549
51
88.7502193
0
ARC
8
DEFAULT_255_2_778
10
70.8314223
20
15.3913979
40
2.2389715
50
88.7402003
51
90.0003369
0
ARC
8
DEFAULT_255_2_778
10
70.8170158
20
15.4828165
40
2.1476012
50
89.6159961
51
132.096094
0
ARC
8
DEFAULT_255_2_778
10
70.6745351
20
15.6612772
40
1.9197143
50
132.5113155
51
147.5195822
0
ARC
8
DEFAULT_255_2_778
10
70.5670138
20
15.7288579
40
1.7927204
50
147.4962264
51
170.7518039
0
ARC
8
DEFAULT_255_2_778
10
70.5250445
20
15.738222
40
1.7497937
50
170.8335835
51
179.9959237
0
ARC
8
DEFAULT_255_2_778
10
70.5211136
20
15.738352
40
1.7458628
50
180.0001806
51
181.4941423
0
ARC
8
DEFAULT_255_2_778
10
70.5319644
20
15.7396192
40
1.7567432
50
181.5262289
51
202.6960211
0
ARC
8
DEFAULT_255_2_778
10
70.6119484
20
15.773226
40
1.8435008
50
202.7004743
51
216.2282589
0
ARC
8
DEFAULT_255_2_778
10
70.6754396
20
15.8164744
40
1.9202788
50
216.1495968
51
216.5804383
0
ARC
8
DEFAULT_255_2_778
10
70.720295
20
15.8567331
40
1.9802988
50
216.7423736
51
238.0142883
0
ARC
8
DEFAULT_255_2_778
10
70.8116278
20
15.997653
40
2.1482058
50
237.9390663
51
259.2686766
0
ARC
8
DEFAULT_255_2_778
10
70.8293707
20
16.0739848
40
2.2265088
50
259.1858338
51
268.7519417
0
ARC
8
DEFAULT_255_2_778
10
70.8300589
20
16.0884195
40
2.2409551
50
268.7423885
51
269.9996387
0
ARC
8
DEFAULT_255_2_778
10
70.8444944
20
15.9944585
40
2.1470427
50
269.6143955
51
312.1031099
0
ARC
8
DEFAULT_255_2_778
10
70.986852
20
15.8167331
40
1.9197828
50
312.5071618
51
327.5161286
0
ARC
8
DEFAULT_255_2_778
10
71.094523
20
15.7490523
40
1.7926091
50
327.4926563
51
350.7504491
0
ARC
8
DEFAULT_255_2_778
10
71.1365922
20
15.7396656
40
1.7495799
50
350.8324052
51
359.9958399
0
ARC
8
DEFAULT_255_2_778
10
71.1406174
20
15.7395332
40
1.7455546
50
0.0001785
51
1.4851826
0
ARC
8
DEFAULT_255_2_778
10
71.1297962
20
15.7382747
40
1.7564051
50
1.5170715
51
22.694331
0
ARC
8
DEFAULT_255_2_778
10
71.0499019
20
15.7047048
40
1.8430656
50
22.6988821
51
36.2317617
0
ARC
8
DEFAULT_255_2_778
10
70.994762
20
15.6675881
40
1.909483
50
36.1522162
51
36.5855545
0
LINE
8
DEFAULT_255_2_778
10
68.6574154
20
15.7388828
11
68.6574154
21
15.7388828
0
LINE
8
DEFAULT_255_2_778
10
69.1334154
20
14.6720828
11
71.9901154
21
17.3009828
0
LINE
8
DEFAULT_255_2_778
10
72.5280154
20
16.8056828
11
69.6713154
21
14.1767828
0
ARC
8
DEFAULT_255_2_778
10
54.2877642
20
6.5250522
40
1.9309078
50
127.9030748
51
179.5836641
0
ARC
8
DEFAULT_255_2_778
10
54.4887197
20
6.3076067
40
2.2260761
50
104.6357398
51
128.5460725
0
ARC
8
DEFAULT_255_2_778
10
54.5272765
20
6.1737598
40
2.3653248
50
89.9290063
51
104.7201864
0
ARC
8
DEFAULT_255_2_778
10
54.5345991
20
6.1887379
40
2.350349
50
71.537663
51
90.1070617
0
ARC
8
DEFAULT_255_2_778
10
54.5880007
20
6.3382015
40
2.1916694
50
46.0417698
51
71.6244778
0
ARC
8
DEFAULT_255_2_778
10
54.7913777
20
6.5304158
40
1.9121777
50
0.4473167
51
46.4306298
0
ARC
8
DEFAULT_255_2_778
10
54.8192649
20
6.539084
40
1.8842425
50
359.9999641
51
0.1903636
0
ARC
8
DEFAULT_255_2_778
10
54.7726505
20
6.5531135
40
1.9309078
50
307.9030748
51
359.5836641
0
ARC
8
DEFAULT_255_2_778
10
54.5716949
20
6.770559
40
2.2260761
50
284.6357398
51
308.5460725
0
ARC
8
DEFAULT_255_2_778
10
54.5331381
20
6.9044059
40
2.3653248
50
269.9290063
51
284.7201864
0
ARC
8
DEFAULT_255_2_778
10
54.5258155
20
6.8894277
40
2.350349
50
251.537663
51
270.1070617
0
ARC
8
DEFAULT_255_2_778
10
54.4724139
20
6.7399642
40
2.1916694
50
226.0417698
51
251.6244778
0
ARC
8
DEFAULT_255_2_778
10
54.2690369
20
6.5477498
40
1.9121777
50
180.4473167
51
226.4306298
0
ARC
8
DEFAULT_255_2_778
10
54.2411497
20
6.5390817
40
1.8842425
50
179.9999641
51
180.1903636
0
ARC
8
DEFAULT_255_2_778
10
54.638233
20
6.4189699
40
1.9835714
50
36.7533686
51
57.9917698
0
ARC
8
DEFAULT_255_2_778
10
54.5494146
20
6.2805925
40
2.1479899
50
57.9392271
51
79.2739998
0
ARC
8
DEFAULT_255_2_778
10
54.5316224
20
6.203998
40
2.2265599
50
79.1909809
51
88.7583484
0
ARC
8
DEFAULT_255_2_778
10
54.530938
20
6.19007
40
2.2404994
50
88.7485687
51
89.9998729
0
ARC
8
DEFAULT_255_2_778
10
54.5165412
20
6.2829297
40
2.1476881
50
89.6157885
51
132.095204
0
ARC
8
DEFAULT_255_2_778
10
54.374027
20
6.4614772
40
1.9197143
50
132.5113155
51
147.5195822
0
ARC
8
DEFAULT_255_2_778
10
54.2665057
20
6.5290579
40
1.7927204
50
147.4962264
51
170.7518039
0
ARC
8
DEFAULT_255_2_778
10
54.2245364
20
6.538422
40
1.7497937
50
170.8335835
51
179.9959237
0
ARC
8
DEFAULT_255_2_778
10
54.2206055
20
6.538552
40
1.7458628
50
180.0001806
51
181.4941423
0
ARC
8
DEFAULT_255_2_778
10
54.2314563
20
6.5398192
40
1.7567432
50
181.5262289
51
202.6960211
0
ARC
8
DEFAULT_255_2_778
10
54.3114404
20
6.573426
40
1.8435008
50
202.7004743
51
216.2282589
0
ARC
8
DEFAULT_255_2_778
10
54.3749315
20
6.6166744
40
1.9202788
50
216.1495968
51
216.5804383
0
ARC
8
DEFAULT_255_2_778
10
54.419787
20
6.6569331
40
1.9802988
50
216.7423736
51
238.0142883
0
ARC
8
DEFAULT_255_2_778
10
54.5111212
20
6.7978588
40
2.1482115
50
237.9391154
51
259.2718297
0
ARC
8
DEFAULT_255_2_778
10
54.5288722
20
6.8742545
40
2.2265787
50
259.1889782
51
268.7563005
0
ARC
8
DEFAULT_255_2_778
10
54.5295495
20
6.8881297
40
2.2404652
50
268.7466856
51
269.9998764
0
ARC
8
DEFAULT_255_2_778
10
54.5439663
20
6.794971
40
2.147355
50
269.6152008
51
312.0998959
0
ARC
8
DEFAULT_255_2_778
10
54.6863738
20
6.6168017
40
1.9197333
50
312.5113542
51
327.5194571
0
ARC
8
DEFAULT_255_2_778
10
54.7939213
20
6.5492065
40
1.7927097
50
327.4960339
51
350.751475
0
ARC
8
DEFAULT_255_2_778
10
54.8359732
20
6.5398262
40
1.7496986
50
350.8333357
51
359.9958911
0
ARC
8
DEFAULT_255_2_778
10
54.840783
20
6.5397032
40
1.744889
50
359.9999208
51
1.4867343
0
ARC
8
DEFAULT_255_2_778
10
54.8292081
20
6.5384396
40
1.7564931
50
1.5181406
51
22.6943743
0
ARC
8
DEFAULT_255_2_778
10
54.7493712
20
6.5048902
40
1.8430925
50
22.6990242
51
36.2317122
0
ARC
8
DEFAULT_255_2_778
10
54.694254
20
6.4677881
40
1.909483
50
36.1522162
51
36.5855545
0
LINE
8
DEFAULT_255_2_778
10
52.3569073
20
6.5390828
11
52.3569073
21
6.5390828
0
LINE
8
DEFAULT_255_2_778
10
52.8329073
20
5.4722828
11
55.6896073
21
8.1011828
0
LINE
8
DEFAULT_255_2_778
10
56.2275073
20
7.6058828
11
53.3708073
21
4.9769828
0
ARC
8
DEFAULT_255_2_778
10
59.7212642
20
6.5250522
40
1.9309078
50
127.9030748
51
179.5836641
0
ARC
8
DEFAULT_255_2_778
10
59.9222197
20
6.3076067
40
2.2260761
50
104.6357398
51
128.5460725
0
ARC
8
DEFAULT_255_2_778
10
59.9607765
20
6.1737598
40
2.3653248
50
89.9290063
51
104.7201864
0
ARC
8
DEFAULT_255_2_778
10
59.9680991
20
6.1887379
40
2.350349
50
71.537663
51
90.1070617
0
ARC
8
DEFAULT_255_2_778
10
60.0215007
20
6.3382015
40
2.1916694
50
46.0417698
51
71.6244778
0
ARC
8
DEFAULT_255_2_778
10
60.2248777
20
6.5304158
40
1.9121777
50
0.4473167
51
46.4306298
0
ARC
8
DEFAULT_255_2_778
10
60.2527649
20
6.539084
40
1.8842425
50
359.9999641
51
0.1903636
0
ARC
8
DEFAULT_255_2_778
10
60.2061505
20
6.5531135
40
1.9309078
50
307.9030748
51
359.5836641
0
ARC
8
DEFAULT_255_2_778
10
60.0051949
20
6.770559
40
2.2260761
50
284.6357398
51
308.5460725
0
ARC
8
DEFAULT_255_2_778
10
59.9666381
20
6.9044059
40
2.3653248
50
269.9290063
51
284.7201864
0
ARC
8
DEFAULT_255_2_778
10
59.9593155
20
6.8894277
40
2.350349
50
251.537663
51
270.1070617
0
ARC
8
DEFAULT_255_2_778
10
59.9059139
20
6.7399642
40
2.1916694
50
226.0417698
51
251.6244778
0
ARC
8
DEFAULT_255_2_778
10
59.7025369
20
6.5477498
40
1.9121777
50
180.4473167
51
226.4306298
0
ARC
8
DEFAULT_255_2_778
10
59.6746497
20
6.5390817
40
1.8842425
50
179.9999641
51
180.1903636
0
ARC
8
DEFAULT_255_2_778
10
60.071733
20
6.4189699
40
1.9835714
50
36.7533686
51
57.9917698
0
ARC
8
DEFAULT_255_2_778
10
59.9827879
20
6.2802054
40
2.1483852
50
57.9418438
51
79.2680501
0
ARC
8
DEFAULT_255_2_778
10
59.9650758
20
6.203968
40
2.2265898
50
79.1855549
51
88.7502193
0
ARC
8
DEFAULT_255_2_778
10
59.9644143
20
6.1915979
40
2.2389715
50
88.7402003
51
90.0003369
0
ARC
8
DEFAULT_255_2_778
10
59.9500077
20
6.2830165
40
2.1476012
50
89.6159961
51
132.096094
0
ARC
8
DEFAULT_255_2_778
10
59.807527
20
6.4614772
40
1.9197143
50
132.5113155
51
147.5195822
0
ARC
8
DEFAULT_255_2_778
10
59.7000057
20
6.5290579
40
1.7927204
50
147.4962264
51
170.7518039
0
ARC
8
DEFAULT_255_2_778
10
59.6580364
20
6.538422
40
1.7497937
50
170.8335835
51
179.9959237
0
ARC
8
DEFAULT_255_2_778
10
59.6541055
20
6.538552
40
1.7458628
50
180.0001806
51
181.4941423
0
ARC
8
DEFAULT_255_2_778
10
59.6649563
20
6.5398192
40
1.7567432
50
181.5262289
51
202.6960211
0
ARC
8
DEFAULT_255_2_778
10
59.7449404
20
6.573426
40
1.8435008
50
202.7004743
51
216.2282589
0
ARC
8
DEFAULT_255_2_778
10
59.8084315
20
6.6166744
40
1.9202788
50
216.1495968
51
216.5804383
0
ARC
8
DEFAULT_255_2_778
10
59.853287
20
6.6569331
40
1.9802988
50
216.7423736
51
238.0142883
0
ARC
8
DEFAULT_255_2_778
10
59.9446212
20
6.7978588
40
2.1482115
50
237.9391154
51
259.2718297
0
ARC
8
DEFAULT_255_2_778
10
59.9623722
20
6.8742545
40
2.2265787
50
259.1889782
51
268.7563005
0
ARC
8
DEFAULT_255_2_778
10
59.9630495
20
6.8881297
40
2.2404652
50
268.7466856
51
269.9998764
0
ARC
8
DEFAULT_255_2_778
10
59.9774663
20
6.794971
40
2.147355
50
269.6152008
51
312.0998959
0
ARC
8
DEFAULT_255_2_778
10
60.1198738
20
6.6168017
40
1.9197333
50
312.5113542
51
327.5194571
0
ARC
8
DEFAULT_255_2_778
10
60.2274213
20
6.5492065
40
1.7927097
50
327.4960339
51
350.751475
0
ARC
8
DEFAULT_255_2_778
10
60.2694732
20
6.5398262
40
1.7496986
50
350.8333357
51
359.9958911
0
ARC
8
DEFAULT_255_2_778
10
60.274283
20
6.5397032
40
1.744889
50
359.9999208
51
1.4867343
0
ARC
8
DEFAULT_255_2_778
10
60.2627081
20
6.5384396
40
1.7564931
50
1.5181406
51
22.6943743
0
ARC
8
DEFAULT_255_2_778
10
60.1828712
20
6.5048902
40
1.8430925
50
22.6990242
51
36.2317122
0
ARC
8
DEFAULT_255_2_778
10
60.127754
20
6.4677881
40
1.909483
50
36.1522162
51
36.5855545
0
LINE
8
DEFAULT_255_2_778
10
57.7904073
20
6.5390828
11
57.7904073
21
6.5390828
0
LINE
8
DEFAULT_255_2_778
10
58.2664073
20
5.4722828
11
61.1231073
21
8.1011828
0
LINE
8
DEFAULT_255_2_778
10
61.6610073
20
7.6058828
11
58.8043073
21
4.9769828
0
ARC
8
DEFAULT_255_2_778
10
65.1547723
20
6.5250522
40
1.9309078
50
127.9030748
51
179.5836641
0
ARC
8
DEFAULT_255_2_778
10
65.3557278
20
6.3076067
40
2.2260761
50
104.6357398
51
128.5460725
0
ARC
8
DEFAULT_255_2_778
10
65.3942846
20
6.1737598
40
2.3653248
50
89.9290063
51
104.7201864
0
ARC
8
DEFAULT_255_2_778
10
65.4016072
20
6.1887379
40
2.350349
50
71.537663
51
90.1070617
0
ARC
8
DEFAULT_255_2_778
10
65.4550088
20
6.3382015
40
2.1916694
50
46.0417698
51
71.6244778
0
ARC
8
DEFAULT_255_2_778
10
65.6583858
20
6.5304158
40
1.9121777
50
0.4473167
51
46.4306298
0
ARC
8
DEFAULT_255_2_778
10
65.686273
20
6.539084
40
1.8842425
50
359.9999641
51
0.1903636
0
ARC
8
DEFAULT_255_2_778
10
65.6396585
20
6.5531135
40
1.9309078
50
307.9030748
51
359.5836641
0
ARC
8
DEFAULT_255_2_778
10
65.438703
20
6.770559
40
2.2260761
50
284.6357398
51
308.5460725
0
ARC
8
DEFAULT_255_2_778
10
65.4001462
20
6.9044059
40
2.3653248
50
269.9290063
51
284.7201864
0
ARC
8
DEFAULT_255_2_778
10
65.3928236
20
6.8894277
40
2.350349
50
251.537663
51
270.1070617
0
ARC
8
DEFAULT_255_2_778
10
65.339422
20
6.7399642
40
2.1916694
50
226.0417698
51
251.6244778
0
ARC
8
DEFAULT_255_2_778
10
65.136045
20
6.5477498
40
1.9121777
50
180.4473167
51
226.4306298
0
ARC
8
DEFAULT_255_2_778
10
65.1081578
20
6.5390817
40
1.8842425
50
179.9999641
51
180.1903636
0
ARC
8
DEFAULT_255_2_778
10
65.5052411
20
6.4189699
40
1.9835714
50
36.7533686
51
57.9917698
0
ARC
8
DEFAULT_255_2_778
10
65.416296
20
6.2802054
40
2.1483852
50
57.9418438
51
79.2680501
0
ARC
8
DEFAULT_255_2_778
10
65.3985838
20
6.203968
40
2.2265898
50
79.1855549
51
88.7502193
0
ARC
8
DEFAULT_255_2_778
10
65.3979223
20
6.1915979
40
2.2389715
50
88.7402003
51
90.0003369
0
ARC
8
DEFAULT_255_2_778
10
65.3835158
20
6.2830165
40
2.1476012
50
89.6159961
51
132.096094
0
ARC
8
DEFAULT_255_2_778
10
65.2410351
20
6.4614772
40
1.9197143
50
132.5113155
51
147.5195822
0
ARC
8
DEFAULT_255_2_778
10
65.1335138
20
6.5290579
40
1.7927204
50
147.4962264
51
170.7518039
0
ARC
8
DEFAULT_255_2_778
10
65.0915445
20
6.538422
40
1.7497937
50
170.8335835
51
179.9959237
0
ARC
8
DEFAULT_255_2_778
10
65.0876136
20
6.538552
40
1.7458628
50
180.0001806
51
181.4941423
0
ARC
8
DEFAULT_255_2_778
10
65.0984644
20
6.5398192
40
1.7567432
50
181.5262289
51
202.6960211
0
ARC
8
DEFAULT_255_2_778
10
65.1784484
20
6.573426
40
1.8435008
50
202.7004743
51
216.2282589
0
ARC
8
DEFAULT_255_2_778
10
65.2419396
20
6.6166744
40
1.9202788
50
216.1495968
51
216.5804383
0
ARC
8
DEFAULT_255_2_778
10
65.286795
20
6.6569331
40
1.9802988
50
216.7423736
51
238.0142883
0
ARC
8
DEFAULT_255_2_778
10
65.3781293
20
6.7978588
40
2.1482115
50
237.9391154
51
259.2718297
0
ARC
8
DEFAULT_255_2_778
10
65.3958803
20
6.8742545
40
2.2265787
50
259.1889782
51
268.7563005
0
ARC
8
DEFAULT_255_2_778
10
65.3965576
20
6.8881297
40
2.2404652
50
268.7466856
51
269.9998764
0
ARC
8
DEFAULT_255_2_778
10
65.4109743
20
6.794971
40
2.147355
50
269.6152008
51
312.0998959
0
ARC
8
DEFAULT_255_2_778
10
65.5533819
20
6.6168017
40
1.9197333
50
312.5113542
51
327.5194571
0
ARC
8
DEFAULT_255_2_778
10
65.6609293
20
6.5492065
40
1.7927097
50
327.4960339
51
350.751475
0
ARC
8
DEFAULT_255_2_778
10
65.7029813
20
6.5398262
40
1.7496986
50
350.8333357
51
359.9958911
0
ARC
8
DEFAULT_255_2_778
10
65.7077911
20
6.5397032
40
1.744889
50
359.9999208
51
1.4867343
0
ARC
8
DEFAULT_255_2_778
10
65.6962162
20
6.5384396
40
1.7564931
50
1.5181406
51
22.6943743
0
ARC
8
DEFAULT_255_2_778
10
65.6163792
20
6.5048902
40
1.8430925
50
22.6990242
51
36.2317122
0
ARC
8
DEFAULT_255_2_778
10
65.561262
20
6.4677881
40
1.909483
50
36.1522162
51
36.5855545
0
LINE
8
DEFAULT_255_2_778
10
63.2239154
20
6.5390828
11
63.2239154
21
6.5390828
0
LINE
8
DEFAULT_255_2_778
10
63.6999154
20
5.4722828
11
66.5566154
21
8.1011828
0
LINE
8
DEFAULT_255_2_778
10
67.0945154
20
7.6058828
11
64.2378154
21
4.9769828
0
ARC
8
DEFAULT_255_2_778
10
70.5882723
20
6.5250522
40
1.9309078
50
127.9030748
51
179.5836641
0
ARC
8
DEFAULT_255_2_778
10
70.7892278
20
6.3076067
40
2.2260761
50
104.6357398
51
128.5460725
0
ARC
8
DEFAULT_255_2_778
10
70.8277846
20
6.1737598
40
2.3653248
50
89.9290063
51
104.7201864
0
ARC
8
DEFAULT_255_2_778
10
70.8350955
20
6.188912
40
2.3501749
50
71.5369755
51
90.1067851
0
ARC
8
DEFAULT_255_2_778
10
70.8884313
20
6.3381384
40
2.191741
50
46.0261991
51
71.6240689
0
ARC
8
DEFAULT_255_2_778
10
71.0919584
20
6.5304038
40
1.9121051
50
0.4476201
51
46.4149724
0
ARC
8
DEFAULT_255_2_778
10
71.1211799
20
6.5390839
40
1.8828356
50
359.9999686
51
0.190435
0
ARC
8
DEFAULT_255_2_778
10
71.0731535
20
6.5531479
40
1.9309131
50
307.9016169
51
359.5826442
0
ARC
8
DEFAULT_255_2_778
10
70.8721123
20
6.7706527
40
2.2261806
50
284.6365013
51
308.5455791
0
ARC
8
DEFAULT_255_2_778
10
70.8336388
20
6.9041873
40
2.3651062
50
269.9291797
51
284.7208709
0
ARC
8
DEFAULT_255_2_778
10
70.8263236
20
6.8894277
40
2.350349
50
251.537663
51
270.1070617
0
ARC
8
DEFAULT_255_2_778
10
70.772922
20
6.7399642
40
2.1916694
50
226.0417698
51
251.6244778
0
ARC
8
DEFAULT_255_2_778
10
70.569545
20
6.5477498
40
1.9121777
50
180.4473167
51
226.4306298
0
ARC
8
DEFAULT_255_2_778
10
70.5416578
20
6.5390817
40
1.8842425
50
179.9999641
51
180.1903636
0
ARC
8
DEFAULT_255_2_778
10
70.9387411
20
6.4189699
40
1.9835714
50
36.7533686
51
57.9917698
0
ARC
8
DEFAULT_255_2_778
10
70.849796
20
6.2802054
40
2.1483852
50
57.9418438
51
79.2680501
0
ARC
8
DEFAULT_255_2_778
10
70.8320838
20
6.203968
40
2.2265898
50
79.1855549
51
88.7502193
0
ARC
8
DEFAULT_255_2_778
10
70.8314223
20
6.1915979
40
2.2389715
50
88.7402003
51
90.0003369
0
ARC
8
DEFAULT_255_2_778
10
70.8170158
20
6.2830165
40
2.1476012
50
89.6159961
51
132.096094
0
ARC
8
DEFAULT_255_2_778
10
70.6745351
20
6.4614772
40
1.9197143
50
132.5113155
51
147.5195822
0
ARC
8
DEFAULT_255_2_778
10
70.5670138
20
6.5290579
40
1.7927204
50
147.4962264
51
170.7518039
0
ARC
8
DEFAULT_255_2_778
10
70.5250445
20
6.538422
40
1.7497937
50
170.8335835
51
179.9959237
0
ARC
8
DEFAULT_255_2_778
10
70.5211136
20
6.538552
40
1.7458628
50
180.0001806
51
181.4941423
0
ARC
8
DEFAULT_255_2_778
10
70.5319644
20
6.5398192
40
1.7567432
50
181.5262289
51
202.6960211
0
ARC
8
DEFAULT_255_2_778
10
70.6119484
20
6.573426
40
1.8435008
50
202.7004743
51
216.2282589
0
ARC
8
DEFAULT_255_2_778
10
70.6754396
20
6.6166744
40
1.9202788
50
216.1495968
51
216.5804383
0
ARC
8
DEFAULT_255_2_778
10
70.720295
20
6.6569331
40
1.9802988
50
216.7423736
51
238.0142883
0
ARC
8
DEFAULT_255_2_778
10
70.8116278
20
6.797853
40
2.1482058
50
237.9390663
51
259.2686766
0
ARC
8
DEFAULT_255_2_778
10
70.8293707
20
6.8741848
40
2.2265088
50
259.1858338
51
268.7519417
0
ARC
8
DEFAULT_255_2_778
10
70.8300589
20
6.8886195
40
2.2409551
50
268.7423885
51
269.9996387
0
ARC
8
DEFAULT_255_2_778
10
70.8444944
20
6.7946585
40
2.1470427
50
269.6143955
51
312.1031099
0
ARC
8
DEFAULT_255_2_778
10
70.986852
20
6.6169331
40
1.9197828
50
312.5071618
51
327.5161286
0
ARC
8
DEFAULT_255_2_778
10
71.094523
20
6.5492523
40
1.7926091
50
327.4926563
51
350.7504491
0
ARC
8
DEFAULT_255_2_778
10
71.1365922
20
6.5398656
40
1.7495799
50
350.8324052
51
359.9958399
0
ARC
8
DEFAULT_255_2_778
10
71.1406174
20
6.5397332
40
1.7455546
50
0.0001785
51
1.4851826
0
ARC
8
DEFAULT_255_2_778
10
71.1297962
20
6.5384747
40
1.7564051
50
1.5170715
51
22.694331
0
ARC
8
DEFAULT_255_2_778
10
71.0499019
20
6.5049048
40
1.8430656
50
22.6988821
51
36.2317617
0
ARC
8
DEFAULT_255_2_778
10
70.994762
20
6.4677881
40
1.909483
50
36.1522162
51
36.5855545
0
LINE
8
DEFAULT_255_2_778
10
68.6574154
20
6.5390828
11
68.6574154
21
6.5390828
0
LINE
8
DEFAULT_255_2_778
10
69.1334154
20
5.4722828
11
71.9901154
21
8.1011828
0
LINE
8
DEFAULT_255_2_778
10
72.5280154
20
7.6058828
11
69.6713154
21
4.9769828
0
LINE
8
DEFAULT_255_2_778
10
73.5474273
20
1.8891173
11
51.8135273
21
1.8891173
0
LINE
8
DEFAULT_255_2_778
10
51.8135273
20
1.4091173
11
73.5474273
21
1.4091173
0
LINE
8
DEFAULT_255_2_778
10
73.5474273
20
1.1091173
11
51.8135273
21
1.1091173
0
LINE
8
DEFAULT_255_2_778
10
66.1036273
20
-0.2407827
11
59.2576273
21
-0.2407827
0
LINE
8
DEFAULT_255_2_778
10
51.8138273
20
-0.2407827
11
59.2576273
21
-0.2407827
0
LINE
8
DEFAULT_255_2_778
10
59.2576273
20
-0.2407827
11
59.2576273
21
1.1091173
0
LINE
8
DEFAULT_255_2_778
10
66.1039273
20
1.1091173
11
66.1039273
21
-0.2407827
0
LINE
8
DEFAULT_255_2_778
10
66.1039273
20
-0.2407827
11
73.5477273
21
-0.2407827
0
LINE
8
DEFAULT_255_2_778
10
73.5474273
20
11.0891173
11
51.8135273
21
11.0891173
0
LINE
8
DEFAULT_255_2_778
10
51.8135273
20
10.6092173
11
73.5474273
21
10.6092173
0
LINE
8
DEFAULT_255_2_778
10
98.1068273
20
10.4589173
11
98.1068273
21
19.6590173
0
LINE
8
DEFAULT_255_2_778
10
76.3729273
20
10.4589173
11
76.3729273
21
19.6590173
0
LINE
8
DEFAULT_255_2_778
10
76.3782273
20
19.3770173
11
98.1068273
21
19.3770173
0
ARC
8
DEFAULT_255_2_778
10
78.8471642
20
15.7248522
40
1.9309078
50
127.9030748
51
179.5836641
0
ARC
8
DEFAULT_255_2_778
10
79.0481197
20
15.5074067
40
2.2260761
50
104.6357398
51
128.5460725
0
ARC
8
DEFAULT_255_2_778
10
79.0866765
20
15.3735598
40
2.3653248
50
89.9290063
51
104.7201864
0
ARC
8
DEFAULT_255_2_778
10
79.0939991
20
15.3885379
40
2.350349
50
71.537663
51
90.1070617
0
ARC
8
DEFAULT_255_2_778
10
79.1474007
20
15.5380015
40
2.1916694
50
46.0417698
51
71.6244778
0
ARC
8
DEFAULT_255_2_778
10
79.3507777
20
15.7302158
40
1.9121777
50
0.4473167
51
46.4306298
0
ARC
8
DEFAULT_255_2_778
10
79.3786649
20
15.738884
40
1.8842425
50
359.9999641
51
0.1903636
0
ARC
8
DEFAULT_255_2_778
10
79.3320505
20
15.7529135
40
1.9309078
50
307.9030748
51
359.5836641
0
ARC
8
DEFAULT_255_2_778
10
79.1310949
20
15.970359
40
2.2260761
50
284.6357398
51
308.5460725
0
ARC
8
DEFAULT_255_2_778
10
79.0925381
20
16.1042059
40
2.3653248
50
269.9290063
51
284.7201864
0
ARC
8
DEFAULT_255_2_778
10
79.0852155
20
16.0892277
40
2.350349
50
251.537663
51
270.1070617
0
ARC
8
DEFAULT_255_2_778
10
79.0318139
20
15.9397642
40
2.1916694
50
226.0417698
51
251.6244778
0
ARC
8
DEFAULT_255_2_778
10
78.8284369
20
15.7475498
40
1.9121777
50
180.4473167
51
226.4306298
0
ARC
8
DEFAULT_255_2_778
10
78.8005497
20
15.7388817
40
1.8842425
50
179.9999641
51
180.1903636
0
ARC
8
DEFAULT_255_2_778
10
79.197633
20
15.6187699
40
1.9835714
50
36.7533686
51
57.9917698
0
ARC
8
DEFAULT_255_2_778
10
79.1088146
20
15.4803925
40
2.1479899
50
57.9392271
51
79.2739998
0
ARC
8
DEFAULT_255_2_778
10
79.0910224
20
15.403798
40
2.2265599
50
79.1909809
51
88.7583484
0
ARC
8
DEFAULT_255_2_778
10
79.090338
20
15.38987
40
2.2404994
50
88.7485687
51
89.9998729
0
ARC
8
DEFAULT_255_2_778
10
79.0759412
20
15.4827297
40
2.1476881
50
89.6157885
51
132.095204
0
ARC
8
DEFAULT_255_2_778
10
78.933427
20
15.6612772
40
1.9197143
50
132.5113155
51
147.5195822
0
ARC
8
DEFAULT_255_2_778
10
78.8259057
20
15.7288579
40
1.7927204
50
147.4962264
51
170.7518039
0
ARC
8
DEFAULT_255_2_778
10
78.7839364
20
15.738222
40
1.7497937
50
170.8335835
51
179.9959237
0
ARC
8
DEFAULT_255_2_778
10
78.7800055
20
15.738352
40
1.7458628
50
180.0001806
51
181.4941423
0
ARC
8
DEFAULT_255_2_778
10
78.7908563
20
15.7396192
40
1.7567432
50
181.5262289
51
202.6960211
0
ARC
8
DEFAULT_255_2_778
10
78.8708404
20
15.773226
40
1.8435008
50
202.7004743
51
216.2282589
0
ARC
8
DEFAULT_255_2_778
10
78.9343315
20
15.8164744
40
1.9202788
50
216.1495968
51
216.5804383
0
ARC
8
DEFAULT_255_2_778
10
78.979187
20
15.8567331
40
1.9802988
50
216.7423736
51
238.0142883
0
ARC
8
DEFAULT_255_2_778
10
79.0705212
20
15.9976588
40
2.1482115
50
237.9391154
51
259.2718297
0
ARC
8
DEFAULT_255_2_778
10
79.0882722
20
16.0740545
40
2.2265787
50
259.1889782
51
268.7563005
0
ARC
8
DEFAULT_255_2_778
10
79.0889495
20
16.0879297
40
2.2404652
50
268.7466856
51
269.9998764
0
ARC
8
DEFAULT_255_2_778
10
79.1033663
20
15.994771
40
2.147355
50
269.6152008
51
312.0998959
0
ARC
8
DEFAULT_255_2_778
10
79.2457738
20
15.8166017
40
1.9197333
50
312.5113542
51
327.5194571
0
ARC
8
DEFAULT_255_2_778
10
79.3533213
20
15.7490065
40
1.7927097
50
327.4960339
51
350.751475
0
ARC
8
DEFAULT_255_2_778
10
79.3953732
20
15.7396262
40
1.7496986
50
350.8333357
51
359.9958911
0
ARC
8
DEFAULT_255_2_778
10
79.400183
20
15.7395032
40
1.744889
50
359.9999208
51
1.4867343
0
ARC
8
DEFAULT_255_2_778
10
79.3886081
20
15.7382396
40
1.7564931
50
1.5181406
51
22.6943743
0
ARC
8
DEFAULT_255_2_778
10
79.3087712
20
15.7046902
40
1.8430925
50
22.6990242
51
36.2317122
0
ARC
8
DEFAULT_255_2_778
10
79.253654
20
15.6675881
40
1.909483
50
36.1522162
51
36.5855545
0
LINE
8
DEFAULT_255_2_778
10
76.9163073
20
15.7388828
11
76.9163073
21
15.7388828
0
LINE
8
DEFAULT_255_2_778
10
77.3923073
20
14.6720828
11
80.2490073
21
17.3009828
0
LINE
8
DEFAULT_255_2_778
10
80.7869073
20
16.8056828
11
77.9302073
21
14.1767828
0
ARC
8
DEFAULT_255_2_778
10
84.2806723
20
15.7248522
40
1.9309078
50
127.9030748
51
179.5836641
0
ARC
8
DEFAULT_255_2_778
10
84.4816278
20
15.5074067
40
2.2260761
50
104.6357398
51
128.5460725
0
ARC
8
DEFAULT_255_2_778
10
84.5201846
20
15.3735598
40
2.3653248
50
89.9290063
51
104.7201864
0
ARC
8
DEFAULT_255_2_778
10
84.5275072
20
15.3885379
40
2.350349
50
71.537663
51
90.1070617
0
ARC
8
DEFAULT_255_2_778
10
84.5809088
20
15.5380015
40
2.1916694
50
46.0417698
51
71.6244778
0
ARC
8
DEFAULT_255_2_778
10
84.7842858
20
15.7302158
40
1.9121777
50
0.4473167
51
46.4306298
0
ARC
8
DEFAULT_255_2_778
10
84.812173
20
15.738884
40
1.8842425
50
359.9999641
51
0.1903636
0
ARC
8
DEFAULT_255_2_778
10
84.7655585
20
15.7529135
40
1.9309078
50
307.9030748
51
359.5836641
0
ARC
8
DEFAULT_255_2_778
10
84.564603
20
15.970359
40
2.2260761
50
284.6357398
51
308.5460725
0
ARC
8
DEFAULT_255_2_778
10
84.5260462
20
16.1042059
40
2.3653248
50
269.9290063
51
284.7201864
0
ARC
8
DEFAULT_255_2_778
10
84.5187236
20
16.0892277
40
2.350349
50
251.537663
51
270.1070617
0
ARC
8
DEFAULT_255_2_778
10
84.465322
20
15.9397642
40
2.1916694
50
226.0417698
51
251.6244778
0
ARC
8
DEFAULT_255_2_778
10
84.261945
20
15.7475498
40
1.9121777
50
180.4473167
51
226.4306298
0
ARC
8
DEFAULT_255_2_778
10
84.2340578
20
15.7388817
40
1.8842425
50
179.9999641
51
180.1903636
0
ARC
8
DEFAULT_255_2_778
10
84.6311411
20
15.6187699
40
1.9835714
50
36.7533686
51
57.9917698
0
ARC
8
DEFAULT_255_2_778
10
84.542196
20
15.4800054
40
2.1483852
50
57.9418438
51
79.2680501
0
ARC
8
DEFAULT_255_2_778
10
84.5244838
20
15.403768
40
2.2265898
50
79.1855549
51
88.7502193
0
ARC
8
DEFAULT_255_2_778
10
84.5238223
20
15.3913979
40
2.2389715
50
88.7402003
51
90.0003369
0
ARC
8
DEFAULT_255_2_778
10
84.5094158
20
15.4828165
40
2.1476012
50
89.6159961
51
132.096094
0
ARC
8
DEFAULT_255_2_778
10
84.3669351
20
15.6612772
40
1.9197143
50
132.5113155
51
147.5195822
0
ARC
8
DEFAULT_255_2_778
10
84.2594138
20
15.7288579
40
1.7927204
50
147.4962264
51
170.7518039
0
ARC
8
DEFAULT_255_2_778
10
84.2174445
20
15.738222
40
1.7497937
50
170.8335835
51
179.9959237
0
ARC
8
DEFAULT_255_2_778
10
84.2135136
20
15.738352
40
1.7458628
50
180.0001806
51
181.4941423
0
ARC
8
DEFAULT_255_2_778
10
84.2243644
20
15.7396192
40
1.7567432
50
181.5262289
51
202.6960211
0
ARC
8
DEFAULT_255_2_778
10
84.3043484
20
15.773226
40
1.8435008
50
202.7004743
51
216.2282589
0
ARC
8
DEFAULT_255_2_778
10
84.3678396
20
15.8164744
40
1.9202788
50
216.1495968
51
216.5804383
0
ARC
8
DEFAULT_255_2_778
10
84.412695
20
15.8567331
40
1.9802988
50
216.7423736
51
238.0142883
0
ARC
8
DEFAULT_255_2_778
10
84.5040293
20
15.9976588
40
2.1482115
50
237.9391154
51
259.2718297
0
ARC
8
DEFAULT_255_2_778
10
84.5217803
20
16.0740545
40
2.2265787
50
259.1889782
51
268.7563005
0
ARC
8
DEFAULT_255_2_778
10
84.5224576
20
16.0879297
40
2.2404652
50
268.7466856
51
269.9998764
0
ARC
8
DEFAULT_255_2_778
10
84.5368743
20
15.994771
40
2.147355
50
269.6152008
51
312.0998959
0
ARC
8
DEFAULT_255_2_778
10
84.6792819
20
15.8166017
40
1.9197333
50
312.5113542
51
327.5194571
0
ARC
8
DEFAULT_255_2_778
10
84.7868293
20
15.7490065
40
1.7927097
50
327.4960339
51
350.751475
0
ARC
8
DEFAULT_255_2_778
10
84.8288813
20
15.7396262
40
1.7496986
50
350.8333357
51
359.9958911
0
ARC
8
DEFAULT_255_2_778
10
84.8336911
20
15.7395032
40
1.744889
50
359.9999208
51
1.4867343
0
ARC
8
DEFAULT_255_2_778
10
84.8221162
20
15.7382396
40
1.7564931
50
1.5181406
51
22.6943743
0
ARC
8
DEFAULT_255_2_778
10
84.7422792
20
15.7046902
40
1.8430925
50
22.6990242
51
36.2317122
0
ARC
8
DEFAULT_255_2_778
10
84.687162
20
15.6675881
40
1.909483
50
36.1522162
51
36.5855545
0
LINE
8
DEFAULT_255_2_778
10
82.3498154
20
15.7388828
11
82.3498154
21
15.7388828
0
LINE
8
DEFAULT_255_2_778
10
82.8258154
20
14.6720828
11
85.6825154
21
17.3009828
0
LINE
8
DEFAULT_255_2_778
10
86.2204154
20
16.8056828
11
83.3637154
21
14.1767828
0
ARC
8
DEFAULT_255_2_778
10
89.7141723
20
15.7248522
40
1.9309078
50
127.9030748
51
179.5836641
0
ARC
8
DEFAULT_255_2_778
10
89.9151278
20
15.5074067
40
2.2260761
50
104.6357398
51
128.5460725
0
ARC
8
DEFAULT_255_2_778
10
89.9536846
20
15.3735598
40
2.3653248
50
89.9290063
51
104.7201864
0
ARC
8
DEFAULT_255_2_778
10
89.9610072
20
15.3885379
40
2.350349
50
71.537663
51
90.1070617
0
ARC
8
DEFAULT_255_2_778
10
90.0144088
20
15.5380015
40
2.1916694
50
46.0417698
51
71.6244778
0
ARC
8
DEFAULT_255_2_778
10
90.2177858
20
15.7302158
40
1.9121777
50
0.4473167
51
46.4306298
0
ARC
8
DEFAULT_255_2_778
10
90.245673
20
15.738884
40
1.8842425
50
359.9999641
51
0.1903636
0
ARC
8
DEFAULT_255_2_778
10
90.1990585
20
15.7529135
40
1.9309078
50
307.9030748
51
359.5836641
0
ARC
8
DEFAULT_255_2_778
10
89.998103
20
15.970359
40
2.2260761
50
284.6357398
51
308.5460725
0
ARC
8
DEFAULT_255_2_778
10
89.9595462
20
16.1042059
40
2.3653248
50
269.9290063
51
284.7201864
0
ARC
8
DEFAULT_255_2_778
10
89.9522236
20
16.0892277
40
2.350349
50
251.537663
51
270.1070617
0
ARC
8
DEFAULT_255_2_778
10
89.898822
20
15.9397642
40
2.1916694
50
226.0417698
51
251.6244778
0
ARC
8
DEFAULT_255_2_778
10
89.695445
20
15.7475498
40
1.9121777
50
180.4473167
51
226.4306298
0
ARC
8
DEFAULT_255_2_778
10
89.6675578
20
15.7388817
40
1.8842425
50
179.9999641
51
180.1903636
0
ARC
8
DEFAULT_255_2_778
10
90.0646411
20
15.6187699
40
1.9835714
50
36.7533686
51
57.9917698
0
ARC
8
DEFAULT_255_2_778
10
89.975696
20
15.4800054
40
2.1483852
50
57.9418438
51
79.2680501
0
ARC
8
DEFAULT_255_2_778
10
89.9579838
20
15.403768
40
2.2265898
50
79.1855549
51
88.7502193
0
ARC
8
DEFAULT_255_2_778
10
89.9573223
20
15.3913979
40
2.2389715
50
88.7402003
51
90.0003369
0
ARC
8
DEFAULT_255_2_778
10
89.9429158
20
15.4828165
40
2.1476012
50
89.6159961
51
132.096094
0
ARC
8
DEFAULT_255_2_778
10
89.8004351
20
15.6612772
40
1.9197143
50
132.5113155
51
147.5195822
0
ARC
8
DEFAULT_255_2_778
10
89.6929138
20
15.7288579
40
1.7927204
50
147.4962264
51
170.7518039
0
ARC
8
DEFAULT_255_2_778
10
89.6509445
20
15.738222
40
1.7497937
50
170.8335835
51
179.9959237
0
ARC
8
DEFAULT_255_2_778
10
89.6470136
20
15.738352
40
1.7458628
50
180.0001806
51
181.4941423
0
ARC
8
DEFAULT_255_2_778
10
89.6578644
20
15.7396192
40
1.7567432
50
181.5262289
51
202.6960211
0
ARC
8
DEFAULT_255_2_778
10
89.7378484
20
15.773226
40
1.8435008
50
202.7004743
51
216.2282589
0
ARC
8
DEFAULT_255_2_778
10
89.8013396
20
15.8164744
40
1.9202788
50
216.1495968
51
216.5804383
0
ARC
8
DEFAULT_255_2_778
10
89.846195
20
15.8567331
40
1.9802988
50
216.7423736
51
238.0142883
0
ARC
8
DEFAULT_255_2_778
10
89.9375293
20
15.9976588
40
2.1482115
50
237.9391154
51
259.2718297
0
ARC
8
DEFAULT_255_2_778
10
89.9552803
20
16.0740545
40
2.2265787
50
259.1889782
51
268.7563005
0
ARC
8
DEFAULT_255_2_778
10
89.9559576
20
16.0879297
40
2.2404652
50
268.7466856
51
269.9998764
0
ARC
8
DEFAULT_255_2_778
10
89.9703743
20
15.994771
40
2.147355
50
269.6152008
51
312.0998959
0
ARC
8
DEFAULT_255_2_778
10
90.1127819
20
15.8166017
40
1.9197333
50
312.5113542
51
327.5194571
0
ARC
8
DEFAULT_255_2_778
10
90.2203293
20
15.7490065
40
1.7927097
50
327.4960339
51
350.751475
0
ARC
8
DEFAULT_255_2_778
10
90.2623813
20
15.7396262
40
1.7496986
50
350.8333357
51
359.9958911
0
ARC
8
DEFAULT_255_2_778
10
90.2671911
20
15.7395032
40
1.744889
50
359.9999208
51
1.4867343
0
ARC
8
DEFAULT_255_2_778
10
90.2556162
20
15.7382396
40
1.7564931
50
1.5181406
51
22.6943743
0
ARC
8
DEFAULT_255_2_778
10
90.1757792
20
15.7046902
40
1.8430925
50
22.6990242
51
36.2317122
0
ARC
8
DEFAULT_255_2_778
10
90.120662
20
15.6675881
40
1.909483
50
36.1522162
51
36.5855545
0
LINE
8
DEFAULT_255_2_778
10
87.7833154
20
15.7388828
11
87.7833154
21
15.7388828
0
LINE
8
DEFAULT_255_2_778
10
88.2593154
20
14.6720828
11
91.1160154
21
17.3009828
0
LINE
8
DEFAULT_255_2_778
10
91.6539154
20
16.8056828
11
88.7972154
21
14.1767828
0
ARC
8
DEFAULT_255_2_778
10
95.1476723
20
15.7248522
40
1.9309078
50
127.9030748
51
179.5836641
0
ARC
8
DEFAULT_255_2_778
10
95.3486278
20
15.5074067
40
2.2260761
50
104.6357398
51
128.5460725
0
ARC
8
DEFAULT_255_2_778
10
95.3871846
20
15.3735598
40
2.3653248
50
89.9290063
51
104.7201864
0
ARC
8
DEFAULT_255_2_778
10
95.3944955
20
15.388712
40
2.3501749
50
71.5369755
51
90.1067851
0
ARC
8
DEFAULT_255_2_778
10
95.4478313
20
15.5379384
40
2.191741
50
46.0261991
51
71.6240689
0
ARC
8
DEFAULT_255_2_778
10
95.6513584
20
15.7302038
40
1.9121051
50
0.4476201
51
46.4149724
0
ARC
8
DEFAULT_255_2_778
10
95.6805799
20
15.7388839
40
1.8828356
50
359.9999686
51
0.190435
0
ARC
8
DEFAULT_255_2_778
10
95.6325535
20
15.7529479
40
1.9309131
50
307.9016169
51
359.5826442
0
ARC
8
DEFAULT_255_2_778
10
95.4315123
20
15.9704527
40
2.2261806
50
284.6365013
51
308.5455791
0
ARC
8
DEFAULT_255_2_778
10
95.3930388
20
16.1039873
40
2.3651062
50
269.9291797
51
284.7208709
0
ARC
8
DEFAULT_255_2_778
10
95.3857236
20
16.0892277
40
2.350349
50
251.537663
51
270.1070617
0
ARC
8
DEFAULT_255_2_778
10
95.332322
20
15.9397642
40
2.1916694
50
226.0417698
51
251.6244778
0
ARC
8
DEFAULT_255_2_778
10
95.128945
20
15.7475498
40
1.9121777
50
180.4473167
51
226.4306298
0
ARC
8
DEFAULT_255_2_778
10
95.1010578
20
15.7388817
40
1.8842425
50
179.9999641
51
180.1903636
0
ARC
8
DEFAULT_255_2_778
10
95.4981411
20
15.6187699
40
1.9835714
50
36.7533686
51
57.9917698
0
ARC
8
DEFAULT_255_2_778
10
95.409196
20
15.4800054
40
2.1483852
50
57.9418438
51
79.2680501
0
ARC
8
DEFAULT_255_2_778
10
95.3914838
20
15.403768
40
2.2265898
50
79.1855549
51
88.7502193
0
ARC
8
DEFAULT_255_2_778
10
95.3908223
20
15.3913979
40
2.2389715
50
88.7402003
51
90.0003369
0
ARC
8
DEFAULT_255_2_778
10
95.3764158
20
15.4828165
40
2.1476012
50
89.6159961
51
132.096094
0
ARC
8
DEFAULT_255_2_778
10
95.2339351
20
15.6612772
40
1.9197143
50
132.5113155
51
147.5195822
0
ARC
8
DEFAULT_255_2_778
10
95.1264138
20
15.7288579
40
1.7927204
50
147.4962264
51
170.7518039
0
ARC
8
DEFAULT_255_2_778
10
95.0844445
20
15.738222
40
1.7497937
50
170.8335835
51
179.9959237
0
ARC
8
DEFAULT_255_2_778
10
95.0805136
20
15.738352
40
1.7458628
50
180.0001806
51
181.4941423
0
ARC
8
DEFAULT_255_2_778
10
95.0913644
20
15.7396192
40
1.7567432
50
181.5262289
51
202.6960211
0
ARC
8
DEFAULT_255_2_778
10
95.1713484
20
15.773226
40
1.8435008
50
202.7004743
51
216.2282589
0
ARC
8
DEFAULT_255_2_778
10
95.2348396
20
15.8164744
40
1.9202788
50
216.1495968
51
216.5804383
0
ARC
8
DEFAULT_255_2_778
10
95.279695
20
15.8567331
40
1.9802988
50
216.7423736
51
238.0142883
0
ARC
8
DEFAULT_255_2_778
10
95.3710278
20
15.997653
40
2.1482058
50
237.9390663
51
259.2686766
0
ARC
8
DEFAULT_255_2_778
10
95.3887707
20
16.0739848
40
2.2265088
50
259.1858338
51
268.7519417
0
ARC
8
DEFAULT_255_2_778
10
95.3894589
20
16.0884195
40
2.2409551
50
268.7423885
51
269.9996387
0
ARC
8
DEFAULT_255_2_778
10
95.4038944
20
15.9944585
40
2.1470427
50
269.6143955
51
312.1031099
0
ARC
8
DEFAULT_255_2_778
10
95.546252
20
15.8167331
40
1.9197828
50
312.5071618
51
327.5161286
0
ARC
8
DEFAULT_255_2_778
10
95.653923
20
15.7490523
40
1.7926091
50
327.4926563
51
350.7504491
0
ARC
8
DEFAULT_255_2_778
10
95.6959922
20
15.7396656
40
1.7495799
50
350.8324052
51
359.9958399
0
ARC
8
DEFAULT_255_2_778
10
95.7000174
20
15.7395332
40
1.7455546
50
0.0001785
51
1.4851826
0
ARC
8
DEFAULT_255_2_778
10
95.6891962
20
15.7382747
40
1.7564051
50
1.5170715
51
22.694331
0
ARC
8
DEFAULT_255_2_778
10
95.6093019
20
15.7047048
40
1.8430656
50
22.6988821
51
36.2317617
0
ARC
8
DEFAULT_255_2_778
10
95.554162
20
15.6675881
40
1.909483
50
36.1522162
51
36.5855545
0
LINE
8
DEFAULT_255_2_778
10
93.2168154
20
15.7388828
11
93.2168154
21
15.7388828
0
LINE
8
DEFAULT_255_2_778
10
93.6928154
20
14.6720828
11
96.5495154
21
17.3009828
0
LINE
8
DEFAULT_255_2_778
10
97.0874154
20
16.8056828
11
94.2307154
21
14.1767828
0
ARC
8
DEFAULT_255_2_778
10
78.8471642
20
6.5250522
40
1.9309078
50
127.9030748
51
179.5836641
0
ARC
8
DEFAULT_255_2_778
10
79.0481197
20
6.3076067
40
2.2260761
50
104.6357398
51
128.5460725
0
ARC
8
DEFAULT_255_2_778
10
79.0866765
20
6.1737598
40
2.3653248
50
89.9290063
51
104.7201864
0
ARC
8
DEFAULT_255_2_778
10
79.0939991
20
6.1887379
40
2.350349
50
71.537663
51
90.1070617
0
ARC
8
DEFAULT_255_2_778
10
79.1474007
20
6.3382015
40
2.1916694
50
46.0417698
51
71.6244778
0
ARC
8
DEFAULT_255_2_778
10
79.3507777
20
6.5304158
40
1.9121777
50
0.4473167
51
46.4306298
0
ARC
8
DEFAULT_255_2_778
10
79.3786649
20
6.539084
40
1.8842425
50
359.9999641
51
0.1903636
0
ARC
8
DEFAULT_255_2_778
10
79.3320505
20
6.5531135
40
1.9309078
50
307.9030748
51
359.5836641
0
ARC
8
DEFAULT_255_2_778
10
79.1310949
20
6.770559
40
2.2260761
50
284.6357398
51
308.5460725
0
ARC
8
DEFAULT_255_2_778
10
79.0925381
20
6.9044059
40
2.3653248
50
269.9290063
51
284.7201864
0
ARC
8
DEFAULT_255_2_778
10
79.0852155
20
6.8894277
40
2.350349
50
251.537663
51
270.1070617
0
ARC
8
DEFAULT_255_2_778
10
79.0318139
20
6.7399642
40
2.1916694
50
226.0417698
51
251.6244778
0
ARC
8
DEFAULT_255_2_778
10
78.8284369
20
6.5477498
40
1.9121777
50
180.4473167
51
226.4306298
0
ARC
8
DEFAULT_255_2_778
10
78.8005497
20
6.5390817
40
1.8842425
50
179.9999641
51
180.1903636
0
ARC
8
DEFAULT_255_2_778
10
79.197633
20
6.4189699
40
1.9835714
50
36.7533686
51
57.9917698
0
ARC
8
DEFAULT_255_2_778
10
79.1088146
20
6.2805925
40
2.1479899
50
57.9392271
51
79.2739998
0
ARC
8
DEFAULT_255_2_778
10
79.0910224
20
6.203998
40
2.2265599
50
79.1909809
51
88.7583484
0
ARC
8
DEFAULT_255_2_778
10
79.090338
20
6.19007
40
2.2404994
50
88.7485687
51
89.9998729
0
ARC
8
DEFAULT_255_2_778
10
79.0759412
20
6.2829297
40
2.1476881
50
89.6157885
51
132.095204
0
ARC
8
DEFAULT_255_2_778
10
78.933427
20
6.4614772
40
1.9197143
50
132.5113155
51
147.5195822
0
ARC
8
DEFAULT_255_2_778
10
78.8259057
20
6.5290579
40
1.7927204
50
147.4962264
51
170.7518039
0
ARC
8
DEFAULT_255_2_778
10
78.7839364
20
6.538422
40
1.7497937
50
170.8335835
51
179.9959237
0
ARC
8
DEFAULT_255_2_778
10
78.7800055
20
6.538552
40
1.7458628
50
180.0001806
51
181.4941423
0
ARC
8
DEFAULT_255_2_778
10
78.7908563
20
6.5398192
40
1.7567432
50
181.5262289
51
202.6960211
0
ARC
8
DEFAULT_255_2_778
10
78.8708404
20
6.573426
40
1.8435008
50
202.7004743
51
216.2282589
0
ARC
8
DEFAULT_255_2_778
10
78.9343315
20
6.6166744
40
1.9202788
50
216.1495968
51
216.5804383
0
ARC
8
DEFAULT_255_2_778
10
78.979187
20
6.6569331
40
1.9802988
50
216.7423736
51
238.0142883
0
ARC
8
DEFAULT_255_2_778
10
79.0705212
20
6.7978588
40
2.1482115
50
237.9391154
51
259.2718297
0
ARC
8
DEFAULT_255_2_778
10
79.0882722
20
6.8742545
40
2.2265787
50
259.1889782
51
268.7563005
0
ARC
8
DEFAULT_255_2_778
10
79.0889495
20
6.8881297
40
2.2404652
50
268.7466856
51
269.9998764
0
ARC
8
DEFAULT_255_2_778
10
79.1033663
20
6.794971
40
2.147355
50
269.6152008
51
312.0998959
0
ARC
8
DEFAULT_255_2_778
10
79.2457738
20
6.6168017
40
1.9197333
50
312.5113542
51
327.5194571
0
ARC
8
DEFAULT_255_2_778
10
79.3533213
20
6.5492065
40
1.7927097
50
327.4960339
51
350.751475
0
ARC
8
DEFAULT_255_2_778
10
79.3953732
20
6.5398262
40
1.7496986
50
350.8333357
51
359.9958911
0
ARC
8
DEFAULT_255_2_778
10
79.400183
20
6.5397032
40
1.744889
50
359.9999208
51
1.4867343
0
ARC
8
DEFAULT_255_2_778
10
79.3886081
20
6.5384396
40
1.7564931
50
1.5181406
51
22.6943743
0
ARC
8
DEFAULT_255_2_778
10
79.3087712
20
6.5048902
40
1.8430925
50
22.6990242
51
36.2317122
0
ARC
8
DEFAULT_255_2_778
10
79.253654
20
6.4677881
40
1.909483
50
36.1522162
51
36.5855545
0
LINE
8
DEFAULT_255_2_778
10
76.9163073
20
6.5390828
11
76.9163073
21
6.5390828
0
LINE
8
DEFAULT_255_2_778
10
77.3923073
20
5.4722828
11
80.2490073
21
8.1011828
0
LINE
8
DEFAULT_255_2_778
10
80.7869073
20
7.6058828
11
77.9302073
21
4.9769828
0
ARC
8
DEFAULT_255_2_778
10
84.2806723
20
6.5250522
40
1.9309078
50
127.9030748
51
179.5836641
0
ARC
8
DEFAULT_255_2_778
10
84.4816278
20
6.3076067
40
2.2260761
50
104.6357398
51
128.5460725
0
ARC
8
DEFAULT_255_2_778
10
84.5201846
20
6.1737598
40
2.3653248
50
89.9290063
51
104.7201864
0
ARC
8
DEFAULT_255_2_778
10
84.5275072
20
6.1887379
40
2.350349
50
71.537663
51
90.1070617
0
ARC
8
DEFAULT_255_2_778
10
84.5809088
20
6.3382015
40
2.1916694
50
46.0417698
51
71.6244778
0
ARC
8
DEFAULT_255_2_778
10
84.7842858
20
6.5304158
40
1.9121777
50
0.4473167
51
46.4306298
0
ARC
8
DEFAULT_255_2_778
10
84.812173
20
6.539084
40
1.8842425
50
359.9999641
51
0.1903636
0
ARC
8
DEFAULT_255_2_778
10
84.7655585
20
6.5531135
40
1.9309078
50
307.9030748
51
359.5836641
0
ARC
8
DEFAULT_255_2_778
10
84.564603
20
6.770559
40
2.2260761
50
284.6357398
51
308.5460725
0
ARC
8
DEFAULT_255_2_778
10
84.5260462
20
6.9044059
40
2.3653248
50
269.9290063
51
284.7201864
0
ARC
8
DEFAULT_255_2_778
10
84.5187236
20
6.8894277
40
2.350349
50
251.537663
51
270.1070617
0
ARC
8
DEFAULT_255_2_778
10
84.465322
20
6.7399642
40
2.1916694
50
226.0417698
51
251.6244778
0
ARC
8
DEFAULT_255_2_778
10
84.261945
20
6.5477498
40
1.9121777
50
180.4473167
51
226.4306298
0
ARC
8
DEFAULT_255_2_778
10
84.2340578
20
6.5390817
40
1.8842425
50
179.9999641
51
180.1903636
0
ARC
8
DEFAULT_255_2_778
10
84.6311411
20
6.4189699
40
1.9835714
50
36.7533686
51
57.9917698
0
ARC
8
DEFAULT_255_2_778
10
84.542196
20
6.2802054
40
2.1483852
50
57.9418438
51
79.2680501
0
ARC
8
DEFAULT_255_2_778
10
84.5244838
20
6.203968
40
2.2265898
50
79.1855549
51
88.7502193
0
ARC
8
DEFAULT_255_2_778
10
84.5238223
20
6.1915979
40
2.2389715
50
88.7402003
51
90.0003369
0
ARC
8
DEFAULT_255_2_778
10
84.5094158
20
6.2830165
40
2.1476012
50
89.6159961
51
132.096094
0
ARC
8
DEFAULT_255_2_778
10
84.3669351
20
6.4614772
40
1.9197143
50
132.5113155
51
147.5195822
0
ARC
8
DEFAULT_255_2_778
10
84.2594138
20
6.5290579
40
1.7927204
50
147.4962264
51
170.7518039
0
ARC
8
DEFAULT_255_2_778
10
84.2174445
20
6.538422
40
1.7497937
50
170.8335835
51
179.9959237
0
ARC
8
DEFAULT_255_2_778
10
84.2135136
20
6.538552
40
1.7458628
50
180.0001806
51
181.4941423
0
ARC
8
DEFAULT_255_2_778
10
84.2243644
20
6.5398192
40
1.7567432
50
181.5262289
51
202.6960211
0
ARC
8
DEFAULT_255_2_778
10
84.3043484
20
6.573426
40
1.8435008
50
202.7004743
51
216.2282589
0
ARC
8
DEFAULT_255_2_778
10
84.3678396
20
6.6166744
40
1.9202788
50
216.1495968
51
216.5804383
0
ARC
8
DEFAULT_255_2_778
10
84.412695
20
6.6569331
40
1.9802988
50
216.7423736
51
238.0142883
0
ARC
8
DEFAULT_255_2_778
10
84.5040293
20
6.7978588
40
2.1482115
50
237.9391154
51
259.2718297
0
ARC
8
DEFAULT_255_2_778
10
84.5217803
20
6.8742545
40
2.2265787
50
259.1889782
51
268.7563005
0
ARC
8
DEFAULT_255_2_778
10
84.5224576
20
6.8881297
40
2.2404652
50
268.7466856
51
269.9998764
0
ARC
8
DEFAULT_255_2_778
10
84.5368743
20
6.794971
40
2.147355
50
269.6152008
51
312.0998959
0
ARC
8
DEFAULT_255_2_778
10
84.6792819
20
6.6168017
40
1.9197333
50
312.5113542
51
327.5194571
0
ARC
8
DEFAULT_255_2_778
10
84.7868293
20
6.5492065
40
1.7927097
50
327.4960339
51
350.751475
0
ARC
8
DEFAULT_255_2_778
10
84.8288813
20
6.5398262
40
1.7496986
50
350.8333357
51
359.9958911
0
ARC
8
DEFAULT_255_2_778
10
84.8336911
20
6.5397032
40
1.744889
50
359.9999208
51
1.4867343
0
ARC
8
DEFAULT_255_2_778
10
84.8221162
20
6.5384396
40
1.7564931
50
1.5181406
51
22.6943743
0
ARC
8
DEFAULT_255_2_778
10
84.7422792
20
6.5048902
40
1.8430925
50
22.6990242
51
36.2317122
0
ARC
8
DEFAULT_255_2_778
10
84.687162
20
6.4677881
40
1.909483
50
36.1522162
51
36.5855545
0
LINE
8
DEFAULT_255_2_778
10
82.3498154
20
6.5390828
11
82.3498154
21
6.5390828
0
LINE
8
DEFAULT_255_2_778
10
82.8258154
20
5.4722828
11
85.6825154
21
8.1011828
0
LINE
8
DEFAULT_255_2_778
10
86.2204154
20
7.6058828
11
83.3637154
21
4.9769828
0
ARC
8
DEFAULT_255_2_778
10
89.7141723
20
6.5250522
40
1.9309078
50
127.9030748
51
179.5836641
0
ARC
8
DEFAULT_255_2_778
10
89.9151278
20
6.3076067
40
2.2260761
50
104.6357398
51
128.5460725
0
ARC
8
DEFAULT_255_2_778
10
89.9536846
20
6.1737598
40
2.3653248
50
89.9290063
51
104.7201864
0
ARC
8
DEFAULT_255_2_778
10
89.9610072
20
6.1887379
40
2.350349
50
71.537663
51
90.1070617
0
ARC
8
DEFAULT_255_2_778
10
90.0144088
20
6.3382015
40
2.1916694
50
46.0417698
51
71.6244778
0
ARC
8
DEFAULT_255_2_778
10
90.2177858
20
6.5304158
40
1.9121777
50
0.4473167
51
46.4306298
0
ARC
8
DEFAULT_255_2_778
10
90.245673
20
6.539084
40
1.8842425
50
359.9999641
51
0.1903636
0
ARC
8
DEFAULT_255_2_778
10
90.1990585
20
6.5531135
40
1.9309078
50
307.9030748
51
359.5836641
0
ARC
8
DEFAULT_255_2_778
10
89.998103
20
6.770559
40
2.2260761
50
284.6357398
51
308.5460725
0
ARC
8
DEFAULT_255_2_778
10
89.9595462
20
6.9044059
40
2.3653248
50
269.9290063
51
284.7201864
0
ARC
8
DEFAULT_255_2_778
10
89.9522236
20
6.8894277
40
2.350349
50
251.537663
51
270.1070617
0
ARC
8
DEFAULT_255_2_778
10
89.898822
20
6.7399642
40
2.1916694
50
226.0417698
51
251.6244778
0
ARC
8
DEFAULT_255_2_778
10
89.695445
20
6.5477498
40
1.9121777
50
180.4473167
51
226.4306298
0
ARC
8
DEFAULT_255_2_778
10
89.6675578
20
6.5390817
40
1.8842425
50
179.9999641
51
180.1903636
0
ARC
8
DEFAULT_255_2_778
10
90.0646411
20
6.4189699
40
1.9835714
50
36.7533686
51
57.9917698
0
ARC
8
DEFAULT_255_2_778
10
89.975696
20
6.2802054
40
2.1483852
50
57.9418438
51
79.2680501
0
ARC
8
DEFAULT_255_2_778
10
89.9579838
20
6.203968
40
2.2265898
50
79.1855549
51
88.7502193
0
ARC
8
DEFAULT_255_2_778
10
89.9573223
20
6.1915979
40
2.2389715
50
88.7402003
51
90.0003369
0
ARC
8
DEFAULT_255_2_778
10
89.9429158
20
6.2830165
40
2.1476012
50
89.6159961
51
132.096094
0
ARC
8
DEFAULT_255_2_778
10
89.8004351
20
6.4614772
40
1.9197143
50
132.5113155
51
147.5195822
0
ARC
8
DEFAULT_255_2_778
10
89.6929138
20
6.5290579
40
1.7927204
50
147.4962264
51
170.7518039
0
ARC
8
DEFAULT_255_2_778
10
89.6509445
20
6.538422
40
1.7497937
50
170.8335835
51
179.9959237
0
ARC
8
DEFAULT_255_2_778
10
89.6470136
20
6.538552
40
1.7458628
50
180.0001806
51
181.4941423
0
ARC
8
DEFAULT_255_2_778
10
89.6578644
20
6.5398192
40
1.7567432
50
181.5262289
51
202.6960211
0
ARC
8
DEFAULT_255_2_778
10
89.7378484
20
6.573426
40
1.8435008
50
202.7004743
51
216.2282589
0
ARC
8
DEFAULT_255_2_778
10
89.8013396
20
6.6166744
40
1.9202788
50
216.1495968
51
216.5804383
0
ARC
8
DEFAULT_255_2_778
10
89.846195
20
6.6569331
40
1.9802988
50
216.7423736
51
238.0142883
0
ARC
8
DEFAULT_255_2_778
10
89.9375293
20
6.7978588
40
2.1482115
50
237.9391154
51
259.2718297
0
ARC
8
DEFAULT_255_2_778
10
89.9552803
20
6.8742545
40
2.2265787
50
259.1889782
51
268.7563005
0
ARC
8
DEFAULT_255_2_778
10
89.9559576
20
6.8881297
40
2.2404652
50
268.7466856
51
269.9998764
0
ARC
8
DEFAULT_255_2_778
10
89.9703743
20
6.794971
40
2.147355
50
269.6152008
51
312.0998959
0
ARC
8
DEFAULT_255_2_778
10
90.1127819
20
6.6168017
40
1.9197333
50
312.5113542
51
327.5194571
0
ARC
8
DEFAULT_255_2_778
10
90.2203293
20
6.5492065
40
1.7927097
50
327.4960339
51
350.751475
0
ARC
8
DEFAULT_255_2_778
10
90.2623813
20
6.5398262
40
1.7496986
50
350.8333357
51
359.9958911
0
ARC
8
DEFAULT_255_2_778
10
90.2671911
20
6.5397032
40
1.744889
50
359.9999208
51
1.4867343
0
ARC
8
DEFAULT_255_2_778
10
90.2556162
20
6.5384396
40
1.7564931
50
1.5181406
51
22.6943743
0
ARC
8
DEFAULT_255_2_778
10
90.1757792
20
6.5048902
40
1.8430925
50
22.6990242
51
36.2317122
0
ARC
8
DEFAULT_255_2_778
10
90.120662
20
6.4677881
40
1.909483
50
36.1522162
51
36.5855545
0
LINE
8
DEFAULT_255_2_778
10
87.7833154
20
6.5390828
11
87.7833154
21
6.5390828
0
LINE
8
DEFAULT_255_2_778
10
88.2593154
20
5.4722828
11
91.1160154
21
8.1011828
0
LINE
8
DEFAULT_255_2_778
10
91.6539154
20
7.6058828
11
88.7972154
21
4.9769828
0
ARC
8
DEFAULT_255_2_778
10
95.1476723
20
6.5250522
40
1.9309078
50
127.9030748
51
179.5836641
0
ARC
8
DEFAULT_255_2_778
10
95.3486278
20
6.3076067
40
2.2260761
50
104.6357398
51
128.5460725
0
ARC
8
DEFAULT_255_2_778
10
95.3871846
20
6.1737598
40
2.3653248
50
89.9290063
51
104.7201864
0
ARC
8
DEFAULT_255_2_778
10
95.3944955
20
6.188912
40
2.3501749
50
71.5369755
51
90.1067851
0
ARC
8
DEFAULT_255_2_778
10
95.4478313
20
6.3381384
40
2.191741
50
46.0261991
51
71.6240689
0
ARC
8
DEFAULT_255_2_778
10
95.6513584
20
6.5304038
40
1.9121051
50
0.4476201
51
46.4149724
0
ARC
8
DEFAULT_255_2_778
10
95.6805799
20
6.5390839
40
1.8828356
50
359.9999686
51
0.190435
0
ARC
8
DEFAULT_255_2_778
10
95.6325535
20
6.5531479
40
1.9309131
50
307.9016169
51
359.5826442
0
ARC
8
DEFAULT_255_2_778
10
95.4315123
20
6.7706527
40
2.2261806
50
284.6365013
51
308.5455791
0
ARC
8
DEFAULT_255_2_778
10
95.3930388
20
6.9041873
40
2.3651062
50
269.9291797
51
284.7208709
0
ARC
8
DEFAULT_255_2_778
10
95.3857236
20
6.8894277
40
2.350349
50
251.537663
51
270.1070617
0
ARC
8
DEFAULT_255_2_778
10
95.332322
20
6.7399642
40
2.1916694
50
226.0417698
51
251.6244778
0
ARC
8
DEFAULT_255_2_778
10
95.128945
20
6.5477498
40
1.9121777
50
180.4473167
51
226.4306298
0
ARC
8
DEFAULT_255_2_778
10
95.1010578
20
6.5390817
40
1.8842425
50
179.9999641
51
180.1903636
0
ARC
8
DEFAULT_255_2_778
10
95.4981411
20
6.4189699
40
1.9835714
50
36.7533686
51
57.9917698
0
ARC
8
DEFAULT_255_2_778
10
95.409196
20
6.2802054
40
2.1483852
50
57.9418438
51
79.2680501
0
ARC
8
DEFAULT_255_2_778
10
95.3914838
20
6.203968
40
2.2265898
50
79.1855549
51
88.7502193
0
ARC
8
DEFAULT_255_2_778
10
95.3908223
20
6.1915979
40
2.2389715
50
88.7402003
51
90.0003369
0
ARC
8
DEFAULT_255_2_778
10
95.3764158
20
6.2830165
40
2.1476012
50
89.6159961
51
132.096094
0
ARC
8
DEFAULT_255_2_778
10
95.2339351
20
6.4614772
40
1.9197143
50
132.5113155
51
147.5195822
0
ARC
8
DEFAULT_255_2_778
10
95.1264138
20
6.5290579
40
1.7927204
50
147.4962264
51
170.7518039
0
ARC
8
DEFAULT_255_2_778
10
95.0844445
20
6.538422
40
1.7497937
50
170.8335835
51
179.9959237
0
ARC
8
DEFAULT_255_2_778
10
95.0805136
20
6.538552
40
1.7458628
50
180.0001806
51
181.4941423
0
ARC
8
DEFAULT_255_2_778
10
95.0913644
20
6.5398192
40
1.7567432
50
181.5262289
51
202.6960211
0
ARC
8
DEFAULT_255_2_778
10
95.1713484
20
6.573426
40
1.8435008
50
202.7004743
51
216.2282589
0
ARC
8
DEFAULT_255_2_778
10
95.2348396
20
6.6166744
40
1.9202788
50
216.1495968
51
216.5804383
0
ARC
8
DEFAULT_255_2_778
10
95.279695
20
6.6569331
40
1.9802988
50
216.7423736
51
238.0142883
0
ARC
8
DEFAULT_255_2_778
10
95.3710278
20
6.797853
40
2.1482058
50
237.9390663
51
259.2686766
0
ARC
8
DEFAULT_255_2_778
10
95.3887707
20
6.8741848
40
2.2265088
50
259.1858338
51
268.7519417
0
ARC
8
DEFAULT_255_2_778
10
95.3894589
20
6.8886195
40
2.2409551
50
268.7423885
51
269.9996387
0
ARC
8
DEFAULT_255_2_778
10
95.4038944
20
6.7946585
40
2.1470427
50
269.6143955
51
312.1031099
0
ARC
8
DEFAULT_255_2_778
10
95.546252
20
6.6169331
40
1.9197828
50
312.5071618
51
327.5161286
0
ARC
8
DEFAULT_255_2_778
10
95.653923
20
6.5492523
40
1.7926091
50
327.4926563
51
350.7504491
0
ARC
8
DEFAULT_255_2_778
10
95.6959922
20
6.5398656
40
1.7495799
50
350.8324052
51
359.9958399
0
ARC
8
DEFAULT_255_2_778
10
95.7000174
20
6.5397332
40
1.7455546
50
0.0001785
51
1.4851826
0
ARC
8
DEFAULT_255_2_778
10
95.6891962
20
6.5384747
40
1.7564051
50
1.5170715
51
22.694331
0
ARC
8
DEFAULT_255_2_778
10
95.6093019
20
6.5049048
40
1.8430656
50
22.6988821
51
36.2317617
0
ARC
8
DEFAULT_255_2_778
10
95.554162
20
6.4677881
40
1.909483
50
36.1522162
51
36.5855545
0
LINE
8
DEFAULT_255_2_778
10
93.2168154
20
6.5390828
11
93.2168154
21
6.5390828
0
LINE
8
DEFAULT_255_2_778
10
93.6928154
20
5.4722828
11
96.5495154
21
8.1011828
0
LINE
8
DEFAULT_255_2_778
10
97.0874154
20
7.6058828
11
94.2307154
21
4.9769828
0
ARC
8
DEFAULT_255_2_778
10
1.8210707
20
0.3229527
40
0.5641471
50
225.197378
51
270.4823845
0
ARC
8
DEFAULT_255_2_778
10
1.759229
20
0.2614279
40
0.4769153
50
180.3006252
51
225.2604025
0
LINE
8
DEFAULT_255_2_778
10
76.3729203
20
-0.2411744
11
83.8167203
21
-0.2411744
0
LINE
8
DEFAULT_255_2_778
10
83.8167203
20
-0.2411744
11
83.8167203
21
1.1088256
0
LINE
8
DEFAULT_255_2_778
10
98.1068203
20
1.8887256
11
76.3729203
21
1.8887256
0
LINE
8
DEFAULT_255_2_778
10
76.3729203
20
1.4088256
11
98.1068203
21
1.4088256
0
LINE
8
DEFAULT_255_2_778
10
98.1068203
20
1.1088256
11
76.3729203
21
1.1088256
0
LINE
8
DEFAULT_255_2_778
10
90.6630203
20
-0.2411744
11
83.8170203
21
-0.2411744
0
LINE
8
DEFAULT_255_2_778
10
90.6630203
20
1.1088256
11
90.6630203
21
-0.2411744
0
LINE
8
DEFAULT_255_2_778
10
90.6630203
20
-0.2411744
11
98.1068203
21
-0.2411744
0
LINE
8
DEFAULT_255_2_778
10
98.1283203
20
10.1771256
11
76.3729203
21
10.1771256
0
LINE
8
DEFAULT_255_2_778
10
98.1068203
20
11.0891256
11
76.3729203
21
11.0891256
0
LINE
8
DEFAULT_255_2_778
10
76.3729203
20
10.6091256
11
98.1068203
21
10.6091256
0
LINE
8
DEFAULT_255_2_778
10
24.4833203
20
1.2590256
11
2.6407203
21
1.2590256
0
LINE
8
DEFAULT_255_2_778
10
10.1390203
20
1.2590256
11
10.1390203
21
0.5590256
0
LINE
8
DEFAULT_255_2_778
10
10.1390203
20
0.5590256
11
2.6407203
21
0.5590256
0
LINE
8
DEFAULT_255_2_778
10
2.9124203
20
-0.2411744
11
2.6407203
21
-0.2411744
0
LINE
8
DEFAULT_255_2_778
10
2.6407203
20
-0.2411744
11
10.1390203
21
-0.2411744
0
LINE
8
DEFAULT_255_2_778
10
10.1390203
20
-0.2411744
11
10.1390203
21
0.5590256
0
LINE
8
DEFAULT_255_2_778
10
16.9851203
20
1.2590256
11
16.9851203
21
0.5590256
0
LINE
8
DEFAULT_255_2_778
10
16.9851203
20
0.5590256
11
24.4833203
21
0.5590256
0
LINE
8
DEFAULT_255_2_778
10
24.4833203
20
-0.2411744
11
16.9851203
21
-0.2411744
0
LINE
8
DEFAULT_255_2_778
10
16.9851203
20
-0.2411744
11
16.9851203
21
0.5590256
0
LINE
8
DEFAULT_255_2_778
10
16.9851203
20
-0.2411744
11
10.0821203
21
-0.2411744
0
LINE
8
DEFAULT_255_2_778
10
2.6407203
20
10.4589256
11
2.6407203
21
-0.2411744
0
LINE
8
DEFAULT_255_2_778
10
2.6407203
20
-0.2411744
11
1.8258203
21
-0.2411744
0
LINE
8
DEFAULT_255_2_778
10
1.2823203
20
0.2589256
11
1.2823203
21
10.9589256
0
LINE
8
DEFAULT_255_2_778
10
1.2823203
20
10.9589256
11
1.2823203
21
-0.2411744
0
LINE
8
DEFAULT_255_2_778
10
1.2823203
20
-0.2411744
11
1.8258203
21
-0.2411744
0
ARC
8
DEFAULT_255_2_778
10
54.2877642
20
91.9648522
40
1.9309078
50
127.9030748
51
179.5836641
0
ARC
8
DEFAULT_255_2_778
10
54.4887197
20
91.7474067
40
2.2260761
50
104.6357398
51
128.5460725
0
ARC
8
DEFAULT_255_2_778
10
54.5272765
20
91.6135598
40
2.3653248
50
89.9290063
51
104.7201864
0
ARC
8
DEFAULT_255_2_778
10
54.5345991
20
91.6285379
40
2.350349
50
71.537663
51
90.1070617
0
ARC
8
DEFAULT_255_2_778
10
54.5880007
20
91.7780015
40
2.1916694
50
46.0417698
51
71.6244778
0
ARC
8
DEFAULT_255_2_778
10
54.7913777
20
91.9702158
40
1.9121777
50
0.4473167
51
46.4306298
0
ARC
8
DEFAULT_255_2_778
10
54.8192649
20
91.978884
40
1.8842425
50
359.9999641
51
0.1903636
0
ARC
8
DEFAULT_255_2_778
10
54.7726505
20
91.9929135
40
1.9309078
50
307.9030748
51
359.5836641
0
ARC
8
DEFAULT_255_2_778
10
54.5716949
20
92.210359
40
2.2260761
50
284.6357398
51
308.5460725
0
ARC
8
DEFAULT_255_2_778
10
54.5331381
20
92.3442059
40
2.3653248
50
269.9290063
51
284.7201864
0
ARC
8
DEFAULT_255_2_778
10
54.5258155
20
92.3292277
40
2.350349
50
251.537663
51
270.1070617
0
ARC
8
DEFAULT_255_2_778
10
54.4724139
20
92.1797642
40
2.1916694
50
226.0417698
51
251.6244778
0
ARC
8
DEFAULT_255_2_778
10
54.2690369
20
91.9875498
40
1.9121777
50
180.4473167
51
226.4306298
0
ARC
8
DEFAULT_255_2_778
10
54.2411497
20
91.9788817
40
1.8842425
50
179.9999641
51
180.1903636
0
ARC
8
DEFAULT_255_2_778
10
54.638233
20
91.8587699
40
1.9835714
50
36.7533686
51
57.9917698
0
ARC
8
DEFAULT_255_2_778
10
54.5494146
20
91.7203925
40
2.1479899
50
57.9392271
51
79.2739998
0
ARC
8
DEFAULT_255_2_778
10
54.5316224
20
91.643798
40
2.2265599
50
79.1909809
51
88.7583484
0
ARC
8
DEFAULT_255_2_778
10
54.530938
20
91.62987
40
2.2404994
50
88.7485687
51
89.9998729
0
ARC
8
DEFAULT_255_2_778
10
54.5165412
20
91.7227297
40
2.1476881
50
89.6157885
51
132.095204
0
ARC
8
DEFAULT_255_2_778
10
54.374027
20
91.9012772
40
1.9197143
50
132.5113155
51
147.5195822
0
ARC
8
DEFAULT_255_2_778
10
54.2665057
20
91.9688579
40
1.7927204
50
147.4962264
51
170.7518039
0
ARC
8
DEFAULT_255_2_778
10
54.2245364
20
91.978222
40
1.7497937
50
170.8335835
51
179.9959237
0
ARC
8
DEFAULT_255_2_778
10
54.2206055
20
91.978352
40
1.7458628
50
180.0001806
51
181.4941423
0
ARC
8
DEFAULT_255_2_778
10
54.2314563
20
91.9796192
40
1.7567432
50
181.5262289
51
202.6960211
0
ARC
8
DEFAULT_255_2_778
10
54.3114404
20
92.013226
40
1.8435008
50
202.7004743
51
216.2282589
0
ARC
8
DEFAULT_255_2_778
10
54.3749315
20
92.0564744
40
1.9202788
50
216.1495968
51
216.5804383
0
ARC
8
DEFAULT_255_2_778
10
54.419787
20
92.0967331
40
1.9802988
50
216.7423736
51
238.0142883
0
ARC
8
DEFAULT_255_2_778
10
54.5111212
20
92.2376588
40
2.1482115
50
237.9391154
51
259.2718297
0
ARC
8
DEFAULT_255_2_778
10
54.5288722
20
92.3140545
40
2.2265787
50
259.1889782
51
268.7563005
0
ARC
8
DEFAULT_255_2_778
10
54.5295495
20
92.3279297
40
2.2404652
50
268.7466856
51
269.9998764
0
ARC
8
DEFAULT_255_2_778
10
54.5439663
20
92.234771
40
2.147355
50
269.6152008
51
312.0998959
0
ARC
8
DEFAULT_255_2_778
10
54.6863738
20
92.0566017
40
1.9197333
50
312.5113542
51
327.5194571
0
ARC
8
DEFAULT_255_2_778
10
54.7939213
20
91.9890065
40
1.7927097
50
327.4960339
51
350.751475
0
ARC
8
DEFAULT_255_2_778
10
54.8359732
20
91.9796262
40
1.7496986
50
350.8333357
51
359.9958911
0
ARC
8
DEFAULT_255_2_778
10
54.840783
20
91.9795032
40
1.744889
50
359.9999208
51
1.4867343
0
ARC
8
DEFAULT_255_2_778
10
54.8292081
20
91.9782396
40
1.7564931
50
1.5181406
51
22.6943743
0
ARC
8
DEFAULT_255_2_778
10
54.7493712
20
91.9446902
40
1.8430925
50
22.6990242
51
36.2317122
0
ARC
8
DEFAULT_255_2_778
10
54.694254
20
91.9075881
40
1.909483
50
36.1522162
51
36.5855545
0
LINE
8
DEFAULT_255_2_778
10
52.3569073
20
91.9788828
11
52.3569073
21
91.9788828
0
LINE
8
DEFAULT_255_2_778
10
52.8329073
20
90.9120828
11
55.6896073
21
93.5409828
0
LINE
8
DEFAULT_255_2_778
10
56.2275073
20
93.0456828
11
53.3708073
21
90.4167828
0
ARC
8
DEFAULT_255_2_778
10
59.7212642
20
91.9648522
40
1.9309078
50
127.9030748
51
179.5836641
0
ARC
8
DEFAULT_255_2_778
10
59.9222197
20
91.7474067
40
2.2260761
50
104.6357398
51
128.5460725
0
ARC
8
DEFAULT_255_2_778
10
59.9607765
20
91.6135598
40
2.3653248
50
89.9290063
51
104.7201864
0
ARC
8
DEFAULT_255_2_778
10
59.9680991
20
91.6285379
40
2.350349
50
71.537663
51
90.1070617
0
ARC
8
DEFAULT_255_2_778
10
60.0215007
20
91.7780015
40
2.1916694
50
46.0417698
51
71.6244778
0
ARC
8
DEFAULT_255_2_778
10
60.2248777
20
91.9702158
40
1.9121777
50
0.4473167
51
46.4306298
0
ARC
8
DEFAULT_255_2_778
10
60.2527649
20
91.978884
40
1.8842425
50
359.9999641
51
0.1903636
0
ARC
8
DEFAULT_255_2_778
10
60.2061505
20
91.9929135
40
1.9309078
50
307.9030748
51
359.5836641
0
ARC
8
DEFAULT_255_2_778
10
60.0051949
20
92.210359
40
2.2260761
50
284.6357398
51
308.5460725
0
ARC
8
DEFAULT_255_2_778
10
59.9666381
20
92.3442059
40
2.3653248
50
269.9290063
51
284.7201864
0
ARC
8
DEFAULT_255_2_778
10
59.9593155
20
92.3292277
40
2.350349
50
251.537663
51
270.1070617
0
ARC
8
DEFAULT_255_2_778
10
59.9059139
20
92.1797642
40
2.1916694
50
226.0417698
51
251.6244778
0
ARC
8
DEFAULT_255_2_778
10
59.7025369
20
91.9875498
40
1.9121777
50
180.4473167
51
226.4306298
0
ARC
8
DEFAULT_255_2_778
10
59.6746497
20
91.9788817
40
1.8842425
50
179.9999641
51
180.1903636
0
ARC
8
DEFAULT_255_2_778
10
60.071733
20
91.8587699
40
1.9835714
50
36.7533686
51
57.9917698
0
ARC
8
DEFAULT_255_2_778
10
59.9827879
20
91.7200054
40
2.1483852
50
57.9418438
51
79.2680501
0
ARC
8
DEFAULT_255_2_778
10
59.9650758
20
91.643768
40
2.2265898
50
79.1855549
51
88.7502193
0
ARC
8
DEFAULT_255_2_778
10
59.9644143
20
91.6313979
40
2.2389715
50
88.7402003
51
90.0003369
0
ARC
8
DEFAULT_255_2_778
10
59.9500077
20
91.7228165
40
2.1476012
50
89.6159961
51
132.096094
0
ARC
8
DEFAULT_255_2_778
10
59.807527
20
91.9012772
40
1.9197143
50
132.5113155
51
147.5195822
0
ARC
8
DEFAULT_255_2_778
10
59.7000057
20
91.9688579
40
1.7927204
50
147.4962264
51
170.7518039
0
ARC
8
DEFAULT_255_2_778
10
59.6580364
20
91.978222
40
1.7497937
50
170.8335835
51
179.9959237
0
ARC
8
DEFAULT_255_2_778
10
59.6541055
20
91.978352
40
1.7458628
50
180.0001806
51
181.4941423
0
ARC
8
DEFAULT_255_2_778
10
59.6649563
20
91.9796192
40
1.7567432
50
181.5262289
51
202.6960211
0
ARC
8
DEFAULT_255_2_778
10
59.7449404
20
92.013226
40
1.8435008
50
202.7004743
51
216.2282589
0
ARC
8
DEFAULT_255_2_778
10
59.8084315
20
92.0564744
40
1.9202788
50
216.1495968
51
216.5804383
0
ARC
8
DEFAULT_255_2_778
10
59.853287
20
92.0967331
40
1.9802988
50
216.7423736
51
238.0142883
0
ARC
8
DEFAULT_255_2_778
10
59.9446212
20
92.2376588
40
2.1482115
50
237.9391154
51
259.2718297
0
ARC
8
DEFAULT_255_2_778
10
59.9623722
20
92.3140545
40
2.2265787
50
259.1889782
51
268.7563005
0
ARC
8
DEFAULT_255_2_778
10
59.9630495
20
92.3279297
40
2.2404652
50
268.7466856
51
269.9998764
0
ARC
8
DEFAULT_255_2_778
10
59.9774663
20
92.234771
40
2.147355
50
269.6152008
51
312.0998959
0
ARC
8
DEFAULT_255_2_778
10
60.1198738
20
92.0566017
40
1.9197333
50
312.5113542
51
327.5194571
0
ARC
8
DEFAULT_255_2_778
10
60.2274213
20
91.9890065
40
1.7927097
50
327.4960339
51
350.751475
0
ARC
8
DEFAULT_255_2_778
10
60.2694732
20
91.9796262
40
1.7496986
50
350.8333357
51
359.9958911
0
ARC
8
DEFAULT_255_2_778
10
60.274283
20
91.9795032
40
1.744889
50
359.9999208
51
1.4867343
0
ARC
8
DEFAULT_255_2_778
10
60.2627081
20
91.9782396
40
1.7564931
50
1.5181406
51
22.6943743
0
ARC
8
DEFAULT_255_2_778
10
60.1828712
20
91.9446902
40
1.8430925
50
22.6990242
51
36.2317122
0
ARC
8
DEFAULT_255_2_778
10
60.127754
20
91.9075881
40
1.909483
50
36.1522162
51
36.5855545
0
LINE
8
DEFAULT_255_2_778
10
57.7904073
20
91.9788828
11
57.7904073
21
91.9788828
0
LINE
8
DEFAULT_255_2_778
10
58.2664073
20
90.9120828
11
61.1231073
21
93.5409828
0
LINE
8
DEFAULT_255_2_778
10
61.6610073
20
93.0456828
11
58.8043073
21
90.4167828
0
ARC
8
DEFAULT_255_2_778
10
65.1547723
20
91.9648522
40
1.9309078
50
127.9030748
51
179.5836641
0
ARC
8
DEFAULT_255_2_778
10
65.3557278
20
91.7474067
40
2.2260761
50
104.6357398
51
128.5460725
0
ARC
8
DEFAULT_255_2_778
10
65.3942846
20
91.6135598
40
2.3653248
50
89.9290063
51
104.7201864
0
ARC
8
DEFAULT_255_2_778
10
65.4016072
20
91.6285379
40
2.350349
50
71.537663
51
90.1070617
0
ARC
8
DEFAULT_255_2_778
10
65.4550088
20
91.7780015
40
2.1916694
50
46.0417698
51
71.6244778
0
ARC
8
DEFAULT_255_2_778
10
65.6583858
20
91.9702158
40
1.9121777
50
0.4473167
51
46.4306298
0
ARC
8
DEFAULT_255_2_778
10
65.686273
20
91.978884
40
1.8842425
50
359.9999641
51
0.1903636
0
ARC
8
DEFAULT_255_2_778
10
65.6396585
20
91.9929135
40
1.9309078
50
307.9030748
51
359.5836641
0
ARC
8
DEFAULT_255_2_778
10
65.438703
20
92.210359
40
2.2260761
50
284.6357398
51
308.5460725
0
ARC
8
DEFAULT_255_2_778
10
65.4001462
20
92.3442059
40
2.3653248
50
269.9290063
51
284.7201864
0
ARC
8
DEFAULT_255_2_778
10
65.3928236
20
92.3292277
40
2.350349
50
251.537663
51
270.1070617
0
ARC
8
DEFAULT_255_2_778
10
65.339422
20
92.1797642
40
2.1916694
50
226.0417698
51
251.6244778
0
ARC
8
DEFAULT_255_2_778
10
65.136045
20
91.9875498
40
1.9121777
50
180.4473167
51
226.4306298
0
ARC
8
DEFAULT_255_2_778
10
65.1081578
20
91.9788817
40
1.8842425
50
179.9999641
51
180.1903636
0
ARC
8
DEFAULT_255_2_778
10
65.5052411
20
91.8587699
40
1.9835714
50
36.7533686
51
57.9917698
0
ARC
8
DEFAULT_255_2_778
10
65.416296
20
91.7200054
40
2.1483852
50
57.9418438
51
79.2680501
0
ARC
8
DEFAULT_255_2_778
10
65.3985838
20
91.643768
40
2.2265898
50
79.1855549
51
88.7502193
0
ARC
8
DEFAULT_255_2_778
10
65.3979223
20
91.6313979
40
2.2389715
50
88.7402003
51
90.0003369
0
ARC
8
DEFAULT_255_2_778
10
65.3835158
20
91.7228165
40
2.1476012
50
89.6159961
51
132.096094
0
ARC
8
DEFAULT_255_2_778
10
65.2410351
20
91.9012772
40
1.9197143
50
132.5113155
51
147.5195822
0
ARC
8
DEFAULT_255_2_778
10
65.1335138
20
91.9688579
40
1.7927204
50
147.4962264
51
170.7518039
0
ARC
8
DEFAULT_255_2_778
10
65.0915445
20
91.978222
40
1.7497937
50
170.8335835
51
179.9959237
0
ARC
8
DEFAULT_255_2_778
10
65.0876136
20
91.978352
40
1.7458628
50
180.0001806
51
181.4941423
0
ARC
8
DEFAULT_255_2_778
10
65.0984644
20
91.9796192
40
1.7567432
50
181.5262289
51
202.6960211
0
ARC
8
DEFAULT_255_2_778
10
65.1784484
20
92.013226
40
1.8435008
50
202.7004743
51
216.2282589
0
ARC
8
DEFAULT_255_2_778
10
65.2419396
20
92.0564744
40
1.9202788
50
216.1495968
51
216.5804383
0
ARC
8
DEFAULT_255_2_778
10
65.286795
20
92.0967331
40
1.9802988
50
216.7423736
51
238.0142883
0
ARC
8
DEFAULT_255_2_778
10
65.3781293
20
92.2376588
40
2.1482115
50
237.9391154
51
259.2718297
0
ARC
8
DEFAULT_255_2_778
10
65.3958803
20
92.3140545
40
2.2265787
50
259.1889782
51
268.7563005
0
ARC
8
DEFAULT_255_2_778
10
65.3965576
20
92.3279297
40
2.2404652
50
268.7466856
51
269.9998764
0
ARC
8
DEFAULT_255_2_778
10
65.4109743
20
92.234771
40
2.147355
50
269.6152008
51
312.0998959
0
ARC
8
DEFAULT_255_2_778
10
65.5533819
20
92.0566017
40
1.9197333
50
312.5113542
51
327.5194571
0
ARC
8
DEFAULT_255_2_778
10
65.6609293
20
91.9890065
40
1.7927097
50
327.4960339
51
350.751475
0
ARC
8
DEFAULT_255_2_778
10
65.7029813
20
91.9796262
40
1.7496986
50
350.8333357
51
359.9958911
0
ARC
8
DEFAULT_255_2_778
10
65.7077911
20
91.9795032
40
1.744889
50
359.9999208
51
1.4867343
0
ARC
8
DEFAULT_255_2_778
10
65.6962162
20
91.9782396
40
1.7564931
50
1.5181406
51
22.6943743
0
ARC
8
DEFAULT_255_2_778
10
65.6163792
20
91.9446902
40
1.8430925
50
22.6990242
51
36.2317122
0
ARC
8
DEFAULT_255_2_778
10
65.561262
20
91.9075881
40
1.909483
50
36.1522162
51
36.5855545
0
LINE
8
DEFAULT_255_2_778
10
63.2239154
20
91.9788828
11
63.2239154
21
91.9788828
0
LINE
8
DEFAULT_255_2_778
10
63.6999154
20
90.9120828
11
66.5566154
21
93.5409828
0
LINE
8
DEFAULT_255_2_778
10
67.0945154
20
93.0456828
11
64.2378154
21
90.4167828
0
ARC
8
DEFAULT_255_2_778
10
70.5882723
20
91.9648522
40
1.9309078
50
127.9030748
51
179.5836641
0
ARC
8
DEFAULT_255_2_778
10
70.7892278
20
91.7474067
40
2.2260761
50
104.6357398
51
128.5460725
0
ARC
8
DEFAULT_255_2_778
10
70.8277846
20
91.6135598
40
2.3653248
50
89.9290063
51
104.7201864
0
ARC
8
DEFAULT_255_2_778
10
70.8350955
20
91.628712
40
2.3501749
50
71.5369755
51
90.1067851
0
ARC
8
DEFAULT_255_2_778
10
70.8884313
20
91.7779384
40
2.191741
50
46.0261991
51
71.6240689
0
ARC
8
DEFAULT_255_2_778
10
71.0919584
20
91.9702038
40
1.9121051
50
0.4476201
51
46.4149724
0
ARC
8
DEFAULT_255_2_778
10
71.1211799
20
91.9788839
40
1.8828356
50
359.9999686
51
0.190435
0
ARC
8
DEFAULT_255_2_778
10
71.0731535
20
91.9929479
40
1.9309131
50
307.9016169
51
359.5826442
0
ARC
8
DEFAULT_255_2_778
10
70.8721123
20
92.2104527
40
2.2261806
50
284.6365013
51
308.5455791
0
ARC
8
DEFAULT_255_2_778
10
70.8336388
20
92.3439873
40
2.3651062
50
269.9291797
51
284.7208709
0
ARC
8
DEFAULT_255_2_778
10
70.8263236
20
92.3292277
40
2.350349
50
251.537663
51
270.1070617
0
ARC
8
DEFAULT_255_2_778
10
70.772922
20
92.1797642
40
2.1916694
50
226.0417698
51
251.6244778
0
ARC
8
DEFAULT_255_2_778
10
70.569545
20
91.9875498
40
1.9121777
50
180.4473167
51
226.4306298
0
ARC
8
DEFAULT_255_2_778
10
70.5416578
20
91.9788817
40
1.8842425
50
179.9999641
51
180.1903636
0
ARC
8
DEFAULT_255_2_778
10
70.9387411
20
91.8587699
40
1.9835714
50
36.7533686
51
57.9917698
0
ARC
8
DEFAULT_255_2_778
10
70.849796
20
91.7200054
40
2.1483852
50
57.9418438
51
79.2680501
0
ARC
8
DEFAULT_255_2_778
10
70.8320838
20
91.643768
40
2.2265898
50
79.1855549
51
88.7502193
0
ARC
8
DEFAULT_255_2_778
10
70.8314223
20
91.6313979
40
2.2389715
50
88.7402003
51
90.0003369
0
ARC
8
DEFAULT_255_2_778
10
70.8170158
20
91.7228165
40
2.1476012
50
89.6159961
51
132.096094
0
ARC
8
DEFAULT_255_2_778
10
70.6745351
20
91.9012772
40
1.9197143
50
132.5113155
51
147.5195822
0
ARC
8
DEFAULT_255_2_778
10
70.5670138
20
91.9688579
40
1.7927204
50
147.4962264
51
170.7518039
0
ARC
8
DEFAULT_255_2_778
10
70.5250445
20
91.978222
40
1.7497937
50
170.8335835
51
179.9959237
0
ARC
8
DEFAULT_255_2_778
10
70.5211136
20
91.978352
40
1.7458628
50
180.0001806
51
181.4941423
0
ARC
8
DEFAULT_255_2_778
10
70.5319644
20
91.9796192
40
1.7567432
50
181.5262289
51
202.6960211
0
ARC
8
DEFAULT_255_2_778
10
70.6119484
20
92.013226
40
1.8435008
50
202.7004743
51
216.2282589
0
ARC
8
DEFAULT_255_2_778
10
70.6754396
20
92.0564744
40
1.9202788
50
216.1495968
51
216.5804383
0
ARC
8
DEFAULT_255_2_778
10
70.720295
20
92.0967331
40
1.9802988
50
216.7423736
51
238.0142883
0
ARC
8
DEFAULT_255_2_778
10
70.8116278
20
92.237653
40
2.1482058
50
237.9390663
51
259.2686766
0
ARC
8
DEFAULT_255_2_778
10
70.8293707
20
92.3139848
40
2.2265088
50
259.1858338
51
268.7519417
0
ARC
8
DEFAULT_255_2_778
10
70.8300589
20
92.3284195
40
2.2409551
50
268.7423885
51
269.9996387
0
ARC
8
DEFAULT_255_2_778
10
70.8444944
20
92.2344585
40
2.1470427
50
269.6143955
51
312.1031099
0
ARC
8
DEFAULT_255_2_778
10
70.986852
20
92.0567331
40
1.9197828
50
312.5071618
51
327.5161286
0
ARC
8
DEFAULT_255_2_778
10
71.094523
20
91.9890523
40
1.7926091
50
327.4926563
51
350.7504491
0
ARC
8
DEFAULT_255_2_778
10
71.1365922
20
91.9796656
40
1.7495799
50
350.8324052
51
359.9958399
0
ARC
8
DEFAULT_255_2_778
10
71.1406174
20
91.9795332
40
1.7455546
50
0.0001785
51
1.4851826
0
ARC
8
DEFAULT_255_2_778
10
71.1297962
20
91.9782747
40
1.7564051
50
1.5170715
51
22.694331
0
ARC
8
DEFAULT_255_2_778
10
71.0499019
20
91.9447048
40
1.8430656
50
22.6988821
51
36.2317617
0
ARC
8
DEFAULT_255_2_778
10
70.994762
20
91.9075881
40
1.909483
50
36.1522162
51
36.5855545
0
LINE
8
DEFAULT_255_2_778
10
68.6574154
20
91.9788828
11
68.6574154
21
91.9788828
0
LINE
8
DEFAULT_255_2_778
10
69.1334154
20
90.9120828
11
71.9901154
21
93.5409828
0
LINE
8
DEFAULT_255_2_778
10
72.5280154
20
93.0456828
11
69.6713154
21
90.4167828
0
LINE
8
DEFAULT_255_2_778
10
51.813536
20
96.6288956
11
73.547436
21
96.6288956
0
LINE
8
DEFAULT_255_2_778
10
73.547436
20
97.1088956
11
51.813536
21
97.1088956
0
LINE
8
DEFAULT_255_2_778
10
51.813536
20
97.4088956
11
73.547436
21
97.4088956
0
ARC
8
DEFAULT_255_2_778
10
78.8471642
20
91.9648522
40
1.9309078
50
127.9030748
51
179.5836641
0
ARC
8
DEFAULT_255_2_778
10
79.0481197
20
91.7474067
40
2.2260761
50
104.6357398
51
128.5460725
0
ARC
8
DEFAULT_255_2_778
10
79.0866765
20
91.6135598
40
2.3653248
50
89.9290063
51
104.7201864
0
ARC
8
DEFAULT_255_2_778
10
79.0939991
20
91.6285379
40
2.350349
50
71.537663
51
90.1070617
0
ARC
8
DEFAULT_255_2_778
10
79.1474007
20
91.7780015
40
2.1916694
50
46.0417698
51
71.6244778
0
ARC
8
DEFAULT_255_2_778
10
79.3507777
20
91.9702158
40
1.9121777
50
0.4473167
51
46.4306298
0
ARC
8
DEFAULT_255_2_778
10
79.3786649
20
91.978884
40
1.8842425
50
359.9999641
51
0.1903636
0
ARC
8
DEFAULT_255_2_778
10
79.3320505
20
91.9929135
40
1.9309078
50
307.9030748
51
359.5836641
0
ARC
8
DEFAULT_255_2_778
10
79.1310949
20
92.210359
40
2.2260761
50
284.6357398
51
308.5460725
0
ARC
8
DEFAULT_255_2_778
10
79.0925381
20
92.3442059
40
2.3653248
50
269.9290063
51
284.7201864
0
ARC
8
DEFAULT_255_2_778
10
79.0852155
20
92.3292277
40
2.350349
50
251.537663
51
270.1070617
0
ARC
8
DEFAULT_255_2_778
10
79.0318139
20
92.1797642
40
2.1916694
50
226.0417698
51
251.6244778
0
ARC
8
DEFAULT_255_2_778
10
78.8284369
20
91.9875498
40
1.9121777
50
180.4473167
51
226.4306298
0
ARC
8
DEFAULT_255_2_778
10
78.8005497
20
91.9788817
40
1.8842425
50
179.9999641
51
180.1903636
0
ARC
8
DEFAULT_255_2_778
10
79.197633
20
91.8587699
40
1.9835714
50
36.7533686
51
57.9917698
0
ARC
8
DEFAULT_255_2_778
10
79.1088146
20
91.7203925
40
2.1479899
50
57.9392271
51
79.2739998
0
ARC
8
DEFAULT_255_2_778
10
79.0910224
20
91.643798
40
2.2265599
50
79.1909809
51
88.7583484
0
ARC
8
DEFAULT_255_2_778
10
79.090338
20
91.62987
40
2.2404994
50
88.7485687
51
89.9998729
0
ARC
8
DEFAULT_255_2_778
10
79.0759412
20
91.7227297
40
2.1476881
50
89.6157885
51
132.095204
0
ARC
8
DEFAULT_255_2_778
10
78.933427
20
91.9012772
40
1.9197143
50
132.5113155
51
147.5195822
0
ARC
8
DEFAULT_255_2_778
10
78.8259057
20
91.9688579
40
1.7927204
50
147.4962264
51
170.7518039
0
ARC
8
DEFAULT_255_2_778
10
78.7839364
20
91.978222
40
1.7497937
50
170.8335835
51
179.9959237
0
ARC
8
DEFAULT_255_2_778
10
78.7800055
20
91.978352
40
1.7458628
50
180.0001806
51
181.4941423
0
ARC
8
DEFAULT_255_2_778
10
78.7908563
20
91.9796192
40
1.7567432
50
181.5262289
51
202.6960211
0
ARC
8
DEFAULT_255_2_778
10
78.8708404
20
92.013226
40
1.8435008
50
202.7004743
51
216.2282589
0
ARC
8
DEFAULT_255_2_778
10
78.9343315
20
92.0564744
40
1.9202788
50
216.1495968
51
216.5804383
0
ARC
8
DEFAULT_255_2_778
10
78.979187
20
92.0967331
40
1.9802988
50
216.7423736
51
238.0142883
0
ARC
8
DEFAULT_255_2_778
10
79.0705212
20
92.2376588
40
2.1482115
50
237.9391154
51
259.2718297
0
ARC
8
DEFAULT_255_2_778
10
79.0882722
20
92.3140545
40
2.2265787
50
259.1889782
51
268.7563005
0
ARC
8
DEFAULT_255_2_778
10
79.0889495
20
92.3279297
40
2.2404652
50
268.7466856
51
269.9998764
0
ARC
8
DEFAULT_255_2_778
10
79.1033663
20
92.234771
40
2.147355
50
269.6152008
51
312.0998959
0
ARC
8
DEFAULT_255_2_778
10
79.2457738
20
92.0566017
40
1.9197333
50
312.5113542
51
327.5194571
0
ARC
8
DEFAULT_255_2_778
10
79.3533213
20
91.9890065
40
1.7927097
50
327.4960339
51
350.751475
0
ARC
8
DEFAULT_255_2_778
10
79.3953732
20
91.9796262
40
1.7496986
50
350.8333357
51
359.9958911
0
ARC
8
DEFAULT_255_2_778
10
79.400183
20
91.9795032
40
1.744889
50
359.9999208
51
1.4867343
0
ARC
8
DEFAULT_255_2_778
10
79.3886081
20
91.9782396
40
1.7564931
50
1.5181406
51
22.6943743
0
ARC
8
DEFAULT_255_2_778
10
79.3087712
20
91.9446902
40
1.8430925
50
22.6990242
51
36.2317122
0
ARC
8
DEFAULT_255_2_778
10
79.253654
20
91.9075881
40
1.909483
50
36.1522162
51
36.5855545
0
LINE
8
DEFAULT_255_2_778
10
76.9163073
20
91.9788828
11
76.9163073
21
91.9788828
0
LINE
8
DEFAULT_255_2_778
10
77.3923073
20
90.9120828
11
80.2490073
21
93.5409828
0
LINE
8
DEFAULT_255_2_778
10
80.7869073
20
93.0456828
11
77.9302073
21
90.4167828
0
ARC
8
DEFAULT_255_2_778
10
84.2806723
20
91.9648522
40
1.9309078
50
127.9030748
51
179.5836641
0
ARC
8
DEFAULT_255_2_778
10
84.4816278
20
91.7474067
40
2.2260761
50
104.6357398
51
128.5460725
0
ARC
8
DEFAULT_255_2_778
10
84.5201846
20
91.6135598
40
2.3653248
50
89.9290063
51
104.7201864
0
ARC
8
DEFAULT_255_2_778
10
84.5275072
20
91.6285379
40
2.350349
50
71.537663
51
90.1070617
0
ARC
8
DEFAULT_255_2_778
10
84.5809088
20
91.7780015
40
2.1916694
50
46.0417698
51
71.6244778
0
ARC
8
DEFAULT_255_2_778
10
84.7842858
20
91.9702158
40
1.9121777
50
0.4473167
51
46.4306298
0
ARC
8
DEFAULT_255_2_778
10
84.812173
20
91.978884
40
1.8842425
50
359.9999641
51
0.1903636
0
ARC
8
DEFAULT_255_2_778
10
84.7655585
20
91.9929135
40
1.9309078
50
307.9030748
51
359.5836641
0
ARC
8
DEFAULT_255_2_778
10
84.564603
20
92.210359
40
2.2260761
50
284.6357398
51
308.5460725
0
ARC
8
DEFAULT_255_2_778
10
84.5260462
20
92.3442059
40
2.3653248
50
269.9290063
51
284.7201864
0
ARC
8
DEFAULT_255_2_778
10
84.5187236
20
92.3292277
40
2.350349
50
251.537663
51
270.1070617
0
ARC
8
DEFAULT_255_2_778
10
84.465322
20
92.1797642
40
2.1916694
50
226.0417698
51
251.6244778
0
ARC
8
DEFAULT_255_2_778
10
84.261945
20
91.9875498
40
1.9121777
50
180.4473167
51
226.4306298
0
ARC
8
DEFAULT_255_2_778
10
84.2340578
20
91.9788817
40
1.8842425
50
179.9999641
51
180.1903636
0
ARC
8
DEFAULT_255_2_778
10
84.6311411
20
91.8587699
40
1.9835714
50
36.7533686
51
57.9917698
0
ARC
8
DEFAULT_255_2_778
10
84.542196
20
91.7200054
40
2.1483852
50
57.9418438
51
79.2680501
0
ARC
8
DEFAULT_255_2_778
10
84.5244838
20
91.643768
40
2.2265898
50
79.1855549
51
88.7502193
0
ARC
8
DEFAULT_255_2_778
10
84.5238223
20
91.6313979
40
2.2389715
50
88.7402003
51
90.0003369
0
ARC
8
DEFAULT_255_2_778
10
84.5094158
20
91.7228165
40
2.1476012
50
89.6159961
51
132.096094
0
ARC
8
DEFAULT_255_2_778
10
84.3669351
20
91.9012772
40
1.9197143
50
132.5113155
51
147.5195822
0
ARC
8
DEFAULT_255_2_778
10
84.2594138
20
91.9688579
40
1.7927204
50
147.4962264
51
170.7518039
0
ARC
8
DEFAULT_255_2_778
10
84.2174445
20
91.978222
40
1.7497937
50
170.8335835
51
179.9959237
0
ARC
8
DEFAULT_255_2_778
10
84.2135136
20
91.978352
40
1.7458628
50
180.0001806
51
181.4941423
0
ARC
8
DEFAULT_255_2_778
10
84.2243644
20
91.9796192
40
1.7567432
50
181.5262289
51
202.6960211
0
ARC
8
DEFAULT_255_2_778
10
84.3043484
20
92.013226
40
1.8435008
50
202.7004743
51
216.2282589
0
ARC
8
DEFAULT_255_2_778
10
84.3678396
20
92.0564744
40
1.9202788
50
216.1495968
51
216.5804383
0
ARC
8
DEFAULT_255_2_778
10
84.412695
20
92.0967331
40
1.9802988
50
216.7423736
51
238.0142883
0
ARC
8
DEFAULT_255_2_778
10
84.5040293
20
92.2376588
40
2.1482115
50
237.9391154
51
259.2718297
0
ARC
8
DEFAULT_255_2_778
10
84.5217803
20
92.3140545
40
2.2265787
50
259.1889782
51
268.7563005
0
ARC
8
DEFAULT_255_2_778
10
84.5224576
20
92.3279297
40
2.2404652
50
268.7466856
51
269.9998764
0
ARC
8
DEFAULT_255_2_778
10
84.5368743
20
92.234771
40
2.147355
50
269.6152008
51
312.0998959
0
ARC
8
DEFAULT_255_2_778
10
84.6792819
20
92.0566017
40
1.9197333
50
312.5113542
51
327.5194571
0
ARC
8
DEFAULT_255_2_778
10
84.7868293
20
91.9890065
40
1.7927097
50
327.4960339
51
350.751475
0
ARC
8
DEFAULT_255_2_778
10
84.8288813
20
91.9796262
40
1.7496986
50
350.8333357
51
359.9958911
0
ARC
8
DEFAULT_255_2_778
10
84.8336911
20
91.9795032
40
1.744889
50
359.9999208
51
1.4867343
0
ARC
8
DEFAULT_255_2_778
10
84.8221162
20
91.9782396
40
1.7564931
50
1.5181406
51
22.6943743
0
ARC
8
DEFAULT_255_2_778
10
84.7422792
20
91.9446902
40
1.8430925
50
22.6990242
51
36.2317122
0
ARC
8
DEFAULT_255_2_778
10
84.687162
20
91.9075881
40
1.909483
50
36.1522162
51
36.5855545
0
LINE
8
DEFAULT_255_2_778
10
82.3498154
20
91.9788828
11
82.3498154
21
91.9788828
0
LINE
8
DEFAULT_255_2_778
10
82.8258154
20
90.9120828
11
85.6825154
21
93.5409828
0
LINE
8
DEFAULT_255_2_778
10
86.2204154
20
93.0456828
11
83.3637154
21
90.4167828
0
ARC
8
DEFAULT_255_2_778
10
89.7141723
20
91.9648522
40
1.9309078
50
127.9030748
51
179.5836641
0
ARC
8
DEFAULT_255_2_778
10
89.9151278
20
91.7474067
40
2.2260761
50
104.6357398
51
128.5460725
0
ARC
8
DEFAULT_255_2_778
10
89.9536846
20
91.6135598
40
2.3653248
50
89.9290063
51
104.7201864
0
ARC
8
DEFAULT_255_2_778
10
89.9610072
20
91.6285379
40
2.350349
50
71.537663
51
90.1070617
0
ARC
8
DEFAULT_255_2_778
10
90.0144088
20
91.7780015
40
2.1916694
50
46.0417698
51
71.6244778
0
ARC
8
DEFAULT_255_2_778
10
90.2177858
20
91.9702158
40
1.9121777
50
0.4473167
51
46.4306298
0
ARC
8
DEFAULT_255_2_778
10
90.245673
20
91.978884
40
1.8842425
50
359.9999641
51
0.1903636
0
ARC
8
DEFAULT_255_2_778
10
90.1990585
20
91.9929135
40
1.9309078
50
307.9030748
51
359.5836641
0
ARC
8
DEFAULT_255_2_778
10
89.998103
20
92.210359
40
2.2260761
50
284.6357398
51
308.5460725
0
ARC
8
DEFAULT_255_2_778
10
89.9595462
20
92.3442059
40
2.3653248
50
269.9290063
51
284.7201864
0
ARC
8
DEFAULT_255_2_778
10
89.9522236
20
92.3292277
40
2.350349
50
251.537663
51
270.1070617
0
ARC
8
DEFAULT_255_2_778
10
89.898822
20
92.1797642
40
2.1916694
50
226.0417698
51
251.6244778
0
ARC
8
DEFAULT_255_2_778
10
89.695445
20
91.9875498
40
1.9121777
50
180.4473167
51
226.4306298
0
ARC
8
DEFAULT_255_2_778
10
89.6675578
20
91.9788817
40
1.8842425
50
179.9999641
51
180.1903636
0
ARC
8
DEFAULT_255_2_778
10
90.0646411
20
91.8587699
40
1.9835714
50
36.7533686
51
57.9917698
0
ARC
8
DEFAULT_255_2_778
10
89.975696
20
91.7200054
40
2.1483852
50
57.9418438
51
79.2680501
0
ARC
8
DEFAULT_255_2_778
10
89.9579838
20
91.643768
40
2.2265898
50
79.1855549
51
88.7502193
0
ARC
8
DEFAULT_255_2_778
10
89.9573223
20
91.6313979
40
2.2389715
50
88.7402003
51
90.0003369
0
ARC
8
DEFAULT_255_2_778
10
89.9429158
20
91.7228165
40
2.1476012
50
89.6159961
51
132.096094
0
ARC
8
DEFAULT_255_2_778
10
89.8004351
20
91.9012772
40
1.9197143
50
132.5113155
51
147.5195822
0
ARC
8
DEFAULT_255_2_778
10
89.6929138
20
91.9688579
40
1.7927204
50
147.4962264
51
170.7518039
0
ARC
8
DEFAULT_255_2_778
10
89.6509445
20
91.978222
40
1.7497937
50
170.8335835
51
179.9959237
0
ARC
8
DEFAULT_255_2_778
10
89.6470136
20
91.978352
40
1.7458628
50
180.0001806
51
181.4941423
0
ARC
8
DEFAULT_255_2_778
10
89.6578644
20
91.9796192
40
1.7567432
50
181.5262289
51
202.6960211
0
ARC
8
DEFAULT_255_2_778
10
89.7378484
20
92.013226
40
1.8435008
50
202.7004743
51
216.2282589
0
ARC
8
DEFAULT_255_2_778
10
89.8013396
20
92.0564744
40
1.9202788
50
216.1495968
51
216.5804383
0
ARC
8
DEFAULT_255_2_778
10
89.846195
20
92.0967331
40
1.9802988
50
216.7423736
51
238.0142883
0
ARC
8
DEFAULT_255_2_778
10
89.9375293
20
92.2376588
40
2.1482115
50
237.9391154
51
259.2718297
0
ARC
8
DEFAULT_255_2_778
10
89.9552803
20
92.3140545
40
2.2265787
50
259.1889782
51
268.7563005
0
ARC
8
DEFAULT_255_2_778
10
89.9559576
20
92.3279297
40
2.2404652
50
268.7466856
51
269.9998764
0
ARC
8
DEFAULT_255_2_778
10
89.9703743
20
92.234771
40
2.147355
50
269.6152008
51
312.0998959
0
ARC
8
DEFAULT_255_2_778
10
90.1127819
20
92.0566017
40
1.9197333
50
312.5113542
51
327.5194571
0
ARC
8
DEFAULT_255_2_778
10
90.2203293
20
91.9890065
40
1.7927097
50
327.4960339
51
350.751475
0
ARC
8
DEFAULT_255_2_778
10
90.2623813
20
91.9796262
40
1.7496986
50
350.8333357
51
359.9958911
0
ARC
8
DEFAULT_255_2_778
10
90.2671911
20
91.9795032
40
1.744889
50
359.9999208
51
1.4867343
0
ARC
8
DEFAULT_255_2_778
10
90.2556162
20
91.9782396
40
1.7564931
50
1.5181406
51
22.6943743
0
ARC
8
DEFAULT_255_2_778
10
90.1757792
20
91.9446902
40
1.8430925
50
22.6990242
51
36.2317122
0
ARC
8
DEFAULT_255_2_778
10
90.120662
20
91.9075881
40
1.909483
50
36.1522162
51
36.5855545
0
LINE
8
DEFAULT_255_2_778
10
87.7833154
20
91.9788828
11
87.7833154
21
91.9788828
0
LINE
8
DEFAULT_255_2_778
10
88.2593154
20
90.9120828
11
91.1160154
21
93.5409828
0
LINE
8
DEFAULT_255_2_778
10
91.6539154
20
93.0456828
11
88.7972154
21
90.4167828
0
ARC
8
DEFAULT_255_2_778
10
95.1476723
20
91.9648522
40
1.9309078
50
127.9030748
51
179.5836641
0
ARC
8
DEFAULT_255_2_778
10
95.3486278
20
91.7474067
40
2.2260761
50
104.6357398
51
128.5460725
0
ARC
8
DEFAULT_255_2_778
10
95.3871846
20
91.6135598
40
2.3653248
50
89.9290063
51
104.7201864
0
ARC
8
DEFAULT_255_2_778
10
95.3944955
20
91.628712
40
2.3501749
50
71.5369755
51
90.1067851
0
ARC
8
DEFAULT_255_2_778
10
95.4478313
20
91.7779384
40
2.191741
50
46.0261991
51
71.6240689
0
ARC
8
DEFAULT_255_2_778
10
95.6513584
20
91.9702038
40
1.9121051
50
0.4476201
51
46.4149724
0
ARC
8
DEFAULT_255_2_778
10
95.6805799
20
91.9788839
40
1.8828356
50
359.9999686
51
0.190435
0
ARC
8
DEFAULT_255_2_778
10
95.6325535
20
91.9929479
40
1.9309131
50
307.9016169
51
359.5826442
0
ARC
8
DEFAULT_255_2_778
10
95.4315123
20
92.2104527
40
2.2261806
50
284.6365013
51
308.5455791
0
ARC
8
DEFAULT_255_2_778
10
95.3930388
20
92.3439873
40
2.3651062
50
269.9291797
51
284.7208709
0
ARC
8
DEFAULT_255_2_778
10
95.3857236
20
92.3292277
40
2.350349
50
251.537663
51
270.1070617
0
ARC
8
DEFAULT_255_2_778
10
95.332322
20
92.1797642
40
2.1916694
50
226.0417698
51
251.6244778
0
ARC
8
DEFAULT_255_2_778
10
95.128945
20
91.9875498
40
1.9121777
50
180.4473167
51
226.4306298
0
ARC
8
DEFAULT_255_2_778
10
95.1010578
20
91.9788817
40
1.8842425
50
179.9999641
51
180.1903636
0
ARC
8
DEFAULT_255_2_778
10
95.4981411
20
91.8587699
40
1.9835714
50
36.7533686
51
57.9917698
0
ARC
8
DEFAULT_255_2_778
10
95.409196
20
91.7200054
40
2.1483852
50
57.9418438
51
79.2680501
0
ARC
8
DEFAULT_255_2_778
10
95.3914838
20
91.643768
40
2.2265898
50
79.1855549
51
88.7502193
0
ARC
8
DEFAULT_255_2_778
10
95.3908223
20
91.6313979
40
2.2389715
50
88.7402003
51
90.0003369
0
ARC
8
DEFAULT_255_2_778
10
95.3764158
20
91.7228165
40
2.1476012
50
89.6159961
51
132.096094
0
ARC
8
DEFAULT_255_2_778
10
95.2339351
20
91.9012772
40
1.9197143
50
132.5113155
51
147.5195822
0
ARC
8
DEFAULT_255_2_778
10
95.1264138
20
91.9688579
40
1.7927204
50
147.4962264
51
170.7518039
0
ARC
8
DEFAULT_255_2_778
10
95.0844445
20
91.978222
40
1.7497937
50
170.8335835
51
179.9959237
0
ARC
8
DEFAULT_255_2_778
10
95.0805136
20
91.978352
40
1.7458628
50
180.0001806
51
181.4941423
0
ARC
8
DEFAULT_255_2_778
10
95.0913644
20
91.9796192
40
1.7567432
50
181.5262289
51
202.6960211
0
ARC
8
DEFAULT_255_2_778
10
95.1713484
20
92.013226
40
1.8435008
50
202.7004743
51
216.2282589
0
ARC
8
DEFAULT_255_2_778
10
95.2348396
20
92.0564744
40
1.9202788
50
216.1495968
51
216.5804383
0
ARC
8
DEFAULT_255_2_778
10
95.279695
20
92.0967331
40
1.9802988
50
216.7423736
51
238.0142883
0
ARC
8
DEFAULT_255_2_778
10
95.3710278
20
92.237653
40
2.1482058
50
237.9390663
51
259.2686766
0
ARC
8
DEFAULT_255_2_778
10
95.3887707
20
92.3139848
40
2.2265088
50
259.1858338
51
268.7519417
0
ARC
8
DEFAULT_255_2_778
10
95.3894589
20
92.3284195
40
2.2409551
50
268.7423885
51
269.9996387
0
ARC
8
DEFAULT_255_2_778
10
95.4038944
20
92.2344585
40
2.1470427
50
269.6143955
51
312.1031099
0
ARC
8
DEFAULT_255_2_778
10
95.546252
20
92.0567331
40
1.9197828
50
312.5071618
51
327.5161286
0
ARC
8
DEFAULT_255_2_778
10
95.653923
20
91.9890523
40
1.7926091
50
327.4926563
51
350.7504491
0
ARC
8
DEFAULT_255_2_778
10
95.6959922
20
91.9796656
40
1.7495799
50
350.8324052
51
359.9958399
0
ARC
8
DEFAULT_255_2_778
10
95.7000174
20
91.9795332
40
1.7455546
50
0.0001785
51
1.4851826
0
ARC
8
DEFAULT_255_2_778
10
95.6891962
20
91.9782747
40
1.7564051
50
1.5170715
51
22.694331
0
ARC
8
DEFAULT_255_2_778
10
95.6093019
20
91.9447048
40
1.8430656
50
22.6988821
51
36.2317617
0
ARC
8
DEFAULT_255_2_778
10
95.554162
20
91.9075881
40
1.909483
50
36.1522162
51
36.5855545
0
LINE
8
DEFAULT_255_2_778
10
93.2168154
20
91.9788828
11
93.2168154
21
91.9788828
0
LINE
8
DEFAULT_255_2_778
10
93.6928154
20
90.9120828
11
96.5495154
21
93.5409828
0
LINE
8
DEFAULT_255_2_778
10
97.0874154
20
93.0456828
11
94.2307154
21
90.4167828
0
LINE
8
DEFAULT_255_2_778
10
76.372936
20
96.6288956
11
98.106836
21
96.6288956
0
LINE
8
DEFAULT_255_2_778
10
98.106836
20
97.1088956
11
76.372936
21
97.1088956
0
LINE
8
DEFAULT_255_2_778
10
76.372936
20
97.4088956
11
98.106836
21
97.4088956
0
ARC
8
DEFAULT_255_2_778
10
78.8472103
20
82.7649621
40
1.9309131
50
127.9016169
51
179.5826442
0
ARC
8
DEFAULT_255_2_778
10
79.0482515
20
82.5474573
40
2.2261806
50
104.6365013
51
128.5455791
0
ARC
8
DEFAULT_255_2_778
10
79.086725
20
82.4139227
40
2.3651062
50
89.9291797
51
104.7208709
0
ARC
8
DEFAULT_255_2_778
10
79.0940402
20
82.4286823
40
2.350349
50
71.537663
51
90.1070617
0
ARC
8
DEFAULT_255_2_778
10
79.1474418
20
82.5781458
40
2.1916694
50
46.0417698
51
71.6244778
0
ARC
8
DEFAULT_255_2_778
10
79.3508188
20
82.7703602
40
1.9121777
50
0.4473167
51
46.4306298
0
ARC
8
DEFAULT_255_2_778
10
79.378706
20
82.7790284
40
1.8842425
50
359.9999641
51
0.1903636
0
ARC
8
DEFAULT_255_2_778
10
79.3317436
20
82.7932071
40
1.9312569
50
307.8157442
51
359.5793105
0
ARC
8
DEFAULT_255_2_778
10
79.130894
20
83.010914
40
2.2265306
50
284.6063117
51
308.4639044
0
ARC
8
DEFAULT_255_2_778
10
79.0925639
20
83.1442875
40
2.3652621
50
269.9293758
51
284.6900724
0
ARC
8
DEFAULT_255_2_778
10
79.0852734
20
83.1290236
40
2.3500005
50
251.5354227
51
270.1066671
0
ARC
8
DEFAULT_255_2_778
10
79.0320186
20
82.9800394
40
2.1918218
50
226.0251039
51
251.6223971
0
ARC
8
DEFAULT_255_2_778
10
78.8284208
20
82.7877521
40
1.9121208
50
180.4489734
51
226.4147835
0
ARC
8
DEFAULT_255_2_778
10
78.7987138
20
82.779026
40
1.8823655
50
179.999964
51
180.1904609
0
ARC
8
DEFAULT_255_2_778
10
79.1996807
20
82.6610946
40
1.9806589
50
36.7375667
51
58.0075614
0
ARC
8
DEFAULT_255_2_778
10
79.1088532
20
82.5205328
40
2.1479946
50
57.9392298
51
79.2707933
0
ARC
8
DEFAULT_255_2_778
10
79.0910689
20
82.4439837
40
2.2265186
50
79.1878676
51
88.7538977
0
ARC
8
DEFAULT_255_2_778
10
79.0904053
20
82.4312205
40
2.2392932
50
88.744024
51
90.0003389
0
ARC
8
DEFAULT_255_2_778
10
79.0759619
20
82.5231875
40
2.1473748
50
89.6149758
51
132.0984297
0
ARC
8
DEFAULT_255_2_778
10
78.933503
20
82.7012853
40
1.9197707
50
132.507137
51
147.5162132
0
ARC
8
DEFAULT_255_2_778
10
78.8258531
20
82.7689564
40
1.7926199
50
147.4928488
51
170.750778
0
ARC
8
DEFAULT_255_2_778
10
78.7838666
20
82.778327
40
1.7496749
50
170.832653
51
179.9958726
0
ARC
8
DEFAULT_255_2_778
10
78.7794909
20
82.7784584
40
1.7452991
50
180.0001754
51
181.493377
0
ARC
8
DEFAULT_255_2_778
10
78.7908172
20
82.7797273
40
1.7566551
50
181.5251239
51
202.695946
0
ARC
8
DEFAULT_255_2_778
10
78.8708588
20
82.8133558
40
1.8434738
50
202.7003322
51
216.2283084
0
ARC
8
DEFAULT_255_2_778
10
78.9343726
20
82.8566188
40
1.9202788
50
216.1495968
51
216.5804383
0
ARC
8
DEFAULT_255_2_778
10
78.9812309
20
82.8990532
40
1.9832055
50
216.7581296
51
237.9985058
0
ARC
8
DEFAULT_255_2_778
10
79.0704411
20
83.0376175
40
2.1479899
50
237.9392271
51
259.2739998
0
ARC
8
DEFAULT_255_2_778
10
79.0882333
20
83.1142121
40
2.2265599
50
259.1909809
51
268.7583484
0
ARC
8
DEFAULT_255_2_778
10
79.0889177
20
83.12814
40
2.2404994
50
268.7485687
51
269.9998729
0
ARC
8
DEFAULT_255_2_778
10
79.1033145
20
83.0352804
40
2.1476881
50
269.6157885
51
312.095204
0
ARC
8
DEFAULT_255_2_778
10
79.2458149
20
82.856746
40
1.9197333
50
312.5113542
51
327.5194571
0
ARC
8
DEFAULT_255_2_778
10
79.3533623
20
82.7891509
40
1.7927097
50
327.4960339
51
350.751475
0
ARC
8
DEFAULT_255_2_778
10
79.3954143
20
82.7797706
40
1.7496986
50
350.8333357
51
359.9958911
0
ARC
8
DEFAULT_255_2_778
10
79.4002241
20
82.7796475
40
1.744889
50
359.9999208
51
1.4867343
0
ARC
8
DEFAULT_255_2_778
10
79.3886492
20
82.778384
40
1.7564931
50
1.5181406
51
22.6943743
0
ARC
8
DEFAULT_255_2_778
10
79.3088122
20
82.7448345
40
1.8430925
50
22.6990242
51
36.2317122
0
ARC
8
DEFAULT_255_2_778
10
79.253695
20
82.7077324
40
1.909483
50
36.1522162
51
36.5855545
0
ARC
8
DEFAULT_255_2_778
10
84.2807103
20
82.7649621
40
1.9309131
50
127.9016169
51
179.5826442
0
ARC
8
DEFAULT_255_2_778
10
84.4817515
20
82.5474573
40
2.2261806
50
104.6365013
51
128.5455791
0
ARC
8
DEFAULT_255_2_778
10
84.520225
20
82.4139227
40
2.3651062
50
89.9291797
51
104.7208709
0
ARC
8
DEFAULT_255_2_778
10
84.5275402
20
82.4286823
40
2.350349
50
71.537663
51
90.1070617
0
ARC
8
DEFAULT_255_2_778
10
84.5809418
20
82.5781458
40
2.1916694
50
46.0417698
51
71.6244778
0
ARC
8
DEFAULT_255_2_778
10
84.7843188
20
82.7703602
40
1.9121777
50
0.4473167
51
46.4306298
0
ARC
8
DEFAULT_255_2_778
10
84.812206
20
82.7790284
40
1.8842425
50
359.9999641
51
0.1903636
0
ARC
8
DEFAULT_255_2_778
10
84.7652436
20
82.7932071
40
1.9312569
50
307.8157442
51
359.5793105
0
ARC
8
DEFAULT_255_2_778
10
84.564394
20
83.010914
40
2.2265306
50
284.6063117
51
308.4639044
0
ARC
8
DEFAULT_255_2_778
10
84.5260639
20
83.1442875
40
2.3652621
50
269.9293758
51
284.6900724
0
ARC
8
DEFAULT_255_2_778
10
84.5187734
20
83.1290236
40
2.3500005
50
251.5354227
51
270.1066671
0
ARC
8
DEFAULT_255_2_778
10
84.4655186
20
82.9800394
40
2.1918218
50
226.0251039
51
251.6223971
0
ARC
8
DEFAULT_255_2_778
10
84.2619208
20
82.7877521
40
1.9121208
50
180.4489734
51
226.4147835
0
ARC
8
DEFAULT_255_2_778
10
84.2322138
20
82.779026
40
1.8823655
50
179.999964
51
180.1904609
0
ARC
8
DEFAULT_255_2_778
10
84.6311743
20
82.6589144
40
1.983571
50
36.7533677
51
57.9917724
0
ARC
8
DEFAULT_255_2_778
10
84.5423557
20
82.5205368
40
2.1479899
50
57.9392271
51
79.2739998
0
ARC
8
DEFAULT_255_2_778
10
84.5245634
20
82.4439423
40
2.2265599
50
79.1909809
51
88.7583484
0
ARC
8
DEFAULT_255_2_778
10
84.523879
20
82.4300144
40
2.2404994
50
88.7485687
51
89.9998729
0
ARC
8
DEFAULT_255_2_778
10
84.5094822
20
82.522874
40
2.1476881
50
89.6157885
51
132.095204
0
ARC
8
DEFAULT_255_2_778
10
84.366968
20
82.7014215
40
1.9197143
50
132.5113155
51
147.5195822
0
ARC
8
DEFAULT_255_2_778
10
84.2594468
20
82.7690022
40
1.7927204
50
147.4962264
51
170.7518039
0
ARC
8
DEFAULT_255_2_778
10
84.2174775
20
82.7783664
40
1.7497937
50
170.8335835
51
179.9959237
0
ARC
8
DEFAULT_255_2_778
10
84.2135465
20
82.7784964
40
1.7458628
50
180.0001806
51
181.4941423
0
ARC
8
DEFAULT_255_2_778
10
84.2243973
20
82.7797635
40
1.7567432
50
181.5262289
51
202.6960211
0
ARC
8
DEFAULT_255_2_778
10
84.3043814
20
82.8133704
40
1.8435008
50
202.7004743
51
216.2282589
0
ARC
8
DEFAULT_255_2_778
10
84.3678726
20
82.8566188
40
1.9202788
50
216.1495968
51
216.5804383
0
ARC
8
DEFAULT_255_2_778
10
84.4127311
20
82.8968801
40
1.9803029
50
216.7423826
51
238.0142538
0
ARC
8
DEFAULT_255_2_778
10
84.5039411
20
83.0376175
40
2.1479899
50
237.9392271
51
259.2739998
0
ARC
8
DEFAULT_255_2_778
10
84.5217333
20
83.1142121
40
2.2265599
50
259.1909809
51
268.7583484
0
ARC
8
DEFAULT_255_2_778
10
84.5224177
20
83.12814
40
2.2404994
50
268.7485687
51
269.9998729
0
ARC
8
DEFAULT_255_2_778
10
84.5368145
20
83.0352804
40
2.1476881
50
269.6157885
51
312.095204
0
ARC
8
DEFAULT_255_2_778
10
84.6793149
20
82.856746
40
1.9197333
50
312.5113542
51
327.5194571
0
ARC
8
DEFAULT_255_2_778
10
84.7868623
20
82.7891509
40
1.7927097
50
327.4960339
51
350.751475
0
ARC
8
DEFAULT_255_2_778
10
84.8289143
20
82.7797706
40
1.7496986
50
350.8333357
51
359.9958911
0
ARC
8
DEFAULT_255_2_778
10
84.8337241
20
82.7796475
40
1.744889
50
359.9999208
51
1.4867343
0
ARC
8
DEFAULT_255_2_778
10
84.8221492
20
82.778384
40
1.7564931
50
1.5181406
51
22.6943743
0
ARC
8
DEFAULT_255_2_778
10
84.7423122
20
82.7448345
40
1.8430925
50
22.6990242
51
36.2317122
0
ARC
8
DEFAULT_255_2_778
10
84.687195
20
82.7077324
40
1.909483
50
36.1522162
51
36.5855545
0
ARC
8
DEFAULT_255_2_778
10
89.7142052
20
82.7649965
40
1.9309078
50
127.9030748
51
179.5836641
0
ARC
8
DEFAULT_255_2_778
10
89.9151608
20
82.547551
40
2.2260761
50
104.6357398
51
128.5460725
0
ARC
8
DEFAULT_255_2_778
10
89.9537176
20
82.4137041
40
2.3653248
50
89.9290063
51
104.7201864
0
ARC
8
DEFAULT_255_2_778
10
89.9610285
20
82.4288563
40
2.3501749
50
71.5369755
51
90.1067851
0
ARC
8
DEFAULT_255_2_778
10
90.0143643
20
82.5780828
40
2.191741
50
46.0261991
51
71.6240689
0
ARC
8
DEFAULT_255_2_778
10
90.2178914
20
82.7703482
40
1.9121051
50
0.4476201
51
46.4149724
0
ARC
8
DEFAULT_255_2_778
10
90.2471128
20
82.7790282
40
1.8828356
50
359.9999686
51
0.190435
0
ARC
8
DEFAULT_255_2_778
10
90.1987383
20
82.7932415
40
1.9312624
50
307.8142905
51
359.5782912
0
ARC
8
DEFAULT_255_2_778
10
89.9978025
20
83.0110091
40
2.2266367
50
284.6070859
51
308.4634067
0
ARC
8
DEFAULT_255_2_778
10
89.9595563
20
83.1440693
40
2.365044
50
269.9295526
51
284.6907556
0
ARC
8
DEFAULT_255_2_778
10
89.9522617
20
83.1291977
40
2.3501746
50
251.5361103
51
270.1069437
0
ARC
8
DEFAULT_255_2_778
10
89.8989434
20
82.9799792
40
2.1917537
50
226.040684
51
251.6227739
0
ARC
8
DEFAULT_255_2_778
10
89.6954934
20
82.78774
40
1.9121934
50
180.44867
51
226.430441
0
ARC
8
DEFAULT_255_2_778
10
89.6671805
20
82.779026
40
1.8838322
50
179.9999641
51
180.1903879
0
ARC
8
DEFAULT_255_2_778
10
90.0646767
20
82.658917
40
1.9835676
50
36.7533478
51
57.9917904
0
ARC
8
DEFAULT_255_2_778
10
89.975729
20
82.5201497
40
2.1483852
50
57.9418438
51
79.2680501
0
ARC
8
DEFAULT_255_2_778
10
89.9580168
20
82.4439124
40
2.2265898
50
79.1855549
51
88.7502193
0
ARC
8
DEFAULT_255_2_778
10
89.9573553
20
82.4315422
40
2.2389715
50
88.7402003
51
90.0003369
0
ARC
8
DEFAULT_255_2_778
10
89.9429488
20
82.5229608
40
2.1476012
50
89.6159961
51
132.096094
0
ARC
8
DEFAULT_255_2_778
10
89.800468
20
82.7014215
40
1.9197143
50
132.5113155
51
147.5195822
0
ARC
8
DEFAULT_255_2_778
10
89.6929468
20
82.7690022
40
1.7927204
50
147.4962264
51
170.7518039
0
ARC
8
DEFAULT_255_2_778
10
89.6509775
20
82.7783664
40
1.7497937
50
170.8335835
51
179.9959237
0
ARC
8
DEFAULT_255_2_778
10
89.6470465
20
82.7784964
40
1.7458628
50
180.0001806
51
181.4941423
0
ARC
8
DEFAULT_255_2_778
10
89.6578973
20
82.7797635
40
1.7567432
50
181.5262289
51
202.6960211
0
ARC
8
DEFAULT_255_2_778
10
89.7378814
20
82.8133704
40
1.8435008
50
202.7004743
51
216.2282589
0
ARC
8
DEFAULT_255_2_778
10
89.8013726
20
82.8566188
40
1.9202788
50
216.1495968
51
216.5804383
0
ARC
8
DEFAULT_255_2_778
10
89.8462311
20
82.8968801
40
1.9803029
50
216.7423826
51
238.0142538
0
ARC
8
DEFAULT_255_2_778
10
89.9374435
20
83.0376216
40
2.1479946
50
237.9392298
51
259.2707933
0
ARC
8
DEFAULT_255_2_778
10
89.9552279
20
83.1141707
40
2.2265186
50
259.1878676
51
268.7538977
0
ARC
8
DEFAULT_255_2_778
10
89.9558915
20
83.1269339
40
2.2392932
50
268.744024
51
270.0003389
0
ARC
8
DEFAULT_255_2_778
10
89.9703349
20
83.0349668
40
2.1473748
50
269.6149758
51
312.0984297
0
ARC
8
DEFAULT_255_2_778
10
90.112785
20
82.8568774
40
1.9197828
50
312.5071618
51
327.5161286
0
ARC
8
DEFAULT_255_2_778
10
90.220456
20
82.7891966
40
1.7926091
50
327.4926563
51
350.7504491
0
ARC
8
DEFAULT_255_2_778
10
90.2625252
20
82.77981
40
1.7495799
50
350.8324052
51
359.9958399
0
ARC
8
DEFAULT_255_2_778
10
90.2665504
20
82.7796775
40
1.7455546
50
0.0001785
51
1.4851826
0
ARC
8
DEFAULT_255_2_778
10
90.2557292
20
82.7784191
40
1.7564051
50
1.5170715
51
22.694331
0
ARC
8
DEFAULT_255_2_778
10
90.1758348
20
82.7448491
40
1.8430656
50
22.6988821
51
36.2317617
0
ARC
8
DEFAULT_255_2_778
10
90.120695
20
82.7077324
40
1.909483
50
36.1522162
51
36.5855545
0
ARC
8
DEFAULT_255_2_778
10
95.1477052
20
82.7649965
40
1.9309078
50
127.9030748
51
179.5836641
0
ARC
8
DEFAULT_255_2_778
10
95.3486608
20
82.547551
40
2.2260761
50
104.6357398
51
128.5460725
0
ARC
8
DEFAULT_255_2_778
10
95.3872176
20
82.4137041
40
2.3653248
50
89.9290063
51
104.7201864
0
ARC
8
DEFAULT_255_2_778
10
95.3945341
20
82.4289668
40
2.3500645
50
71.5365354
51
90.1069265
0
ARC
8
DEFAULT_255_2_778
10
95.4478939
20
82.5782734
40
2.1915469
50
46.0245354
51
71.6235355
0
ARC
8
DEFAULT_255_2_778
10
95.6512388
20
82.7703712
40
1.9121574
50
0.446919
51
46.4126128
0
ARC
8
DEFAULT_255_2_778
10
95.6805613
20
82.7790284
40
1.8827872
50
359.999964
51
0.1904366
0
ARC
8
DEFAULT_255_2_778
10
95.63211
20
82.7932111
40
1.9312905
50
307.816841
51
359.5792014
0
ARC
8
DEFAULT_255_2_778
10
95.4313337
20
83.0108122
40
2.2264364
50
284.6073887
51
308.4650619
0
ARC
8
DEFAULT_255_2_778
10
95.3930601
20
83.1439783
40
2.364953
50
269.929458
51
284.691038
0
ARC
8
DEFAULT_255_2_778
10
95.3857617
20
83.1291977
40
2.3501746
50
251.5361103
51
270.1069437
0
ARC
8
DEFAULT_255_2_778
10
95.3324434
20
82.9799792
40
2.1917537
50
226.040684
51
251.6227739
0
ARC
8
DEFAULT_255_2_778
10
95.1289934
20
82.78774
40
1.9121934
50
180.44867
51
226.430441
0
ARC
8
DEFAULT_255_2_778
10
95.1006805
20
82.779026
40
1.8838322
50
179.9999641
51
180.1903879
0
ARC
8
DEFAULT_255_2_778
10
95.4981769
20
82.6589174
40
1.9835672
50
36.7533446
51
57.9917915
0
ARC
8
DEFAULT_255_2_778
10
95.4092329
20
82.5201371
40
2.1483938
50
57.9421116
51
79.2668533
0
ARC
8
DEFAULT_255_2_778
10
95.3914858
20
82.4437663
40
2.2267359
50
79.184161
51
88.7477214
0
ARC
8
DEFAULT_255_2_778
10
95.3908145
20
82.4306103
40
2.2399035
50
88.7379078
51
90.0001032
0
ARC
8
DEFAULT_255_2_778
10
95.3763667
20
82.5231753
40
2.1473871
50
89.6146142
51
132.0983043
0
ARC
8
DEFAULT_255_2_778
10
95.233968
20
82.7014215
40
1.9197143
50
132.5113155
51
147.5195822
0
ARC
8
DEFAULT_255_2_778
10
95.1264468
20
82.7690022
40
1.7927204
50
147.4962264
51
170.7518039
0
ARC
8
DEFAULT_255_2_778
10
95.0844775
20
82.7783664
40
1.7497937
50
170.8335835
51
179.9959237
0
ARC
8
DEFAULT_255_2_778
10
95.0805465
20
82.7784964
40
1.7458628
50
180.0001806
51
181.4941423
0
ARC
8
DEFAULT_255_2_778
10
95.0913973
20
82.7797635
40
1.7567432
50
181.5262289
51
202.6960211
0
ARC
8
DEFAULT_255_2_778
10
95.1713814
20
82.8133704
40
1.8435008
50
202.7004743
51
216.2282589
0
ARC
8
DEFAULT_255_2_778
10
95.2348726
20
82.8566188
40
1.9202788
50
216.1495968
51
216.5804383
0
ARC
8
DEFAULT_255_2_778
10
95.2797314
20
82.8968805
40
1.9803032
50
216.7423858
51
238.0142527
0
ARC
8
DEFAULT_255_2_778
10
95.3709435
20
83.0376216
40
2.1479946
50
237.9392298
51
259.2707933
0
ARC
8
DEFAULT_255_2_778
10
95.3887279
20
83.1141707
40
2.2265186
50
259.1878676
51
268.7538977
0
ARC
8
DEFAULT_255_2_778
10
95.3893915
20
83.1269339
40
2.2392932
50
268.744024
51
270.0003389
0
ARC
8
DEFAULT_255_2_778
10
95.4038349
20
83.0349668
40
2.1473748
50
269.6149758
51
312.0984297
0
ARC
8
DEFAULT_255_2_778
10
95.5462027
20
82.8567579
40
1.9197503
50
312.511383
51
327.5200208
0
ARC
8
DEFAULT_255_2_778
10
95.6536819
20
82.7892059
40
1.7928076
50
327.4966464
51
350.7519076
0
ARC
8
DEFAULT_255_2_778
10
95.6956668
20
82.7798392
40
1.7498647
50
350.8336863
51
359.9958036
0
ARC
8
DEFAULT_255_2_778
10
95.6997582
20
82.7797056
40
1.7457732
50
0.0001782
51
1.4840752
0
ARC
8
DEFAULT_255_2_778
10
95.6889386
20
82.7784535
40
1.7566219
50
1.5157602
51
22.6901576
0
ARC
8
DEFAULT_255_2_778
10
95.6092058
20
82.744956
40
1.8431053
50
22.6947629
51
36.2267375
0
ARC
8
DEFAULT_255_2_778
10
95.5452027
20
82.701297
40
1.9205391
50
36.1490053
51
36.5798217
0
ARC
8
DEFAULT_255_2_778
10
54.2878052
20
82.7649965
40
1.9309078
50
127.9030748
51
179.5836641
0
ARC
8
DEFAULT_255_2_778
10
54.4887608
20
82.547551
40
2.2260761
50
104.6357398
51
128.5460725
0
ARC
8
DEFAULT_255_2_778
10
54.5273176
20
82.4137041
40
2.3653248
50
89.9290063
51
104.7201864
0
ARC
8
DEFAULT_255_2_778
10
54.5346402
20
82.4286823
40
2.350349
50
71.537663
51
90.1070617
0
ARC
8
DEFAULT_255_2_778
10
54.5880418
20
82.5781458
40
2.1916694
50
46.0417698
51
71.6244778
0
ARC
8
DEFAULT_255_2_778
10
54.7914188
20
82.7703602
40
1.9121777
50
0.4473167
51
46.4306298
0
ARC
8
DEFAULT_255_2_778
10
54.819306
20
82.7790284
40
1.8842425
50
359.9999641
51
0.1903636
0
ARC
8
DEFAULT_255_2_778
10
54.7723436
20
82.7932071
40
1.9312569
50
307.8157442
51
359.5793105
0
ARC
8
DEFAULT_255_2_778
10
54.571494
20
83.010914
40
2.2265306
50
284.6063117
51
308.4639044
0
ARC
8
DEFAULT_255_2_778
10
54.5331639
20
83.1442875
40
2.3652621
50
269.9293758
51
284.6900724
0
ARC
8
DEFAULT_255_2_778
10
54.5258617
20
83.1291977
40
2.3501746
50
251.5361103
51
270.1069437
0
ARC
8
DEFAULT_255_2_778
10
54.4725434
20
82.9799792
40
2.1917537
50
226.040684
51
251.6227739
0
ARC
8
DEFAULT_255_2_778
10
54.2690934
20
82.78774
40
1.9121934
50
180.44867
51
226.430441
0
ARC
8
DEFAULT_255_2_778
10
54.2407805
20
82.779026
40
1.8838322
50
179.9999641
51
180.1903879
0
ARC
8
DEFAULT_255_2_778
10
54.638274
20
82.6589142
40
1.9835714
50
36.7533686
51
57.9917698
0
ARC
8
DEFAULT_255_2_778
10
54.5494557
20
82.5205368
40
2.1479899
50
57.9392271
51
79.2739998
0
ARC
8
DEFAULT_255_2_778
10
54.5316634
20
82.4439423
40
2.2265599
50
79.1909809
51
88.7583484
0
ARC
8
DEFAULT_255_2_778
10
54.530979
20
82.4300144
40
2.2404994
50
88.7485687
51
89.9998729
0
ARC
8
DEFAULT_255_2_778
10
54.5165822
20
82.522874
40
2.1476881
50
89.6157885
51
132.095204
0
ARC
8
DEFAULT_255_2_778
10
54.374068
20
82.7014215
40
1.9197143
50
132.5113155
51
147.5195822
0
ARC
8
DEFAULT_255_2_778
10
54.2665468
20
82.7690022
40
1.7927204
50
147.4962264
51
170.7518039
0
ARC
8
DEFAULT_255_2_778
10
54.2245775
20
82.7783664
40
1.7497937
50
170.8335835
51
179.9959237
0
ARC
8
DEFAULT_255_2_778
10
54.2206465
20
82.7784964
40
1.7458628
50
180.0001806
51
181.4941423
0
ARC
8
DEFAULT_255_2_778
10
54.2314973
20
82.7797635
40
1.7567432
50
181.5262289
51
202.6960211
0
ARC
8
DEFAULT_255_2_778
10
54.3114814
20
82.8133704
40
1.8435008
50
202.7004743
51
216.2282589
0
ARC
8
DEFAULT_255_2_778
10
54.3749726
20
82.8566188
40
1.9202788
50
216.1495968
51
216.5804383
0
ARC
8
DEFAULT_255_2_778
10
54.41983
20
82.8968793
40
1.9803015
50
216.7423822
51
238.0142675
0
ARC
8
DEFAULT_255_2_778
10
54.5110411
20
83.0376175
40
2.1479899
50
237.9392271
51
259.2739998
0
ARC
8
DEFAULT_255_2_778
10
54.5288333
20
83.1142121
40
2.2265599
50
259.1909809
51
268.7583484
0
ARC
8
DEFAULT_255_2_778
10
54.5295177
20
83.12814
40
2.2404994
50
268.7485687
51
269.9998729
0
ARC
8
DEFAULT_255_2_778
10
54.5439145
20
83.0352804
40
2.1476881
50
269.6157885
51
312.095204
0
ARC
8
DEFAULT_255_2_778
10
54.6864149
20
82.856746
40
1.9197333
50
312.5113542
51
327.5194571
0
ARC
8
DEFAULT_255_2_778
10
54.7939623
20
82.7891509
40
1.7927097
50
327.4960339
51
350.751475
0
ARC
8
DEFAULT_255_2_778
10
54.8360143
20
82.7797706
40
1.7496986
50
350.8333357
51
359.9958911
0
ARC
8
DEFAULT_255_2_778
10
54.8408241
20
82.7796475
40
1.744889
50
359.9999208
51
1.4867343
0
ARC
8
DEFAULT_255_2_778
10
54.8292492
20
82.778384
40
1.7564931
50
1.5181406
51
22.6943743
0
ARC
8
DEFAULT_255_2_778
10
54.7494122
20
82.7448345
40
1.8430925
50
22.6990242
51
36.2317122
0
ARC
8
DEFAULT_255_2_778
10
54.694295
20
82.7077324
40
1.909483
50
36.1522162
51
36.5855545
0
LINE
8
DEFAULT_255_2_778
10
76.9163484
20
82.7790272
11
76.9163484
21
82.7790272
0
LINE
8
DEFAULT_255_2_778
10
77.3923484
20
81.7122272
11
80.2490484
21
84.3411272
0
LINE
8
DEFAULT_255_2_778
10
80.7869484
20
83.8458272
11
77.9302484
21
81.2172272
0
LINE
8
DEFAULT_255_2_778
10
82.3498484
20
82.7790272
11
82.3498484
21
82.7790272
0
LINE
8
DEFAULT_255_2_778
10
82.8258484
20
81.7122272
11
85.6825484
21
84.3411272
0
LINE
8
DEFAULT_255_2_778
10
86.2204484
20
83.8458272
11
83.3637484
21
81.2172272
0
LINE
8
DEFAULT_255_2_778
10
87.7833484
20
82.7790272
11
87.7833484
21
82.7790272
0
LINE
8
DEFAULT_255_2_778
10
88.2593484
20
81.7122272
11
91.1160484
21
84.3411272
0
LINE
8
DEFAULT_255_2_778
10
91.6539484
20
83.8458272
11
88.7972484
21
81.2172272
0
LINE
8
DEFAULT_255_2_778
10
93.2168484
20
82.7790272
11
93.2168484
21
82.7790272
0
LINE
8
DEFAULT_255_2_778
10
93.6928484
20
81.7122272
11
96.5495484
21
84.3411272
0
LINE
8
DEFAULT_255_2_778
10
97.0874484
20
83.8458272
11
94.2307484
21
81.2172272
0
LINE
8
DEFAULT_255_2_778
10
98.0031484
20
88.3411272
11
76.3729484
21
88.3411272
0
LINE
8
DEFAULT_255_2_778
10
76.3729484
20
87.4291272
11
98.1068484
21
87.4291272
0
LINE
8
DEFAULT_255_2_778
10
98.1068484
20
87.9090272
11
76.3729484
21
87.9090272
0
LINE
8
DEFAULT_255_2_778
10
52.3569484
20
82.7790272
11
52.3569484
21
82.7790272
0
LINE
8
DEFAULT_255_2_778
10
52.8329484
20
81.7122272
11
55.6896484
21
84.3411272
0
LINE
8
DEFAULT_255_2_778
10
56.2275484
20
83.8458272
11
53.3708484
21
81.2172272
0
ARC
8
DEFAULT_255_2_778
10
59.7212979
20
82.7649621
40
1.9309131
50
127.9016169
51
179.5826442
0
ARC
8
DEFAULT_255_2_778
10
59.9223391
20
82.5474573
40
2.2261806
50
104.6365013
51
128.5455791
0
ARC
8
DEFAULT_255_2_778
10
59.9608126
20
82.4139227
40
2.3651062
50
89.9291797
51
104.7208709
0
ARC
8
DEFAULT_255_2_778
10
59.9681278
20
82.4286823
40
2.350349
50
71.537663
51
90.1070617
0
ARC
8
DEFAULT_255_2_778
10
60.0215294
20
82.5781458
40
2.1916694
50
46.0417698
51
71.6244778
0
ARC
8
DEFAULT_255_2_778
10
60.2249064
20
82.7703602
40
1.9121777
50
0.4473167
51
46.4306298
0
ARC
8
DEFAULT_255_2_778
10
60.2527936
20
82.7790284
40
1.8842425
50
359.9999641
51
0.1903636
0
ARC
8
DEFAULT_255_2_778
10
60.2058312
20
82.7932071
40
1.9312569
50
307.8157442
51
359.5793105
0
ARC
8
DEFAULT_255_2_778
10
60.0049817
20
83.010914
40
2.2265306
50
284.6063117
51
308.4639044
0
ARC
8
DEFAULT_255_2_778
10
59.9666515
20
83.1442875
40
2.3652621
50
269.9293758
51
284.6900724
0
ARC
8
DEFAULT_255_2_778
10
59.959361
20
83.1290236
40
2.3500005
50
251.5354227
51
270.1066671
0
ARC
8
DEFAULT_255_2_778
10
59.9061063
20
82.9800394
40
2.1918218
50
226.0251039
51
251.6223971
0
ARC
8
DEFAULT_255_2_778
10
59.7025085
20
82.7877521
40
1.9121208
50
180.4489734
51
226.4147835
0
ARC
8
DEFAULT_255_2_778
10
59.6728014
20
82.779026
40
1.8823655
50
179.999964
51
180.1904609
0
ARC
8
DEFAULT_255_2_778
10
60.0737686
20
82.6610949
40
1.9806586
50
36.7375635
51
58.0075625
0
ARC
8
DEFAULT_255_2_778
10
59.9829409
20
82.5205328
40
2.1479946
50
57.9392298
51
79.2707933
0
ARC
8
DEFAULT_255_2_778
10
59.9651565
20
82.4439837
40
2.2265186
50
79.1878676
51
88.7538977
0
ARC
8
DEFAULT_255_2_778
10
59.9644929
20
82.4312205
40
2.2392932
50
88.744024
51
90.0003389
0
ARC
8
DEFAULT_255_2_778
10
59.9500496
20
82.5231875
40
2.1473748
50
89.6149758
51
132.0984297
0
ARC
8
DEFAULT_255_2_778
10
59.8075906
20
82.7012853
40
1.9197707
50
132.507137
51
147.5162132
0
ARC
8
DEFAULT_255_2_778
10
59.6999407
20
82.7689564
40
1.7926199
50
147.4928488
51
170.750778
0
ARC
8
DEFAULT_255_2_778
10
59.6579543
20
82.778327
40
1.7496749
50
170.832653
51
179.9958726
0
ARC
8
DEFAULT_255_2_778
10
59.6535785
20
82.7784584
40
1.7452991
50
180.0001754
51
181.493377
0
ARC
8
DEFAULT_255_2_778
10
59.6649048
20
82.7797273
40
1.7566551
50
181.5251239
51
202.695946
0
ARC
8
DEFAULT_255_2_778
10
59.7449464
20
82.8133558
40
1.8434738
50
202.7003322
51
216.2283084
0
ARC
8
DEFAULT_255_2_778
10
59.8084602
20
82.8566188
40
1.9202788
50
216.1495968
51
216.5804383
0
ARC
8
DEFAULT_255_2_778
10
59.8553212
20
82.8990561
40
1.9832093
50
216.7581504
51
237.9984852
0
ARC
8
DEFAULT_255_2_778
10
59.9445287
20
83.0376175
40
2.1479899
50
237.9392271
51
259.2739998
0
ARC
8
DEFAULT_255_2_778
10
59.962321
20
83.1142121
40
2.2265599
50
259.1909809
51
268.7583484
0
ARC
8
DEFAULT_255_2_778
10
59.9630054
20
83.12814
40
2.2404994
50
268.7485687
51
269.9998729
0
ARC
8
DEFAULT_255_2_778
10
59.9774022
20
83.0352804
40
2.1476881
50
269.6157885
51
312.095204
0
ARC
8
DEFAULT_255_2_778
10
60.1199025
20
82.856746
40
1.9197333
50
312.5113542
51
327.5194571
0
ARC
8
DEFAULT_255_2_778
10
60.22745
20
82.7891509
40
1.7927097
50
327.4960339
51
350.751475
0
ARC
8
DEFAULT_255_2_778
10
60.2695019
20
82.7797706
40
1.7496986
50
350.8333357
51
359.9958911
0
ARC
8
DEFAULT_255_2_778
10
60.2743117
20
82.7796475
40
1.744889
50
359.9999208
51
1.4867343
0
ARC
8
DEFAULT_255_2_778
10
60.2627368
20
82.778384
40
1.7564931
50
1.5181406
51
22.6943743
0
ARC
8
DEFAULT_255_2_778
10
60.1828999
20
82.7448345
40
1.8430925
50
22.6990242
51
36.2317122
0
ARC
8
DEFAULT_255_2_778
10
60.1277827
20
82.7077324
40
1.909483
50
36.1522162
51
36.5855545
0
ARC
8
DEFAULT_255_2_778
10
65.1547929
20
82.7649965
40
1.9309078
50
127.9030748
51
179.5836641
0
ARC
8
DEFAULT_255_2_778
10
65.3557484
20
82.547551
40
2.2260761
50
104.6357398
51
128.5460725
0
ARC
8
DEFAULT_255_2_778
10
65.3943052
20
82.4137041
40
2.3653248
50
89.9290063
51
104.7201864
0
ARC
8
DEFAULT_255_2_778
10
65.4016278
20
82.4286823
40
2.350349
50
71.537663
51
90.1070617
0
ARC
8
DEFAULT_255_2_778
10
65.4550294
20
82.5781458
40
2.1916694
50
46.0417698
51
71.6244778
0
ARC
8
DEFAULT_255_2_778
10
65.6584064
20
82.7703602
40
1.9121777
50
0.4473167
51
46.4306298
0
ARC
8
DEFAULT_255_2_778
10
65.6862936
20
82.7790284
40
1.8842425
50
359.9999641
51
0.1903636
0
ARC
8
DEFAULT_255_2_778
10
65.6393312
20
82.7932071
40
1.9312569
50
307.8157442
51
359.5793105
0
ARC
8
DEFAULT_255_2_778
10
65.4384817
20
83.010914
40
2.2265306
50
284.6063117
51
308.4639044
0
ARC
8
DEFAULT_255_2_778
10
65.4001515
20
83.1442875
40
2.3652621
50
269.9293758
51
284.6900724
0
ARC
8
DEFAULT_255_2_778
10
65.3928494
20
83.1291977
40
2.3501746
50
251.5361103
51
270.1069437
0
ARC
8
DEFAULT_255_2_778
10
65.339531
20
82.9799792
40
2.1917537
50
226.040684
51
251.6227739
0
ARC
8
DEFAULT_255_2_778
10
65.136081
20
82.78774
40
1.9121934
50
180.44867
51
226.430441
0
ARC
8
DEFAULT_255_2_778
10
65.1077682
20
82.779026
40
1.8838322
50
179.9999641
51
180.1903879
0
ARC
8
DEFAULT_255_2_778
10
65.5072686
20
82.6610948
40
1.9806586
50
36.7375658
51
58.007564
0
ARC
8
DEFAULT_255_2_778
10
65.4164433
20
82.5205368
40
2.1479899
50
57.9392271
51
79.2739998
0
ARC
8
DEFAULT_255_2_778
10
65.3986511
20
82.4439423
40
2.2265599
50
79.1909809
51
88.7583484
0
ARC
8
DEFAULT_255_2_778
10
65.3979667
20
82.4300144
40
2.2404994
50
88.7485687
51
89.9998729
0
ARC
8
DEFAULT_255_2_778
10
65.3835699
20
82.522874
40
2.1476881
50
89.6157885
51
132.095204
0
ARC
8
DEFAULT_255_2_778
10
65.2410557
20
82.7014215
40
1.9197143
50
132.5113155
51
147.5195822
0
ARC
8
DEFAULT_255_2_778
10
65.1335344
20
82.7690022
40
1.7927204
50
147.4962264
51
170.7518039
0
ARC
8
DEFAULT_255_2_778
10
65.0915651
20
82.7783664
40
1.7497937
50
170.8335835
51
179.9959237
0
ARC
8
DEFAULT_255_2_778
10
65.0876342
20
82.7784964
40
1.7458628
50
180.0001806
51
181.4941423
0
ARC
8
DEFAULT_255_2_778
10
65.098485
20
82.7797635
40
1.7567432
50
181.5262289
51
202.6960211
0
ARC
8
DEFAULT_255_2_778
10
65.1784691
20
82.8133704
40
1.8435008
50
202.7004743
51
216.2282589
0
ARC
8
DEFAULT_255_2_778
10
65.2419602
20
82.8566188
40
1.9202788
50
216.1495968
51
216.5804383
0
ARC
8
DEFAULT_255_2_778
10
65.2888238
20
82.8990591
40
1.9832131
50
216.7581734
51
237.9984661
0
ARC
8
DEFAULT_255_2_778
10
65.3780287
20
83.0376175
40
2.1479899
50
237.9392271
51
259.2739998
0
ARC
8
DEFAULT_255_2_778
10
65.395821
20
83.1142121
40
2.2265599
50
259.1909809
51
268.7583484
0
ARC
8
DEFAULT_255_2_778
10
65.3965054
20
83.12814
40
2.2404994
50
268.7485687
51
269.9998729
0
ARC
8
DEFAULT_255_2_778
10
65.4109022
20
83.0352804
40
2.1476881
50
269.6157885
51
312.095204
0
ARC
8
DEFAULT_255_2_778
10
65.5534025
20
82.856746
40
1.9197333
50
312.5113542
51
327.5194571
0
ARC
8
DEFAULT_255_2_778
10
65.66095
20
82.7891509
40
1.7927097
50
327.4960339
51
350.751475
0
ARC
8
DEFAULT_255_2_778
10
65.7030019
20
82.7797706
40
1.7496986
50
350.8333357
51
359.9958911
0
ARC
8
DEFAULT_255_2_778
10
65.7078117
20
82.7796475
40
1.744889
50
359.9999208
51
1.4867343
0
ARC
8
DEFAULT_255_2_778
10
65.6962368
20
82.778384
40
1.7564931
50
1.5181406
51
22.6943743
0
ARC
8
DEFAULT_255_2_778
10
65.6163999
20
82.7448345
40
1.8430925
50
22.6990242
51
36.2317122
0
ARC
8
DEFAULT_255_2_778
10
65.5612827
20
82.7077324
40
1.909483
50
36.1522162
51
36.5855545
0
ARC
8
DEFAULT_255_2_778
10
70.5882929
20
82.7649965
40
1.9309078
50
127.9030748
51
179.5836641
0
ARC
8
DEFAULT_255_2_778
10
70.7892484
20
82.547551
40
2.2260761
50
104.6357398
51
128.5460725
0
ARC
8
DEFAULT_255_2_778
10
70.8278052
20
82.4137041
40
2.3653248
50
89.9290063
51
104.7201864
0
ARC
8
DEFAULT_255_2_778
10
70.8351278
20
82.4286823
40
2.350349
50
71.537663
51
90.1070617
0
ARC
8
DEFAULT_255_2_778
10
70.8885294
20
82.5781458
40
2.1916694
50
46.0417698
51
71.6244778
0
ARC
8
DEFAULT_255_2_778
10
71.0919064
20
82.7703602
40
1.9121777
50
0.4473167
51
46.4306298
0
ARC
8
DEFAULT_255_2_778
10
71.1197936
20
82.7790284
40
1.8842425
50
359.9999641
51
0.1903636
0
ARC
8
DEFAULT_255_2_778
10
71.0728312
20
82.7932071
40
1.9312569
50
307.8157442
51
359.5793105
0
ARC
8
DEFAULT_255_2_778
10
70.8719817
20
83.010914
40
2.2265306
50
284.6063117
51
308.4639044
0
ARC
8
DEFAULT_255_2_778
10
70.8336515
20
83.1442875
40
2.3652621
50
269.9293758
51
284.6900724
0
ARC
8
DEFAULT_255_2_778
10
70.8263494
20
83.1291977
40
2.3501746
50
251.5361103
51
270.1069437
0
ARC
8
DEFAULT_255_2_778
10
70.773031
20
82.9799792
40
2.1917537
50
226.040684
51
251.6227739
0
ARC
8
DEFAULT_255_2_778
10
70.569581
20
82.78774
40
1.9121934
50
180.44867
51
226.430441
0
ARC
8
DEFAULT_255_2_778
10
70.5412682
20
82.779026
40
1.8838322
50
179.9999641
51
180.1903879
0
ARC
8
DEFAULT_255_2_778
10
70.9387634
20
82.6589163
40
1.9835688
50
36.7533489
51
57.9917788
0
ARC
8
DEFAULT_255_2_778
10
70.8498166
20
82.5201497
40
2.1483852
50
57.9418438
51
79.2680501
0
ARC
8
DEFAULT_255_2_778
10
70.8321045
20
82.4439124
40
2.2265898
50
79.1855549
51
88.7502193
0
ARC
8
DEFAULT_255_2_778
10
70.831443
20
82.4315422
40
2.2389715
50
88.7402003
51
90.0003369
0
ARC
8
DEFAULT_255_2_778
10
70.8170364
20
82.5229608
40
2.1476012
50
89.6159961
51
132.096094
0
ARC
8
DEFAULT_255_2_778
10
70.6745557
20
82.7014215
40
1.9197143
50
132.5113155
51
147.5195822
0
ARC
8
DEFAULT_255_2_778
10
70.5670344
20
82.7690022
40
1.7927204
50
147.4962264
51
170.7518039
0
ARC
8
DEFAULT_255_2_778
10
70.5250651
20
82.7783664
40
1.7497937
50
170.8335835
51
179.9959237
0
ARC
8
DEFAULT_255_2_778
10
70.5211342
20
82.7784964
40
1.7458628
50
180.0001806
51
181.4941423
0
ARC
8
DEFAULT_255_2_778
10
70.531985
20
82.7797635
40
1.7567432
50
181.5262289
51
202.6960211
0
ARC
8
DEFAULT_255_2_778
10
70.6119691
20
82.8133704
40
1.8435008
50
202.7004743
51
216.2282589
0
ARC
8
DEFAULT_255_2_778
10
70.6754602
20
82.8566188
40
1.9202788
50
216.1495968
51
216.5804383
0
ARC
8
DEFAULT_255_2_778
10
70.7203202
20
82.896882
40
1.9803051
50
216.7424014
51
238.0142475
0
ARC
8
DEFAULT_255_2_778
10
70.8115287
20
83.0376175
40
2.1479899
50
237.9392271
51
259.2739998
0
ARC
8
DEFAULT_255_2_778
10
70.829321
20
83.1142121
40
2.2265599
50
259.1909809
51
268.7583484
0
ARC
8
DEFAULT_255_2_778
10
70.8300054
20
83.12814
40
2.2404994
50
268.7485687
51
269.9998729
0
ARC
8
DEFAULT_255_2_778
10
70.8444022
20
83.0352804
40
2.1476881
50
269.6157885
51
312.095204
0
ARC
8
DEFAULT_255_2_778
10
70.9869025
20
82.856746
40
1.9197333
50
312.5113542
51
327.5194571
0
ARC
8
DEFAULT_255_2_778
10
71.09445
20
82.7891509
40
1.7927097
50
327.4960339
51
350.751475
0
ARC
8
DEFAULT_255_2_778
10
71.1365019
20
82.7797706
40
1.7496986
50
350.8333357
51
359.9958911
0
ARC
8
DEFAULT_255_2_778
10
71.1413117
20
82.7796475
40
1.744889
50
359.9999208
51
1.4867343
0
ARC
8
DEFAULT_255_2_778
10
71.1297368
20
82.778384
40
1.7564931
50
1.5181406
51
22.6943743
0
ARC
8
DEFAULT_255_2_778
10
71.0498999
20
82.7448345
40
1.8430925
50
22.6990242
51
36.2317122
0
ARC
8
DEFAULT_255_2_778
10
70.9947827
20
82.7077324
40
1.909483
50
36.1522162
51
36.5855545
0
LINE
8
DEFAULT_255_2_778
10
57.790436
20
82.7790272
11
57.790436
21
82.7790272
0
LINE
8
DEFAULT_255_2_778
10
58.266436
20
81.7122272
11
61.123136
21
84.3411272
0
LINE
8
DEFAULT_255_2_778
10
61.661036
20
83.8458272
11
58.804336
21
81.2172272
0
LINE
8
DEFAULT_255_2_778
10
63.223936
20
82.7790272
11
63.223936
21
82.7790272
0
LINE
8
DEFAULT_255_2_778
10
63.699936
20
81.7122272
11
66.556636
21
84.3411272
0
LINE
8
DEFAULT_255_2_778
10
67.094536
20
83.8458272
11
64.237836
21
81.2172272
0
LINE
8
DEFAULT_255_2_778
10
68.657436
20
82.7790272
11
68.657436
21
82.7790272
0
LINE
8
DEFAULT_255_2_778
10
69.133436
20
81.7122272
11
71.990136
21
84.3411272
0
LINE
8
DEFAULT_255_2_778
10
72.528036
20
83.8458272
11
69.671336
21
81.2172272
0
LINE
8
DEFAULT_255_2_778
10
73.503036
20
88.3411272
11
51.813536
21
88.3411272
0
LINE
8
DEFAULT_255_2_778
10
51.813536
20
87.4291272
11
73.547436
21
87.4291272
0
LINE
8
DEFAULT_255_2_778
10
73.547436
20
87.9090272
11
51.813536
21
87.9090272
0
ENDSEC
0
EOF