0
SECTION
2
HEADER
9
$MEASUREMENT
70
1
0
ENDSEC
0
SECTION
2
TABLES
0
TABLE
2
LTYPE
0
LTYPE
72
65
70
64
2
CONTINUOUS
3
______
73
0
40
0
0
ENDTAB
0
TABLE
2
LAYER
0
LAYER
2
DEFAULT_255_2_778
70
0
62
255
6
CONTINUOUS
0
LAYER
2
DEFAULT_255_1_388
70
0
62
255
6
CONTINUOUS
0
ENDTAB
0
ENDSEC
0
SECTION
2
ENTITIES
0
ARC
8
DEFAULT_255_2_778
10
3.5700693
20
139.3052021
40
0.7914215
50
129.1312896
51
180.1450914
0
ARC
8
DEFAULT_255_2_778
10
3.5703345
20
139.3056893
40
0.7912112
50
89.854026
51
129.1684493
0
ARC
8
DEFAULT_255_2_778
10
25.7993937
20
139.3053758
40
0.7915249
50
39.4792447
51
90.147911
0
ARC
8
DEFAULT_255_2_778
10
25.7999935
20
139.3052224
40
0.7911595
50
359.8533901
51
39.5154338
0
ARC
8
DEFAULT_255_2_778
10
25.7996693
20
-1.9863501
40
0.7914836
50
309.4761667
51
0.1482649
0
ARC
8
DEFAULT_255_2_778
10
25.799398
20
-1.9867812
40
0.7913235
50
269.8517415
51
309.511178
0
ARC
8
DEFAULT_255_2_778
10
3.570342
20
-1.986723
40
0.7913815
50
219.1282118
51
270.1454017
0
ARC
8
DEFAULT_255_2_778
10
3.5700247
20
-1.9863406
40
0.7913769
50
179.8524075
51
219.1641908
0
LINE
8
DEFAULT_255_2_778
10
3.5723503
20
140.096898
11
25.7973503
21
140.096898
0
LINE
8
DEFAULT_255_2_778
10
26.5911503
20
139.303198
11
26.5911503
21
-1.984302
0
LINE
8
DEFAULT_255_2_778
10
25.7973503
20
-2.778102
11
3.5723503
21
-2.778102
0
LINE
8
DEFAULT_255_2_778
10
2.7786503
20
-1.984302
11
2.7786503
21
139.303198
0
LINE
8
DEFAULT_255_1_388
10
9.2229985
20
0.6821148
11
9.2229985
21
-0.6398
0
LINE
8
DEFAULT_255_1_388
10
9.2229985
20
-0.6398
11
9.0549355
21
-0.6398
0
LINE
8
DEFAULT_255_1_388
10
9.0549355
20
-0.6398
11
9.0549355
21
0.474295
0
LINE
8
DEFAULT_255_1_388
10
9.0549355
20
0.474295
11
8.717906
21
0.3505066
0
LINE
8
DEFAULT_255_1_388
10
8.717906
20
0.3505066
11
8.717906
21
0.5023055
0
LINE
8
DEFAULT_255_1_388
10
8.717906
20
0.5023055
11
9.1967951
21
0.6821148
0
LINE
8
DEFAULT_255_1_388
10
9.1967951
20
0.6821148
11
9.2229985
21
0.6821148
0
LINE
8
DEFAULT_255_1_388
10
10.562081
20
0.6757898
11
10.562081
21
0.5818191
0
LINE
8
DEFAULT_255_1_388
10
10.562081
20
0.5818191
11
10.0172316
21
-0.6398
0
LINE
8
DEFAULT_255_1_388
10
10.0172316
20
-0.6398
11
9.8419401
21
-0.6398
0
LINE
8
DEFAULT_255_1_388
10
9.8419401
20
-0.6398
11
10.3849824
21
0.538448
0
LINE
8
DEFAULT_255_1_388
10
10.3849824
20
0.538448
11
9.6729736
21
0.538448
0
LINE
8
DEFAULT_255_1_388
10
9.6729736
20
0.538448
11
9.6729736
21
0.6757898
0
LINE
8
DEFAULT_255_1_388
10
9.6729736
20
0.6757898
11
10.562081
21
0.6757898
0
LINE
8
DEFAULT_255_1_388
10
10.9623601
20
-0.0145334
11
10.8286325
21
0.0198021
0
LINE
8
DEFAULT_255_1_388
10
10.8286325
20
0.0198021
11
10.8954963
21
0.6757898
0
LINE
8
DEFAULT_255_1_388
10
10.8954963
20
0.6757898
11
11.5695554
21
0.6757898
0
LINE
8
DEFAULT_255_1_388
10
11.5695554
20
0.6757898
11
11.5695554
21
0.5212803
0
LINE
8
DEFAULT_255_1_388
10
11.5695554
20
0.5212803
11
11.0373559
21
0.5212803
0
LINE
8
DEFAULT_255_1_388
10
11.0373559
20
0.5212803
11
10.9975991
21
0.1625652
0
LINE
8
DEFAULT_255_1_388
10
10.7816472
20
-0.2937348
11
10.9397709
21
-0.2937348
0
LINE
8
DEFAULT_255_1_388
10
11.0066347
20
0.0216092
11
10.9623601
21
-0.0145334
0
ARC
8
DEFAULT_255_1_388
10
11.2062604
20
-0.1951759
40
0.4141476
50
93.7181681
51
120.253934
0
ARC
8
DEFAULT_255_1_388
10
11.2168656
20
-0.2860716
40
0.5055616
50
89.9660471
51
94.2495185
0
ARC
8
DEFAULT_255_1_388
10
11.2214478
20
-0.2197846
40
0.4392953
50
73.8045384
51
90.5585736
0
ARC
8
DEFAULT_255_1_388
10
11.2478736
20
-0.123248
40
0.3392225
50
41.3071072
51
73.543002
0
ARC
8
DEFAULT_255_1_388
10
11.2010556
20
-0.1635539
40
0.4009977
50
13.5075837
51
41.2174839
0
ARC
8
DEFAULT_255_1_388
10
11.0163653
20
-0.2119093
40
0.5918864
50
1.1330171
51
13.8830737
0
ARC
8
DEFAULT_255_1_388
10
10.8567299
20
-0.2204478
40
0.7516787
50
359.9925091
51
1.5431298
0
ARC
8
DEFAULT_255_1_388
10
11.0011914
20
-0.2250973
40
0.6072343
50
347.8572712
51
0.4294349
0
ARC
8
DEFAULT_255_1_388
10
11.1981049
20
-0.2697102
40
0.4053482
50
323.6727442
51
348.1674594
0
ARC
8
DEFAULT_255_1_388
10
11.2312013
20
-0.2898825
40
0.3667495
50
316.8171818
51
323.1486802
0
ARC
8
DEFAULT_255_1_388
10
11.2381137
20
-0.2940388
40
0.358869
50
281.839603
51
316.5458142
0
ARC
8
DEFAULT_255_1_388
10
11.1958425
20
-0.1190637
40
0.5388223
50
269.5770964
51
282.4214641
0
ARC
8
DEFAULT_255_1_388
10
11.1878345
20
-0.143107
40
0.5147801
50
256.2425863
51
270.4486481
0
ARC
8
DEFAULT_255_1_388
10
11.1541873
20
-0.2780876
40
0.3756708
50
228.9024379
51
256.33135
0
ARC
8
DEFAULT_255_1_388
10
11.1458853
20
-0.2911946
40
0.360344
50
193.7536029
51
228.5272638
0
ARC
8
DEFAULT_255_1_388
10
11.2851418
20
-0.2503537
40
0.5053599
50
184.9244437
51
194.4976052
0
ARC
8
DEFAULT_255_1_388
10
11.306806
20
-0.2463278
40
0.3700839
50
187.3596909
51
198.6733728
0
ARC
8
DEFAULT_255_1_388
10
11.1887303
20
-0.2872627
40
0.2451195
50
198.4453795
51
217.7945479
0
ARC
8
DEFAULT_255_1_388
10
11.1554476
20
-0.3108437
40
0.2043754
50
218.2887146
51
228.5613203
0
ARC
8
DEFAULT_255_1_388
10
11.1664482
20
-0.2960098
40
0.2227819
50
228.9652423
51
258.1237049
0
ARC
8
DEFAULT_255_1_388
10
11.189592
20
-0.1969036
40
0.3245374
50
257.7260585
51
270.4013717
0
ARC
8
DEFAULT_255_1_388
10
11.1946418
20
-0.2469745
40
0.2744726
50
269.4204315
51
286.420998
0
ARC
8
DEFAULT_255_1_388
10
11.2113474
20
-0.3076295
40
0.2115721
50
286.7250065
51
320.6004665
0
ARC
8
DEFAULT_255_1_388
10
11.1682389
20
-0.2726473
40
0.2670878
50
320.6712228
51
344.5440474
0
ARC
8
DEFAULT_255_1_388
10
11.0381103
20
-0.2344606
40
0.4026927
50
344.241448
51
356.735803
0
ARC
8
DEFAULT_255_1_388
10
10.897741
20
-0.2228344
40
0.5435085
50
356.3547471
51
0.0507222
0
ARC
8
DEFAULT_255_1_388
10
11.0479675
20
-0.2193188
40
0.3932934
50
359.5579289
51
12.9534322
0
ARC
8
DEFAULT_255_1_388
10
11.1666515
20
-0.1905414
40
0.2711827
50
12.6489751
51
41.608121
0
ARC
8
DEFAULT_255_1_388
10
11.1925675
20
-0.1685054
40
0.2371737
50
41.7851122
51
85.9892156
0
ARC
8
DEFAULT_255_1_388
10
11.1786985
20
-0.2600262
40
0.3295244
50
84.6965848
51
90.0672125
0
ARC
8
DEFAULT_255_1_388
10
11.1760553
20
-0.3351882
40
0.4046926
50
89.6804991
51
99.161352
0
ARC
8
DEFAULT_255_1_388
10
11.1529562
20
-0.1971152
40
0.2647044
50
98.9836248
51
113.8905702
0
ARC
8
DEFAULT_255_1_388
10
11.1271237
20
-0.1361882
40
0.1985386
50
114.195234
51
127.3641866
0
LINE
8
DEFAULT_255_1_388
10
12.6529292
20
-0.5033618
11
12.6529292
21
-0.6398
0
LINE
8
DEFAULT_255_1_388
10
12.6529292
20
-0.6398
11
11.7909287
21
-0.6398
0
LINE
8
DEFAULT_255_1_388
10
11.7909287
20
-0.6398
11
11.7909287
21
-0.5196259
0
LINE
8
DEFAULT_255_1_388
10
11.7909287
20
-0.5196259
11
12.2463251
21
-0.0136298
0
LINE
8
DEFAULT_255_1_388
10
11.9327883
20
0.2881607
11
11.7656289
21
0.2881607
0
LINE
8
DEFAULT_255_1_388
10
12.3448137
20
-0.121154
11
11.9924235
21
-0.5033618
0
LINE
8
DEFAULT_255_1_388
10
11.9924235
20
-0.5033618
11
12.6529292
21
-0.5033618
0
ARC
8
DEFAULT_255_1_388
10
10.7287311
20
1.3283983
40
2.0258655
50
318.5132526
51
320.7829045
0
ARC
8
DEFAULT_255_1_388
10
11.3235268
20
0.8442929
40
1.2589638
50
320.7372878
51
323.9739031
0
ARC
8
DEFAULT_255_1_388
10
11.76442
20
0.5248554
40
0.7145141
50
323.8962701
51
328.64194
0
ARC
8
DEFAULT_255_1_388
10
11.9946457
20
0.3828545
40
0.4440242
50
328.8294576
51
331.7891185
0
ARC
8
DEFAULT_255_1_388
10
12.1068777
20
0.3249374
40
0.3177517
50
331.4254512
51
352.9365785
0
ARC
8
DEFAULT_255_1_388
10
12.1221777
20
0.321505
40
0.3021496
50
353.2257659
51
0.0166158
0
ARC
8
DEFAULT_255_1_388
10
12.1458538
20
0.3240894
40
0.2784847
50
359.486299
51
15.9343185
0
ARC
8
DEFAULT_255_1_388
10
12.2028805
20
0.3394269
40
0.2194403
50
16.1712913
51
43.5286088
0
ARC
8
DEFAULT_255_1_388
10
12.2115749
20
0.3481191
40
0.2071504
50
43.4417391
51
83.1661095
0
ARC
8
DEFAULT_255_1_388
10
12.196491
20
0.2652316
40
0.2912888
50
82.160179
51
90.1505708
0
ARC
8
DEFAULT_255_1_388
10
12.1929392
20
0.2048279
40
0.3517025
50
89.5460741
51
102.5418361
0
ARC
8
DEFAULT_255_1_388
10
12.1656112
20
0.3207933
40
0.2325748
50
102.1738499
51
129.206123
0
ARC
8
DEFAULT_255_1_388
10
12.1567565
20
0.3347664
40
0.2161591
50
129.72865
51
135.753947
0
ARC
8
DEFAULT_255_1_388
10
12.1704047
20
0.3238728
40
0.2335433
50
136.1757367
51
166.3673339
0
ARC
8
DEFAULT_255_1_388
10
12.2836736
20
0.2935148
40
0.3507873
50
165.9090694
51
178.8684636
0
ARC
8
DEFAULT_255_1_388
10
12.3812507
20
0.2882263
40
0.4484624
50
178.4391136
51
180.0083808
0
ARC
8
DEFAULT_255_1_388
10
12.2233209
20
0.2926197
40
0.4577138
50
163.2878482
51
180.5581842
0
ARC
8
DEFAULT_255_1_388
10
12.133125
20
0.3174393
40
0.3641968
50
133.4540601
51
162.947111
0
ARC
8
DEFAULT_255_1_388
10
12.1532132
20
0.2960789
40
0.3935189
50
100.7869829
51
133.4382499
0
ARC
8
DEFAULT_255_1_388
10
12.1923377
20
0.1218399
40
0.5720313
50
89.660664
51
101.3702276
0
ARC
8
DEFAULT_255_1_388
10
12.1997986
20
0.1287263
40
0.5651495
50
78.2172678
51
90.412935
0
ARC
8
DEFAULT_255_1_388
10
12.2397451
20
0.3114511
40
0.378122
50
55.9269121
51
78.4888449
0
ARC
8
DEFAULT_255_1_388
10
12.2618167
20
0.3495187
40
0.3342379
50
47.929771
51
55.4049217
0
ARC
8
DEFAULT_255_1_388
10
12.2732697
20
0.3611618
40
0.3179217
50
4.334829
51
48.0560205
0
ARC
8
DEFAULT_255_1_388
10
12.1500499
20
0.3420487
40
0.442341
50
359.9251713
51
5.5971671
0
ARC
8
DEFAULT_255_1_388
10
12.1982653
20
0.3483728
40
0.3941854
50
337.8914027
51
358.9967534
0
ARC
8
DEFAULT_255_1_388
10
11.8930223
20
0.4661295
40
0.7213271
50
326.9132501
51
338.3508308
0
ARC
8
DEFAULT_255_1_388
10
11.4446335
20
0.7535105
40
1.2538973
50
319.6471833
51
327.0959558
0
ARC
8
DEFAULT_255_1_388
10
11.0132993
20
1.109305
40
1.8129975
50
317.2588228
51
319.9045804
0
LINE
8
DEFAULT_255_1_388
10
13.1950678
20
-0.0127263
11
13.1950678
21
-0.1491645
0
LINE
8
DEFAULT_255_1_388
10
13.1950678
20
-0.1491645
11
12.7541284
21
-0.1491645
0
LINE
8
DEFAULT_255_1_388
10
12.7541284
20
-0.1491645
11
12.7541284
21
-0.0127263
0
LINE
8
DEFAULT_255_1_388
10
12.7541284
20
-0.0127263
11
13.1950678
21
-0.0127263
0
LINE
8
DEFAULT_255_1_388
10
13.5583007
20
0.6757898
11
13.5583007
21
-0.4979404
0
LINE
8
DEFAULT_255_1_388
10
13.5583007
20
-0.4979404
11
14.1817602
21
-0.4979404
0
LINE
8
DEFAULT_255_1_388
10
14.1817602
20
-0.4979404
11
14.1817602
21
-0.6398
0
LINE
8
DEFAULT_255_1_388
10
14.1817602
20
-0.6398
11
13.3839128
21
-0.6398
0
LINE
8
DEFAULT_255_1_388
10
13.3839128
20
-0.6398
11
13.3839128
21
0.6757898
0
LINE
8
DEFAULT_255_1_388
10
13.3839128
20
0.6757898
11
13.5583007
21
0.6757898
0
LINE
8
DEFAULT_255_1_388
10
15.1982702
20
-0.5033618
11
15.1982702
21
-0.6398
0
LINE
8
DEFAULT_255_1_388
10
15.1982702
20
-0.6398
11
14.3362697
21
-0.6398
0
LINE
8
DEFAULT_255_1_388
10
14.3362697
20
-0.6398
11
14.3362697
21
-0.5196259
0
LINE
8
DEFAULT_255_1_388
10
14.3362697
20
-0.5196259
11
14.7916662
21
-0.0136298
0
LINE
8
DEFAULT_255_1_388
10
14.4781293
20
0.2881607
11
14.3109699
21
0.2881607
0
LINE
8
DEFAULT_255_1_388
10
14.8901547
20
-0.121154
11
14.5377646
21
-0.5033618
0
LINE
8
DEFAULT_255_1_388
10
14.5377646
20
-0.5033618
11
15.1982702
21
-0.5033618
0
ARC
8
DEFAULT_255_1_388
10
13.2740722
20
1.3283983
40
2.0258655
50
318.5132526
51
320.7829045
0
ARC
8
DEFAULT_255_1_388
10
13.8688679
20
0.8442929
40
1.2589638
50
320.7372878
51
323.9739031
0
ARC
8
DEFAULT_255_1_388
10
14.309761
20
0.5248554
40
0.7145141
50
323.8962701
51
328.64194
0
ARC
8
DEFAULT_255_1_388
10
14.5399868
20
0.3828545
40
0.4440242
50
328.8294576
51
331.7891185
0
ARC
8
DEFAULT_255_1_388
10
14.6522188
20
0.3249374
40
0.3177517
50
331.4254512
51
352.9365785
0
ARC
8
DEFAULT_255_1_388
10
14.6675188
20
0.321505
40
0.3021496
50
353.2257659
51
0.0166158
0
ARC
8
DEFAULT_255_1_388
10
14.6911949
20
0.3240894
40
0.2784847
50
359.486299
51
15.9343185
0
ARC
8
DEFAULT_255_1_388
10
14.7482215
20
0.3394269
40
0.2194403
50
16.1712913
51
43.5286088
0
ARC
8
DEFAULT_255_1_388
10
14.756916
20
0.3481191
40
0.2071504
50
43.4417391
51
83.1661095
0
ARC
8
DEFAULT_255_1_388
10
14.7418321
20
0.2652316
40
0.2912888
50
82.160179
51
90.1505708
0
ARC
8
DEFAULT_255_1_388
10
14.7382803
20
0.2048279
40
0.3517025
50
89.5460741
51
102.5418361
0
ARC
8
DEFAULT_255_1_388
10
14.7109523
20
0.3207933
40
0.2325748
50
102.1738499
51
129.206123
0
ARC
8
DEFAULT_255_1_388
10
14.7020976
20
0.3347664
40
0.2161591
50
129.72865
51
135.753947
0
ARC
8
DEFAULT_255_1_388
10
14.7157458
20
0.3238728
40
0.2335433
50
136.1757367
51
166.3673339
0
ARC
8
DEFAULT_255_1_388
10
14.8290147
20
0.2935148
40
0.3507873
50
165.9090694
51
178.8684636
0
ARC
8
DEFAULT_255_1_388
10
14.9265918
20
0.2882263
40
0.4484624
50
178.4391136
51
180.0083808
0
ARC
8
DEFAULT_255_1_388
10
14.768662
20
0.2926197
40
0.4577138
50
163.2878482
51
180.5581842
0
ARC
8
DEFAULT_255_1_388
10
14.6784661
20
0.3174393
40
0.3641968
50
133.4540601
51
162.947111
0
ARC
8
DEFAULT_255_1_388
10
14.6985542
20
0.2960789
40
0.3935189
50
100.7869829
51
133.4382499
0
ARC
8
DEFAULT_255_1_388
10
14.7376787
20
0.1218399
40
0.5720313
50
89.660664
51
101.3702276
0
ARC
8
DEFAULT_255_1_388
10
14.7451396
20
0.1287263
40
0.5651495
50
78.2172678
51
90.412935
0
ARC
8
DEFAULT_255_1_388
10
14.7850862
20
0.3114511
40
0.378122
50
55.9269121
51
78.4888449
0
ARC
8
DEFAULT_255_1_388
10
14.8071577
20
0.3495187
40
0.3342379
50
47.929771
51
55.4049217
0
ARC
8
DEFAULT_255_1_388
10
14.8186108
20
0.3611618
40
0.3179217
50
4.334829
51
48.0560205
0
ARC
8
DEFAULT_255_1_388
10
14.6953909
20
0.3420487
40
0.442341
50
359.9251713
51
5.5971671
0
ARC
8
DEFAULT_255_1_388
10
14.7436064
20
0.3483728
40
0.3941854
50
337.8914027
51
358.9967534
0
ARC
8
DEFAULT_255_1_388
10
14.4383634
20
0.4661295
40
0.7213271
50
326.9132501
51
338.3508308
0
ARC
8
DEFAULT_255_1_388
10
13.9899746
20
0.7535105
40
1.2538973
50
319.6471833
51
327.0959558
0
ARC
8
DEFAULT_255_1_388
10
13.5586404
20
1.109305
40
1.8129975
50
317.2588228
51
319.9045804
0
LINE
8
DEFAULT_255_1_388
10
16.0810527
20
0.6757898
11
16.0810527
21
-0.197957
0
LINE
8
DEFAULT_255_1_388
10
16.0810527
20
-0.197957
11
16.2635727
21
-0.197957
0
LINE
8
DEFAULT_255_1_388
10
16.2635727
20
-0.197957
11
16.2635727
21
-0.3343952
0
LINE
8
DEFAULT_255_1_388
10
16.2635727
20
-0.3343952
11
16.0810527
21
-0.3343952
0
LINE
8
DEFAULT_255_1_388
10
16.0810527
20
-0.3343952
11
16.0810527
21
-0.6398
0
LINE
8
DEFAULT_255_1_388
10
16.0810527
20
-0.6398
11
15.9129897
21
-0.6398
0
LINE
8
DEFAULT_255_1_388
10
15.9129897
20
-0.6398
11
15.9129897
21
-0.3343952
0
LINE
8
DEFAULT_255_1_388
10
15.9129897
20
-0.3343952
11
15.3139265
21
-0.3343952
0
LINE
8
DEFAULT_255_1_388
10
15.3139265
20
-0.3343952
11
15.3139265
21
-0.2359067
0
LINE
8
DEFAULT_255_1_388
10
15.3139265
20
-0.2359067
11
15.9030505
21
0.6757898
0
LINE
8
DEFAULT_255_1_388
10
15.9030505
20
0.6757898
11
16.0810527
21
0.6757898
0
LINE
8
DEFAULT_255_1_388
10
15.8931113
20
0.4110455
11
15.503675
21
-0.197957
0
LINE
8
DEFAULT_255_1_388
10
15.503675
20
-0.197957
11
15.9129897
21
-0.197957
0
LINE
8
DEFAULT_255_1_388
10
15.9129897
20
-0.197957
11
15.9129897
21
0.447188
0
LINE
8
DEFAULT_255_1_388
10
15.9129897
20
0.447188
11
15.8931113
21
0.4110455
0
LINE
8
DEFAULT_255_1_388
10
16.9141391
20
-0.6398
11
16.4578391
21
-0.6398
0
LINE
8
DEFAULT_255_1_388
10
16.4578391
20
-0.6398
11
16.4578391
21
0.6757898
0
LINE
8
DEFAULT_255_1_388
10
16.4578391
20
0.6757898
11
16.8879357
21
0.6757898
0
LINE
8
DEFAULT_255_1_388
10
16.9204641
20
-0.0244726
11
16.6313234
21
-0.0244726
0
LINE
8
DEFAULT_255_1_388
10
16.6313234
20
-0.0244726
11
16.6313234
21
-0.4979404
0
LINE
8
DEFAULT_255_1_388
10
16.6313234
20
-0.4979404
11
16.9177534
21
-0.4979404
0
LINE
8
DEFAULT_255_1_388
10
16.6313234
20
0.5330267
11
16.6313234
21
0.1146763
0
LINE
8
DEFAULT_255_1_388
10
16.6313234
20
0.1146763
11
16.8933571
21
0.1146763
0
LINE
8
DEFAULT_255_1_388
10
16.8879357
20
0.5330267
11
16.6313234
21
0.5330267
0
ARC
8
DEFAULT_255_1_388
10
16.8921778
20
-0.1530176
40
0.8288183
50
82.1256322
51
90.2932506
0
ARC
8
DEFAULT_255_1_388
10
16.9359352
20
0.152759
40
0.5199321
50
69.9044202
51
82.2857574
0
ARC
8
DEFAULT_255_1_388
10
17.0001345
20
0.3262993
40
0.3348993
50
51.1840204
51
70.018125
0
ARC
8
DEFAULT_255_1_388
10
17.0288177
20
0.3679945
40
0.2844579
50
12.1018086
51
50.421322
0
ARC
8
DEFAULT_255_1_388
10
16.8731049
20
0.3288937
40
0.4449429
50
359.5252354
51
12.8212369
0
ARC
8
DEFAULT_255_1_388
10
17.0508479
20
0.3210943
40
0.2672162
50
323.4907456
51
0.8818258
0
ARC
8
DEFAULT_255_1_388
10
17.0037891
20
0.3574523
40
0.3266736
50
298.6824053
51
323.2758285
0
ARC
8
DEFAULT_255_1_388
10
16.9631183
20
0.4250509
40
0.4055105
50
293.1994739
51
299.139634
0
ARC
8
DEFAULT_255_1_388
10
17.0388133
20
-0.2595349
40
0.3229926
50
54.0009997
51
74.9168635
0
ARC
8
DEFAULT_255_1_388
10
17.0519059
20
-0.2373489
40
0.2973581
50
36.3578854
51
53.5293172
0
ARC
8
DEFAULT_255_1_388
10
17.0376427
20
-0.247515
40
0.3148715
50
4.8189348
51
36.3090187
0
ARC
8
DEFAULT_255_1_388
10
16.9499452
20
-0.2598617
40
0.4033265
50
359.9373213
51
5.5201284
0
ARC
8
DEFAULT_255_1_388
10
16.9134782
20
-0.2644267
40
0.4398126
50
344.7479357
51
0.5372278
0
ARC
8
DEFAULT_255_1_388
10
17.024968
20
-0.2944795
40
0.3243441
50
311.1785587
51
344.6887681
0
ARC
8
DEFAULT_255_1_388
10
16.9921224
20
-0.2535916
40
0.3767511
50
286.0417804
51
310.8440924
0
ARC
8
DEFAULT_255_1_388
10
16.9350633
20
-0.0683115
40
0.5705957
50
274.1044074
51
286.4070149
0
ARC
8
DEFAULT_255_1_388
10
16.9151848
20
0.1434901
40
0.7832907
50
269.9235077
51
274.4458593
0
ARC
8
DEFAULT_255_1_388
10
16.9203567
20
-0.1196538
40
0.3782955
50
269.6057074
51
281.3740795
0
ARC
8
DEFAULT_255_1_388
10
16.9463065
20
-0.2426431
40
0.2526069
50
281.105298
51
302.5134029
0
ARC
8
DEFAULT_255_1_388
10
16.9628453
20
-0.2723056
40
0.2187131
50
303.0365425
51
311.8818034
0
ARC
8
DEFAULT_255_1_388
10
16.970863
20
-0.2818398
40
0.2062624
50
311.9916937
51
351.7143773
0
ARC
8
DEFAULT_255_1_388
10
16.8789655
20
-0.2632729
40
0.2999202
50
350.7343295
51
0.2221526
0
ARC
8
DEFAULT_255_1_388
10
16.8668743
20
-0.256913
40
0.3120525
50
359.045729
51
17.2295312
0
ARC
8
DEFAULT_255_1_388
10
16.9837773
20
-0.2221845
40
0.1901144
50
17.6685208
51
78.9940245
0
ARC
8
DEFAULT_255_1_388
10
16.9256134
20
-0.4309989
40
0.4065575
50
76.565218
51
90.7103392
0
LINE
8
DEFAULT_255_1_388
10
16.9205731
20
-0.0244726
11
16.9204641
21
-0.0244726
0
ARC
8
DEFAULT_255_1_388
10
16.895896
20
0.4842949
40
0.3696273
50
269.6064514
51
281.4533785
0
ARC
8
DEFAULT_255_1_388
10
16.92096
20
0.3660283
40
0.2487412
50
281.2044438
51
302.5143998
0
ARC
8
DEFAULT_255_1_388
10
16.9363854
20
0.3382576
40
0.2170405
50
303.0211308
51
309.8378766
0
ARC
8
DEFAULT_255_1_388
10
16.9569972
20
0.3151486
40
0.1860946
50
309.5229446
51
356.9509628
0
ARC
8
DEFAULT_255_1_388
10
16.8824098
20
0.3258831
40
0.2612347
50
355.4699226
51
0.0498632
0
ARC
8
DEFAULT_255_1_388
10
16.8509771
20
0.3283789
40
0.2926762
50
359.5558955
51
11.2092924
0
ARC
8
DEFAULT_255_1_388
10
16.9586739
20
0.3506667
40
0.1827036
50
10.9185717
51
31.322519
0
ARC
8
DEFAULT_255_1_388
10
16.9908287
20
0.3685571
40
0.1459418
50
31.8850633
51
52.1415586
0
ARC
8
DEFAULT_255_1_388
10
16.9599716
20
0.3249674
40
0.1993088
50
52.8283418
51
71.9850132
0
ARC
8
DEFAULT_255_1_388
10
16.9176877
20
0.2005158
40
0.3307407
50
71.686634
51
82.8453416
0
ARC
8
DEFAULT_255_1_388
10
16.8907524
20
-0.0030108
40
0.536039
50
82.6981895
51
90.1730083
0
ARC
8
DEFAULT_255_1_388
10
16.8882355
20
0.0848836
40
0.4481429
50
89.8851568
51
90.0383283
0
LINE
8
DEFAULT_255_1_388
10
18.0661838
20
-0.6398
11
17.6098837
21
-0.6398
0
LINE
8
DEFAULT_255_1_388
10
17.6098837
20
-0.6398
11
17.6098837
21
0.6757898
0
LINE
8
DEFAULT_255_1_388
10
17.6098837
20
0.6757898
11
18.0399804
21
0.6757898
0
LINE
8
DEFAULT_255_1_388
10
18.0725087
20
-0.0244726
11
17.7833681
21
-0.0244726
0
LINE
8
DEFAULT_255_1_388
10
17.7833681
20
-0.0244726
11
17.7833681
21
-0.4979404
0
LINE
8
DEFAULT_255_1_388
10
17.7833681
20
-0.4979404
11
18.069798
21
-0.4979404
0
LINE
8
DEFAULT_255_1_388
10
17.7833681
20
0.5330267
11
17.7833681
21
0.1146763
0
LINE
8
DEFAULT_255_1_388
10
17.7833681
20
0.1146763
11
18.0454018
21
0.1146763
0
LINE
8
DEFAULT_255_1_388
10
18.0399804
20
0.5330267
11
17.7833681
21
0.5330267
0
ARC
8
DEFAULT_255_1_388
10
18.0442224
20
-0.1530176
40
0.8288183
50
82.1256322
51
90.2932506
0
ARC
8
DEFAULT_255_1_388
10
18.0879799
20
0.152759
40
0.5199321
50
69.9044202
51
82.2857574
0
ARC
8
DEFAULT_255_1_388
10
18.1521792
20
0.3262993
40
0.3348993
50
51.1840204
51
70.018125
0
ARC
8
DEFAULT_255_1_388
10
18.1808624
20
0.3679945
40
0.2844579
50
12.1018086
51
50.421322
0
ARC
8
DEFAULT_255_1_388
10
18.0251496
20
0.3288937
40
0.4449429
50
359.5252354
51
12.8212369
0
ARC
8
DEFAULT_255_1_388
10
18.2028926
20
0.3210943
40
0.2672162
50
323.4907456
51
0.8818258
0
ARC
8
DEFAULT_255_1_388
10
18.1558338
20
0.3574523
40
0.3266736
50
298.6824053
51
323.2758285
0
ARC
8
DEFAULT_255_1_388
10
18.115163
20
0.4250509
40
0.4055105
50
293.1994739
51
299.139634
0
ARC
8
DEFAULT_255_1_388
10
18.1908579
20
-0.2595349
40
0.3229926
50
54.0009997
51
74.9168635
0
ARC
8
DEFAULT_255_1_388
10
18.2039506
20
-0.2373489
40
0.2973581
50
36.3578854
51
53.5293172
0
ARC
8
DEFAULT_255_1_388
10
18.1896874
20
-0.247515
40
0.3148715
50
4.8189348
51
36.3090187
0
ARC
8
DEFAULT_255_1_388
10
18.1019899
20
-0.2598617
40
0.4033265
50
359.9373213
51
5.5201284
0
ARC
8
DEFAULT_255_1_388
10
18.0655229
20
-0.2644267
40
0.4398126
50
344.7479357
51
0.5372278
0
ARC
8
DEFAULT_255_1_388
10
18.1770127
20
-0.2944795
40
0.3243441
50
311.1785587
51
344.6887681
0
ARC
8
DEFAULT_255_1_388
10
18.1441671
20
-0.2535916
40
0.3767511
50
286.0417804
51
310.8440924
0
ARC
8
DEFAULT_255_1_388
10
18.087108
20
-0.0683115
40
0.5705957
50
274.1044074
51
286.4070149
0
ARC
8
DEFAULT_255_1_388
10
18.0672295
20
0.1434901
40
0.7832907
50
269.9235077
51
274.4458593
0
ARC
8
DEFAULT_255_1_388
10
18.0724013
20
-0.1196538
40
0.3782955
50
269.6057074
51
281.3740795
0
ARC
8
DEFAULT_255_1_388
10
18.0983512
20
-0.2426431
40
0.2526069
50
281.105298
51
302.5134029
0
ARC
8
DEFAULT_255_1_388
10
18.1148899
20
-0.2723056
40
0.2187131
50
303.0365425
51
311.8818034
0
ARC
8
DEFAULT_255_1_388
10
18.1229077
20
-0.2818398
40
0.2062624
50
311.9916937
51
351.7143773
0
ARC
8
DEFAULT_255_1_388
10
18.0310101
20
-0.2632729
40
0.2999202
50
350.7343295
51
0.2221526
0
ARC
8
DEFAULT_255_1_388
10
18.0189189
20
-0.256913
40
0.3120525
50
359.045729
51
17.2295312
0
ARC
8
DEFAULT_255_1_388
10
18.135822
20
-0.2221845
40
0.1901144
50
17.6685208
51
78.9940245
0
ARC
8
DEFAULT_255_1_388
10
18.0776581
20
-0.4309989
40
0.4065575
50
76.565218
51
90.7103392
0
LINE
8
DEFAULT_255_1_388
10
18.0726178
20
-0.0244726
11
18.0725087
21
-0.0244726
0
ARC
8
DEFAULT_255_1_388
10
18.0479407
20
0.4842949
40
0.3696273
50
269.6064514
51
281.4533785
0
ARC
8
DEFAULT_255_1_388
10
18.0730047
20
0.3660283
40
0.2487412
50
281.2044438
51
302.5143998
0
ARC
8
DEFAULT_255_1_388
10
18.0884301
20
0.3382576
40
0.2170405
50
303.0211308
51
309.8378766
0
ARC
8
DEFAULT_255_1_388
10
18.1090419
20
0.3151486
40
0.1860946
50
309.5229446
51
356.9509628
0
ARC
8
DEFAULT_255_1_388
10
18.0344545
20
0.3258831
40
0.2612347
50
355.4699226
51
0.0498632
0
ARC
8
DEFAULT_255_1_388
10
18.0030218
20
0.3283789
40
0.2926762
50
359.5558955
51
11.2092924
0
ARC
8
DEFAULT_255_1_388
10
18.1107185
20
0.3506667
40
0.1827036
50
10.9185717
51
31.322519
0
ARC
8
DEFAULT_255_1_388
10
18.1428733
20
0.3685571
40
0.1459418
50
31.8850633
51
52.1415586
0
ARC
8
DEFAULT_255_1_388
10
18.1120163
20
0.3249674
40
0.1993088
50
52.8283418
51
71.9850132
0
ARC
8
DEFAULT_255_1_388
10
18.0697323
20
0.2005158
40
0.3307407
50
71.686634
51
82.8453416
0
ARC
8
DEFAULT_255_1_388
10
18.0427971
20
-0.0030108
40
0.536039
50
82.6981895
51
90.1730083
0
ARC
8
DEFAULT_255_1_388
10
18.0402802
20
0.0848836
40
0.4481429
50
89.8851568
51
90.0383283
0
LINE
8
DEFAULT_255_1_388
10
19.2182285
20
-0.6398
11
18.7619284
21
-0.6398
0
LINE
8
DEFAULT_255_1_388
10
18.7619284
20
-0.6398
11
18.7619284
21
0.6757898
0
LINE
8
DEFAULT_255_1_388
10
18.7619284
20
0.6757898
11
19.1920251
21
0.6757898
0
LINE
8
DEFAULT_255_1_388
10
19.2245534
20
-0.0244726
11
18.9354128
21
-0.0244726
0
LINE
8
DEFAULT_255_1_388
10
18.9354128
20
-0.0244726
11
18.9354128
21
-0.4979404
0
LINE
8
DEFAULT_255_1_388
10
18.9354128
20
-0.4979404
11
19.2218427
21
-0.4979404
0
LINE
8
DEFAULT_255_1_388
10
18.9354128
20
0.5330267
11
18.9354128
21
0.1146763
0
LINE
8
DEFAULT_255_1_388
10
18.9354128
20
0.1146763
11
19.1974465
21
0.1146763
0
LINE
8
DEFAULT_255_1_388
10
19.1920251
20
0.5330267
11
18.9354128
21
0.5330267
0
ARC
8
DEFAULT_255_1_388
10
19.1962671
20
-0.1530176
40
0.8288183
50
82.1256322
51
90.2932506
0
ARC
8
DEFAULT_255_1_388
10
19.2400246
20
0.152759
40
0.5199321
50
69.9044202
51
82.2857574
0
ARC
8
DEFAULT_255_1_388
10
19.3042239
20
0.3262993
40
0.3348993
50
51.1840204
51
70.018125
0
ARC
8
DEFAULT_255_1_388
10
19.3329071
20
0.3679945
40
0.2844579
50
12.1018086
51
50.421322
0
ARC
8
DEFAULT_255_1_388
10
19.1771943
20
0.3288937
40
0.4449429
50
359.5252354
51
12.8212369
0
ARC
8
DEFAULT_255_1_388
10
19.3549373
20
0.3210943
40
0.2672162
50
323.4907456
51
0.8818258
0
ARC
8
DEFAULT_255_1_388
10
19.3078785
20
0.3574523
40
0.3266736
50
298.6824053
51
323.2758285
0
ARC
8
DEFAULT_255_1_388
10
19.2672077
20
0.4250509
40
0.4055105
50
293.1994739
51
299.139634
0
ARC
8
DEFAULT_255_1_388
10
19.3429026
20
-0.2595349
40
0.3229926
50
54.0009997
51
74.9168635
0
ARC
8
DEFAULT_255_1_388
10
19.3559953
20
-0.2373489
40
0.2973581
50
36.3578854
51
53.5293172
0
ARC
8
DEFAULT_255_1_388
10
19.3417321
20
-0.247515
40
0.3148715
50
4.8189348
51
36.3090187
0
ARC
8
DEFAULT_255_1_388
10
19.2540345
20
-0.2598617
40
0.4033265
50
359.9373213
51
5.5201284
0
ARC
8
DEFAULT_255_1_388
10
19.2175675
20
-0.2644267
40
0.4398126
50
344.7479357
51
0.5372278
0
ARC
8
DEFAULT_255_1_388
10
19.3290574
20
-0.2944795
40
0.3243441
50
311.1785587
51
344.6887681
0
ARC
8
DEFAULT_255_1_388
10
19.2962117
20
-0.2535916
40
0.3767511
50
286.0417804
51
310.8440924
0
ARC
8
DEFAULT_255_1_388
10
19.2391527
20
-0.0683115
40
0.5705957
50
274.1044074
51
286.4070149
0
ARC
8
DEFAULT_255_1_388
10
19.2192742
20
0.1434901
40
0.7832907
50
269.9235077
51
274.4458593
0
ARC
8
DEFAULT_255_1_388
10
19.224446
20
-0.1196538
40
0.3782955
50
269.6057074
51
281.3740795
0
ARC
8
DEFAULT_255_1_388
10
19.2503959
20
-0.2426431
40
0.2526069
50
281.105298
51
302.5134029
0
ARC
8
DEFAULT_255_1_388
10
19.2669346
20
-0.2723056
40
0.2187131
50
303.0365425
51
311.8818034
0
ARC
8
DEFAULT_255_1_388
10
19.2749523
20
-0.2818398
40
0.2062624
50
311.9916937
51
351.7143773
0
ARC
8
DEFAULT_255_1_388
10
19.1830548
20
-0.2632729
40
0.2999202
50
350.7343295
51
0.2221526
0
ARC
8
DEFAULT_255_1_388
10
19.1709636
20
-0.256913
40
0.3120525
50
359.045729
51
17.2295312
0
ARC
8
DEFAULT_255_1_388
10
19.2878667
20
-0.2221845
40
0.1901144
50
17.6685208
51
78.9940245
0
ARC
8
DEFAULT_255_1_388
10
19.2297027
20
-0.4309989
40
0.4065575
50
76.565218
51
90.7103392
0
LINE
8
DEFAULT_255_1_388
10
19.2246625
20
-0.0244726
11
19.2245534
21
-0.0244726
0
ARC
8
DEFAULT_255_1_388
10
19.1999853
20
0.4842949
40
0.3696273
50
269.6064514
51
281.4533785
0
ARC
8
DEFAULT_255_1_388
10
19.2250494
20
0.3660283
40
0.2487412
50
281.2044438
51
302.5143998
0
ARC
8
DEFAULT_255_1_388
10
19.2404748
20
0.3382576
40
0.2170405
50
303.0211308
51
309.8378766
0
ARC
8
DEFAULT_255_1_388
10
19.2610865
20
0.3151486
40
0.1860946
50
309.5229446
51
356.9509628
0
ARC
8
DEFAULT_255_1_388
10
19.1864991
20
0.3258831
40
0.2612347
50
355.4699226
51
0.0498632
0
ARC
8
DEFAULT_255_1_388
10
19.1550665
20
0.3283789
40
0.2926762
50
359.5558955
51
11.2092924
0
ARC
8
DEFAULT_255_1_388
10
19.2627632
20
0.3506667
40
0.1827036
50
10.9185717
51
31.322519
0
ARC
8
DEFAULT_255_1_388
10
19.294918
20
0.3685571
40
0.1459418
50
31.8850633
51
52.1415586
0
ARC
8
DEFAULT_255_1_388
10
19.264061
20
0.3249674
40
0.1993088
50
52.8283418
51
71.9850132
0
ARC
8
DEFAULT_255_1_388
10
19.221777
20
0.2005158
40
0.3307407
50
71.686634
51
82.8453416
0
ARC
8
DEFAULT_255_1_388
10
19.1948417
20
-0.0030108
40
0.536039
50
82.6981895
51
90.1730083
0
ARC
8
DEFAULT_255_1_388
10
19.1923249
20
0.0848836
40
0.4481429
50
89.8851568
51
90.0383283
0
LINE
8
DEFAULT_255_2_778
10
11.0359959
20
136.6231531
11
10.9838959
21
136.9604531
0
LINE
8
DEFAULT_255_2_778
10
10.9838959
20
136.9604531
11
10.4068959
21
136.9604531
0
LINE
8
DEFAULT_255_2_778
10
10.4068959
20
136.9604531
11
10.2364959
21
136.6231531
0
LINE
8
DEFAULT_255_2_778
10
10.2364959
20
136.6231531
11
9.8694959
21
136.6231531
0
LINE
8
DEFAULT_255_2_778
10
9.8694959
20
136.6231531
11
10.7531959
21
138.2606531
0
LINE
8
DEFAULT_255_2_778
10
10.7531959
20
138.2606531
11
11.0608959
21
138.2606531
0
LINE
8
DEFAULT_255_2_778
10
11.0608959
20
138.2606531
11
11.3754959
21
136.6231531
0
LINE
8
DEFAULT_255_2_778
10
11.3754959
20
136.6231531
11
11.0357959
21
136.6231531
0
LINE
8
DEFAULT_255_2_778
10
11.0357959
20
136.6231531
11
11.0359959
21
136.6231531
0
LINE
8
DEFAULT_255_2_778
10
10.8486959
20
137.8434531
11
10.5430959
21
137.2338531
0
LINE
8
DEFAULT_255_2_778
10
10.5430959
20
137.2338531
11
10.9418959
21
137.2338531
0
LINE
8
DEFAULT_255_2_778
10
10.9418959
20
137.2338531
11
10.8486959
21
137.8434531
0
LINE
8
DEFAULT_255_2_778
10
10.8486959
20
137.8434531
11
10.8486959
21
137.8434531
0
LINE
8
DEFAULT_255_2_778
10
12.1615594
20
138.3506646
11
11.8593594
21
136.6229646
0
LINE
8
DEFAULT_255_2_778
10
11.8593594
20
136.6229646
11
11.5368594
21
136.6229646
0
LINE
8
DEFAULT_255_2_778
10
11.5368594
20
136.6229646
11
11.8400594
21
138.3506646
0
LINE
8
DEFAULT_255_2_778
10
11.8400594
20
138.3506646
11
12.1615594
21
138.3506646
0
LINE
8
DEFAULT_255_2_778
10
12.1615594
20
138.3506646
11
12.1615594
21
138.3506646
0
LINE
8
DEFAULT_255_2_778
10
12.7717594
20
138.3506646
11
12.4695594
21
136.6229646
0
LINE
8
DEFAULT_255_2_778
10
12.4695594
20
136.6229646
11
12.1470594
21
136.6229646
0
LINE
8
DEFAULT_255_2_778
10
12.1470594
20
136.6229646
11
12.4502594
21
138.3506646
0
LINE
8
DEFAULT_255_2_778
10
12.4502594
20
138.3506646
11
12.7717594
21
138.3506646
0
LINE
8
DEFAULT_255_2_778
10
12.7717594
20
138.3506646
11
12.7717594
21
138.3506646
0
ARC
8
DEFAULT_255_2_778
10
13.3180767
20
137.1387764
40
0.5383522
50
238.763891
51
270.7055166
0
ARC
8
DEFAULT_255_2_778
10
13.2867625
20
137.083452
40
0.4748131
50
204.061185
51
238.5328679
0
ARC
8
DEFAULT_255_2_778
10
13.3693681
20
137.1230331
40
0.5663841
50
179.4896096
51
204.3103027
0
ARC
8
DEFAULT_255_2_778
10
13.4933843
20
137.1275727
40
0.6903781
50
175.123126
51
179.9580366
0
ARC
8
DEFAULT_255_2_778
10
13.5850479
20
137.1625152
40
0.7790728
50
149.5392097
51
174.9446897
0
ARC
8
DEFAULT_255_2_778
10
13.459184
20
137.2460212
40
0.628301
50
120.7003982
51
150.2846053
0
ARC
8
DEFAULT_255_2_778
10
13.4196851
20
137.3057024
40
0.556829
50
89.4236852
51
120.3409826
0
ARC
8
DEFAULT_255_2_778
10
13.4252352
20
137.2069671
40
0.6555361
50
88.4553682
51
89.9955718
0
ARC
8
DEFAULT_255_2_778
10
13.4481363
20
137.3911369
40
0.4711572
50
58.4514404
51
90.636095
0
ARC
8
DEFAULT_255_2_778
10
13.4744403
20
137.4545423
40
0.403504
50
35.6058989
51
56.9235594
0
ARC
8
DEFAULT_255_2_778
10
13.3641882
20
137.3807058
40
0.5361477
50
0.6851965
51
35.1616077
0
ARC
8
DEFAULT_255_2_778
10
13.1616313
20
137.3603229
40
0.7391521
50
359.9888194
51
2.0774415
0
ARC
8
DEFAULT_255_2_778
10
13.0480025
20
137.3620249
40
0.852783
50
353.383538
51
359.8759623
0
ARC
8
DEFAULT_255_2_778
10
13.534221
20
137.1096119
40
0.4107176
50
177.8018731
51
179.9839782
0
ARC
8
DEFAULT_255_2_778
10
13.3756217
20
137.098124
40
0.2523852
50
177.3650374
51
219.8309448
0
ARC
8
DEFAULT_255_2_778
10
13.3462068
20
137.0848401
40
0.2214564
50
222.0668323
51
271.55222
0
ARC
8
DEFAULT_255_2_778
10
13.3632002
20
137.2896289
40
0.4263057
50
268.5221572
51
269.9980687
0
ARC
8
DEFAULT_255_2_778
10
13.3616001
20
137.2600217
40
0.3967017
50
270.2290309
51
318.5203973
0
ARC
8
DEFAULT_255_2_778
10
13.4310056
20
137.0767979
40
0.4555006
50
292.4982989
51
325.2807674
0
ARC
8
DEFAULT_255_2_778
10
13.3411907
20
137.2553545
40
0.6549996
50
269.6158853
51
293.7802026
0
ARC
8
DEFAULT_255_2_778
10
13.3368026
20
137.342233
40
0.7418635
50
269.0811303
51
269.9997673
0
ARC
8
DEFAULT_255_2_778
10
13.4205249
20
137.3351977
40
0.2651417
50
88.6426435
51
89.9971979
0
ARC
8
DEFAULT_255_2_778
10
13.4187009
20
137.3704788
40
0.2298681
50
89.5421073
51
130.5025885
0
ARC
8
DEFAULT_255_2_778
10
13.5174398
20
137.2703327
40
0.370282
50
132.0556576
51
154.4346079
0
ARC
8
DEFAULT_255_2_778
10
13.9187288
20
137.0527869
40
0.8264843
50
152.8348001
51
159.2008974
0
ARC
8
DEFAULT_255_2_778
10
13.283715
20
137.4237268
40
0.3137404
50
351.1327381
51
359.8552777
0
ARC
8
DEFAULT_255_2_778
10
13.3301744
20
137.4233274
40
0.2672803
50
359.9157472
51
8.073482
0
ARC
8
DEFAULT_255_2_778
10
13.4328726
20
137.4386276
40
0.1634528
50
7.8192239
51
49.4174523
0
ARC
8
DEFAULT_255_2_778
10
13.4309336
20
137.4254377
40
0.174876
50
51.746929
51
91.3525911
0
LINE
8
DEFAULT_255_2_778
10
12.8055056
20
137.186265
11
12.8090056
21
137.231165
0
LINE
8
DEFAULT_255_2_778
10
13.8951056
20
137.263765
11
13.8768056
21
137.125365
0
LINE
8
DEFAULT_255_2_778
10
13.8768056
20
137.125365
11
13.1238056
21
137.125365
0
LINE
8
DEFAULT_255_2_778
10
13.6588056
20
136.997265
11
13.8054056
21
136.817365
0
LINE
8
DEFAULT_255_2_778
10
13.3249056
20
136.600465
11
13.3247056
21
136.600465
0
LINE
8
DEFAULT_255_2_778
10
13.1461056
20
137.346265
11
13.5868056
21
137.346265
0
LINE
8
DEFAULT_255_2_778
10
13.5868056
20
137.346265
11
13.5937056
21
137.375365
0
LINE
8
DEFAULT_255_2_778
10
13.4268056
20
137.600265
11
13.4268056
21
137.600265
0
ARC
8
DEFAULT_255_2_778
10
14.7973588
20
137.4188783
40
0.4439397
50
89.8554796
51
141.1589213
0
ARC
8
DEFAULT_255_2_778
10
14.7984572
20
137.357943
40
0.5048737
50
88.7717605
51
89.9975792
0
ARC
8
DEFAULT_255_2_778
10
14.8178417
20
137.5468406
40
0.315976
50
50.4893295
51
91.5528058
0
ARC
8
DEFAULT_255_2_778
10
14.8339359
20
137.5812178
40
0.2793745
50
33.8414583
51
48.5499238
0
ARC
8
DEFAULT_255_2_778
10
14.731985
20
137.5223286
40
0.3969262
50
4.3932888
51
32.7062485
0
ARC
8
DEFAULT_255_2_778
10
14.4819065
20
137.4869301
40
0.6491822
50
359.8769204
51
5.8177478
0
ARC
8
DEFAULT_255_2_778
10
14.2701804
20
137.4878881
40
0.8609097
50
353.9399056
51
359.8434284
0
ARC
8
DEFAULT_255_2_778
10
14.4164047
20
137.4535967
40
0.3954956
50
352.2407688
51
359.7520116
0
ARC
8
DEFAULT_255_2_778
10
14.5201997
20
137.4524041
40
0.2916973
50
359.8980094
51
5.448398
0
ARC
8
DEFAULT_255_2_778
10
14.6814536
20
137.4695865
40
0.129553
50
4.6550554
51
97.2610773
0
ARC
8
DEFAULT_255_2_778
10
14.655996
20
137.3438531
40
0.2544097
50
87.9539208
51
89.9945997
0
ARC
8
DEFAULT_255_2_778
10
14.6629447
20
137.3282668
40
0.2700847
50
91.4691634
51
141.078713
0
ARC
8
DEFAULT_255_2_778
10
14.7966376
20
137.1864301
40
0.4639576
50
137.8219849
51
140.394746
0
ARC
8
DEFAULT_255_2_778
10
16.9661161
20
137.233211
40
1.026426
50
77.5141066
51
90.4821212
0
ARC
8
DEFAULT_255_2_778
10
17.0845798
20
137.7424611
40
0.5036389
50
52.814306
51
78.1469212
0
ARC
8
DEFAULT_255_2_778
10
17.1732245
20
137.8707438
40
0.3479303
50
357.5432245
51
51.6759047
0
ARC
8
DEFAULT_255_2_778
10
16.9814613
20
137.8561938
40
0.5393738
50
356.248244
51
359.9613012
0
ARC
8
DEFAULT_255_2_778
10
17.128092
20
137.8435882
40
0.3922439
50
295.0867564
51
356.6841236
0
ARC
8
DEFAULT_255_2_778
10
16.9599154
20
138.1063279
40
0.7026958
50
292.6018649
51
298.4245718
0
ARC
8
DEFAULT_255_2_778
10
17.1412835
20
137.193675
40
0.2784307
50
29.5992916
51
71.4243751
0
ARC
8
DEFAULT_255_2_778
10
17.0686219
20
137.1514727
40
0.3624559
50
358.8250622
51
29.7265593
0
ARC
8
DEFAULT_255_2_778
10
16.932071
20
137.1443262
40
0.4989307
50
356.3312443
51
359.9671937
0
ARC
8
DEFAULT_255_2_778
10
16.9581925
20
137.1255387
40
0.4719696
50
307.6792206
51
358.4048608
0
ARC
8
DEFAULT_255_2_778
10
16.8807048
20
137.2463643
40
0.6150877
50
279.1080464
51
306.5123219
0
ARC
8
DEFAULT_255_2_778
10
16.7961448
20
137.6684116
40
1.0453321
50
269.63465
51
280.0226117
0
ARC
8
DEFAULT_255_2_778
10
16.8094212
20
137.2335308
40
0.3407431
50
267.9747348
51
304.6141501
0
ARC
8
DEFAULT_255_2_778
10
16.8661516
20
137.1473067
40
0.2375665
50
305.166569
51
352.3059676
0
ARC
8
DEFAULT_255_2_778
10
16.775822
20
137.1683166
40
0.3300111
50
350.7906063
51
359.6837465
0
ARC
8
DEFAULT_255_2_778
10
16.9356152
20
137.1739465
40
0.170376
50
357.4933304
51
35.754963
0
ARC
8
DEFAULT_255_2_778
10
16.9423472
20
137.1596963
40
0.1739313
50
40.8670445
51
88.9145542
0
ARC
8
DEFAULT_255_2_778
10
16.9113357
20
136.9744792
40
0.360752
50
84.5431107
51
87.5464559
0
ARC
8
DEFAULT_255_2_778
10
16.8864523
20
137.9465688
40
0.3741259
50
268.9933192
51
299.9063201
0
ARC
8
DEFAULT_255_2_778
10
16.9296435
20
137.8537438
40
0.2722705
50
301.7671328
51
305.0688299
0
ARC
8
DEFAULT_255_2_778
10
16.9572403
20
137.8176463
40
0.2268776
50
304.6024496
51
352.3134516
0
ARC
8
DEFAULT_255_2_778
10
16.9035208
20
137.8283322
40
0.2815642
50
351.6205962
51
359.745937
0
ARC
8
DEFAULT_255_2_778
10
17.0391775
20
137.8344083
40
0.1460884
50
357.1260689
51
87.9509322
0
ARC
8
DEFAULT_255_2_778
10
16.9733166
20
137.5550677
40
0.4312349
50
80.5121161
51
90.1776895
0
ARC
8
DEFAULT_255_2_778
10
18.304359
20
136.8832308
40
0.6634375
50
79.3314563
51
88.7113465
0
ARC
8
DEFAULT_255_2_778
10
18.3079683
20
137.1166839
40
0.4299655
50
88.4925657
51
89.9946723
0
ARC
8
DEFAULT_255_2_778
10
18.2982438
20
137.2367608
40
0.3100425
50
88.1952228
51
143.885382
0
ARC
8
DEFAULT_255_2_778
10
18.4077805
20
137.4817129
40
0.3980768
50
117.0828142
51
147.9763761
0
ARC
8
DEFAULT_255_2_778
10
18.3544747
20
137.5650295
40
0.2997784
50
89.5977622
51
115.2613452
0
ARC
8
DEFAULT_255_2_778
10
18.3464621
20
137.3928482
40
0.4720608
50
75.0830674
51
88.7719532
0
ARC
8
DEFAULT_255_2_778
10
19.3883565
20
136.7100588
40
0.303463
50
178.9513385
51
196.6911244
0
ARC
8
DEFAULT_255_2_778
10
19.5567182
20
136.7154238
40
0.4717738
50
177.8405456
51
179.9770623
0
ARC
8
DEFAULT_255_2_778
10
18.7787325
20
137.0200947
40
0.4198561
50
270.5473861
51
316.8967404
0
ARC
8
DEFAULT_255_2_778
10
18.7827705
20
137.0304581
40
0.4302003
50
268.5226571
51
269.9964175
0
ARC
8
DEFAULT_255_2_778
10
18.7647216
20
136.9785252
40
0.3781887
50
226.455184
51
271.0541416
0
ARC
8
DEFAULT_255_2_778
10
18.7161161
20
136.9331869
40
0.311866
50
179.0506747
51
227.1894377
0
ARC
8
DEFAULT_255_2_778
10
18.7977006
20
136.9382683
40
0.3934079
50
177.4603384
51
179.9875271
0
ARC
8
DEFAULT_255_2_778
10
18.7677222
20
136.9542892
40
0.3630457
50
122.3464314
51
179.7772632
0
ARC
8
DEFAULT_255_2_778
10
18.9127921
20
136.7271577
40
0.6325515
50
98.6956815
51
122.4402135
0
ARC
8
DEFAULT_255_2_778
10
18.9977072
20
136.2721789
40
1.0952432
50
89.6404969
51
99.4883828
0
ARC
8
DEFAULT_255_2_778
10
18.91142
20
137.487456
40
0.2635833
50
349.2520325
51
359.7979352
0
ARC
8
DEFAULT_255_2_778
10
18.9485896
20
137.4866836
40
0.2264121
50
359.9602232
51
5.7075699
0
ARC
8
DEFAULT_255_2_778
10
19.0517084
20
137.5008244
40
0.1224577
50
3.9221136
51
47.9806675
0
ARC
8
DEFAULT_255_2_778
10
19.0461009
20
137.4834028
40
0.1393558
50
51.0640414
51
91.6537281
0
ARC
8
DEFAULT_255_2_778
10
19.0343864
20
137.3492856
40
0.2735232
50
88.3883484
51
89.9950272
0
ARC
8
DEFAULT_255_2_778
10
19.0289472
20
137.4271996
40
0.1956856
50
88.4002709
51
125.6558116
0
ARC
8
DEFAULT_255_2_778
10
19.0229477
20
137.4454867
40
0.1774238
50
127.5242925
51
170.6536699
0
ARC
8
DEFAULT_255_2_778
10
18.8789596
20
137.4592573
40
0.3527561
50
122.7014157
51
177.7346919
0
ARC
8
DEFAULT_255_2_778
10
19.030198
20
137.2542043
40
0.6072396
50
91.7146868
51
124.2570002
0
ARC
8
DEFAULT_255_2_778
10
19.05893
20
136.9973064
40
0.865138
50
89.9735854
51
93.1077226
0
ARC
8
DEFAULT_255_2_778
10
19.0592938
20
136.940756
40
0.9216883
50
89.4414218
51
89.9978259
0
ARC
8
DEFAULT_255_2_778
10
19.0704714
20
137.3422068
40
0.5201984
50
63.6868659
51
90.2414521
0
ARC
8
DEFAULT_255_2_778
10
19.1244671
20
137.4701249
40
0.3816898
50
44.805062
51
62.4405121
0
ARC
8
DEFAULT_255_2_778
10
19.1511934
20
137.4943957
40
0.3456276
50
358.4368244
51
45.0725574
0
ARC
8
DEFAULT_255_2_778
10
18.9988451
20
137.4857092
40
0.4978477
50
354.0151208
51
359.9146153
0
ARC
8
DEFAULT_255_2_778
10
19.916384
20
136.7634006
40
0.5223437
50
178.2666392
51
179.9853875
0
ARC
8
DEFAULT_255_2_778
10
19.7189724
20
136.7555635
40
0.3250299
50
178.5948625
51
200.018038
0
ARC
8
DEFAULT_255_2_778
10
18.8607749
20
137.1444835
40
0.2979407
50
268.1351457
51
269.9967975
0
ARC
8
DEFAULT_255_2_778
10
18.8555143
20
137.1419809
40
0.2954847
50
271.0168715
51
323.4470831
0
ARC
8
DEFAULT_255_2_778
10
19.0185177
20
136.7824003
40
0.3950093
50
89.6139406
51
115.9632081
0
ARC
8
DEFAULT_255_2_778
10
18.9568146
20
136.9235476
40
0.2411766
50
117.4642621
51
142.4598629
0
ARC
8
DEFAULT_255_2_778
10
18.9147894
20
136.9604762
40
0.1853888
50
143.595728
51
174.110017
0
ARC
8
DEFAULT_255_2_778
10
18.8922711
20
136.9549244
40
0.1637466
50
171.368069
51
179.7835889
0
ARC
8
DEFAULT_255_2_778
10
18.8267207
20
136.9518088
40
0.098266
50
177.8221965
51
224.0379617
0
ARC
8
DEFAULT_255_2_778
10
18.8464576
20
136.9768517
40
0.1299333
50
225.9269812
51
272.0384171
0
ARC
8
DEFAULT_255_2_778
10
20.216987
20
137.5119976
40
0.3515032
50
37.8132465
51
89.9360651
0
ARC
8
DEFAULT_255_2_778
10
20.0346749
20
137.0217418
40
0.4267183
50
285.291584
51
321.0175046
0
ARC
8
DEFAULT_255_2_778
10
20.0570669
20
136.9755225
40
0.3763475
50
269.8450062
51
283.8588709
0
ARC
8
DEFAULT_255_2_778
10
20.0560587
20
137.0082286
40
0.4090522
50
268.5880369
51
269.9986183
0
ARC
8
DEFAULT_255_2_778
10
20.0420305
20
136.9550487
40
0.3557701
50
236.3475668
51
270.6359501
0
ARC
8
DEFAULT_255_2_778
10
20.0598141
20
136.9665321
40
0.3752788
50
201.8435891
51
235.058908
0
ARC
8
DEFAULT_255_2_778
10
20.3322211
20
137.0855871
40
0.6724873
50
181.1917384
51
202.6233367
0
ARC
8
DEFAULT_255_2_778
10
20.6351677
20
137.1186339
40
0.9764219
50
180.0156472
51
182.7609519
0
ARC
8
DEFAULT_255_2_778
10
20.5470549
20
137.1192658
40
0.8883095
50
174.2087211
51
180.0579587
0
ARC
8
DEFAULT_255_2_778
10
20.6346038
20
137.1321468
40
0.9727968
50
152.6606942
51
172.4775279
0
ARC
8
DEFAULT_255_2_778
10
20.4685375
20
137.2066269
40
0.7911386
50
151.1967159
51
151.9287309
0
ARC
8
DEFAULT_255_2_778
10
20.2724416
20
137.3306657
40
0.559722
50
125.8155177
51
152.6517649
0
ARC
8
DEFAULT_255_2_778
10
20.1926864
20
137.4251789
40
0.4365104
50
121.2895022
51
124.5859333
0
ARC
8
DEFAULT_255_2_778
10
20.2005174
20
137.4108255
40
0.4528439
50
89.3885498
51
121.1930117
0
ARC
8
DEFAULT_255_2_778
10
20.205315
20
137.3290492
40
0.5345942
50
88.6747242
51
89.9962477
0
ARC
8
DEFAULT_255_2_778
10
21.0229427
20
137.0916181
40
1.044966
50
173.5557888
51
179.5636493
0
ARC
8
DEFAULT_255_2_778
10
20.5582157
20
137.098589
40
0.5802095
50
179.9025124
51
183.3187157
0
ARC
8
DEFAULT_255_2_778
10
20.270534
20
137.069649
40
0.2915917
50
180.9134286
51
207.6247443
0
ARC
8
DEFAULT_255_2_778
10
20.135005
20
137.0052881
40
0.1417894
50
209.9763709
51
272.172214
0
ARC
8
DEFAULT_255_2_778
10
20.1512082
20
137.1290383
40
0.2656585
50
267.6638236
51
269.9934853
0
ARC
8
DEFAULT_255_2_778
10
20.1452669
20
137.1328962
40
0.2695812
50
271.2564257
51
323.4819236
0
ARC
8
DEFAULT_255_2_778
10
20.0042443
20
137.2717425
40
0.4663623
50
320.0808185
51
322.7722781
0
ARC
8
DEFAULT_255_2_778
10
20.2905955
20
137.4180938
40
0.1811681
50
17.7085133
51
91.4917236
0
ARC
8
DEFAULT_255_2_778
10
20.2776466
20
137.3173302
40
0.2819906
50
88.3270304
51
89.9962875
0
ARC
8
DEFAULT_255_2_778
10
20.2751839
20
137.3654886
40
0.2338453
50
89.3920923
51
141.8934507
0
ARC
8
DEFAULT_255_2_778
10
20.4150372
20
137.2558724
40
0.411538
50
141.9009784
51
164.0634131
0
ARC
8
DEFAULT_255_2_778
10
20.9401614
20
137.0881385
40
0.9626867
50
163.0454941
51
172.7936709
0
LINE
8
DEFAULT_255_2_778
10
14.1790793
20
137.8402006
11
14.4788793
21
137.8413006
0
LINE
8
DEFAULT_255_2_778
10
14.4788793
20
137.8413006
11
14.4515793
21
137.6973006
0
LINE
8
DEFAULT_255_2_778
10
15.1262793
20
137.3970006
11
14.9968793
21
136.6231006
0
LINE
8
DEFAULT_255_2_778
10
14.9968793
20
136.6231006
11
14.6764793
21
136.6231006
0
LINE
8
DEFAULT_255_2_778
10
14.6764793
20
136.6231006
11
14.8082793
21
137.4002006
0
LINE
8
DEFAULT_255_2_778
10
14.4391793
20
137.4822006
11
14.2856793
21
136.6229006
0
LINE
8
DEFAULT_255_2_778
10
14.2856793
20
136.6229006
11
13.9652793
21
136.6229006
0
LINE
8
DEFAULT_255_2_778
10
13.9652793
20
136.6229006
11
14.1787793
21
137.8400006
0
LINE
8
DEFAULT_255_2_778
10
14.1787793
20
137.8400006
11
14.1790793
21
137.8402006
0
LINE
8
DEFAULT_255_2_778
10
16.0157793
20
137.4553006
11
15.9692793
21
137.1933006
0
LINE
8
DEFAULT_255_2_778
10
15.9692793
20
137.1933006
11
15.3466793
21
137.1933006
0
LINE
8
DEFAULT_255_2_778
10
15.3466793
20
137.1933006
11
15.3921793
21
137.4553006
0
LINE
8
DEFAULT_255_2_778
10
15.3921793
20
137.4553006
11
16.0157793
21
137.4553006
0
LINE
8
DEFAULT_255_2_778
10
16.0157793
20
137.4553006
11
16.0157793
21
137.4553006
0
LINE
8
DEFAULT_255_2_778
10
16.7894793
20
136.6231006
11
16.1544793
21
136.6231006
0
LINE
8
DEFAULT_255_2_778
10
16.1544793
20
136.6231006
11
16.4417793
21
138.2606006
0
LINE
8
DEFAULT_255_2_778
10
16.4417793
20
138.2606006
11
16.9574793
21
138.2596006
0
LINE
8
DEFAULT_255_2_778
10
16.7894793
20
136.6231006
11
16.7894793
21
136.6231006
0
LINE
8
DEFAULT_255_2_778
10
16.9267793
20
137.3351006
11
16.6131793
21
137.3362006
0
LINE
8
DEFAULT_255_2_778
10
16.6131793
20
137.3362006
11
16.5348793
21
136.8941006
0
LINE
8
DEFAULT_255_2_778
10
16.5348793
20
136.8941006
11
16.7973793
21
136.8930006
0
LINE
8
DEFAULT_255_2_778
10
16.9267793
20
137.3349006
11
16.9267793
21
137.3351006
0
LINE
8
DEFAULT_255_2_778
10
16.7267793
20
137.9876006
11
16.6539793
21
137.5748006
0
LINE
8
DEFAULT_255_2_778
10
16.6539793
20
137.5748006
11
16.8798793
21
137.5725006
0
LINE
8
DEFAULT_255_2_778
10
16.9719793
20
137.9863006
11
16.7267793
21
137.9873006
0
LINE
8
DEFAULT_255_2_778
10
16.7267793
20
137.9873006
11
16.7267793
21
137.9876006
0
LINE
8
DEFAULT_255_2_778
10
18.4681793
20
137.8490006
11
18.4271793
21
137.5352006
0
LINE
8
DEFAULT_255_2_778
10
18.0477793
20
137.4195006
11
17.9056793
21
136.6231006
0
LINE
8
DEFAULT_255_2_778
10
17.9056793
20
136.6231006
11
17.5852793
21
136.6231006
0
LINE
8
DEFAULT_255_2_778
10
17.5852793
20
136.6231006
11
17.7987793
21
137.8402006
0
LINE
8
DEFAULT_255_2_778
10
17.7987793
20
137.8402006
11
18.0998793
21
137.8413006
0
LINE
8
DEFAULT_255_2_778
10
18.0998793
20
137.8413006
11
18.0702793
21
137.6928006
0
LINE
8
DEFAULT_255_2_778
10
18.4679793
20
137.8490006
11
18.4681793
21
137.8490006
0
LINE
8
DEFAULT_255_2_778
10
19.4122793
20
136.6229006
11
19.0976793
21
136.6229006
0
LINE
8
DEFAULT_255_2_778
10
19.0045793
20
137.3674006
11
19.1545793
21
137.3653006
0
LINE
8
DEFAULT_255_2_778
10
19.1545793
20
137.3653006
11
19.1703793
21
137.4383006
0
LINE
8
DEFAULT_255_2_778
10
18.8478793
20
137.4743006
11
18.5264793
21
137.4732006
0
LINE
8
DEFAULT_255_2_778
10
19.4939793
20
137.4338006
11
19.3997793
21
136.8512006
0
LINE
8
DEFAULT_255_2_778
10
19.3997793
20
136.8512006
11
19.3942793
21
136.7792006
0
LINE
8
DEFAULT_255_2_778
10
19.4135793
20
136.6443006
11
19.4124793
21
136.6229006
0
LINE
8
DEFAULT_255_2_778
10
19.4124793
20
136.6229006
11
19.4122793
21
136.6229006
0
LINE
8
DEFAULT_255_2_778
10
19.0928793
20
136.9660006
11
19.1325793
21
137.1764006
0
LINE
8
DEFAULT_255_2_778
10
19.1325793
20
137.1764006
11
19.0211793
21
137.1774006
0
LINE
8
DEFAULT_255_2_778
10
18.8510793
20
136.8470006
11
18.8510793
21
136.8467006
0
LINE
8
DEFAULT_255_2_778
10
20.4946793
20
137.7275006
11
20.6150793
21
138.3506006
0
LINE
8
DEFAULT_255_2_778
10
20.6150793
20
138.3506006
11
20.9364793
21
138.3506006
0
LINE
8
DEFAULT_255_2_778
10
20.9364793
20
138.3506006
11
20.6343793
21
136.6229006
0
LINE
8
DEFAULT_255_2_778
10
20.6343793
20
136.6229006
11
20.3480793
21
136.6229006
0
LINE
8
DEFAULT_255_2_778
10
20.3480793
20
136.6229006
11
20.3663793
21
136.7533006
0
LINE
8
DEFAULT_255_2_778
10
19.6632793
20
137.2089006
11
19.6701793
21
137.2595006
0
LINE
8
DEFAULT_255_2_778
10
20.2176793
20
137.8635006
11
20.2173793
21
137.8635006
0
LINE
8
DEFAULT_255_2_778
10
20.3755793
20
136.9896006
11
20.4631793
21
137.4732006
0
LINE
8
DEFAULT_255_2_778
10
19.9850793
20
137.2089006
11
19.9845793
21
137.2089006
0
LINE
8
DEFAULT_255_2_778
10
21.5304594
20
138.3506646
11
21.2282594
21
136.6229646
0
LINE
8
DEFAULT_255_2_778
10
21.2282594
20
136.6229646
11
20.9057594
21
136.6229646
0
LINE
8
DEFAULT_255_2_778
10
20.9057594
20
136.6229646
11
21.2089594
21
138.3506646
0
LINE
8
DEFAULT_255_2_778
10
21.2089594
20
138.3506646
11
21.5304594
21
138.3506646
0
LINE
8
DEFAULT_255_2_778
10
21.5304594
20
138.3506646
11
21.5304594
21
138.3506646
0
ARC
8
DEFAULT_255_2_778
10
22.0768767
20
137.1387764
40
0.5383522
50
238.763891
51
270.7055166
0
ARC
8
DEFAULT_255_2_778
10
22.0455625
20
137.083452
40
0.4748131
50
204.061185
51
238.5328679
0
ARC
8
DEFAULT_255_2_778
10
22.1281681
20
137.1230331
40
0.5663841
50
179.4896096
51
204.3103027
0
ARC
8
DEFAULT_255_2_778
10
22.2521843
20
137.1275727
40
0.6903781
50
175.123126
51
179.9580366
0
ARC
8
DEFAULT_255_2_778
10
22.3438479
20
137.1625152
40
0.7790728
50
149.5392097
51
174.9446897
0
ARC
8
DEFAULT_255_2_778
10
22.217984
20
137.2460212
40
0.628301
50
120.7003982
51
150.2846053
0
ARC
8
DEFAULT_255_2_778
10
22.1784851
20
137.3057024
40
0.556829
50
89.4236852
51
120.3409826
0
ARC
8
DEFAULT_255_2_778
10
22.1840352
20
137.2069671
40
0.6555361
50
88.4553682
51
89.9955718
0
ARC
8
DEFAULT_255_2_778
10
22.2069363
20
137.3911369
40
0.4711572
50
58.4514404
51
90.636095
0
ARC
8
DEFAULT_255_2_778
10
22.2332403
20
137.4545423
40
0.403504
50
35.6058989
51
56.9235594
0
ARC
8
DEFAULT_255_2_778
10
22.1229882
20
137.3807058
40
0.5361477
50
0.6851965
51
35.1616077
0
ARC
8
DEFAULT_255_2_778
10
21.9204313
20
137.3603229
40
0.7391521
50
359.9888194
51
2.0774415
0
ARC
8
DEFAULT_255_2_778
10
21.8068025
20
137.3620249
40
0.852783
50
353.383538
51
359.8759623
0
ARC
8
DEFAULT_255_2_778
10
22.293021
20
137.1096119
40
0.4107176
50
177.8018731
51
179.9839782
0
ARC
8
DEFAULT_255_2_778
10
22.1344217
20
137.098124
40
0.2523852
50
177.3650374
51
219.8309448
0
ARC
8
DEFAULT_255_2_778
10
22.1050068
20
137.0848401
40
0.2214564
50
222.0668323
51
271.55222
0
ARC
8
DEFAULT_255_2_778
10
22.1220002
20
137.2896289
40
0.4263057
50
268.5221572
51
269.9980687
0
ARC
8
DEFAULT_255_2_778
10
22.1204001
20
137.2600217
40
0.3967017
50
270.2290309
51
318.5203973
0
ARC
8
DEFAULT_255_2_778
10
22.1898056
20
137.0767979
40
0.4555006
50
292.4982989
51
325.2807674
0
ARC
8
DEFAULT_255_2_778
10
22.0999907
20
137.2553545
40
0.6549996
50
269.6158853
51
293.7802026
0
ARC
8
DEFAULT_255_2_778
10
22.0956026
20
137.342233
40
0.7418635
50
269.0811303
51
269.9997673
0
ARC
8
DEFAULT_255_2_778
10
22.1793249
20
137.3351977
40
0.2651417
50
88.6426435
51
89.9971979
0
ARC
8
DEFAULT_255_2_778
10
22.1775009
20
137.3704788
40
0.2298681
50
89.5421073
51
130.5025885
0
ARC
8
DEFAULT_255_2_778
10
22.2762398
20
137.2703327
40
0.370282
50
132.0556576
51
154.4346079
0
ARC
8
DEFAULT_255_2_778
10
22.6775288
20
137.0527869
40
0.8264843
50
152.8348001
51
159.2008974
0
ARC
8
DEFAULT_255_2_778
10
22.042515
20
137.4237268
40
0.3137404
50
351.1327381
51
359.8552777
0
ARC
8
DEFAULT_255_2_778
10
22.0889744
20
137.4233274
40
0.2672803
50
359.9157472
51
8.073482
0
ARC
8
DEFAULT_255_2_778
10
22.1916726
20
137.4386276
40
0.1634528
50
7.8192239
51
49.4174523
0
ARC
8
DEFAULT_255_2_778
10
22.1897336
20
137.4254377
40
0.174876
50
51.746929
51
91.3525911
0
LINE
8
DEFAULT_255_2_778
10
21.5643056
20
137.186265
11
21.5678056
21
137.231165
0
LINE
8
DEFAULT_255_2_778
10
22.6539056
20
137.263765
11
22.6356056
21
137.125365
0
LINE
8
DEFAULT_255_2_778
10
22.6356056
20
137.125365
11
21.8826056
21
137.125365
0
LINE
8
DEFAULT_255_2_778
10
22.4176056
20
136.997265
11
22.5642056
21
136.817365
0
LINE
8
DEFAULT_255_2_778
10
22.0837056
20
136.600465
11
22.0835056
21
136.600465
0
LINE
8
DEFAULT_255_2_778
10
21.9049056
20
137.346265
11
22.3456056
21
137.346265
0
LINE
8
DEFAULT_255_2_778
10
22.3456056
20
137.346265
11
22.3525056
21
137.375365
0
LINE
8
DEFAULT_255_2_778
10
22.1856056
20
137.600265
11
22.1856056
21
137.600265
0
ARC
8
DEFAULT_255_2_778
10
22.5732251
20
136.7393848
40
0.7187609
50
318.1171527
51
335.3457065
0
ARC
8
DEFAULT_255_2_778
10
22.7861338
20
136.5572586
40
0.4387075
50
306.2044829
51
317.2623563
0
ARC
8
DEFAULT_255_2_778
10
22.8118587
20
136.5265063
40
0.3987066
50
269.0092455
51
305.8318035
0
ARC
8
DEFAULT_255_2_778
10
22.8209703
20
136.6911254
40
0.5634934
50
257.9736769
51
268.3723286
0
ARC
8
DEFAULT_255_2_778
10
22.976467
20
137.5453273
40
1.431581
50
256.8370098
51
259.0102636
0
ARC
8
DEFAULT_255_2_778
10
22.7299218
20
136.793381
40
0.396887
50
268.3457775
51
269.9906226
0
ARC
8
DEFAULT_255_2_778
10
22.744688
20
136.6339479
40
0.2379166
50
266.425992
51
328.6474802
0
LINE
8
DEFAULT_255_2_778
10
23.1491646
20
137.8399594
11
23.2378646
21
137.0864594
0
LINE
8
DEFAULT_255_2_778
10
23.2378646
20
137.0864594
11
23.5889646
21
137.8399594
0
LINE
8
DEFAULT_255_2_778
10
23.5889646
20
137.8399594
11
23.9453646
21
137.8399594
0
LINE
8
DEFAULT_255_2_778
10
23.9453646
20
137.8399594
11
23.2264646
21
136.4395594
0
LINE
8
DEFAULT_255_2_778
10
22.6504646
20
136.1513594
11
22.6742646
21
136.3987594
0
LINE
8
DEFAULT_255_2_778
10
22.6742646
20
136.3987594
11
22.7184646
21
136.3966594
0
LINE
8
DEFAULT_255_2_778
10
22.9478646
20
136.5101594
11
23.0182646
21
136.6395594
0
LINE
8
DEFAULT_255_2_778
10
23.0182646
20
136.6395594
11
22.8171646
21
137.8396594
0
LINE
8
DEFAULT_255_2_778
10
22.8171646
20
137.8396594
11
23.1489646
21
137.8396594
0
LINE
8
DEFAULT_255_2_778
10
23.1489646
20
137.8396594
11
23.1491646
21
137.8399594
0
LINE
8
DEFAULT_255_2_778
10
5.4244542
20
138.2394666
11
5.4244542
21
137.0541666
0
LINE
8
DEFAULT_255_2_778
10
5.4244542
20
137.0541666
11
8.3507542
21
137.0171666
0
LINE
8
DEFAULT_255_2_778
10
8.3507542
20
137.0171666
11
8.3507542
21
138.2394666
0
LINE
8
DEFAULT_255_2_778
10
8.3507542
20
138.2394666
11
7.4246542
21
139.0914666
0
LINE
8
DEFAULT_255_2_778
10
7.4246542
20
139.0914666
11
6.2764542
21
139.0914666
0
LINE
8
DEFAULT_255_2_778
10
6.2764542
20
139.0914666
11
5.4244542
21
138.2394666
0
LINE
8
DEFAULT_255_2_778
10
5.5726542
20
136.8319666
11
8.2025542
21
136.8319666
0
LINE
8
DEFAULT_255_2_778
10
8.2025542
20
136.8319666
11
7.4617542
21
136.1281666
0
LINE
8
DEFAULT_255_2_778
10
7.4617542
20
136.1281666
11
6.3504542
21
136.1281666
0
LINE
8
DEFAULT_255_2_778
10
6.3504542
20
136.1281666
11
5.5726542
21
136.8319666
0
ARC
8
DEFAULT_255_2_778
10
7.8458226
20
137.3810768
40
0.1423419
50
264.5115721
51
318.4176283
0
ARC
8
DEFAULT_255_2_778
10
7.8189879
20
137.3781225
40
0.1616977
50
325.5297452
51
3.3557414
0
ARC
8
DEFAULT_255_2_778
10
7.8389795
20
137.7346157
40
0.142084
50
354.4959081
51
48.5537602
0
ARC
8
DEFAULT_255_2_778
10
7.8416444
20
137.7074068
40
0.1619557
50
55.6500697
51
93.3401169
0
ARC
8
DEFAULT_255_2_778
10
7.8414709
20
137.933925
40
0.0654958
50
261.8698976
51
8.1301024
0
ARC
8
DEFAULT_255_2_778
10
7.7988672
20
138.3166455
40
0.1074847
50
358.3696885
51
95.9524071
0
ARC
8
DEFAULT_255_2_778
10
7.7588839
20
138.0882916
40
0.3364968
50
85.0838783
51
90.1320543
0
LINE
8
DEFAULT_255_2_778
10
5.6838084
20
137.2393875
11
6.1283084
21
138.4617875
0
LINE
8
DEFAULT_255_2_778
10
6.1283084
20
138.4617875
11
6.3876084
21
138.4617875
0
LINE
8
DEFAULT_255_2_778
10
6.3876084
20
138.4617875
11
6.8691084
21
137.2764875
0
LINE
8
DEFAULT_255_2_778
10
6.8691084
20
137.2764875
11
6.5358084
21
137.2764875
0
LINE
8
DEFAULT_255_2_778
10
6.5358084
20
137.2764875
11
6.4246084
21
137.5357875
0
LINE
8
DEFAULT_255_2_778
10
6.4246084
20
137.5357875
11
6.0913084
21
137.5357875
0
LINE
8
DEFAULT_255_2_778
10
6.0913084
20
137.5357875
11
6.0913084
21
137.6838875
0
LINE
8
DEFAULT_255_2_778
10
6.0913084
20
137.6838875
11
6.3876084
21
137.6838875
0
LINE
8
DEFAULT_255_2_778
10
6.3876084
20
137.6838875
11
6.2024084
21
138.1283875
0
LINE
8
DEFAULT_255_2_778
10
6.2024084
20
138.1283875
11
5.8690084
21
137.2393875
0
LINE
8
DEFAULT_255_2_778
10
5.8690084
20
137.2393875
11
5.6838084
21
137.2393875
0
LINE
8
DEFAULT_255_2_778
10
5.6838084
20
137.2393875
11
5.6838084
21
137.2393875
0
LINE
8
DEFAULT_255_2_778
10
6.7580084
20
137.9061875
11
6.9062084
21
137.9061875
0
LINE
8
DEFAULT_255_2_778
10
6.9062084
20
137.9061875
11
6.9062084
21
137.7579875
0
LINE
8
DEFAULT_255_2_778
10
6.9062084
20
137.7579875
11
6.7580084
21
137.7579875
0
LINE
8
DEFAULT_255_2_778
10
6.7580084
20
137.7579875
11
6.7580084
21
137.9061875
0
LINE
8
DEFAULT_255_2_778
10
7.2766084
20
138.2395875
11
7.6100084
21
138.2395875
0
LINE
8
DEFAULT_255_2_778
10
7.6100084
20
138.2395875
11
7.6100084
21
137.8690875
0
LINE
8
DEFAULT_255_2_778
10
7.6100084
20
137.8690875
11
7.3507084
21
137.8690875
0
LINE
8
DEFAULT_255_2_778
10
7.3507084
20
137.8690875
11
7.3507084
21
137.7209875
0
LINE
8
DEFAULT_255_2_778
10
7.3507084
20
137.7209875
11
7.6840084
21
137.7209875
0
LINE
8
DEFAULT_255_2_778
10
7.6840084
20
137.7209875
11
7.6840084
21
137.3875875
0
LINE
8
DEFAULT_255_2_778
10
7.6840084
20
137.3875875
11
7.2766084
21
137.3875875
0
LINE
8
DEFAULT_255_2_778
10
7.2766084
20
137.3875875
11
7.2766084
21
138.2395875
0
LINE
8
DEFAULT_255_2_778
10
7.2766084
20
138.2395875
11
7.2766084
21
138.2395875
0
LINE
8
DEFAULT_255_2_778
10
6.9803084
20
138.4247875
11
6.9803084
21
137.2393875
0
LINE
8
DEFAULT_255_2_778
10
6.9803084
20
137.2393875
11
7.8322084
21
137.2393875
0
LINE
8
DEFAULT_255_2_778
10
7.9804084
20
137.3875875
11
7.9804084
21
137.7209875
0
LINE
8
DEFAULT_255_2_778
10
7.9063084
20
137.9431875
11
7.9063084
21
138.3135875
0
LINE
8
DEFAULT_255_2_778
10
7.7581084
20
138.4247875
11
6.9803084
21
138.4247875
0
LINE
8
DEFAULT_255_2_778
10
6.9803084
20
138.4247875
11
6.9803084
21
138.4247875
0
LINE
8
DEFAULT_255_2_778
10
6.3394427
20
136.4490198
11
6.3367427
21
136.4490198
0
ARC
8
DEFAULT_255_2_778
10
6.3340483
20
136.5740854
40
0.1250946
50
247.1356448
51
271.2341787
0
ARC
8
DEFAULT_255_2_778
10
6.3160916
20
136.5317164
40
0.0790776
50
215.0349981
51
247.1960091
0
ARC
8
DEFAULT_255_2_778
10
6.3109464
20
136.5263964
40
0.0718243
50
178.625123
51
213.9163394
0
ARC
8
DEFAULT_255_2_778
10
6.3131693
20
136.6434391
40
0.0740421
50
147.0420611
51
181.175799
0
ARC
8
DEFAULT_255_2_778
10
6.3147919
20
136.6395628
40
0.0775487
50
112.4780918
51
145.2909011
0
ARC
8
DEFAULT_255_2_778
10
6.333917
20
136.5951534
40
0.1258981
50
88.7138988
51
112.7934617
0
ARC
8
DEFAULT_255_2_778
10
6.339481
20
136.5956878
40
0.1253619
50
67.159311
51
91.2516049
0
ARC
8
DEFAULT_255_2_778
10
6.3569794
20
136.6376852
40
0.0798654
50
35.1978461
51
67.0331611
0
ARC
8
DEFAULT_255_2_778
10
6.3626391
20
136.6436431
40
0.0718243
50
358.625123
51
33.9163394
0
ARC
8
DEFAULT_255_2_778
10
6.3604162
20
136.5266004
40
0.0740421
50
327.0420611
51
1.175799
0
ARC
8
DEFAULT_255_2_778
10
6.361381
20
136.5278218
40
0.0739133
50
291.6436853
51
325.8406333
0
ARC
8
DEFAULT_255_2_778
10
6.3401809
20
136.536874
40
0.0482768
50
265.9160158
51
308.3617549
0
ARC
8
DEFAULT_255_2_778
10
6.3451719
20
136.5258207
40
0.036631
50
312.9754563
51
3.2850623
0
ARC
8
DEFAULT_255_2_778
10
6.3448152
20
136.643502
40
0.0369754
50
357.082104
51
47.4006092
0
ARC
8
DEFAULT_255_2_778
10
6.339634
20
136.6333686
40
0.0480383
50
51.0349629
51
93.4505724
0
ARC
8
DEFAULT_255_2_778
10
6.3340455
20
136.633049
40
0.0483461
50
86.8017862
51
128.8135095
0
ARC
8
DEFAULT_255_2_778
10
6.3287702
20
136.643502
40
0.0369754
50
132.5993908
51
182.917896
0
ARC
8
DEFAULT_255_2_778
10
6.3284135
20
136.5258207
40
0.036631
50
176.7149377
51
227.0245437
0
ARC
8
DEFAULT_255_2_778
10
6.3334908
20
136.537186
40
0.0485752
50
231.7867693
51
273.8385805
0
ARC
8
DEFAULT_255_2_778
10
6.5570034
20
136.5255567
40
0.0766655
50
226.2029837
51
273.3195937
0
ARC
8
DEFAULT_255_2_778
10
6.5622798
20
136.5235746
40
0.0790566
50
176.8492311
51
222.4458356
0
ARC
8
DEFAULT_255_2_778
10
6.5699928
20
136.5254647
40
0.043631
50
176.5112098
51
217.639275
0
ARC
8
DEFAULT_255_2_778
10
6.5593879
20
136.5203664
40
0.0322122
50
221.9818643
51
273.6574471
0
ARC
8
DEFAULT_255_2_778
10
6.5632217
20
136.5208151
40
0.0326438
50
266.8760675
51
317.6392064
0
ARC
8
DEFAULT_255_2_778
10
6.5527926
20
136.5254647
40
0.043631
50
322.360725
51
3.4887902
0
ARC
8
DEFAULT_255_2_778
10
6.5605056
20
136.5235746
40
0.0790566
50
317.5541644
51
3.1507689
0
ARC
8
DEFAULT_255_2_778
10
6.5656687
20
136.5258223
40
0.0769357
50
266.6274163
51
313.7210327
0
LINE
8
DEFAULT_255_2_778
10
6.4394427
20
136.3874198
11
6.3828427
21
136.3874198
0
LINE
8
DEFAULT_255_2_778
10
6.3828427
20
136.3874198
11
6.3394427
21
136.4490198
0
LINE
8
DEFAULT_255_2_778
10
6.2391427
20
136.5281198
11
6.2391427
21
136.6419198
0
LINE
8
DEFAULT_255_2_778
10
6.4344427
20
136.6419198
11
6.4344427
21
136.5281198
0
LINE
8
DEFAULT_255_2_778
10
6.3886427
20
136.4591198
11
6.4394427
21
136.3876198
0
LINE
8
DEFAULT_255_2_778
10
6.4394427
20
136.3876198
11
6.4394427
21
136.3874198
0
LINE
8
DEFAULT_255_2_778
10
6.3817427
20
136.5279198
11
6.3817427
21
136.6416198
0
LINE
8
DEFAULT_255_2_778
10
6.2918427
20
136.6416198
11
6.2918427
21
136.5279198
0
LINE
8
DEFAULT_255_2_778
10
6.3367427
20
136.4887198
11
6.3367427
21
136.4887198
0
LINE
8
DEFAULT_255_2_778
10
6.4833427
20
136.5279198
11
6.4833427
21
136.7170198
0
LINE
8
DEFAULT_255_2_778
10
6.4833427
20
136.7170198
11
6.5264427
21
136.7170198
0
LINE
8
DEFAULT_255_2_778
10
6.5264427
20
136.7170198
11
6.5264427
21
136.5281198
0
LINE
8
DEFAULT_255_2_778
10
6.5963427
20
136.5281198
11
6.5963427
21
136.7170198
0
LINE
8
DEFAULT_255_2_778
10
6.5963427
20
136.7170198
11
6.6394427
21
136.7170198
0
LINE
8
DEFAULT_255_2_778
10
6.6394427
20
136.7170198
11
6.6394427
21
136.5279198
0
LINE
8
DEFAULT_255_2_778
10
6.5611427
20
136.4490198
11
6.5614427
21
136.4490198
0
ARC
8
DEFAULT_255_2_778
10
12.1641553
20
137.7521635
40
5.5033955
50
191.4837585
51
191.8239227
0
ARC
8
DEFAULT_255_2_778
10
8.3589245
20
136.9483972
40
1.6145995
50
189.6626565
51
190.4158531
0
ARC
8
DEFAULT_255_2_778
10
6.1197449
20
136.7812409
40
0.6557616
50
349.0334606
51
350.8880298
0
ARC
8
DEFAULT_255_2_778
10
6.0674183
20
136.7848866
40
0.7078549
50
346.9283592
51
349.5494987
0
ARC
8
DEFAULT_255_2_778
10
7.2958769
20
136.5540243
40
0.1856762
50
15.5793022
51
22.5708948
0
ARC
8
DEFAULT_255_2_778
10
7.3328007
20
136.5588058
40
0.1489195
50
11.1061152
51
17.6230497
0
ARC
8
DEFAULT_255_2_778
10
8.063214
20
136.4430593
40
0.6018696
50
164.5010167
51
166.1150622
0
ARC
8
DEFAULT_255_2_778
10
7.6620856
20
136.5540243
40
0.1856762
50
157.4291052
51
164.4206978
0
LINE
8
DEFAULT_255_2_778
10
6.7201313
20
136.4524917
11
6.6762313
21
136.4524917
0
LINE
8
DEFAULT_255_2_778
10
6.6762313
20
136.4524917
11
6.7392313
21
136.7170917
0
LINE
8
DEFAULT_255_2_778
10
6.7392313
20
136.7170917
11
6.7942313
21
136.7170917
0
LINE
8
DEFAULT_255_2_778
10
6.7942313
20
136.7170917
11
6.8577313
21
136.4524917
0
LINE
8
DEFAULT_255_2_778
10
6.8577313
20
136.4524917
11
6.8138313
21
136.4524917
0
LINE
8
DEFAULT_255_2_778
10
6.8138313
20
136.4524917
11
6.8000313
21
136.5164917
0
LINE
8
DEFAULT_255_2_778
10
6.8000313
20
136.5164917
11
6.7336313
21
136.5164917
0
LINE
8
DEFAULT_255_2_778
10
6.7336313
20
136.5164917
11
6.7199313
21
136.4524917
0
LINE
8
DEFAULT_255_2_778
10
6.7199313
20
136.4524917
11
6.7201313
21
136.4524917
0
LINE
8
DEFAULT_255_2_778
10
6.7569313
20
136.6249917
11
6.7418313
21
136.5535917
0
LINE
8
DEFAULT_255_2_778
10
6.7418313
20
136.5535917
11
6.7926313
21
136.5535917
0
LINE
8
DEFAULT_255_2_778
10
6.7926313
20
136.5535917
11
6.7775313
21
136.6244917
0
LINE
8
DEFAULT_255_2_778
10
6.7569313
20
136.6247917
11
6.7569313
21
136.6249917
0
LINE
8
DEFAULT_255_2_778
10
7.0231313
20
136.4524917
11
6.8741313
21
136.4524917
0
LINE
8
DEFAULT_255_2_778
10
6.8741313
20
136.4524917
11
6.8741313
21
136.7170917
0
LINE
8
DEFAULT_255_2_778
10
6.8741313
20
136.7170917
11
6.9170313
21
136.7170917
0
LINE
8
DEFAULT_255_2_778
10
6.9170313
20
136.7170917
11
6.9170313
21
136.4934917
0
LINE
8
DEFAULT_255_2_778
10
6.9170313
20
136.4934917
11
7.0231313
21
136.4934917
0
LINE
8
DEFAULT_255_2_778
10
7.0231313
20
136.4934917
11
7.0231313
21
136.4524917
0
LINE
8
DEFAULT_255_2_778
10
7.0231313
20
136.4524917
11
7.0231313
21
136.4524917
0
LINE
8
DEFAULT_255_2_778
10
7.1760313
20
136.4524917
11
7.0321313
21
136.4524917
0
LINE
8
DEFAULT_255_2_778
10
7.0321313
20
136.4524917
11
7.0321313
21
136.4934917
0
LINE
8
DEFAULT_255_2_778
10
7.0321313
20
136.4934917
11
7.0823313
21
136.4934917
0
LINE
8
DEFAULT_255_2_778
10
7.0823313
20
136.4934917
11
7.0823313
21
136.6760917
0
LINE
8
DEFAULT_255_2_778
10
7.0823313
20
136.6760917
11
7.0321313
21
136.6760917
0
LINE
8
DEFAULT_255_2_778
10
7.0321313
20
136.6760917
11
7.0321313
21
136.7170917
0
LINE
8
DEFAULT_255_2_778
10
7.0321313
20
136.7170917
11
7.1760313
21
136.7170917
0
LINE
8
DEFAULT_255_2_778
10
7.1760313
20
136.7170917
11
7.1760313
21
136.6760917
0
LINE
8
DEFAULT_255_2_778
10
7.1760313
20
136.6760917
11
7.1257313
21
136.6760917
0
LINE
8
DEFAULT_255_2_778
10
7.1257313
20
136.6760917
11
7.1257313
21
136.4934917
0
LINE
8
DEFAULT_255_2_778
10
7.1257313
20
136.4934917
11
7.1760313
21
136.4934917
0
LINE
8
DEFAULT_255_2_778
10
7.1760313
20
136.4934917
11
7.1760313
21
136.4524917
0
LINE
8
DEFAULT_255_2_778
10
7.1760313
20
136.4524917
11
7.1760313
21
136.4524917
0
LINE
8
DEFAULT_255_2_778
10
7.2940313
20
136.4524917
11
7.2509313
21
136.4524917
0
LINE
8
DEFAULT_255_2_778
10
7.2509313
20
136.4524917
11
7.2509313
21
136.6760917
0
LINE
8
DEFAULT_255_2_778
10
7.2509313
20
136.6760917
11
7.1855313
21
136.6760917
0
LINE
8
DEFAULT_255_2_778
10
7.1855313
20
136.6760917
11
7.1855313
21
136.7170917
0
LINE
8
DEFAULT_255_2_778
10
7.1855313
20
136.7170917
11
7.3596313
21
136.7170917
0
LINE
8
DEFAULT_255_2_778
10
7.3596313
20
136.7170917
11
7.3596313
21
136.6760917
0
LINE
8
DEFAULT_255_2_778
10
7.3596313
20
136.6760917
11
7.2943313
21
136.6760917
0
LINE
8
DEFAULT_255_2_778
10
7.2943313
20
136.6760917
11
7.2943313
21
136.4524917
0
LINE
8
DEFAULT_255_2_778
10
7.2943313
20
136.4524917
11
7.2940313
21
136.4524917
0
LINE
8
DEFAULT_255_2_778
10
7.4996313
20
136.4524917
11
7.4565313
21
136.4524917
0
LINE
8
DEFAULT_255_2_778
10
7.4565313
20
136.4524917
11
7.4565313
21
136.5485917
0
LINE
8
DEFAULT_255_2_778
10
7.4565313
20
136.5485917
11
7.3832313
21
136.7170917
0
LINE
8
DEFAULT_255_2_778
10
7.3832313
20
136.7170917
11
7.4281313
21
136.7170917
0
LINE
8
DEFAULT_255_2_778
10
7.4281313
20
136.7170917
11
7.4673313
21
136.6252917
0
LINE
8
DEFAULT_255_2_778
10
7.4906313
20
136.6252917
11
7.5287313
21
136.7170917
0
LINE
8
DEFAULT_255_2_778
10
7.5287313
20
136.7170917
11
7.5731313
21
136.7170917
0
LINE
8
DEFAULT_255_2_778
10
7.5731313
20
136.7170917
11
7.4998313
21
136.5485917
0
LINE
8
DEFAULT_255_2_778
10
7.4998313
20
136.5485917
11
7.4998313
21
136.4524917
0
LINE
8
DEFAULT_255_2_778
10
7.4998313
20
136.4524917
11
7.4996313
21
136.4524917
0
LINE
8
DEFAULT_255_1_388
10
8.4323457
20
134.5714892
11
8.2579577
21
134.5714892
0
LINE
8
DEFAULT_255_1_388
10
7.4790852
20
134.0176042
11
7.6534731
21
134.0176042
0
ARC
8
DEFAULT_255_1_388
10
8.3320304
20
135.5778821
40
1.4087688
50
248.9196578
51
254.1442424
0
ARC
8
DEFAULT_255_1_388
10
8.1430184
20
135.0912805
40
0.8867498
50
241.6337352
51
249.0064643
0
ARC
8
DEFAULT_255_1_388
10
7.9710498
20
134.7761764
40
0.5277799
50
230.4982261
51
241.8087583
0
ARC
8
DEFAULT_255_1_388
10
7.8828269
20
134.6637686
40
0.3849419
50
227.4062979
51
229.9877433
0
ARC
8
DEFAULT_255_1_388
10
7.8279615
20
134.6102155
40
0.3084129
50
200.6782127
51
228.1765252
0
ARC
8
DEFAULT_255_1_388
10
7.8360984
20
134.6085277
40
0.315461
50
179.506278
51
199.8695278
0
ARC
8
DEFAULT_255_1_388
10
7.8350573
20
134.6168671
40
0.3144584
50
132.4834401
51
181.0242352
0
ARC
8
DEFAULT_255_1_388
10
7.9019777
20
134.5536788
40
0.4063094
50
129.2526113
51
133.4249077
0
ARC
8
DEFAULT_255_1_388
10
7.918537
20
134.5288619
40
0.436014
50
101.9878945
51
128.8741833
0
ARC
8
DEFAULT_255_1_388
10
7.9633785
20
134.335236
40
0.6347415
50
89.5906376
51
102.3170567
0
ARC
8
DEFAULT_255_1_388
10
7.9713097
20
134.3710586
40
0.5989122
50
77.2359491
51
90.3248968
0
ARC
8
DEFAULT_255_1_388
10
7.9946028
20
134.4798554
40
0.4876594
50
63.8379856
51
77.0808925
0
ARC
8
DEFAULT_255_1_388
10
8.0258561
20
134.5380882
40
0.4216191
50
45.9863127
51
64.1608798
0
ARC
8
DEFAULT_255_1_388
10
8.0551955
20
134.571599
40
0.3771394
50
32.2747934
51
45.6544796
0
ARC
8
DEFAULT_255_1_388
10
8.0626761
20
134.5737426
40
0.3696765
50
359.6507495
51
32.6129943
0
ARC
8
DEFAULT_255_1_388
10
7.9565944
20
134.5742788
40
0.3013762
50
359.469654
51
14.983205
0
ARC
8
DEFAULT_255_1_388
10
8.0359196
20
134.5955288
40
0.2192542
50
14.9781954
51
48.2004799
0
ARC
8
DEFAULT_255_1_388
10
8.0174307
20
134.5722937
40
0.2489048
50
48.5926661
51
74.1242559
0
ARC
8
DEFAULT_255_1_388
10
7.9799109
20
134.4484607
40
0.3782845
50
73.7889321
51
86.6653996
0
ARC
8
DEFAULT_255_1_388
10
7.9683924
20
134.3126955
40
0.5145025
50
86.2642725
51
90.0533288
0
ARC
8
DEFAULT_255_1_388
10
7.9652017
20
134.3571376
40
0.4700681
50
89.669455
51
99.2313411
0
ARC
8
DEFAULT_255_1_388
10
7.9379176
20
134.5196401
40
0.3052945
50
99.0695987
51
113.7659242
0
ARC
8
DEFAULT_255_1_388
10
7.9071171
20
134.5922772
40
0.226407
50
114.0402885
51
127.9848946
0
ARC
8
DEFAULT_255_1_388
10
7.8800647
20
134.6255884
40
0.1835045
50
127.7287217
51
176.7106493
0
ARC
8
DEFAULT_255_1_388
10
7.9564312
20
134.614221
40
0.2604907
50
175.1780759
51
180.0581213
0
ARC
8
DEFAULT_255_1_388
10
7.8615656
20
134.6128411
40
0.1656287
50
179.6140658
51
228.124674
0
ARC
8
DEFAULT_255_1_388
10
7.9113013
20
134.658894
40
0.2332038
50
226.5785315
51
230.8792476
0
ARC
8
DEFAULT_255_1_388
10
7.96425
20
134.7291908
40
0.3211664
50
231.4636401
51
241.9261664
0
ARC
8
DEFAULT_255_1_388
10
8.0989283
20
134.9770349
40
0.6032345
50
241.7177136
51
248.3259138
0
ARC
8
DEFAULT_255_1_388
10
8.2547878
20
135.3631771
40
1.0196417
50
248.2007377
51
252.4527713
0
ARC
8
DEFAULT_255_1_388
10
8.3901405
20
135.7816092
40
1.4594143
50
252.3388938
51
254.347037
0
ARC
8
DEFAULT_255_1_388
10
7.5416705
20
132.7468095
40
1.6917621
50
71.0197462
51
74.4085467
0
ARC
8
DEFAULT_255_1_388
10
7.7323793
20
133.2973144
40
1.1091618
50
66.1845203
51
71.086519
0
ARC
8
DEFAULT_255_1_388
10
7.9074342
20
133.6914439
40
0.6779073
50
59.3537334
51
66.269255
0
ARC
8
DEFAULT_255_1_388
10
8.0074068
20
133.8605777
40
0.4814366
50
49.1021732
51
59.3294421
0
ARC
8
DEFAULT_255_1_388
10
8.0995056
20
133.9655575
40
0.3417875
50
32.7924183
51
49.2503526
0
ARC
8
DEFAULT_255_1_388
10
8.134467
20
133.9905311
40
0.2988789
50
31.121225
51
32.3977355
0
ARC
8
DEFAULT_255_1_388
10
8.1256848
20
133.9872728
40
0.3080861
50
8.1116803
51
30.7958224
0
ARC
8
DEFAULT_255_1_388
10
8.0345194
20
133.9717437
40
0.4005385
50
359.8390945
51
8.4707348
0
ARC
8
DEFAULT_255_1_388
10
8.1049242
20
133.9662751
40
0.3301608
50
337.4732479
51
0.7538283
0
ARC
8
DEFAULT_255_1_388
10
8.1250267
20
133.9640554
40
0.3107929
50
307.5917028
51
336.4313755
0
ARC
8
DEFAULT_255_1_388
10
8.0739324
20
134.0208509
40
0.3870096
50
307.6560665
51
308.4561779
0
ARC
8
DEFAULT_255_1_388
10
8.0473541
20
134.0616832
40
0.435591
50
284.3733666
51
307.1426212
0
ARC
8
DEFAULT_255_1_388
10
7.9916435
20
134.2666391
40
0.6479685
50
272.4384566
51
284.6464689
0
ARC
8
DEFAULT_255_1_388
10
7.977382
20
134.4690434
40
0.8508149
50
269.9708517
51
272.8180721
0
ARC
8
DEFAULT_255_1_388
10
7.9725503
20
134.2398283
40
0.6216151
50
248.2707343
51
270.4054609
0
ARC
8
DEFAULT_255_1_388
10
7.9664374
20
134.2183673
40
0.5994203
50
246.1380358
51
248.054058
0
ARC
8
DEFAULT_255_1_388
10
7.9193517
20
134.1194705
40
0.4899388
50
233.1671897
51
246.4951656
0
ARC
8
DEFAULT_255_1_388
10
7.8570152
20
134.0353137
40
0.3852115
50
215.3403381
51
233.084328
0
ARC
8
DEFAULT_255_1_388
10
7.8263516
20
134.0130093
40
0.3472969
50
179.2419235
51
215.2648426
0
ARC
8
DEFAULT_255_1_388
10
7.9127067
20
134.0145979
40
0.259251
50
179.3355796
51
199.1045873
0
ARC
8
DEFAULT_255_1_388
10
7.8753209
20
134.0048223
40
0.2207454
50
199.8830064
51
232.7061328
0
ARC
8
DEFAULT_255_1_388
10
7.9284483
20
134.0716456
40
0.306101
50
232.3736206
51
255.5136621
0
ARC
8
DEFAULT_255_1_388
10
7.9667989
20
134.2116177
40
0.4512213
50
255.2447928
51
267.5318292
0
ARC
8
DEFAULT_255_1_388
10
7.9766456
20
134.3502709
40
0.5901825
50
267.1564563
51
270.0294721
0
ARC
8
DEFAULT_255_1_388
10
7.9797781
20
134.3003623
40
0.5402814
50
269.6999944
51
278.1662446
0
ARC
8
DEFAULT_255_1_388
10
8.0085809
20
134.1056974
40
0.3435003
50
278.0229022
51
290.6255326
0
ARC
8
DEFAULT_255_1_388
10
8.0476975
20
134.0013547
40
0.2320666
50
290.6616368
51
307.0374127
0
ARC
8
DEFAULT_255_1_388
10
8.0814875
20
133.959904
40
0.1786372
50
306.3942078
51
355.303191
0
ARC
8
DEFAULT_255_1_388
10
8.0239168
20
133.9685186
40
0.2367516
50
354.3662092
51
0.0709489
0
ARC
8
DEFAULT_255_1_388
10
8.0399037
20
133.9710561
40
0.2207761
50
359.4175379
51
16.1975911
0
ARC
8
DEFAULT_255_1_388
10
8.0911155
20
133.9850954
40
0.1676828
50
16.4721294
51
52.6261798
0
ARC
8
DEFAULT_255_1_388
10
7.9987662
20
133.8631606
40
0.3206412
50
52.7381828
51
62.4979144
0
ARC
8
DEFAULT_255_1_388
10
7.8429415
20
133.5699236
40
0.6527035
50
62.2517425
51
68.1219454
0
ARC
8
DEFAULT_255_1_388
10
7.6494903
20
133.0944951
40
1.1659797
50
68.006043
51
71.8055127
0
ARC
8
DEFAULT_255_1_388
10
7.4474811
20
132.4886723
40
1.8045908
50
71.718361
51
73.9260743
0
LINE
8
DEFAULT_255_1_388
10
8.6302263
20
134.6139567
11
8.78835
21
134.6139567
0
LINE
8
DEFAULT_255_1_388
10
8.78835
20
134.6139567
11
8.7928679
21
134.505529
0
LINE
8
DEFAULT_255_1_388
10
10.0009335
20
134.2913842
11
10.0009335
21
133.6363
0
LINE
8
DEFAULT_255_1_388
10
10.0009335
20
133.6363
11
9.8337741
21
133.6363
0
LINE
8
DEFAULT_255_1_388
10
9.8337741
20
133.6363
11
9.8337741
21
134.281445
0
LINE
8
DEFAULT_255_1_388
10
9.3991596
20
134.2850593
11
9.3991596
21
133.6363
0
LINE
8
DEFAULT_255_1_388
10
9.3991596
20
133.6363
11
9.2310966
21
133.6363
0
LINE
8
DEFAULT_255_1_388
10
9.2310966
20
133.6363
11
9.2310966
21
134.2769272
0
LINE
8
DEFAULT_255_1_388
10
8.7973857
20
134.3501159
11
8.7973857
21
133.6363
0
LINE
8
DEFAULT_255_1_388
10
8.7973857
20
133.6363
11
8.6302263
21
133.6363
0
LINE
8
DEFAULT_255_1_388
10
8.6302263
20
133.6363
11
8.6302263
21
134.6139567
0
ARC
8
DEFAULT_255_1_388
10
9.0624875
20
134.2785947
40
0.3524116
50
93.0261693
51
139.913241
0
ARC
8
DEFAULT_255_1_388
10
9.082495
20
134.1387673
40
0.493261
50
89.9515559
51
94.4896559
0
ARC
8
DEFAULT_255_1_388
10
9.0872428
20
134.2190293
40
0.4130214
50
75.8912256
51
90.6007843
0
ARC
8
DEFAULT_255_1_388
10
9.1283724
20
134.3707686
40
0.2558497
50
23.9940553
51
76.5407673
0
ARC
8
DEFAULT_255_1_388
10
9.666216
20
134.2634138
40
0.3703589
50
118.5760068
51
145.1952627
0
ARC
8
DEFAULT_255_1_388
10
9.6518212
20
134.2909672
40
0.3392772
50
99.1481537
51
118.6669021
0
ARC
8
DEFAULT_255_1_388
10
9.6720926
20
134.1777244
40
0.454307
50
89.7792127
51
99.4015557
0
ARC
8
DEFAULT_255_1_388
10
9.6808039
20
134.1963109
40
0.4357727
50
73.2646335
51
90.9152299
0
ARC
8
DEFAULT_255_1_388
10
9.7302115
20
134.3641955
40
0.2607739
50
10.756495
51
73.0388383
0
ARC
8
DEFAULT_255_1_388
10
9.4612682
20
134.2884448
40
0.5396733
50
0.3120729
51
13.3293082
0
ARC
8
DEFAULT_255_1_388
10
9.4675161
20
134.2835363
40
0.366264
50
359.6728567
51
8.7129231
0
ARC
8
DEFAULT_255_1_388
10
9.6022076
20
134.3049524
40
0.2298841
50
8.5221448
51
22.6803231
0
ARC
8
DEFAULT_255_1_388
10
9.6705775
20
134.3333786
40
0.1558403
50
22.7298708
51
42.2763259
0
ARC
8
DEFAULT_255_1_388
10
9.6844476
20
134.3421235
40
0.1397242
50
43.4492352
51
69.272112
0
ARC
8
DEFAULT_255_1_388
10
9.6498706
20
134.2557568
40
0.2327451
50
68.836098
51
81.9786568
0
ARC
8
DEFAULT_255_1_388
10
9.6273143
20
134.1047247
40
0.385449
50
81.7913044
51
90.3003404
0
LINE
8
DEFAULT_255_1_388
10
9.6252938
20
134.4901683
11
9.6250507
21
134.4901684
0
ARC
8
DEFAULT_255_1_388
10
9.6227316
20
134.2341083
40
0.2560706
50
89.4810922
51
106.5055613
0
ARC
8
DEFAULT_255_1_388
10
9.6099225
20
134.2812872
40
0.2071998
50
106.8160071
51
132.2750747
0
ARC
8
DEFAULT_255_1_388
10
9.6147748
20
134.2761017
40
0.2143007
50
132.3023562
51
166.9931148
0
ARC
8
DEFAULT_255_1_388
10
9.6875987
20
134.2552518
40
0.2899752
50
166.2176327
51
174.0999541
0
ARC
8
DEFAULT_255_1_388
10
8.9161116
20
134.281209
40
0.3150142
50
359.2211859
51
14.4876062
0
ARC
8
DEFAULT_255_1_388
10
9.0639338
20
134.3237235
40
0.1613108
50
13.0021013
51
76.7082612
0
ARC
8
DEFAULT_255_1_388
10
9.0262539
20
134.1906286
40
0.299565
50
75.5470628
51
90.7422407
0
ARC
8
DEFAULT_255_1_388
10
9.0186164
20
134.1940964
40
0.2960958
50
89.2730201
51
106.8379289
0
ARC
8
DEFAULT_255_1_388
10
8.996357
20
134.2748973
40
0.2123216
50
107.4046439
51
156.621812
0
ARC
8
DEFAULT_255_1_388
10
9.0728384
20
134.2310952
40
0.3000669
50
154.7390611
51
156.6312403
0
LINE
8
DEFAULT_255_1_388
10
11.0319006
20
133.6363
11
10.8566091
21
133.6363
0
LINE
8
DEFAULT_255_1_388
10
10.6677641
20
134.2290383
11
10.8304057
21
134.2290383
0
LINE
8
DEFAULT_255_1_388
10
10.8304057
20
134.2290383
11
10.8304057
21
134.3058413
0
LINE
8
DEFAULT_255_1_388
10
10.4129589
20
134.3428874
11
10.2448959
21
134.3428874
0
LINE
8
DEFAULT_255_1_388
10
10.9975651
20
134.3148769
11
10.9975651
21
133.8649018
0
LINE
8
DEFAULT_255_1_388
10
11.0319006
20
133.650757
11
11.0319006
21
133.6363
0
LINE
8
DEFAULT_255_1_388
10
10.8304057
20
133.91008
11
10.8304057
21
134.1106713
0
LINE
8
DEFAULT_255_1_388
10
10.8304057
20
134.1106713
11
10.6993889
21
134.1106713
0
ARC
8
DEFAULT_255_1_388
10
10.973524
20
133.69301
40
0.1299428
50
197.0784902
51
205.8758668
0
ARC
8
DEFAULT_255_1_388
10
11.1129826
20
133.7371959
40
0.2762313
50
192.2927663
51
197.3441989
0
ARC
8
DEFAULT_255_1_388
10
11.3325332
20
133.785976
40
0.5011345
50
189.1573793
51
192.3977084
0
ARC
8
DEFAULT_255_1_388
10
11.6490178
20
133.8375878
40
0.8217995
50
186.8686098
51
189.1982636
0
ARC
8
DEFAULT_255_1_388
10
10.5435269
20
134.011626
40
0.3975173
50
294.0079259
51
316.7603918
0
ARC
8
DEFAULT_255_1_388
10
10.5580452
20
133.9911902
40
0.3729755
50
269.5043226
51
293.2478373
0
ARC
8
DEFAULT_255_1_388
10
10.5513504
20
134.0362915
40
0.4180772
50
255.4034155
51
270.4753052
0
ARC
8
DEFAULT_255_1_388
10
10.5254717
20
133.9358652
40
0.3143705
50
228.6141063
51
255.3550831
0
ARC
8
DEFAULT_255_1_388
10
10.4880699
20
133.900054
40
0.2628114
50
181.8954381
51
229.5703134
0
ARC
8
DEFAULT_255_1_388
10
10.5545635
20
133.9072824
40
0.329546
50
179.9848815
51
182.7691528
0
ARC
8
DEFAULT_255_1_388
10
10.5452702
20
133.9111827
40
0.3202753
50
161.0342928
51
180.6822077
0
ARC
8
DEFAULT_255_1_388
10
10.4958316
20
133.9240422
40
0.2693695
50
125.0525065
51
160.2034058
0
ARC
8
DEFAULT_255_1_388
10
10.5703038
20
133.8224275
40
0.3953338
50
106.2670809
51
125.4300189
0
ARC
8
DEFAULT_255_1_388
10
10.6347079
20
133.6119795
40
0.6154041
50
95.4857579
51
106.5348562
0
ARC
8
DEFAULT_255_1_388
10
10.6654367
20
133.3307993
40
0.8982419
50
89.8515405
51
95.7222579
0
ARC
8
DEFAULT_255_1_388
10
10.5934948
20
134.3078925
40
0.2369198
50
359.5039339
51
14.3181205
0
ARC
8
DEFAULT_255_1_388
10
10.6580953
20
134.3246862
40
0.170173
50
14.2184556
51
45.2028524
0
ARC
8
DEFAULT_255_1_388
10
10.6621648
20
134.3262862
40
0.1661795
50
45.8098216
51
73.0032926
0
ARC
8
DEFAULT_255_1_388
10
10.6341475
20
134.240626
40
0.2562942
50
72.6112517
51
85.7231489
0
ARC
8
DEFAULT_255_1_388
10
10.6240259
20
134.1379339
40
0.3594635
50
85.335019
51
90.0855069
0
ARC
8
DEFAULT_255_1_388
10
10.6213692
20
134.2043472
40
0.2930574
50
89.5854741
51
103.459124
0
ARC
8
DEFAULT_255_1_388
10
10.6042231
20
134.2758134
40
0.2195632
50
103.448332
51
126.5403399
0
ARC
8
DEFAULT_255_1_388
10
10.5773208
20
134.3102224
40
0.1759039
50
126.1730306
51
141.5008224
0
ARC
8
DEFAULT_255_1_388
10
10.5347523
20
134.3436266
40
0.1217955
50
141.3332087
51
180.3477313
0
ARC
8
DEFAULT_255_1_388
10
10.4588946
20
134.3416904
40
0.214002
50
151.6373605
51
179.6795088
0
ARC
8
DEFAULT_255_1_388
10
10.5266182
20
134.3079768
40
0.2896224
50
142.4981529
51
152.1330509
0
ARC
8
DEFAULT_255_1_388
10
10.5624186
20
134.2798781
40
0.3351307
50
120.8284906
51
142.4132156
0
ARC
8
DEFAULT_255_1_388
10
10.6092162
20
134.2066185
40
0.4220297
50
113.9634885
51
121.1871733
0
ARC
8
DEFAULT_255_1_388
10
10.6245471
20
134.1692705
40
0.4623867
50
93.3784336
51
113.8197902
0
ARC
8
DEFAULT_255_1_388
10
10.6331853
20
134.0831549
40
0.5488732
50
89.9745993
51
93.7488475
0
ARC
8
DEFAULT_255_1_388
10
10.6371099
20
134.0872587
40
0.5447818
50
79.1327128
51
90.3871707
0
ARC
8
DEFAULT_255_1_388
10
10.6736863
20
134.2700597
40
0.3583662
50
60.1434453
51
79.365517
0
ARC
8
DEFAULT_255_1_388
10
10.702563
20
134.3255195
40
0.2959028
50
48.6191018
51
59.6466565
0
ARC
8
DEFAULT_255_1_388
10
10.7079341
20
134.3326356
40
0.2870136
50
9.0349502
51
48.4845487
0
ARC
8
DEFAULT_255_1_388
10
10.586864
20
134.3062084
40
0.4107927
50
1.2091359
51
10.0234369
0
ARC
8
DEFAULT_255_1_388
10
11.8566088
20
133.8621422
40
0.8590481
50
179.8159449
51
185.3205667
0
ARC
8
DEFAULT_255_1_388
10
11.5533934
20
133.8331945
40
0.5544553
50
185.2475628
51
192.7952551
0
ARC
8
DEFAULT_255_1_388
10
11.3551757
20
133.7877024
40
0.3510853
50
192.7195981
51
202.9584216
0
ARC
8
DEFAULT_255_1_388
10
10.5791793
20
134.0574895
40
0.2937869
50
270.006916
51
300.503478
0
ARC
8
DEFAULT_255_1_388
10
10.5929728
20
134.0430888
40
0.2744162
50
299.5482616
51
315.609538
0
ARC
8
DEFAULT_255_1_388
10
10.6256024
20
134.0097072
40
0.2277499
50
315.8682065
51
334.0592465
0
ARC
8
DEFAULT_255_1_388
10
10.6944998
20
133.32609
40
0.7845965
50
89.64297
51
97.2867877
0
ARC
8
DEFAULT_255_1_388
10
10.6448595
20
133.6977936
40
0.4096042
50
96.9938706
51
109.7783917
0
ARC
8
DEFAULT_255_1_388
10
10.5700058
20
133.8981851
40
0.1957225
50
109.0087985
51
135.3265591
0
ARC
8
DEFAULT_255_1_388
10
10.5392477
20
133.9362764
40
0.1471704
50
137.4537784
51
182.1083946
0
ARC
8
DEFAULT_255_1_388
10
10.5813177
20
133.9290101
40
0.1891498
50
179.4390335
51
195.7201623
0
ARC
8
DEFAULT_255_1_388
10
10.5350212
20
133.9163585
40
0.1411576
50
195.8683556
51
230.157074
0
ARC
8
DEFAULT_255_1_388
10
10.5622935
20
133.9490228
40
0.1837102
50
230.1532486
51
259.7486257
0
ARC
8
DEFAULT_255_1_388
10
10.5778977
20
134.0225472
40
0.258848
50
259.2461118
51
270.2915316
0
LINE
8
DEFAULT_255_1_388
10
11.732163
20
134.6193781
11
11.732163
21
134.463965
0
LINE
8
DEFAULT_255_1_388
10
11.4267583
20
134.3302375
11
11.4267583
21
133.6363
0
LINE
8
DEFAULT_255_1_388
10
11.4267583
20
133.6363
11
11.2595988
21
133.6363
0
LINE
8
DEFAULT_255_1_388
10
11.2595988
20
133.6363
11
11.2595988
21
134.6139567
0
LINE
8
DEFAULT_255_1_388
10
11.2595988
20
134.6139567
11
11.4222404
21
134.6139567
0
LINE
8
DEFAULT_255_1_388
10
11.4222404
20
134.6139567
11
11.4249511
21
134.5010112
0
ARC
8
DEFAULT_255_1_388
10
11.657179
20
134.0073068
40
0.4627735
50
80.6751522
51
86.893806
0
ARC
8
DEFAULT_255_1_388
10
11.650362
20
133.8981103
40
0.5721798
50
86.8046851
51
90.0423898
0
ARC
8
DEFAULT_255_1_388
10
11.646204
20
134.1748197
40
0.2954939
50
89.2758283
51
106.6212906
0
ARC
8
DEFAULT_255_1_388
10
11.6232064
20
134.2584009
40
0.2088351
50
107.1347109
51
157.6456887
0
ARC
8
DEFAULT_255_1_388
10
11.7000127
20
134.2156908
40
0.296292
50
155.6557383
51
157.256838
0
ARC
8
DEFAULT_255_1_388
10
11.6779741
20
134.3467472
40
0.296341
50
127.8167201
51
148.6300223
0
ARC
8
DEFAULT_255_1_388
10
11.6494488
20
134.3760066
40
0.2557782
50
91.3329934
51
126.7875218
0
ARC
8
DEFAULT_255_1_388
10
11.6579875
20
134.2956718
40
0.3363561
50
89.9858247
51
92.4688453
0
ARC
8
DEFAULT_255_1_388
10
11.6589368
20
134.3265114
40
0.3055179
50
85.3587643
51
90.1624243
0
ARC
8
DEFAULT_255_1_388
10
11.6684434
20
134.4394458
40
0.1921848
50
78.4019195
51
85.4592653
0
ARC
8
DEFAULT_255_1_388
10
11.6847494
20
134.5172142
40
0.1127267
50
67.7849217
51
78.573798
0
ARC
8
DEFAULT_255_1_388
10
11.6969129
20
134.5487374
40
0.0789473
50
63.4805074
51
67.3074739
0
LINE
8
DEFAULT_255_1_388
10
11.9454042
20
134.8506906
11
12.1125637
21
134.8506906
0
LINE
8
DEFAULT_255_1_388
10
12.1125637
20
134.8506906
11
12.1125637
21
134.6139567
0
LINE
8
DEFAULT_255_1_388
10
12.1125637
20
134.6139567
11
12.2950837
21
134.6139567
0
LINE
8
DEFAULT_255_1_388
10
12.2950837
20
134.6139567
11
12.2950837
21
134.484747
0
LINE
8
DEFAULT_255_1_388
10
12.2950837
20
134.484747
11
12.1125637
21
134.484747
0
LINE
8
DEFAULT_255_1_388
10
12.1125637
20
134.484747
11
12.1125637
21
133.8784553
0
LINE
8
DEFAULT_255_1_388
10
12.2996015
20
133.7718347
11
12.2996015
21
133.6363
0
LINE
8
DEFAULT_255_1_388
10
11.9454042
20
133.8784553
11
11.9454042
21
134.484747
0
LINE
8
DEFAULT_255_1_388
10
11.9454042
20
134.484747
11
11.7674021
21
134.484747
0
LINE
8
DEFAULT_255_1_388
10
11.7674021
20
134.484747
11
11.7674021
21
134.6139567
0
LINE
8
DEFAULT_255_1_388
10
11.7674021
20
134.6139567
11
11.9454042
21
134.6139567
0
LINE
8
DEFAULT_255_1_388
10
11.9454042
20
134.6139567
11
11.9454042
21
134.8506906
0
ARC
8
DEFAULT_255_1_388
10
12.3384144
20
133.8772842
40
0.2258538
50
179.7029045
51
187.9180047
0
ARC
8
DEFAULT_255_1_388
10
12.2544718
20
133.8652019
40
0.1410477
50
187.7540838
51
200.2454047
0
ARC
8
DEFAULT_255_1_388
10
12.2071624
20
133.8475591
40
0.0905561
50
200.1304287
51
219.1733455
0
ARC
8
DEFAULT_255_1_388
10
12.191879
20
133.8371695
40
0.0721626
50
220.4434631
51
249.6169985
0
ARC
8
DEFAULT_255_1_388
10
12.2093017
20
133.8809919
40
0.1193141
50
249.1038184
51
262.7745376
0
ARC
8
DEFAULT_255_1_388
10
12.2192199
20
133.9517481
40
0.1907583
50
262.4921618
51
270.2607019
0
ARC
8
DEFAULT_255_1_388
10
12.2189281
20
133.9759817
40
0.2149929
50
270.309081
51
275.6615459
0
ARC
8
DEFAULT_255_1_388
10
12.2028688
20
134.1448342
40
0.3846066
50
275.5607354
51
279.087751
0
ARC
8
DEFAULT_255_1_388
10
12.165662
20
134.3809428
40
0.6236283
50
279.0369545
51
281.5000133
0
ARC
8
DEFAULT_255_1_388
10
12.1265888
20
134.5786499
40
0.825157
50
281.4217093
51
282.1031556
0
ARC
8
DEFAULT_255_1_388
10
12.1641864
20
134.1243229
40
0.5064619
50
275.2597791
51
285.5081125
0
ARC
8
DEFAULT_255_1_388
10
12.1710878
20
134.0617452
40
0.4435166
50
270.0268175
51
275.1130565
0
ARC
8
DEFAULT_255_1_388
10
12.1688329
20
133.9124367
40
0.2942182
50
257.3572424
51
270.4795428
0
ARC
8
DEFAULT_255_1_388
10
12.1448599
20
133.8113952
40
0.1903838
50
230.8036715
51
257.7414447
0
ARC
8
DEFAULT_255_1_388
10
12.1372095
20
133.7990723
40
0.1760087
50
219.9745381
51
230.1985446
0
ARC
8
DEFAULT_255_1_388
10
12.1745383
20
133.8276116
40
0.2229598
50
196.5081334
51
219.4319996
0
ARC
8
DEFAULT_255_1_388
10
12.2887994
20
133.8634617
40
0.3427033
50
184.6408645
51
196.8266009
0
ARC
8
DEFAULT_255_1_388
10
12.42889
20
133.877601
40
0.4834863
50
179.8987586
51
184.9677262
0
LINE
8
DEFAULT_255_1_388
10
13.4877888
20
134.2913842
11
13.4877888
21
133.8088808
0
LINE
8
DEFAULT_255_1_388
10
12.4739895
20
134.2308454
11
12.4739895
21
134.3455981
0
LINE
8
DEFAULT_255_1_388
10
13.4877888
20
134.5660678
11
13.3143044
21
134.5660678
0
LINE
8
DEFAULT_255_1_388
10
12.6483774
20
134.3501159
11
12.6483774
21
134.2425917
0
LINE
8
DEFAULT_255_1_388
10
13.315208
20
133.8549626
11
13.315208
21
134.1504282
0
LINE
8
DEFAULT_255_1_388
10
13.315208
20
134.1504282
11
13.0107067
21
134.1504282
0
LINE
8
DEFAULT_255_1_388
10
13.0107067
20
134.1504282
11
13.0107067
21
134.2913842
0
LINE
8
DEFAULT_255_1_388
10
13.0107067
20
134.2913842
11
13.4877888
21
134.2913842
0
ARC
8
DEFAULT_255_1_388
10
13.1692488
20
134.0331284
40
0.3895571
50
295.8437277
51
324.8549962
0
ARC
8
DEFAULT_255_1_388
10
13.1224871
20
134.1177619
40
0.4861381
50
291.5691164
51
296.4556269
0
ARC
8
DEFAULT_255_1_388
10
13.0649873
20
134.2713801
40
0.6501442
50
278.6622213
51
291.3047061
0
ARC
8
DEFAULT_255_1_388
10
13.0267905
20
134.5130557
40
0.8948168
50
270.0200506
51
278.7494673
0
ARC
8
DEFAULT_255_1_388
10
13.0224109
20
134.6976453
40
1.0794166
50
270.0022372
51
270.2490917
0
ARC
8
DEFAULT_255_1_388
10
13.0182001
20
134.2017827
40
0.5835695
50
253.5785313
51
270.4175629
0
ARC
8
DEFAULT_255_1_388
10
12.9986998
20
134.1262625
40
0.5056241
50
238.8203954
51
253.2788387
0
ARC
8
DEFAULT_255_1_388
10
12.9964913
20
134.1205224
40
0.4995712
50
206.7883476
51
238.696262
0
ARC
8
DEFAULT_255_1_388
10
13.0840309
20
134.1729847
40
0.6014056
50
206.1137778
51
207.4912776
0
ARC
8
DEFAULT_255_1_388
10
13.1507145
20
134.2013284
40
0.6737692
50
188.6922336
51
205.782076
0
ARC
8
DEFAULT_255_1_388
10
13.3595504
20
134.2368455
40
0.8855812
50
180.3881972
51
188.9218085
0
ARC
8
DEFAULT_255_1_388
10
13.4976662
20
134.3519622
40
1.0236965
50
170.2024645
51
180.3561986
0
ARC
8
DEFAULT_255_1_388
10
13.1417812
20
134.4156101
40
0.6621746
50
154.2856519
51
170.3893388
0
ARC
8
DEFAULT_255_1_388
10
12.9975776
20
134.4816192
40
0.5036209
50
139.8400879
51
153.9334639
0
ARC
8
DEFAULT_255_1_388
10
12.9571679
20
134.5139716
40
0.4518751
50
98.4190017
51
139.6707015
0
ARC
8
DEFAULT_255_1_388
10
12.9998647
20
134.3063755
40
0.6635912
50
89.7660128
51
99.4415389
0
ARC
8
DEFAULT_255_1_388
10
13.0072043
20
134.3137517
40
0.6562258
50
78.0552044
51
90.4042252
0
ARC
8
DEFAULT_255_1_388
10
13.0527107
20
134.5183661
40
0.4466287
50
54.6380186
51
78.3338577
0
ARC
8
DEFAULT_255_1_388
10
13.0741405
20
134.5544444
40
0.4048184
50
50.0313964
51
54.1562739
0
ARC
8
DEFAULT_255_1_388
10
13.0620299
20
134.5435798
40
0.4209308
50
18.1092229
51
49.7179911
0
ARC
8
DEFAULT_255_1_388
10
12.8981379
20
134.4835399
40
0.5953982
50
7.967396
51
18.698492
0
ARC
8
DEFAULT_255_1_388
10
12.915064
20
134.4974236
40
0.4050986
50
9.7558763
51
27.3214087
0
ARC
8
DEFAULT_255_1_388
10
13.0419105
20
134.5608087
40
0.2633168
50
27.736147
51
84.5257861
0
ARC
8
DEFAULT_255_1_388
10
13.0050514
20
134.3758988
40
0.4513019
50
82.1064239
51
90.1997295
0
ARC
8
DEFAULT_255_1_388
10
12.999453
20
134.4330501
40
0.3941684
50
89.4148952
51
105.5824837
0
ARC
8
DEFAULT_255_1_388
10
12.9705411
20
134.5383043
40
0.2850167
50
105.6678541
51
144.2649156
0
ARC
8
DEFAULT_255_1_388
10
13.0710304
20
134.4668024
40
0.4083468
50
144.3560675
51
162.8564185
0
ARC
8
DEFAULT_255_1_388
10
13.3054746
20
134.3915083
40
0.6545749
50
162.6076338
51
173.6779811
0
ARC
8
DEFAULT_255_1_388
10
13.6498861
20
134.3496422
40
1.0015089
50
173.4670996
51
179.9729015
0
ARC
8
DEFAULT_255_1_388
10
13.4351732
20
134.2378636
40
0.78681
50
179.6556955
51
190.007958
0
ARC
8
DEFAULT_255_1_388
10
13.1746013
20
134.190066
40
0.5218997
50
189.8117884
51
206.6795375
0
ARC
8
DEFAULT_255_1_388
10
13.0795459
20
134.1457514
40
0.4170788
50
207.1031171
51
217.7074698
0
ARC
8
DEFAULT_255_1_388
10
13.008189
20
134.0836596
40
0.3226945
50
216.7345117
51
265.6812141
0
ARC
8
DEFAULT_255_1_388
10
13.0229032
20
134.185403
40
0.4253149
50
264.7367524
51
270.0610826
0
ARC
8
DEFAULT_255_1_388
10
13.0255218
20
134.5049173
40
0.7448321
50
269.8334494
51
276.0538364
0
ARC
8
DEFAULT_255_1_388
10
13.048808
20
134.2909924
40
0.5296446
50
275.9894423
51
284.4615914
0
ARC
8
DEFAULT_255_1_388
10
13.0709593
20
134.197757
40
0.4338353
50
284.7038488
51
286.4938196
0
ARC
8
DEFAULT_255_1_388
10
13.1168742
20
134.0498371
40
0.2789738
50
286.0770429
51
304.2629628
0
ARC
8
DEFAULT_255_1_388
10
13.13189
20
134.025268
40
0.2502188
50
304.5886247
51
317.1074126
0
LINE
8
DEFAULT_255_1_388
10
14.3579213
20
133.6363
11
14.3543071
21
133.7329814
0
LINE
8
DEFAULT_255_1_388
10
13.7471118
20
133.9778474
11
13.7471118
21
134.6139567
0
LINE
8
DEFAULT_255_1_388
10
13.7471118
20
134.6139567
11
13.9142712
21
134.6139567
0
LINE
8
DEFAULT_255_1_388
10
13.9142712
20
134.6139567
11
13.9142712
21
133.9823652
0
LINE
8
DEFAULT_255_1_388
10
14.3497893
20
133.9028515
11
14.3497893
21
134.6139567
0
LINE
8
DEFAULT_255_1_388
10
14.3497893
20
134.6139567
11
14.5169487
21
134.6139567
0
LINE
8
DEFAULT_255_1_388
10
14.5169487
20
134.6139567
11
14.5169487
21
133.6363
0
LINE
8
DEFAULT_255_1_388
10
14.5169487
20
133.6363
11
14.3579213
21
133.6363
0
ARC
8
DEFAULT_255_1_388
10
14.1163109
20
133.9374675
40
0.3137782
50
282.5436457
51
319.3308483
0
ARC
8
DEFAULT_255_1_388
10
14.0727535
20
134.1069138
40
0.4886732
50
269.8919644
51
283.213949
0
ARC
8
DEFAULT_255_1_388
10
14.0678504
20
134.2473412
40
0.6291125
50
270.0024363
51
270.3626317
0
ARC
8
DEFAULT_255_1_388
10
14.0644483
20
134.0472026
40
0.4289875
50
257.7354503
51
270.4579702
0
ARC
8
DEFAULT_255_1_388
10
14.031002
20
133.9010679
40
0.2790881
50
233.3385202
51
258.072161
0
ARC
8
DEFAULT_255_1_388
10
14.0158885
20
133.8763828
40
0.250276
50
221.9625878
51
232.7397557
0
ARC
8
DEFAULT_255_1_388
10
14.0473848
20
133.9005961
40
0.2899023
50
197.9449652
51
221.3587453
0
ARC
8
DEFAULT_255_1_388
10
14.2043353
20
133.9542197
40
0.4557469
50
185.8086112
51
198.2791204
0
ARC
8
DEFAULT_255_1_388
10
14.4172101
20
133.9795327
40
0.6701004
50
180.1441004
51
186.1197471
0
ARC
8
DEFAULT_255_1_388
10
14.3157779
20
133.9783589
40
0.4015267
50
179.428312
51
191.0738067
0
ARC
8
DEFAULT_255_1_388
10
14.1263961
20
133.939262
40
0.2081712
50
190.5250706
51
212.6989599
0
ARC
8
DEFAULT_255_1_388
10
14.0741729
20
133.9104416
40
0.1487075
50
214.2246262
51
264.4398306
0
ARC
8
DEFAULT_255_1_388
10
14.0941242
20
134.0127845
40
0.2526976
50
262.1851951
51
270.1949702
0
ARC
8
DEFAULT_255_1_388
10
14.0988346
20
134.156346
40
0.3962764
50
269.4432626
51
282.9581304
0
ARC
8
DEFAULT_255_1_388
10
14.1367146
20
134.0022077
40
0.2375807
50
282.3910141
51
311.9723859
0
ARC
8
DEFAULT_255_1_388
10
14.1375679
20
133.9940255
40
0.2309774
50
313.1724921
51
336.7508062
0
LINE
8
DEFAULT_255_1_388
10
15.5497229
20
133.6363
11
15.3744313
21
133.6363
0
LINE
8
DEFAULT_255_1_388
10
15.1855864
20
134.2290383
11
15.348228
21
134.2290383
0
LINE
8
DEFAULT_255_1_388
10
15.348228
20
134.2290383
11
15.348228
21
134.3058413
0
LINE
8
DEFAULT_255_1_388
10
14.9307812
20
134.3428874
11
14.7627182
21
134.3428874
0
LINE
8
DEFAULT_255_1_388
10
15.5153874
20
134.3148769
11
15.5153874
21
133.8649018
0
LINE
8
DEFAULT_255_1_388
10
15.5497229
20
133.650757
11
15.5497229
21
133.6363
0
LINE
8
DEFAULT_255_1_388
10
15.348228
20
133.91008
11
15.348228
21
134.1106713
0
LINE
8
DEFAULT_255_1_388
10
15.348228
20
134.1106713
11
15.2172111
21
134.1106713
0
ARC
8
DEFAULT_255_1_388
10
15.4913463
20
133.69301
40
0.1299428
50
197.0784902
51
205.8758668
0
ARC
8
DEFAULT_255_1_388
10
15.6308049
20
133.7371959
40
0.2762313
50
192.2927663
51
197.3441989
0
ARC
8
DEFAULT_255_1_388
10
15.8503554
20
133.785976
40
0.5011345
50
189.1573793
51
192.3977084
0
ARC
8
DEFAULT_255_1_388
10
16.1668401
20
133.8375878
40
0.8217995
50
186.8686098
51
189.1982636
0
ARC
8
DEFAULT_255_1_388
10
15.0613492
20
134.011626
40
0.3975173
50
294.0079259
51
316.7603918
0
ARC
8
DEFAULT_255_1_388
10
15.0758675
20
133.9911902
40
0.3729755
50
269.5043226
51
293.2478373
0
ARC
8
DEFAULT_255_1_388
10
15.0691726
20
134.0362915
40
0.4180772
50
255.4034155
51
270.4753052
0
ARC
8
DEFAULT_255_1_388
10
15.043294
20
133.9358652
40
0.3143705
50
228.6141063
51
255.3550831
0
ARC
8
DEFAULT_255_1_388
10
15.0058922
20
133.900054
40
0.2628114
50
181.8954381
51
229.5703134
0
ARC
8
DEFAULT_255_1_388
10
15.0723857
20
133.9072824
40
0.329546
50
179.9848815
51
182.7691528
0
ARC
8
DEFAULT_255_1_388
10
15.0630924
20
133.9111827
40
0.3202753
50
161.0342928
51
180.6822077
0
ARC
8
DEFAULT_255_1_388
10
15.0136539
20
133.9240422
40
0.2693695
50
125.0525065
51
160.2034058
0
ARC
8
DEFAULT_255_1_388
10
15.088126
20
133.8224275
40
0.3953338
50
106.2670809
51
125.4300189
0
ARC
8
DEFAULT_255_1_388
10
15.1525302
20
133.6119795
40
0.6154041
50
95.4857579
51
106.5348562
0
ARC
8
DEFAULT_255_1_388
10
15.1832589
20
133.3307993
40
0.8982419
50
89.8515405
51
95.7222579
0
ARC
8
DEFAULT_255_1_388
10
15.111317
20
134.3078925
40
0.2369198
50
359.5039339
51
14.3181205
0
ARC
8
DEFAULT_255_1_388
10
15.1759175
20
134.3246862
40
0.170173
50
14.2184556
51
45.2028524
0
ARC
8
DEFAULT_255_1_388
10
15.1799871
20
134.3262862
40
0.1661795
50
45.8098216
51
73.0032926
0
ARC
8
DEFAULT_255_1_388
10
15.1519697
20
134.240626
40
0.2562942
50
72.6112517
51
85.7231489
0
ARC
8
DEFAULT_255_1_388
10
15.1418482
20
134.1379339
40
0.3594635
50
85.335019
51
90.0855069
0
ARC
8
DEFAULT_255_1_388
10
15.1391915
20
134.2043472
40
0.2930574
50
89.5854741
51
103.459124
0
ARC
8
DEFAULT_255_1_388
10
15.1220454
20
134.2758134
40
0.2195632
50
103.448332
51
126.5403399
0
ARC
8
DEFAULT_255_1_388
10
15.095143
20
134.3102224
40
0.1759039
50
126.1730306
51
141.5008224
0
ARC
8
DEFAULT_255_1_388
10
15.0525746
20
134.3436266
40
0.1217955
50
141.3332087
51
180.3477313
0
ARC
8
DEFAULT_255_1_388
10
14.9767169
20
134.3416904
40
0.214002
50
151.6373605
51
179.6795088
0
ARC
8
DEFAULT_255_1_388
10
15.0444404
20
134.3079768
40
0.2896224
50
142.4981529
51
152.1330509
0
ARC
8
DEFAULT_255_1_388
10
15.0802409
20
134.2798781
40
0.3351307
50
120.8284906
51
142.4132156
0
ARC
8
DEFAULT_255_1_388
10
15.1270385
20
134.2066185
40
0.4220297
50
113.9634885
51
121.1871733
0
ARC
8
DEFAULT_255_1_388
10
15.1423693
20
134.1692705
40
0.4623867
50
93.3784336
51
113.8197902
0
ARC
8
DEFAULT_255_1_388
10
15.1510076
20
134.0831549
40
0.5488732
50
89.9745993
51
93.7488475
0
ARC
8
DEFAULT_255_1_388
10
15.1549322
20
134.0872587
40
0.5447818
50
79.1327128
51
90.3871707
0
ARC
8
DEFAULT_255_1_388
10
15.1915086
20
134.2700597
40
0.3583662
50
60.1434453
51
79.365517
0
ARC
8
DEFAULT_255_1_388
10
15.2203852
20
134.3255195
40
0.2959028
50
48.6191018
51
59.6466565
0
ARC
8
DEFAULT_255_1_388
10
15.2257564
20
134.3326356
40
0.2870136
50
9.0349502
51
48.4845487
0
ARC
8
DEFAULT_255_1_388
10
15.1046862
20
134.3062084
40
0.4107927
50
1.2091359
51
10.0234369
0
ARC
8
DEFAULT_255_1_388
10
16.374431
20
133.8621422
40
0.8590481
50
179.8159449
51
185.3205667
0
ARC
8
DEFAULT_255_1_388
10
16.0712156
20
133.8331945
40
0.5544553
50
185.2475628
51
192.7952551
0
ARC
8
DEFAULT_255_1_388
10
15.872998
20
133.7877024
40
0.3510853
50
192.7195981
51
202.9584216
0
ARC
8
DEFAULT_255_1_388
10
15.0970016
20
134.0574895
40
0.2937869
50
270.006916
51
300.503478
0
ARC
8
DEFAULT_255_1_388
10
15.1107951
20
134.0430888
40
0.2744162
50
299.5482616
51
315.609538
0
ARC
8
DEFAULT_255_1_388
10
15.1434247
20
134.0097072
40
0.2277499
50
315.8682065
51
334.0592465
0
ARC
8
DEFAULT_255_1_388
10
15.2123221
20
133.32609
40
0.7845965
50
89.64297
51
97.2867877
0
ARC
8
DEFAULT_255_1_388
10
15.1626818
20
133.6977936
40
0.4096042
50
96.9938706
51
109.7783917
0
ARC
8
DEFAULT_255_1_388
10
15.0878281
20
133.8981851
40
0.1957225
50
109.0087985
51
135.3265591
0
ARC
8
DEFAULT_255_1_388
10
15.05707
20
133.9362764
40
0.1471704
50
137.4537784
51
182.1083946
0
ARC
8
DEFAULT_255_1_388
10
15.0991399
20
133.9290101
40
0.1891498
50
179.4390335
51
195.7201623
0
ARC
8
DEFAULT_255_1_388
10
15.0528434
20
133.9163585
40
0.1411576
50
195.8683556
51
230.157074
0
ARC
8
DEFAULT_255_1_388
10
15.0801158
20
133.9490228
40
0.1837102
50
230.1532486
51
259.7486257
0
ARC
8
DEFAULT_255_1_388
10
15.09572
20
134.0225472
40
0.258848
50
259.2461118
51
270.2915316
0
LINE
8
DEFAULT_255_1_388
10
16.2499853
20
134.6193781
11
16.2499853
21
134.463965
0
LINE
8
DEFAULT_255_1_388
10
15.9445805
20
134.3302375
11
15.9445805
21
133.6363
0
LINE
8
DEFAULT_255_1_388
10
15.9445805
20
133.6363
11
15.7774211
21
133.6363
0
LINE
8
DEFAULT_255_1_388
10
15.7774211
20
133.6363
11
15.7774211
21
134.6139567
0
LINE
8
DEFAULT_255_1_388
10
15.7774211
20
134.6139567
11
15.9400627
21
134.6139567
0
LINE
8
DEFAULT_255_1_388
10
15.9400627
20
134.6139567
11
15.9427734
21
134.5010112
0
ARC
8
DEFAULT_255_1_388
10
16.1750013
20
134.0073068
40
0.4627735
50
80.6751522
51
86.893806
0
ARC
8
DEFAULT_255_1_388
10
16.1681843
20
133.8981103
40
0.5721798
50
86.8046851
51
90.0423898
0
ARC
8
DEFAULT_255_1_388
10
16.1640262
20
134.1748197
40
0.2954939
50
89.2758283
51
106.6212906
0
ARC
8
DEFAULT_255_1_388
10
16.1410287
20
134.2584009
40
0.2088351
50
107.1347109
51
157.6456887
0
ARC
8
DEFAULT_255_1_388
10
16.2178349
20
134.2156908
40
0.296292
50
155.6557383
51
157.256838
0
ARC
8
DEFAULT_255_1_388
10
16.1957963
20
134.3467472
40
0.296341
50
127.8167201
51
148.6300223
0
ARC
8
DEFAULT_255_1_388
10
16.1672711
20
134.3760066
40
0.2557782
50
91.3329934
51
126.7875218
0
ARC
8
DEFAULT_255_1_388
10
16.1758098
20
134.2956718
40
0.3363561
50
89.9858247
51
92.4688453
0
ARC
8
DEFAULT_255_1_388
10
16.1767591
20
134.3265114
40
0.3055179
50
85.3587643
51
90.1624243
0
ARC
8
DEFAULT_255_1_388
10
16.1862656
20
134.4394458
40
0.1921848
50
78.4019195
51
85.4592653
0
ARC
8
DEFAULT_255_1_388
10
16.2025717
20
134.5172142
40
0.1127267
50
67.7849217
51
78.573798
0
ARC
8
DEFAULT_255_1_388
10
16.2147351
20
134.5487374
40
0.0789473
50
63.4805074
51
67.3074739
0
LINE
8
DEFAULT_255_1_388
10
16.3457631
20
134.1206105
11
16.3457631
21
134.1332604
0
LINE
8
DEFAULT_255_1_388
10
17.0035581
20
134.5145646
11
17.0035581
21
135.024175
0
LINE
8
DEFAULT_255_1_388
10
17.0035581
20
135.024175
11
17.1707175
21
135.024175
0
LINE
8
DEFAULT_255_1_388
10
17.1707175
20
135.024175
11
17.1707175
21
133.6363
0
LINE
8
DEFAULT_255_1_388
10
17.1707175
20
133.6363
11
17.0171115
21
133.6363
0
LINE
8
DEFAULT_255_1_388
10
17.0171115
20
133.6363
11
17.0089794
21
133.7411135
0
LINE
8
DEFAULT_255_1_388
10
17.0035581
20
133.9028515
11
17.0035581
21
134.351923
0
ARC
8
DEFAULT_255_1_388
10
17.1192325
20
134.1382084
40
0.7734851
50
169.1662656
51
180.3665225
0
ARC
8
DEFAULT_255_1_388
10
16.8721234
20
134.1874773
40
0.5215235
50
150.2837807
51
169.3798657
0
ARC
8
DEFAULT_255_1_388
10
16.8008685
20
134.2239124
40
0.4415937
50
142.1063912
51
149.8065902
0
ARC
8
DEFAULT_255_1_388
10
16.7364897
20
134.2799913
40
0.3563766
50
118.4282495
51
142.8642233
0
ARC
8
DEFAULT_255_1_388
10
16.7253909
20
134.2870109
40
0.3449797
50
89.9199141
51
117.3621403
0
ARC
8
DEFAULT_255_1_388
10
16.7315761
20
134.1995171
40
0.4325108
50
89.9988001
51
90.7555106
0
ARC
8
DEFAULT_255_1_388
10
16.7357839
20
134.2282362
40
0.4038136
50
72.8979482
51
90.595751
0
ARC
8
DEFAULT_255_1_388
10
16.7580518
20
134.3086099
40
0.3204539
50
39.9932308
51
72.4773248
0
ARC
8
DEFAULT_255_1_388
10
16.754761
20
133.9472007
40
0.3272598
50
275.0849466
51
320.9693562
0
ARC
8
DEFAULT_255_1_388
10
16.7306526
20
134.0897895
40
0.4715615
50
269.8937433
51
276.4672347
0
ARC
8
DEFAULT_255_1_388
10
16.7230066
20
133.947215
40
0.3290559
50
222.0839188
51
271.1791339
0
ARC
8
DEFAULT_255_1_388
10
16.7917575
20
134.0175998
40
0.4272982
50
217.5168262
51
222.9097935
0
ARC
8
DEFAULT_255_1_388
10
16.8472448
20
134.0557851
40
0.4945763
50
193.0962732
51
217.1109075
0
ARC
8
DEFAULT_255_1_388
10
17.0674177
20
134.1107252
40
0.7214806
50
181.1071959
51
193.3839643
0
ARC
8
DEFAULT_255_1_388
10
17.2558553
20
134.1204904
40
0.9100921
50
179.9924355
51
181.4926257
0
ARC
8
DEFAULT_255_1_388
10
17.1629911
20
134.1107904
40
0.650078
50
179.6919448
51
188.655086
0
ARC
8
DEFAULT_255_1_388
10
16.9357968
20
134.0750086
40
0.420088
50
188.4934981
51
202.2188222
0
ARC
8
DEFAULT_255_1_388
10
16.8269775
20
134.0318888
40
0.3030458
50
202.4516374
51
215.9308342
0
ARC
8
DEFAULT_255_1_388
10
16.7603199
20
133.978769
40
0.2179351
50
214.9061987
51
264.2076983
0
ARC
8
DEFAULT_255_1_388
10
16.7708737
20
134.0459867
40
0.2858989
50
263.4629438
51
270.0938577
0
ARC
8
DEFAULT_255_1_388
10
16.7753671
20
134.035673
40
0.2756141
50
269.1632216
51
291.0932257
0
ARC
8
DEFAULT_255_1_388
10
16.7845576
20
133.9983218
40
0.2375078
50
292.2675188
51
328.1937653
0
ARC
8
DEFAULT_255_1_388
10
16.7068234
20
134.0544245
40
0.3332054
50
327.040169
51
332.941918
0
ARC
8
DEFAULT_255_1_388
10
16.7532447
20
134.2206122
40
0.2826647
50
27.6808655
51
48.7895461
0
ARC
8
DEFAULT_255_1_388
10
16.7851083
20
134.2499738
40
0.2396281
50
49.8958562
51
87.0102063
0
ARC
8
DEFAULT_255_1_388
10
16.7733927
20
134.1613941
40
0.3287745
50
85.7763593
51
90.0424518
0
ARC
8
DEFAULT_255_1_388
10
16.7700994
20
134.2355766
40
0.25461
50
89.3136862
51
109.426258
0
ARC
8
DEFAULT_255_1_388
10
16.7617416
20
134.269891
40
0.2194978
50
110.3479382
51
145.1577921
0
ARC
8
DEFAULT_255_1_388
10
16.8352896
20
134.216319
40
0.3104736
50
144.7981654
51
162.8715843
0
ARC
8
DEFAULT_255_1_388
10
17.0259495
20
134.1550138
40
0.5107383
50
162.598526
51
173.3417416
0
ARC
8
DEFAULT_255_1_388
10
17.3260869
20
134.1177767
40
0.8131718
50
173.1877249
51
180.2459848
0
LINE
8
DEFAULT_255_1_388
10
18.4971501
20
134.9527934
11
18.5269677
21
134.9527934
0
LINE
8
DEFAULT_255_1_388
10
18.5269677
20
134.9527934
11
18.5269677
21
134.8109338
0
LINE
8
DEFAULT_255_1_388
10
18.5269677
20
134.8109338
11
18.4962465
21
134.8109338
0
LINE
8
DEFAULT_255_1_388
10
17.8809191
20
134.1368747
11
17.8809191
21
134.2010278
0
LINE
8
DEFAULT_255_1_388
10
18.0489821
20
134.1793422
11
18.0489821
21
134.1178999
0
ARC
8
DEFAULT_255_1_388
10
18.5021357
20
134.2486826
40
0.562282
50
90.6001079
51
104.5146616
0
ARC
8
DEFAULT_255_1_388
10
18.4584316
20
134.41121
40
0.3939917
50
104.2855758
51
133.8630124
0
ARC
8
DEFAULT_255_1_388
10
18.4768569
20
134.3990243
40
0.4155734
50
134.5304124
51
161.6210222
0
ARC
8
DEFAULT_255_1_388
10
18.6628501
20
134.3334421
40
0.6127682
50
161.2850533
51
174.2074364
0
ARC
8
DEFAULT_255_1_388
10
18.8218068
20
134.3115437
40
0.7731446
50
173.7817938
51
174.9251711
0
ARC
8
DEFAULT_255_1_388
10
18.3092262
20
134.156027
40
0.3412588
50
95.8332067
51
138.995412
0
ARC
8
DEFAULT_255_1_388
10
18.3343542
20
134.0121695
40
0.4870358
50
89.8755506
51
97.0540979
0
ARC
8
DEFAULT_255_1_388
10
18.3396931
20
134.1061841
40
0.3930432
50
71.6407016
51
90.6240821
0
ARC
8
DEFAULT_255_1_388
10
18.3566325
20
134.1685433
40
0.3285421
50
39.6368051
51
71.0190743
0
ARC
8
DEFAULT_255_1_388
10
18.2850232
20
134.1066586
40
0.4231706
50
10.6588054
51
39.9044509
0
ARC
8
DEFAULT_255_1_388
10
18.1108778
20
134.0688223
40
0.60133
50
359.6827842
51
11.1326896
0
ARC
8
DEFAULT_255_1_388
10
18.1064114
20
134.0608715
40
0.6058047
50
347.2485908
51
0.4371098
0
ARC
8
DEFAULT_255_1_388
10
18.2939899
20
134.0157379
40
0.4128987
50
318.1408565
51
347.6118497
0
ARC
8
DEFAULT_255_1_388
10
18.3305496
20
133.9856903
40
0.3656244
50
275.6342406
51
317.824739
0
ARC
8
DEFAULT_255_1_388
10
18.3057017
20
134.1318827
40
0.513655
50
269.8872513
51
276.7916069
0
ARC
8
DEFAULT_255_1_388
10
18.2995209
20
134.0165181
40
0.398323
50
246.9139443
51
270.7436787
0
ARC
8
DEFAULT_255_1_388
10
18.3002405
20
134.0005044
40
0.3839368
50
218.1665534
51
245.8780431
0
ARC
8
DEFAULT_255_1_388
10
18.3991777
20
134.0832903
40
0.5128958
50
191.4115343
51
218.6077624
0
ARC
8
DEFAULT_255_1_388
10
18.6172093
20
134.1321777
40
0.7363054
50
179.6344971
51
191.7836758
0
ARC
8
DEFAULT_255_1_388
10
19.2451968
20
134.2085495
40
1.3642984
50
171.4523743
51
180.3158856
0
ARC
8
DEFAULT_255_1_388
10
18.7507695
20
134.2854895
40
0.8639311
50
157.9802296
51
171.6246761
0
ARC
8
DEFAULT_255_1_388
10
18.5017045
20
134.3848038
40
0.5958004
50
141.4299236
51
157.8541251
0
ARC
8
DEFAULT_255_1_388
10
18.4295129
20
134.4358746
40
0.5075416
50
102.871586
51
140.8564533
0
ARC
8
DEFAULT_255_1_388
10
18.5023682
20
134.1613943
40
0.7914163
50
90.377773
51
103.5868422
0
ARC
8
DEFAULT_255_1_388
10
18.3068203
20
134.0933543
40
0.2667015
50
89.8751238
51
126.2072139
0
ARC
8
DEFAULT_255_1_388
10
18.3119674
20
134.0759847
40
0.2838229
50
124.9742447
51
144.8960197
0
ARC
8
DEFAULT_255_1_388
10
18.2921919
20
134.0920981
40
0.2583845
50
145.2974778
51
160.2660922
0
ARC
8
DEFAULT_255_1_388
10
18.6378407
20
134.1143151
40
0.5888695
50
179.6512124
51
190.285571
0
ARC
8
DEFAULT_255_1_388
10
18.4472887
20
134.0783968
40
0.3949683
50
190.0944895
51
207.5099647
0
ARC
8
DEFAULT_255_1_388
10
18.3836469
20
134.0481177
40
0.3245464
50
207.9585471
51
216.325377
0
ARC
8
DEFAULT_255_1_388
10
18.3454106
20
134.0166712
40
0.2751259
50
215.7661336
51
232.5457193
0
ARC
8
DEFAULT_255_1_388
10
18.3023221
20
133.9619273
40
0.2054668
50
232.8005815
51
270.6605497
0
ARC
8
DEFAULT_255_1_388
10
18.3074646
20
134.0028853
40
0.2464268
50
269.3550767
51
288.474612
0
ARC
8
DEFAULT_255_1_388
10
18.3179153
20
133.9635721
40
0.2058436
50
289.1831976
51
322.9685307
0
ARC
8
DEFAULT_255_1_388
10
18.2491254
20
134.0178279
40
0.2934408
50
322.6007085
51
346.5183319
0
ARC
8
DEFAULT_255_1_388
10
18.1189011
20
134.0510434
40
0.4278249
50
346.2584622
51
358.7739592
0
ARC
8
DEFAULT_255_1_388
10
18.0037586
20
134.0572829
40
0.5430876
50
358.3757628
51
0.0082477
0
ARC
8
DEFAULT_255_1_388
10
18.0894404
20
134.0603856
40
0.4574157
50
359.6211417
51
11.28403
0
ARC
8
DEFAULT_255_1_388
10
18.2331011
20
134.0903535
40
0.3106708
50
11.0483152
51
31.8145585
0
ARC
8
DEFAULT_255_1_388
10
18.2678716
20
134.1092045
40
0.2711963
50
32.3028554
51
38.0820598
0
ARC
8
DEFAULT_255_1_388
10
18.3151949
20
134.1520717
40
0.2075566
50
36.8249851
51
85.741667
0
ARC
8
DEFAULT_255_1_388
10
18.3076361
20
134.0957065
40
0.2643487
50
85.0150021
51
90.050843
0
LINE
8
DEFAULT_255_1_388
10
19.7350334
20
134.414269
11
19.7350334
21
134.1974135
0
LINE
8
DEFAULT_255_1_388
10
18.9046577
20
134.1748244
11
18.9046577
21
134.3980048
0
LINE
8
DEFAULT_255_1_388
10
19.567874
20
134.1522353
11
19.567874
21
134.4260153
0
LINE
8
DEFAULT_255_1_388
10
19.0718171
20
134.4386652
11
19.0718171
21
134.1712102
0
ARC
8
DEFAULT_255_1_388
10
18.3572668
20
134.1919118
40
1.3777776
50
353.8440855
51
0.2287917
0
ARC
8
DEFAULT_255_1_388
10
18.8791685
20
134.1336414
40
0.852639
50
344.4934746
51
353.9763743
0
ARC
8
DEFAULT_255_1_388
10
19.2158493
20
134.0379191
40
0.5026273
50
329.2803599
51
344.7473406
0
ARC
8
DEFAULT_255_1_388
10
19.3273988
20
133.9767038
40
0.3754848
50
324.9361395
51
328.6153007
0
ARC
8
DEFAULT_255_1_388
10
19.3699638
20
133.9469586
40
0.3235566
50
280.5801797
51
324.9173226
0
ARC
8
DEFAULT_255_1_388
10
19.3248267
20
134.1349236
40
0.5167077
50
269.5979457
51
281.6732777
0
ARC
8
DEFAULT_255_1_388
10
19.316717
20
134.1214113
40
0.5032026
50
256.6228565
51
270.5105488
0
ARC
8
DEFAULT_255_1_388
10
19.2714913
20
133.9472345
40
0.3233092
50
215.8618351
51
257.2787793
0
ARC
8
DEFAULT_255_1_388
10
19.386362
20
134.0243106
40
0.4615831
50
197.9695203
51
215.2622745
0
ARC
8
DEFAULT_255_1_388
10
19.6659296
20
134.1186641
40
0.7566307
50
187.8816486
51
198.2346584
0
ARC
8
DEFAULT_255_1_388
10
20.1112534
20
134.1829453
40
1.2065653
50
180.8977266
51
188.0054894
0
ARC
8
DEFAULT_255_1_388
10
20.4162748
20
134.19444
40
1.5117443
50
180.7434591
51
181.152202
0
ARC
8
DEFAULT_255_1_388
10
20.2487743
20
134.4034371
40
1.3441277
50
173.7674302
51
180.2315596
0
ARC
8
DEFAULT_255_1_388
10
19.7405612
20
134.4608779
40
0.8326847
50
164.3058537
51
173.9000553
0
ARC
8
DEFAULT_255_1_388
10
19.4129612
20
134.5552652
40
0.4917711
50
148.7922028
51
164.5682288
0
ARC
8
DEFAULT_255_1_388
10
19.306035
20
134.6149457
40
0.3694204
50
144.5883979
51
148.1161588
0
ARC
8
DEFAULT_255_1_388
10
19.2673095
20
134.6419667
40
0.322202
50
101.6440149
51
144.5142619
0
ARC
8
DEFAULT_255_1_388
10
19.3151287
20
134.4519337
40
0.5180451
50
89.528284
51
102.5820197
0
ARC
8
DEFAULT_255_1_388
10
19.3240279
20
134.4475376
40
0.5224441
50
77.0437914
51
90.508231
0
ARC
8
DEFAULT_255_1_388
10
19.3692533
20
134.6323272
40
0.3322297
50
48.2777708
51
77.4996087
0
ARC
8
DEFAULT_255_1_388
10
19.3774273
20
134.6468557
40
0.315966
50
36.3141586
51
47.6307332
0
ARC
8
DEFAULT_255_1_388
10
19.2796995
20
134.5810159
40
0.4337313
50
18.2931065
51
35.6770203
0
ARC
8
DEFAULT_255_1_388
10
18.9935836
20
134.4828107
40
0.7362203
50
8.0246996
51
18.5605636
0
ARC
8
DEFAULT_255_1_388
10
18.5252191
20
134.4136432
40
1.2096583
50
1.127539
51
8.1718423
0
ARC
8
DEFAULT_255_1_388
10
18.1603325
20
134.3993374
40
1.5747719
50
0.5432713
51
1.38669
0
ARC
8
DEFAULT_255_1_388
10
18.3660704
20
134.4300163
40
1.2018103
50
359.8092569
51
4.9408001
0
ARC
8
DEFAULT_255_1_388
10
18.8397285
20
134.47229
40
0.7262727
50
4.8364937
51
12.2906017
0
ARC
8
DEFAULT_255_1_388
10
19.149675
20
134.5413485
40
0.4087324
50
12.0806994
51
23.8171225
0
ARC
8
DEFAULT_255_1_388
10
19.2817146
20
134.5972508
40
0.2653719
50
24.2874621
51
31.3934353
0
ARC
8
DEFAULT_255_1_388
10
19.3407582
20
134.6358822
40
0.1948607
50
30.7407708
51
82.4658033
0
ARC
8
DEFAULT_255_1_388
10
19.3205242
20
134.5365017
40
0.2961198
50
81.1057101
51
90.2187368
0
ARC
8
DEFAULT_255_1_388
10
19.3165054
20
134.5655421
40
0.2670929
50
89.380395
51
105.6763916
0
ARC
8
DEFAULT_255_1_388
10
19.2958776
20
134.640532
40
0.1893189
50
105.7980655
51
149.7387869
0
ARC
8
DEFAULT_255_1_388
10
19.4155916
20
134.5685719
40
0.3289892
50
149.4208441
51
163.628295
0
ARC
8
DEFAULT_255_1_388
10
19.6508146
20
134.4968345
40
0.5749004
50
163.3764549
51
172.141138
0
ARC
8
DEFAULT_255_1_388
10
20.0220867
20
134.4436582
40
0.9499585
50
172.0258462
51
178.0705453
0
ARC
8
DEFAULT_255_1_388
10
20.364242
20
134.4274682
40
1.2924734
50
177.8639301
51
179.5036263
0
ARC
8
DEFAULT_255_1_388
10
20.2423439
20
134.1671151
40
1.170534
50
179.7995545
51
185.246089
0
ARC
8
DEFAULT_255_1_388
10
19.7875032
20
134.1240404
40
0.7136613
50
185.1411911
51
193.0082205
0
ARC
8
DEFAULT_255_1_388
10
19.4901293
20
134.0537441
40
0.4080987
50
192.7897338
51
205.2507384
0
ARC
8
DEFAULT_255_1_388
10
19.3723503
20
134.0011538
40
0.2791522
50
205.8001921
51
211.2545876
0
ARC
8
DEFAULT_255_1_388
10
19.3135042
20
133.9617132
40
0.2084074
50
210.3789935
51
238.4007996
0
ARC
8
DEFAULT_255_1_388
10
19.3113128
20
133.9669786
40
0.2117943
50
239.6521916
51
265.9793852
0
ARC
8
DEFAULT_255_1_388
10
19.3208977
20
134.0426358
40
0.2879689
50
265.1324455
51
270.0603288
0
ARC
8
DEFAULT_255_1_388
10
19.3241354
20
134.0061418
40
0.2514919
50
269.3314378
51
287.2180039
0
ARC
8
DEFAULT_255_1_388
10
19.3396436
20
133.9495291
40
0.1928357
50
287.7957942
51
329.0808983
0
ARC
8
DEFAULT_255_1_388
10
19.2319193
20
134.0167651
40
0.319808
50
328.6635261
51
343.3325043
0
ARC
8
DEFAULT_255_1_388
10
18.9874652
20
134.0929195
40
0.5758408
50
343.0498092
51
351.9392499
0
ARC
8
DEFAULT_255_1_388
10
18.5973973
20
134.1504205
40
0.9701202
50
351.8071632
51
357.7957897
0
ARC
8
DEFAULT_255_1_388
10
18.233945
20
134.1692724
40
1.3340376
50
357.5870923
51
359.2682493
0
LINE
8
DEFAULT_255_1_388
10
20.7741325
20
134.414269
11
20.7741325
21
134.1974135
0
LINE
8
DEFAULT_255_1_388
10
19.9437568
20
134.1748244
11
19.9437568
21
134.3980048
0
LINE
8
DEFAULT_255_1_388
10
20.6069731
20
134.1522353
11
20.6069731
21
134.4260153
0
LINE
8
DEFAULT_255_1_388
10
20.1109162
20
134.4386652
11
20.1109162
21
134.1712102
0
ARC
8
DEFAULT_255_1_388
10
19.3963659
20
134.1919118
40
1.3777776
50
353.8440855
51
0.2287917
0
ARC
8
DEFAULT_255_1_388
10
19.9182677
20
134.1336414
40
0.852639
50
344.4934746
51
353.9763743
0
ARC
8
DEFAULT_255_1_388
10
20.2549484
20
134.0379191
40
0.5026273
50
329.2803599
51
344.7473406
0
ARC
8
DEFAULT_255_1_388
10
20.3664979
20
133.9767038
40
0.3754848
50
324.9361395
51
328.6153007
0
ARC
8
DEFAULT_255_1_388
10
20.4090629
20
133.9469586
40
0.3235566
50
280.5801797
51
324.9173226
0
ARC
8
DEFAULT_255_1_388
10
20.3639258
20
134.1349236
40
0.5167077
50
269.5979457
51
281.6732777
0
ARC
8
DEFAULT_255_1_388
10
20.3558161
20
134.1214113
40
0.5032026
50
256.6228565
51
270.5105488
0
ARC
8
DEFAULT_255_1_388
10
20.3105904
20
133.9472345
40
0.3233092
50
215.8618351
51
257.2787793
0
ARC
8
DEFAULT_255_1_388
10
20.4254611
20
134.0243106
40
0.4615831
50
197.9695203
51
215.2622745
0
ARC
8
DEFAULT_255_1_388
10
20.7050287
20
134.1186641
40
0.7566307
50
187.8816486
51
198.2346584
0
ARC
8
DEFAULT_255_1_388
10
21.1503525
20
134.1829453
40
1.2065653
50
180.8977266
51
188.0054894
0
ARC
8
DEFAULT_255_1_388
10
21.4553739
20
134.19444
40
1.5117443
50
180.7434591
51
181.152202
0
ARC
8
DEFAULT_255_1_388
10
21.2878735
20
134.4034371
40
1.3441277
50
173.7674302
51
180.2315596
0
ARC
8
DEFAULT_255_1_388
10
20.7796604
20
134.4608779
40
0.8326847
50
164.3058537
51
173.9000553
0
ARC
8
DEFAULT_255_1_388
10
20.4520604
20
134.5552652
40
0.4917711
50
148.7922028
51
164.5682288
0
ARC
8
DEFAULT_255_1_388
10
20.3451341
20
134.6149457
40
0.3694204
50
144.5883979
51
148.1161588
0
ARC
8
DEFAULT_255_1_388
10
20.3064086
20
134.6419667
40
0.322202
50
101.6440149
51
144.5142619
0
ARC
8
DEFAULT_255_1_388
10
20.3542279
20
134.4519337
40
0.5180451
50
89.528284
51
102.5820197
0
ARC
8
DEFAULT_255_1_388
10
20.363127
20
134.4475376
40
0.5224441
50
77.0437914
51
90.508231
0
ARC
8
DEFAULT_255_1_388
10
20.4083524
20
134.6323272
40
0.3322297
50
48.2777708
51
77.4996087
0
ARC
8
DEFAULT_255_1_388
10
20.4165264
20
134.6468557
40
0.315966
50
36.3141586
51
47.6307332
0
ARC
8
DEFAULT_255_1_388
10
20.3187986
20
134.5810159
40
0.4337313
50
18.2931065
51
35.6770203
0
ARC
8
DEFAULT_255_1_388
10
20.0326827
20
134.4828107
40
0.7362203
50
8.0246996
51
18.5605636
0
ARC
8
DEFAULT_255_1_388
10
19.5643183
20
134.4136432
40
1.2096583
50
1.127539
51
8.1718423
0
ARC
8
DEFAULT_255_1_388
10
19.1994316
20
134.3993374
40
1.5747719
50
0.5432713
51
1.38669
0
ARC
8
DEFAULT_255_1_388
10
19.4051695
20
134.4300163
40
1.2018103
50
359.8092569
51
4.9408001
0
ARC
8
DEFAULT_255_1_388
10
19.8788276
20
134.47229
40
0.7262727
50
4.8364937
51
12.2906017
0
ARC
8
DEFAULT_255_1_388
10
20.1887741
20
134.5413485
40
0.4087324
50
12.0806994
51
23.8171225
0
ARC
8
DEFAULT_255_1_388
10
20.3208137
20
134.5972508
40
0.2653719
50
24.2874621
51
31.3934353
0
ARC
8
DEFAULT_255_1_388
10
20.3798573
20
134.6358822
40
0.1948607
50
30.7407708
51
82.4658033
0
ARC
8
DEFAULT_255_1_388
10
20.3596234
20
134.5365017
40
0.2961198
50
81.1057101
51
90.2187368
0
ARC
8
DEFAULT_255_1_388
10
20.3556045
20
134.5655421
40
0.2670929
50
89.380395
51
105.6763916
0
ARC
8
DEFAULT_255_1_388
10
20.3349767
20
134.640532
40
0.1893189
50
105.7980655
51
149.7387869
0
ARC
8
DEFAULT_255_1_388
10
20.4546907
20
134.5685719
40
0.3289892
50
149.4208441
51
163.628295
0
ARC
8
DEFAULT_255_1_388
10
20.6899137
20
134.4968345
40
0.5749004
50
163.3764549
51
172.141138
0
ARC
8
DEFAULT_255_1_388
10
21.0611859
20
134.4436582
40
0.9499585
50
172.0258462
51
178.0705453
0
ARC
8
DEFAULT_255_1_388
10
21.4033411
20
134.4274682
40
1.2924734
50
177.8639301
51
179.5036263
0
ARC
8
DEFAULT_255_1_388
10
21.281443
20
134.1671151
40
1.170534
50
179.7995545
51
185.246089
0
ARC
8
DEFAULT_255_1_388
10
20.8266023
20
134.1240404
40
0.7136613
50
185.1411911
51
193.0082205
0
ARC
8
DEFAULT_255_1_388
10
20.5292284
20
134.0537441
40
0.4080987
50
192.7897338
51
205.2507384
0
ARC
8
DEFAULT_255_1_388
10
20.4114494
20
134.0011538
40
0.2791522
50
205.8001921
51
211.2545876
0
ARC
8
DEFAULT_255_1_388
10
20.3526033
20
133.9617132
40
0.2084074
50
210.3789935
51
238.4007996
0
ARC
8
DEFAULT_255_1_388
10
20.3504119
20
133.9669786
40
0.2117943
50
239.6521916
51
265.9793852
0
ARC
8
DEFAULT_255_1_388
10
20.3599968
20
134.0426358
40
0.2879689
50
265.1324455
51
270.0603288
0
ARC
8
DEFAULT_255_1_388
10
20.3632345
20
134.0061418
40
0.2514919
50
269.3314378
51
287.2180039
0
ARC
8
DEFAULT_255_1_388
10
20.3787427
20
133.9495291
40
0.1928357
50
287.7957942
51
329.0808983
0
ARC
8
DEFAULT_255_1_388
10
20.2710184
20
134.0167651
40
0.319808
50
328.6635261
51
343.3325043
0
ARC
8
DEFAULT_255_1_388
10
20.0265643
20
134.0929195
40
0.5758408
50
343.0498092
51
351.9392499
0
ARC
8
DEFAULT_255_1_388
10
19.6364964
20
134.1504205
40
0.9701202
50
351.8071632
51
357.7957897
0
ARC
8
DEFAULT_255_1_388
10
19.2730441
20
134.1692724
40
1.3340376
50
357.5870923
51
359.2682493
0
LINE
8
DEFAULT_255_2_778
10
9.3932417
20
124.2218483
11
10.7161417
21
124.2218483
0
LINE
8
DEFAULT_255_2_778
10
10.7161417
20
124.2218483
11
10.7161417
21
67.3364483
0
LINE
8
DEFAULT_255_2_778
10
10.7161417
20
62.0447483
11
10.7161417
21
5.1593483
0
LINE
8
DEFAULT_255_2_778
10
10.7161417
20
5.1593483
11
9.3932417
21
5.1593483
0
LINE
8
DEFAULT_255_2_778
10
9.3932834
20
67.3364333
11
12.0390834
21
67.3364333
0
LINE
8
DEFAULT_255_2_778
10
12.0390834
20
67.3364333
11
12.0390834
21
62.0447333
0
LINE
8
DEFAULT_255_2_778
10
12.0390834
20
62.0447333
11
9.3932834
21
62.0447333
0
LINE
8
DEFAULT_255_2_778
10
9.3932834
20
62.0447333
11
9.3932834
21
67.3364333
0
LINE
8
DEFAULT_255_2_778
10
10.187
20
62.5739666
11
10.187
21
66.8072666
0
LINE
8
DEFAULT_255_2_778
10
9.9224167
20
66.013575
11
10.1870167
21
66.807275
0
LINE
8
DEFAULT_255_2_778
10
10.1870167
20
66.807275
11
10.4516167
21
66.013575
0
LINE
8
DEFAULT_255_2_778
10
10.4516167
20
66.013575
11
9.9224167
21
66.013575
0
LINE
8
DEFAULT_255_2_778
10
11.2453
20
66.8072666
11
11.2453
21
62.5739666
0
LINE
8
DEFAULT_255_2_778
10
10.9807167
20
63.367675
11
11.2453167
21
62.573975
0
LINE
8
DEFAULT_255_2_778
10
11.2453167
20
62.573975
11
11.5099167
21
63.367675
0
LINE
8
DEFAULT_255_2_778
10
11.5099167
20
63.367675
11
10.9807167
21
63.367675
0
LINE
8
DEFAULT_255_2_778
10
19.9765417
20
124.2218492
11
18.6536417
21
124.2218492
0
LINE
8
DEFAULT_255_2_778
10
18.6536417
20
124.2218492
11
18.6536417
21
99.0864492
0
LINE
8
DEFAULT_255_2_778
10
18.6536417
20
93.7947492
11
18.6536417
21
68.6593492
0
LINE
8
DEFAULT_255_2_778
10
18.6536417
20
68.6593492
11
19.9765417
21
68.6593492
0
LINE
8
DEFAULT_255_2_778
10
17.3307834
20
99.0864333
11
19.9765834
21
99.0864333
0
LINE
8
DEFAULT_255_2_778
10
19.9765834
20
99.0864333
11
19.9765834
21
93.7947333
0
LINE
8
DEFAULT_255_2_778
10
19.9765834
20
93.7947333
11
17.3307834
21
93.7947333
0
LINE
8
DEFAULT_255_2_778
10
17.3307834
20
93.7947333
11
17.3307834
21
99.0864333
0
LINE
8
DEFAULT_255_2_778
10
18.1245
20
94.3239666
11
18.1245
21
98.5572666
0
LINE
8
DEFAULT_255_2_778
10
17.8599167
20
97.763575
11
18.1245167
21
98.557275
0
LINE
8
DEFAULT_255_2_778
10
18.1245167
20
98.557275
11
18.3891167
21
97.763575
0
LINE
8
DEFAULT_255_2_778
10
18.3891167
20
97.763575
11
17.8599167
21
97.763575
0
LINE
8
DEFAULT_255_2_778
10
19.1828
20
98.5572666
11
19.1828
21
94.3239666
0
LINE
8
DEFAULT_255_2_778
10
18.9182167
20
95.117675
11
19.1828167
21
94.323975
0
LINE
8
DEFAULT_255_2_778
10
19.1828167
20
94.323975
11
19.4474167
21
95.117675
0
LINE
8
DEFAULT_255_2_778
10
19.4474167
20
95.117675
11
18.9182167
21
95.117675
0
LINE
8
DEFAULT_255_1_388
10
4.8826318
20
131.7883382
11
4.8826318
21
131.6519
0
LINE
8
DEFAULT_255_1_388
10
4.8826318
20
131.6519
11
4.0206313
21
131.6519
0
LINE
8
DEFAULT_255_1_388
10
4.0206313
20
131.6519
11
4.0206313
21
131.7720741
0
LINE
8
DEFAULT_255_1_388
10
4.0206313
20
131.7720741
11
4.4760278
21
132.2780702
0
LINE
8
DEFAULT_255_1_388
10
4.1624909
20
132.5798607
11
3.9953315
21
132.5798607
0
LINE
8
DEFAULT_255_1_388
10
4.5745163
20
132.170546
11
4.2221262
21
131.7883382
0
LINE
8
DEFAULT_255_1_388
10
4.2221262
20
131.7883382
11
4.8826318
21
131.7883382
0
ARC
8
DEFAULT_255_1_388
10
2.9584337
20
133.6200983
40
2.0258655
50
318.5132526
51
320.7829045
0
ARC
8
DEFAULT_255_1_388
10
3.5532294
20
133.1359929
40
1.2589638
50
320.7372878
51
323.9739031
0
ARC
8
DEFAULT_255_1_388
10
3.9941226
20
132.8165554
40
0.7145141
50
323.8962701
51
328.64194
0
ARC
8
DEFAULT_255_1_388
10
4.2243484
20
132.6745545
40
0.4440242
50
328.8294576
51
331.7891185
0
ARC
8
DEFAULT_255_1_388
10
4.3365804
20
132.6166374
40
0.3177517
50
331.4254512
51
352.9365785
0
ARC
8
DEFAULT_255_1_388
10
4.3518804
20
132.613205
40
0.3021496
50
353.2257659
51
0.0166158
0
ARC
8
DEFAULT_255_1_388
10
4.3755564
20
132.6157894
40
0.2784847
50
359.486299
51
15.9343185
0
ARC
8
DEFAULT_255_1_388
10
4.4325831
20
132.6311269
40
0.2194403
50
16.1712913
51
43.5286088
0
ARC
8
DEFAULT_255_1_388
10
4.4412776
20
132.6398191
40
0.2071504
50
43.4417391
51
83.1661095
0
ARC
8
DEFAULT_255_1_388
10
4.4261937
20
132.5569316
40
0.2912888
50
82.160179
51
90.1505708
0
ARC
8
DEFAULT_255_1_388
10
4.4226418
20
132.4965279
40
0.3517025
50
89.5460741
51
102.5418361
0
ARC
8
DEFAULT_255_1_388
10
4.3953138
20
132.6124933
40
0.2325748
50
102.1738499
51
129.206123
0
ARC
8
DEFAULT_255_1_388
10
4.3864592
20
132.6264664
40
0.2161591
50
129.72865
51
135.753947
0
ARC
8
DEFAULT_255_1_388
10
4.4001074
20
132.6155728
40
0.2335433
50
136.1757367
51
166.3673339
0
ARC
8
DEFAULT_255_1_388
10
4.5133762
20
132.5852148
40
0.3507873
50
165.9090694
51
178.8684636
0
ARC
8
DEFAULT_255_1_388
10
4.6109534
20
132.5799263
40
0.4484624
50
178.4391136
51
180.0083808
0
ARC
8
DEFAULT_255_1_388
10
4.4530235
20
132.5843197
40
0.4577138
50
163.2878482
51
180.5581842
0
ARC
8
DEFAULT_255_1_388
10
4.3628276
20
132.6091393
40
0.3641968
50
133.4540601
51
162.947111
0
ARC
8
DEFAULT_255_1_388
10
4.3829158
20
132.5877789
40
0.3935189
50
100.7869829
51
133.4382499
0
ARC
8
DEFAULT_255_1_388
10
4.4220403
20
132.4135399
40
0.5720313
50
89.660664
51
101.3702276
0
ARC
8
DEFAULT_255_1_388
10
4.4295012
20
132.4204263
40
0.5651495
50
78.2172678
51
90.412935
0
ARC
8
DEFAULT_255_1_388
10
4.4694478
20
132.6031511
40
0.378122
50
55.9269121
51
78.4888449
0
ARC
8
DEFAULT_255_1_388
10
4.4915193
20
132.6412187
40
0.3342379
50
47.929771
51
55.4049217
0
ARC
8
DEFAULT_255_1_388
10
4.5029723
20
132.6528618
40
0.3179217
50
4.334829
51
48.0560205
0
ARC
8
DEFAULT_255_1_388
10
4.3797525
20
132.6337487
40
0.442341
50
359.9251713
51
5.5971671
0
ARC
8
DEFAULT_255_1_388
10
4.427968
20
132.6400728
40
0.3941854
50
337.8914027
51
358.9967534
0
ARC
8
DEFAULT_255_1_388
10
4.122725
20
132.7578295
40
0.7213271
50
326.9132501
51
338.3508308
0
ARC
8
DEFAULT_255_1_388
10
3.6743362
20
133.0452105
40
1.2538973
50
319.6471833
51
327.0959558
0
ARC
8
DEFAULT_255_1_388
10
3.243002
20
133.401005
40
1.8129975
50
317.2588228
51
319.9045804
0
LINE
8
DEFAULT_255_1_388
10
5.7654143
20
132.9674898
11
5.7654143
21
132.093743
0
LINE
8
DEFAULT_255_1_388
10
5.7654143
20
132.093743
11
5.9479343
21
132.093743
0
LINE
8
DEFAULT_255_1_388
10
5.9479343
20
132.093743
11
5.9479343
21
131.9573048
0
LINE
8
DEFAULT_255_1_388
10
5.9479343
20
131.9573048
11
5.7654143
21
131.9573048
0
LINE
8
DEFAULT_255_1_388
10
5.7654143
20
131.9573048
11
5.7654143
21
131.6519
0
LINE
8
DEFAULT_255_1_388
10
5.7654143
20
131.6519
11
5.5973513
21
131.6519
0
LINE
8
DEFAULT_255_1_388
10
5.5973513
20
131.6519
11
5.5973513
21
131.9573048
0
LINE
8
DEFAULT_255_1_388
10
5.5973513
20
131.9573048
11
4.998288
21
131.9573048
0
LINE
8
DEFAULT_255_1_388
10
4.998288
20
131.9573048
11
4.998288
21
132.0557933
0
LINE
8
DEFAULT_255_1_388
10
4.998288
20
132.0557933
11
5.5874121
21
132.9674898
0
LINE
8
DEFAULT_255_1_388
10
5.5874121
20
132.9674898
11
5.7654143
21
132.9674898
0
LINE
8
DEFAULT_255_1_388
10
5.5774729
20
132.7027455
11
5.1880366
21
132.093743
0
LINE
8
DEFAULT_255_1_388
10
5.1880366
20
132.093743
11
5.5973513
21
132.093743
0
LINE
8
DEFAULT_255_1_388
10
5.5973513
20
132.093743
11
5.5973513
21
132.738888
0
LINE
8
DEFAULT_255_1_388
10
5.5973513
20
132.738888
11
5.5774729
21
132.7027455
0
LINE
8
DEFAULT_255_1_388
10
6.203643
20
132.9674898
11
6.5777187
21
131.8823089
0
LINE
8
DEFAULT_255_1_388
10
6.5777187
20
131.8823089
11
6.9536015
21
132.9674898
0
LINE
8
DEFAULT_255_1_388
10
6.9536015
20
132.9674898
11
7.14335
21
132.9674898
0
LINE
8
DEFAULT_255_1_388
10
7.14335
20
132.9674898
11
6.6554252
21
131.6519
0
LINE
8
DEFAULT_255_1_388
10
6.6554252
20
131.6519
11
6.5018193
21
131.6519
0
LINE
8
DEFAULT_255_1_388
10
6.5018193
20
131.6519
11
6.014798
21
132.9674898
0
LINE
8
DEFAULT_255_1_388
10
6.014798
20
132.9674898
11
6.203643
21
132.9674898
0
LINE
8
DEFAULT_255_1_388
10
4.1860367
20
5.9674898
11
4.1860367
21
4.6519
0
LINE
8
DEFAULT_255_1_388
10
4.1860367
20
4.6519
11
4.0125523
21
4.6519
0
LINE
8
DEFAULT_255_1_388
10
4.0125523
20
4.6519
11
4.0125523
21
5.9674898
0
LINE
8
DEFAULT_255_1_388
10
4.0125523
20
5.9674898
11
4.1860367
21
5.9674898
0
LINE
8
DEFAULT_255_1_388
10
5.5142764
20
5.9674898
11
5.5142764
21
4.6519
0
LINE
8
DEFAULT_255_1_388
10
5.5142764
20
4.6519
11
5.3398885
21
4.6519
0
LINE
8
DEFAULT_255_1_388
10
5.3398885
20
4.6519
11
4.6775757
21
5.6656993
0
LINE
8
DEFAULT_255_1_388
10
4.6775757
20
5.6656993
11
4.6775757
21
4.6519
0
LINE
8
DEFAULT_255_1_388
10
4.6775757
20
4.6519
11
4.5031878
21
4.6519
0
LINE
8
DEFAULT_255_1_388
10
4.5031878
20
4.6519
11
4.5031878
21
5.9674898
0
LINE
8
DEFAULT_255_1_388
10
4.5031878
20
5.9674898
11
4.6775757
21
5.9674898
0
LINE
8
DEFAULT_255_1_388
10
4.6775757
20
5.9674898
11
5.3416956
21
4.9491727
0
LINE
8
DEFAULT_255_1_388
10
5.3416956
20
4.9491727
11
5.3416956
21
5.9674898
0
LINE
8
DEFAULT_255_1_388
10
5.3416956
20
5.9674898
11
5.5142764
21
5.9674898
0
LINE
8
DEFAULT_255_1_388
10
6.328388
20
5.9738148
11
6.328388
21
4.6519
0
LINE
8
DEFAULT_255_1_388
10
6.328388
20
4.6519
11
6.160325
21
4.6519
0
LINE
8
DEFAULT_255_1_388
10
6.160325
20
4.6519
11
6.160325
21
5.765995
0
LINE
8
DEFAULT_255_1_388
10
6.160325
20
5.765995
11
5.8232955
21
5.6422066
0
LINE
8
DEFAULT_255_1_388
10
5.8232955
20
5.6422066
11
5.8232955
21
5.7940055
0
LINE
8
DEFAULT_255_1_388
10
5.8232955
20
5.7940055
11
6.3021846
21
5.9738148
0
LINE
8
DEFAULT_255_1_388
10
6.3021846
20
5.9738148
11
6.328388
21
5.9738148
0
LINE
8
DEFAULT_255_1_388
10
7.0286504
20
5.2771666
11
6.8949229
21
5.3115021
0
LINE
8
DEFAULT_255_1_388
10
6.8949229
20
5.3115021
11
6.9617867
21
5.9674898
0
LINE
8
DEFAULT_255_1_388
10
6.9617867
20
5.9674898
11
7.6358458
21
5.9674898
0
LINE
8
DEFAULT_255_1_388
10
7.6358458
20
5.9674898
11
7.6358458
21
5.8129803
0
LINE
8
DEFAULT_255_1_388
10
7.6358458
20
5.8129803
11
7.1036463
21
5.8129803
0
LINE
8
DEFAULT_255_1_388
10
7.1036463
20
5.8129803
11
7.0638895
21
5.4542652
0
LINE
8
DEFAULT_255_1_388
10
6.8479375
20
4.9979652
11
7.0060613
21
4.9979652
0
LINE
8
DEFAULT_255_1_388
10
7.0729251
20
5.3133092
11
7.0286504
21
5.2771666
0
ARC
8
DEFAULT_255_1_388
10
7.2725508
20
5.0965241
40
0.4141476
50
93.7181681
51
120.253934
0
ARC
8
DEFAULT_255_1_388
10
7.283156
20
5.0056284
40
0.5055616
50
89.9660471
51
94.2495185
0
ARC
8
DEFAULT_255_1_388
10
7.2877382
20
5.0719154
40
0.4392953
50
73.8045384
51
90.5585736
0
ARC
8
DEFAULT_255_1_388
10
7.314164
20
5.168452
40
0.3392225
50
41.3071072
51
73.543002
0
ARC
8
DEFAULT_255_1_388
10
7.267346
20
5.1281461
40
0.4009977
50
13.5075837
51
41.2174839
0
ARC
8
DEFAULT_255_1_388
10
7.0826557
20
5.0797907
40
0.5918864
50
1.1330171
51
13.8830737
0
ARC
8
DEFAULT_255_1_388
10
6.9230203
20
5.0712522
40
0.7516787
50
359.9925091
51
1.5431298
0
ARC
8
DEFAULT_255_1_388
10
7.0674818
20
5.0666027
40
0.6072343
50
347.8572712
51
0.4294349
0
ARC
8
DEFAULT_255_1_388
10
7.2643953
20
5.0219898
40
0.4053482
50
323.6727442
51
348.1674594
0
ARC
8
DEFAULT_255_1_388
10
7.2974917
20
5.0018175
40
0.3667495
50
316.8171818
51
323.1486802
0
ARC
8
DEFAULT_255_1_388
10
7.3044041
20
4.9976612
40
0.358869
50
281.839603
51
316.5458142
0
ARC
8
DEFAULT_255_1_388
10
7.2621329
20
5.1726363
40
0.5388223
50
269.5770964
51
282.4214641
0
ARC
8
DEFAULT_255_1_388
10
7.2541249
20
5.148593
40
0.5147801
50
256.2425863
51
270.4486481
0
ARC
8
DEFAULT_255_1_388
10
7.2204777
20
5.0136124
40
0.3756708
50
228.9024379
51
256.33135
0
ARC
8
DEFAULT_255_1_388
10
7.2121757
20
5.0005054
40
0.360344
50
193.7536029
51
228.5272638
0
ARC
8
DEFAULT_255_1_388
10
7.3514322
20
5.0413463
40
0.5053599
50
184.9244437
51
194.4976052
0
ARC
8
DEFAULT_255_1_388
10
7.3730963
20
5.0453722
40
0.3700839
50
187.3596909
51
198.6733728
0
ARC
8
DEFAULT_255_1_388
10
7.2550207
20
5.0044373
40
0.2451195
50
198.4453795
51
217.7945479
0
ARC
8
DEFAULT_255_1_388
10
7.2217379
20
4.9808563
40
0.2043754
50
218.2887146
51
228.5613203
0
ARC
8
DEFAULT_255_1_388
10
7.2327386
20
4.9956902
40
0.2227819
50
228.9652423
51
258.1237049
0
ARC
8
DEFAULT_255_1_388
10
7.2558824
20
5.0947964
40
0.3245374
50
257.7260585
51
270.4013717
0
ARC
8
DEFAULT_255_1_388
10
7.2609322
20
5.0447255
40
0.2744726
50
269.4204315
51
286.420998
0
ARC
8
DEFAULT_255_1_388
10
7.2776377
20
4.9840705
40
0.2115721
50
286.7250065
51
320.6004665
0
ARC
8
DEFAULT_255_1_388
10
7.2345293
20
5.0190527
40
0.2670878
50
320.6712228
51
344.5440474
0
ARC
8
DEFAULT_255_1_388
10
7.1044007
20
5.0572394
40
0.4026927
50
344.241448
51
356.735803
0
ARC
8
DEFAULT_255_1_388
10
6.9640314
20
5.0688656
40
0.5435085
50
356.3547471
51
0.0507222
0
ARC
8
DEFAULT_255_1_388
10
7.1142579
20
5.0723812
40
0.3932934
50
359.5579289
51
12.9534322
0
ARC
8
DEFAULT_255_1_388
10
7.2329419
20
5.1011586
40
0.2711827
50
12.6489751
51
41.608121
0
ARC
8
DEFAULT_255_1_388
10
7.2588579
20
5.1231946
40
0.2371737
50
41.7851122
51
85.9892156
0
ARC
8
DEFAULT_255_1_388
10
7.2449889
20
5.0316738
40
0.3295244
50
84.6965848
51
90.0672125
0
ARC
8
DEFAULT_255_1_388
10
7.2423457
20
4.9565118
40
0.4046926
50
89.6804991
51
99.161352
0
ARC
8
DEFAULT_255_1_388
10
7.2192466
20
5.0945848
40
0.2647044
50
98.9836248
51
113.8905702
0
ARC
8
DEFAULT_255_1_388
10
7.1934141
20
5.1555118
40
0.1985386
50
114.195234
51
127.3641866
0
LINE
8
DEFAULT_255_1_388
10
4.3183367
20
13.9049898
11
4.3183367
21
12.5894
0
LINE
8
DEFAULT_255_1_388
10
4.3183367
20
12.5894
11
4.1448523
21
12.5894
0
LINE
8
DEFAULT_255_1_388
10
4.1448523
20
12.5894
11
4.1448523
21
13.9049898
0
LINE
8
DEFAULT_255_1_388
10
4.1448523
20
13.9049898
11
4.3183367
21
13.9049898
0
LINE
8
DEFAULT_255_1_388
10
5.6465764
20
13.9049898
11
5.6465764
21
12.5894
0
LINE
8
DEFAULT_255_1_388
10
5.6465764
20
12.5894
11
5.4721885
21
12.5894
0
LINE
8
DEFAULT_255_1_388
10
5.4721885
20
12.5894
11
4.8098757
21
13.6031993
0
LINE
8
DEFAULT_255_1_388
10
4.8098757
20
13.6031993
11
4.8098757
21
12.5894
0
LINE
8
DEFAULT_255_1_388
10
4.8098757
20
12.5894
11
4.6354878
21
12.5894
0
LINE
8
DEFAULT_255_1_388
10
4.6354878
20
12.5894
11
4.6354878
21
13.9049898
0
LINE
8
DEFAULT_255_1_388
10
4.6354878
20
13.9049898
11
4.8098757
21
13.9049898
0
LINE
8
DEFAULT_255_1_388
10
4.8098757
20
13.9049898
11
5.4739956
21
12.8866727
0
LINE
8
DEFAULT_255_1_388
10
5.4739956
20
12.8866727
11
5.4739956
21
13.9049898
0
LINE
8
DEFAULT_255_1_388
10
5.4739956
20
13.9049898
11
5.6465764
21
13.9049898
0
LINE
8
DEFAULT_255_1_388
10
6.460688
20
13.9113148
11
6.460688
21
12.5894
0
LINE
8
DEFAULT_255_1_388
10
6.460688
20
12.5894
11
6.292625
21
12.5894
0
LINE
8
DEFAULT_255_1_388
10
6.292625
20
12.5894
11
6.292625
21
13.703495
0
LINE
8
DEFAULT_255_1_388
10
6.292625
20
13.703495
11
5.9555955
21
13.5797066
0
LINE
8
DEFAULT_255_1_388
10
5.9555955
20
13.5797066
11
5.9555955
21
13.7315055
0
LINE
8
DEFAULT_255_1_388
10
5.9555955
20
13.7315055
11
6.4344846
21
13.9113148
0
LINE
8
DEFAULT_255_1_388
10
6.4344846
20
13.9113148
11
6.460688
21
13.9113148
0
LINE
8
DEFAULT_255_1_388
10
7.6561038
20
13.9049898
11
7.6561038
21
13.031243
0
LINE
8
DEFAULT_255_1_388
10
7.6561038
20
13.031243
11
7.8386238
21
13.031243
0
LINE
8
DEFAULT_255_1_388
10
7.8386238
20
13.031243
11
7.8386238
21
12.8948048
0
LINE
8
DEFAULT_255_1_388
10
7.8386238
20
12.8948048
11
7.6561038
21
12.8948048
0
LINE
8
DEFAULT_255_1_388
10
7.6561038
20
12.8948048
11
7.6561038
21
12.5894
0
LINE
8
DEFAULT_255_1_388
10
7.6561038
20
12.5894
11
7.4880408
21
12.5894
0
LINE
8
DEFAULT_255_1_388
10
7.4880408
20
12.5894
11
7.4880408
21
12.8948048
0
LINE
8
DEFAULT_255_1_388
10
7.4880408
20
12.8948048
11
6.8889775
21
12.8948048
0
LINE
8
DEFAULT_255_1_388
10
6.8889775
20
12.8948048
11
6.8889775
21
12.9932933
0
LINE
8
DEFAULT_255_1_388
10
6.8889775
20
12.9932933
11
7.4781016
21
13.9049898
0
LINE
8
DEFAULT_255_1_388
10
7.4781016
20
13.9049898
11
7.6561038
21
13.9049898
0
LINE
8
DEFAULT_255_1_388
10
7.4681624
20
13.6402455
11
7.0787261
21
13.031243
0
LINE
8
DEFAULT_255_1_388
10
7.0787261
20
13.031243
11
7.4880408
21
13.031243
0
LINE
8
DEFAULT_255_1_388
10
7.4880408
20
13.031243
11
7.4880408
21
13.676388
0
LINE
8
DEFAULT_255_1_388
10
7.4880408
20
13.676388
11
7.4681624
21
13.6402455
0
LINE
8
DEFAULT_255_1_388
10
4.1860367
20
21.8424898
11
4.1860367
21
20.5269
0
LINE
8
DEFAULT_255_1_388
10
4.1860367
20
20.5269
11
4.0125523
21
20.5269
0
LINE
8
DEFAULT_255_1_388
10
4.0125523
20
20.5269
11
4.0125523
21
21.8424898
0
LINE
8
DEFAULT_255_1_388
10
4.0125523
20
21.8424898
11
4.1860367
21
21.8424898
0
LINE
8
DEFAULT_255_1_388
10
5.5142764
20
21.8424898
11
5.5142764
21
20.5269
0
LINE
8
DEFAULT_255_1_388
10
5.5142764
20
20.5269
11
5.3398885
21
20.5269
0
LINE
8
DEFAULT_255_1_388
10
5.3398885
20
20.5269
11
4.6775757
21
21.5406993
0
LINE
8
DEFAULT_255_1_388
10
4.6775757
20
21.5406993
11
4.6775757
21
20.5269
0
LINE
8
DEFAULT_255_1_388
10
4.6775757
20
20.5269
11
4.5031878
21
20.5269
0
LINE
8
DEFAULT_255_1_388
10
4.5031878
20
20.5269
11
4.5031878
21
21.8424898
0
LINE
8
DEFAULT_255_1_388
10
4.5031878
20
21.8424898
11
4.6775757
21
21.8424898
0
LINE
8
DEFAULT_255_1_388
10
4.6775757
20
21.8424898
11
5.3416956
21
20.8241727
0
LINE
8
DEFAULT_255_1_388
10
5.3416956
20
20.8241727
11
5.3416956
21
21.8424898
0
LINE
8
DEFAULT_255_1_388
10
5.3416956
20
21.8424898
11
5.5142764
21
21.8424898
0
LINE
8
DEFAULT_255_1_388
10
6.328388
20
21.8488148
11
6.328388
21
20.5269
0
LINE
8
DEFAULT_255_1_388
10
6.328388
20
20.5269
11
6.160325
21
20.5269
0
LINE
8
DEFAULT_255_1_388
10
6.160325
20
20.5269
11
6.160325
21
21.640995
0
LINE
8
DEFAULT_255_1_388
10
6.160325
20
21.640995
11
5.8232955
21
21.5172066
0
LINE
8
DEFAULT_255_1_388
10
5.8232955
20
21.5172066
11
5.8232955
21
21.6690055
0
LINE
8
DEFAULT_255_1_388
10
5.8232955
20
21.6690055
11
6.3021846
21
21.8488148
0
LINE
8
DEFAULT_255_1_388
10
6.3021846
20
21.8488148
11
6.328388
21
21.8488148
0
LINE
8
DEFAULT_255_1_388
10
7.0611788
20
21.1295775
11
7.0611788
21
21.2660157
0
LINE
8
DEFAULT_255_1_388
10
7.0611788
20
21.2660157
11
7.1867742
21
21.2660157
0
LINE
8
DEFAULT_255_1_388
10
6.9726294
20
21.4973282
11
6.80547
21
21.4973282
0
LINE
8
DEFAULT_255_1_388
10
6.7937237
20
20.8738687
11
6.9617867
21
20.8738687
0
LINE
8
DEFAULT_255_1_388
10
7.1867742
20
21.1295775
11
7.0611788
21
21.1295775
0
ARC
8
DEFAULT_255_1_388
10
7.1834969
20
21.6476922
40
0.3816905
50
270.491971
51
281.8953028
0
ARC
8
DEFAULT_255_1_388
10
7.2106396
20
21.5237199
40
0.2547877
50
281.6690378
51
301.2943765
0
ARC
8
DEFAULT_255_1_388
10
7.2297847
20
21.4886926
40
0.2149197
50
301.7834992
51
311.754567
0
ARC
8
DEFAULT_255_1_388
10
7.2400888
20
21.477265
40
0.1995326
50
311.7325027
51
354.2803031
0
ARC
8
DEFAULT_255_1_388
10
7.1583304
20
21.491328
40
0.2823461
50
353.0941646
51
0.1174696
0
ARC
8
DEFAULT_255_1_388
10
7.1064862
20
21.4966874
40
0.3342238
50
359.1804452
51
15.0452323
0
ARC
8
DEFAULT_255_1_388
10
7.2578921
20
21.5408546
40
0.1765747
50
13.957816
51
77.6713812
0
ARC
8
DEFAULT_255_1_388
10
7.2144156
20
21.3850464
40
0.3381982
50
76.111571
51
90.7028736
0
ARC
8
DEFAULT_255_1_388
10
7.2077568
20
21.415825
40
0.3074046
50
89.5321574
51
103.5319393
0
ARC
8
DEFAULT_255_1_388
10
7.1851952
20
21.5057443
40
0.2147041
50
103.2930114
51
133.5619756
0
ARC
8
DEFAULT_255_1_388
10
7.1801894
20
21.5124351
40
0.2064084
50
133.8349761
51
173.5343225
0
ARC
8
DEFAULT_255_1_388
10
7.2615551
20
21.4980144
40
0.2889266
50
172.5097183
51
180.1360699
0
ARC
8
DEFAULT_255_1_388
10
7.1545315
20
21.501888
40
0.3490913
50
155.3483706
51
180.7484035
0
ARC
8
DEFAULT_255_1_388
10
7.1490291
20
21.4986519
40
0.3454798
50
131.5745177
51
154.4799474
0
ARC
8
DEFAULT_255_1_388
10
7.1842573
20
21.4630422
40
0.3955058
50
96.9874487
51
131.9690874
0
ARC
8
DEFAULT_255_1_388
10
7.2089466
20
21.3229407
40
0.537622
50
89.8592909
51
97.7827481
0
ARC
8
DEFAULT_255_1_388
10
7.2143575
20
21.293436
40
0.5671399
50
78.3654493
51
90.4132586
0
ARC
8
DEFAULT_255_1_388
10
7.2546216
20
21.4800918
40
0.3762034
50
56.6229818
51
78.6387103
0
ARC
8
DEFAULT_255_1_388
10
7.2788045
20
21.5223846
40
0.3275964
50
47.0254604
51
56.085558
0
ARC
8
DEFAULT_255_1_388
10
7.2810296
20
21.5268189
40
0.3228382
50
10.9207523
51
46.777927
0
ARC
8
DEFAULT_255_1_388
10
7.127589
20
21.4913401
40
0.4802559
50
359.6364235
51
11.6087615
0
ARC
8
DEFAULT_255_1_388
10
7.3340056
20
21.4896404
40
0.273833
50
332.3549969
51
359.7179765
0
ARC
8
DEFAULT_255_1_388
10
7.2608457
20
21.5243285
40
0.3547505
50
325.2332381
51
332.8746682
0
ARC
8
DEFAULT_255_1_388
10
7.2780039
20
21.5123763
40
0.3338396
50
292.9803892
51
325.2391113
0
ARC
8
DEFAULT_255_1_388
10
7.2469235
20
21.5728679
40
0.4016959
50
292.542178
51
293.6931461
0
ARC
8
DEFAULT_255_1_388
10
7.2912807
20
20.8463036
40
0.372079
50
57.643292
51
72.8626085
0
ARC
8
DEFAULT_255_1_388
10
7.3311642
20
20.9109273
40
0.2961455
50
36.7246661
51
57.4701329
0
ARC
8
DEFAULT_255_1_388
10
7.3298798
20
20.912347
40
0.2963321
50
8.054535
51
36.3561529
0
ARC
8
DEFAULT_255_1_388
10
7.2328471
20
20.8949073
40
0.3948682
50
359.8316595
51
8.5873361
0
ARC
8
DEFAULT_255_1_388
10
7.1905945
20
20.889497
40
0.4371398
50
343.9831631
51
0.557075
0
ARC
8
DEFAULT_255_1_388
10
7.2902995
20
20.8621963
40
0.3337749
50
311.6358204
51
343.7652116
0
ARC
8
DEFAULT_255_1_388
10
7.2477248
20
20.9101955
40
0.3979351
50
279.7829743
51
311.625622
0
ARC
8
DEFAULT_255_1_388
10
7.2138384
20
21.0718642
40
0.5630417
50
269.7285092
51
280.3857694
0
ARC
8
DEFAULT_255_1_388
10
7.2068697
20
21.0672241
40
0.5584119
50
256.6827433
51
270.4412869
0
ARC
8
DEFAULT_255_1_388
10
7.1687683
20
20.9114698
40
0.3980715
50
229.4223821
51
256.8554507
0
ARC
8
DEFAULT_255_1_388
10
7.1221237
20
20.8589683
40
0.3278564
50
181.8183354
51
229.6455015
0
ARC
8
DEFAULT_255_1_388
10
7.2390846
20
20.8736825
40
0.4453611
50
179.9760419
51
183.2330638
0
ARC
8
DEFAULT_255_1_388
10
7.2197398
20
20.8713781
40
0.2579652
50
179.4467996
51
196.2871626
0
ARC
8
DEFAULT_255_1_388
10
7.1648852
20
20.8563709
40
0.2011057
50
196.5661293
51
227.7059371
0
ARC
8
DEFAULT_255_1_388
10
7.1833459
20
20.8770155
40
0.2287994
50
227.7653015
51
257.8763321
0
ARC
8
DEFAULT_255_1_388
10
7.2086543
20
20.9830961
40
0.3378385
50
257.4583525
51
270.4267406
0
ARC
8
DEFAULT_255_1_388
10
7.2137792
20
21.015723
40
0.3704652
50
269.5965319
51
280.8788143
0
ARC
8
DEFAULT_255_1_388
10
7.239602
20
20.8867529
40
0.2389415
50
280.6347277
51
299.8594068
0
ARC
8
DEFAULT_255_1_388
10
7.261079
20
20.8459736
40
0.19289
50
300.3575552
51
314.5515667
0
ARC
8
DEFAULT_255_1_388
10
7.2517465
20
20.8528025
40
0.204312
50
315.0730962
51
345.0429362
0
ARC
8
DEFAULT_255_1_388
10
7.1478973
20
20.8830539
40
0.31246
50
344.598526
51
357.9270698
0
ARC
8
DEFAULT_255_1_388
10
7.0469278
20
20.8899705
40
0.4136265
50
357.4755098
51
0.0224936
0
ARC
8
DEFAULT_255_1_388
10
7.1622155
20
20.8927099
40
0.2983498
50
359.5051035
51
13.4236939
0
ARC
8
DEFAULT_255_1_388
10
7.2597245
20
20.9176637
40
0.1977186
50
12.9497905
51
48.7550905
0
ARC
8
DEFAULT_255_1_388
10
7.2392167
20
20.8896373
40
0.2323321
50
49.509109
51
72.1832965
0
ARC
8
DEFAULT_255_1_388
10
7.1989635
20
20.7701632
40
0.358397
50
71.9008458
51
84.3555134
0
ARC
8
DEFAULT_255_1_388
10
7.180803
20
20.6169712
40
0.512641
50
84.019632
51
89.3326067
0
LINE
8
DEFAULT_255_1_388
10
4.1860367
20
29.7799898
11
4.1860367
21
28.4644
0
LINE
8
DEFAULT_255_1_388
10
4.1860367
20
28.4644
11
4.0125523
21
28.4644
0
LINE
8
DEFAULT_255_1_388
10
4.0125523
20
28.4644
11
4.0125523
21
29.7799898
0
LINE
8
DEFAULT_255_1_388
10
4.0125523
20
29.7799898
11
4.1860367
21
29.7799898
0
LINE
8
DEFAULT_255_1_388
10
5.5142764
20
29.7799898
11
5.5142764
21
28.4644
0
LINE
8
DEFAULT_255_1_388
10
5.5142764
20
28.4644
11
5.3398885
21
28.4644
0
LINE
8
DEFAULT_255_1_388
10
5.3398885
20
28.4644
11
4.6775757
21
29.4781993
0
LINE
8
DEFAULT_255_1_388
10
4.6775757
20
29.4781993
11
4.6775757
21
28.4644
0
LINE
8
DEFAULT_255_1_388
10
4.6775757
20
28.4644
11
4.5031878
21
28.4644
0
LINE
8
DEFAULT_255_1_388
10
4.5031878
20
28.4644
11
4.5031878
21
29.7799898
0
LINE
8
DEFAULT_255_1_388
10
4.5031878
20
29.7799898
11
4.6775757
21
29.7799898
0
LINE
8
DEFAULT_255_1_388
10
4.6775757
20
29.7799898
11
5.3416956
21
28.7616727
0
LINE
8
DEFAULT_255_1_388
10
5.3416956
20
28.7616727
11
5.3416956
21
29.7799898
0
LINE
8
DEFAULT_255_1_388
10
5.3416956
20
29.7799898
11
5.5142764
21
29.7799898
0
LINE
8
DEFAULT_255_1_388
10
6.328388
20
29.7863148
11
6.328388
21
28.4644
0
LINE
8
DEFAULT_255_1_388
10
6.328388
20
28.4644
11
6.160325
21
28.4644
0
LINE
8
DEFAULT_255_1_388
10
6.160325
20
28.4644
11
6.160325
21
29.578495
0
LINE
8
DEFAULT_255_1_388
10
6.160325
20
29.578495
11
5.8232955
21
29.4547066
0
LINE
8
DEFAULT_255_1_388
10
5.8232955
20
29.4547066
11
5.8232955
21
29.6065055
0
LINE
8
DEFAULT_255_1_388
10
5.8232955
20
29.6065055
11
6.3021846
21
29.7863148
0
LINE
8
DEFAULT_255_1_388
10
6.3021846
20
29.7863148
11
6.328388
21
29.7863148
0
LINE
8
DEFAULT_255_1_388
10
7.6801204
20
28.6008382
11
7.6801204
21
28.4644
0
LINE
8
DEFAULT_255_1_388
10
7.6801204
20
28.4644
11
6.8181199
21
28.4644
0
LINE
8
DEFAULT_255_1_388
10
6.8181199
20
28.4644
11
6.8181199
21
28.5845741
0
LINE
8
DEFAULT_255_1_388
10
6.8181199
20
28.5845741
11
7.2735164
21
29.0905702
0
LINE
8
DEFAULT_255_1_388
10
6.9599795
20
29.3923607
11
6.7928201
21
29.3923607
0
LINE
8
DEFAULT_255_1_388
10
7.3720049
20
28.983046
11
7.0196148
21
28.6008382
0
LINE
8
DEFAULT_255_1_388
10
7.0196148
20
28.6008382
11
7.6801204
21
28.6008382
0
ARC
8
DEFAULT_255_1_388
10
5.7559224
20
30.4325983
40
2.0258655
50
318.5132526
51
320.7829045
0
ARC
8
DEFAULT_255_1_388
10
6.3507181
20
29.9484929
40
1.2589638
50
320.7372878
51
323.9739031
0
ARC
8
DEFAULT_255_1_388
10
6.7916112
20
29.6290554
40
0.7145141
50
323.8962701
51
328.64194
0
ARC
8
DEFAULT_255_1_388
10
7.021837
20
29.4870545
40
0.4440242
50
328.8294576
51
331.7891185
0
ARC
8
DEFAULT_255_1_388
10
7.134069
20
29.4291374
40
0.3177517
50
331.4254512
51
352.9365785
0
ARC
8
DEFAULT_255_1_388
10
7.149369
20
29.425705
40
0.3021496
50
353.2257659
51
0.0166158
0
ARC
8
DEFAULT_255_1_388
10
7.173045
20
29.4282894
40
0.2784847
50
359.486299
51
15.9343185
0
ARC
8
DEFAULT_255_1_388
10
7.2300717
20
29.4436269
40
0.2194403
50
16.1712913
51
43.5286088
0
ARC
8
DEFAULT_255_1_388
10
7.2387662
20
29.4523191
40
0.2071504
50
43.4417391
51
83.1661095
0
ARC
8
DEFAULT_255_1_388
10
7.2236823
20
29.3694316
40
0.2912888
50
82.160179
51
90.1505708
0
ARC
8
DEFAULT_255_1_388
10
7.2201305
20
29.3090279
40
0.3517025
50
89.5460741
51
102.5418361
0
ARC
8
DEFAULT_255_1_388
10
7.1928025
20
29.4249933
40
0.2325748
50
102.1738499
51
129.206123
0
ARC
8
DEFAULT_255_1_388
10
7.1839478
20
29.4389664
40
0.2161591
50
129.72865
51
135.753947
0
ARC
8
DEFAULT_255_1_388
10
7.197596
20
29.4280728
40
0.2335433
50
136.1757367
51
166.3673339
0
ARC
8
DEFAULT_255_1_388
10
7.3108649
20
29.3977148
40
0.3507873
50
165.9090694
51
178.8684636
0
ARC
8
DEFAULT_255_1_388
10
7.408442
20
29.3924263
40
0.4484624
50
178.4391136
51
180.0083808
0
ARC
8
DEFAULT_255_1_388
10
7.2505122
20
29.3968197
40
0.4577138
50
163.2878482
51
180.5581842
0
ARC
8
DEFAULT_255_1_388
10
7.1603163
20
29.4216393
40
0.3641968
50
133.4540601
51
162.947111
0
ARC
8
DEFAULT_255_1_388
10
7.1804044
20
29.4002789
40
0.3935189
50
100.7869829
51
133.4382499
0
ARC
8
DEFAULT_255_1_388
10
7.2195289
20
29.2260399
40
0.5720313
50
89.660664
51
101.3702276
0
ARC
8
DEFAULT_255_1_388
10
7.2269898
20
29.2329263
40
0.5651495
50
78.2172678
51
90.412935
0
ARC
8
DEFAULT_255_1_388
10
7.2669364
20
29.4156511
40
0.378122
50
55.9269121
51
78.4888449
0
ARC
8
DEFAULT_255_1_388
10
7.2890079
20
29.4537187
40
0.3342379
50
47.929771
51
55.4049217
0
ARC
8
DEFAULT_255_1_388
10
7.300461
20
29.4653618
40
0.3179217
50
4.334829
51
48.0560205
0
ARC
8
DEFAULT_255_1_388
10
7.1772411
20
29.4462487
40
0.442341
50
359.9251713
51
5.5971671
0
ARC
8
DEFAULT_255_1_388
10
7.2254566
20
29.4525728
40
0.3941854
50
337.8914027
51
358.9967534
0
ARC
8
DEFAULT_255_1_388
10
6.9202136
20
29.5703295
40
0.7213271
50
326.9132501
51
338.3508308
0
ARC
8
DEFAULT_255_1_388
10
6.4718248
20
29.8577105
40
1.2538973
50
319.6471833
51
327.0959558
0
ARC
8
DEFAULT_255_1_388
10
6.0404906
20
30.213505
40
1.8129975
50
317.2588228
51
319.9045804
0
LINE
8
DEFAULT_255_1_388
10
4.1782367
20
37.7174898
11
4.1782367
21
36.4019
0
LINE
8
DEFAULT_255_1_388
10
4.1782367
20
36.4019
11
4.0047523
21
36.4019
0
LINE
8
DEFAULT_255_1_388
10
4.0047523
20
36.4019
11
4.0047523
21
37.7174898
0
LINE
8
DEFAULT_255_1_388
10
4.0047523
20
37.7174898
11
4.1782367
21
37.7174898
0
LINE
8
DEFAULT_255_1_388
10
5.5064764
20
37.7174898
11
5.5064764
21
36.4019
0
LINE
8
DEFAULT_255_1_388
10
5.5064764
20
36.4019
11
5.3320885
21
36.4019
0
LINE
8
DEFAULT_255_1_388
10
5.3320885
20
36.4019
11
4.6697757
21
37.4156993
0
LINE
8
DEFAULT_255_1_388
10
4.6697757
20
37.4156993
11
4.6697757
21
36.4019
0
LINE
8
DEFAULT_255_1_388
10
4.6697757
20
36.4019
11
4.4953878
21
36.4019
0
LINE
8
DEFAULT_255_1_388
10
4.4953878
20
36.4019
11
4.4953878
21
37.7174898
0
LINE
8
DEFAULT_255_1_388
10
4.4953878
20
37.7174898
11
4.6697757
21
37.7174898
0
LINE
8
DEFAULT_255_1_388
10
4.6697757
20
37.7174898
11
5.3338956
21
36.6991727
0
LINE
8
DEFAULT_255_1_388
10
5.3338956
20
36.6991727
11
5.3338956
21
37.7174898
0
LINE
8
DEFAULT_255_1_388
10
5.3338956
20
37.7174898
11
5.5064764
21
37.7174898
0
LINE
8
DEFAULT_255_1_388
10
6.320588
20
37.7238148
11
6.320588
21
36.4019
0
LINE
8
DEFAULT_255_1_388
10
6.320588
20
36.4019
11
6.152525
21
36.4019
0
LINE
8
DEFAULT_255_1_388
10
6.152525
20
36.4019
11
6.152525
21
37.515995
0
LINE
8
DEFAULT_255_1_388
10
6.152525
20
37.515995
11
5.8154955
21
37.3922066
0
LINE
8
DEFAULT_255_1_388
10
5.8154955
20
37.3922066
11
5.8154955
21
37.5440055
0
LINE
8
DEFAULT_255_1_388
10
5.8154955
20
37.5440055
11
6.2943846
21
37.7238148
0
LINE
8
DEFAULT_255_1_388
10
6.2943846
20
37.7238148
11
6.320588
21
37.7238148
0
LINE
8
DEFAULT_255_1_388
10
7.3596871
20
37.7238148
11
7.3596871
21
36.4019
0
LINE
8
DEFAULT_255_1_388
10
7.3596871
20
36.4019
11
7.1916241
21
36.4019
0
LINE
8
DEFAULT_255_1_388
10
7.1916241
20
36.4019
11
7.1916241
21
37.515995
0
LINE
8
DEFAULT_255_1_388
10
7.1916241
20
37.515995
11
6.8545946
21
37.3922066
0
LINE
8
DEFAULT_255_1_388
10
6.8545946
20
37.3922066
11
6.8545946
21
37.5440055
0
LINE
8
DEFAULT_255_1_388
10
6.8545946
20
37.5440055
11
7.3334837
21
37.7238148
0
LINE
8
DEFAULT_255_1_388
10
7.3334837
20
37.7238148
11
7.3596871
21
37.7238148
0
LINE
8
DEFAULT_255_1_388
10
4.1860367
20
45.6549898
11
4.1860367
21
44.3394
0
LINE
8
DEFAULT_255_1_388
10
4.1860367
20
44.3394
11
4.0125523
21
44.3394
0
LINE
8
DEFAULT_255_1_388
10
4.0125523
20
44.3394
11
4.0125523
21
45.6549898
0
LINE
8
DEFAULT_255_1_388
10
4.0125523
20
45.6549898
11
4.1860367
21
45.6549898
0
LINE
8
DEFAULT_255_1_388
10
5.5142764
20
45.6549898
11
5.5142764
21
44.3394
0
LINE
8
DEFAULT_255_1_388
10
5.5142764
20
44.3394
11
5.3398885
21
44.3394
0
LINE
8
DEFAULT_255_1_388
10
5.3398885
20
44.3394
11
4.6775757
21
45.3531993
0
LINE
8
DEFAULT_255_1_388
10
4.6775757
20
45.3531993
11
4.6775757
21
44.3394
0
LINE
8
DEFAULT_255_1_388
10
4.6775757
20
44.3394
11
4.5031878
21
44.3394
0
LINE
8
DEFAULT_255_1_388
10
4.5031878
20
44.3394
11
4.5031878
21
45.6549898
0
LINE
8
DEFAULT_255_1_388
10
4.5031878
20
45.6549898
11
4.6775757
21
45.6549898
0
LINE
8
DEFAULT_255_1_388
10
4.6775757
20
45.6549898
11
5.3416956
21
44.6366727
0
LINE
8
DEFAULT_255_1_388
10
5.3416956
20
44.6366727
11
5.3416956
21
45.6549898
0
LINE
8
DEFAULT_255_1_388
10
5.3416956
20
45.6549898
11
5.5142764
21
45.6549898
0
LINE
8
DEFAULT_255_1_388
10
6.328388
20
45.6613148
11
6.328388
21
44.3394
0
LINE
8
DEFAULT_255_1_388
10
6.328388
20
44.3394
11
6.160325
21
44.3394
0
LINE
8
DEFAULT_255_1_388
10
6.160325
20
44.3394
11
6.160325
21
45.453495
0
LINE
8
DEFAULT_255_1_388
10
6.160325
20
45.453495
11
5.8232955
21
45.3297066
0
LINE
8
DEFAULT_255_1_388
10
5.8232955
20
45.3297066
11
5.8232955
21
45.4815055
0
LINE
8
DEFAULT_255_1_388
10
5.8232955
20
45.4815055
11
6.3021846
21
45.6613148
0
LINE
8
DEFAULT_255_1_388
10
6.3021846
20
45.6613148
11
6.328388
21
45.6613148
0
LINE
8
DEFAULT_255_1_388
10
7.6430743
20
45.117369
11
7.6430743
21
44.9005135
0
LINE
8
DEFAULT_255_1_388
10
6.8126985
20
44.8779244
11
6.8126985
21
45.1011048
0
LINE
8
DEFAULT_255_1_388
10
7.4759148
20
44.8553353
11
7.4759148
21
45.1291153
0
LINE
8
DEFAULT_255_1_388
10
6.979858
20
45.1417652
11
6.979858
21
44.8743102
0
ARC
8
DEFAULT_255_1_388
10
6.2653077
20
44.8950118
40
1.3777776
50
353.8440855
51
0.2287917
0
ARC
8
DEFAULT_255_1_388
10
6.7872094
20
44.8367414
40
0.852639
50
344.4934746
51
353.9763743
0
ARC
8
DEFAULT_255_1_388
10
7.1238901
20
44.7410191
40
0.5026273
50
329.2803599
51
344.7473406
0
ARC
8
DEFAULT_255_1_388
10
7.2354397
20
44.6798038
40
0.3754848
50
324.9361395
51
328.6153007
0
ARC
8
DEFAULT_255_1_388
10
7.2780047
20
44.6500586
40
0.3235566
50
280.5801797
51
324.9173226
0
ARC
8
DEFAULT_255_1_388
10
7.2328675
20
44.8380236
40
0.5167077
50
269.5979457
51
281.6732777
0
ARC
8
DEFAULT_255_1_388
10
7.2247579
20
44.8245113
40
0.5032026
50
256.6228565
51
270.5105488
0
ARC
8
DEFAULT_255_1_388
10
7.1795322
20
44.6503345
40
0.3233092
50
215.8618351
51
257.2787793
0
ARC
8
DEFAULT_255_1_388
10
7.2944029
20
44.7274106
40
0.4615831
50
197.9695203
51
215.2622745
0
ARC
8
DEFAULT_255_1_388
10
7.5739704
20
44.8217641
40
0.7566307
50
187.8816486
51
198.2346584
0
ARC
8
DEFAULT_255_1_388
10
8.0192943
20
44.8860453
40
1.2065653
50
180.8977266
51
188.0054894
0
ARC
8
DEFAULT_255_1_388
10
8.3243156
20
44.89754
40
1.5117443
50
180.7434591
51
181.152202
0
ARC
8
DEFAULT_255_1_388
10
8.1568152
20
45.1065371
40
1.3441277
50
173.7674302
51
180.2315596
0
ARC
8
DEFAULT_255_1_388
10
7.6486021
20
45.1639779
40
0.8326847
50
164.3058537
51
173.9000553
0
ARC
8
DEFAULT_255_1_388
10
7.3210021
20
45.2583652
40
0.4917711
50
148.7922028
51
164.5682288
0
ARC
8
DEFAULT_255_1_388
10
7.2140759
20
45.3180457
40
0.3694204
50
144.5883979
51
148.1161588
0
ARC
8
DEFAULT_255_1_388
10
7.1753504
20
45.3450667
40
0.322202
50
101.6440149
51
144.5142619
0
ARC
8
DEFAULT_255_1_388
10
7.2231696
20
45.1550337
40
0.5180451
50
89.528284
51
102.5820197
0
ARC
8
DEFAULT_255_1_388
10
7.2320688
20
45.1506376
40
0.5224441
50
77.0437914
51
90.508231
0
ARC
8
DEFAULT_255_1_388
10
7.2772942
20
45.3354272
40
0.3322297
50
48.2777708
51
77.4996087
0
ARC
8
DEFAULT_255_1_388
10
7.2854682
20
45.3499557
40
0.315966
50
36.3141586
51
47.6307332
0
ARC
8
DEFAULT_255_1_388
10
7.1877404
20
45.2841159
40
0.4337313
50
18.2931065
51
35.6770203
0
ARC
8
DEFAULT_255_1_388
10
6.9016245
20
45.1859107
40
0.7362203
50
8.0246996
51
18.5605636
0
ARC
8
DEFAULT_255_1_388
10
6.43326
20
45.1167432
40
1.2096583
50
1.127539
51
8.1718423
0
ARC
8
DEFAULT_255_1_388
10
6.0683734
20
45.1024374
40
1.5747719
50
0.5432713
51
1.38669
0
ARC
8
DEFAULT_255_1_388
10
6.2741112
20
45.1331163
40
1.2018103
50
359.8092569
51
4.9408001
0
ARC
8
DEFAULT_255_1_388
10
6.7477694
20
45.17539
40
0.7262727
50
4.8364937
51
12.2906017
0
ARC
8
DEFAULT_255_1_388
10
7.0577158
20
45.2444485
40
0.4087324
50
12.0806994
51
23.8171225
0
ARC
8
DEFAULT_255_1_388
10
7.1897554
20
45.3003508
40
0.2653719
50
24.2874621
51
31.3934353
0
ARC
8
DEFAULT_255_1_388
10
7.248799
20
45.3389822
40
0.1948607
50
30.7407708
51
82.4658033
0
ARC
8
DEFAULT_255_1_388
10
7.2285651
20
45.2396017
40
0.2961198
50
81.1057101
51
90.2187368
0
ARC
8
DEFAULT_255_1_388
10
7.2245463
20
45.2686421
40
0.2670929
50
89.380395
51
105.6763916
0
ARC
8
DEFAULT_255_1_388
10
7.2039185
20
45.343632
40
0.1893189
50
105.7980655
51
149.7387869
0
ARC
8
DEFAULT_255_1_388
10
7.3236325
20
45.2716719
40
0.3289892
50
149.4208441
51
163.628295
0
ARC
8
DEFAULT_255_1_388
10
7.5588555
20
45.1999345
40
0.5749004
50
163.3764549
51
172.141138
0
ARC
8
DEFAULT_255_1_388
10
7.9301276
20
45.1467582
40
0.9499585
50
172.0258462
51
178.0705453
0
ARC
8
DEFAULT_255_1_388
10
8.2722829
20
45.1305682
40
1.2924734
50
177.8639301
51
179.5036263
0
ARC
8
DEFAULT_255_1_388
10
8.1503848
20
44.8702151
40
1.170534
50
179.7995545
51
185.246089
0
ARC
8
DEFAULT_255_1_388
10
7.6955441
20
44.8271404
40
0.7136613
50
185.1411911
51
193.0082205
0
ARC
8
DEFAULT_255_1_388
10
7.3981701
20
44.7568441
40
0.4080987
50
192.7897338
51
205.2507384
0
ARC
8
DEFAULT_255_1_388
10
7.2803911
20
44.7042538
40
0.2791522
50
205.8001921
51
211.2545876
0
ARC
8
DEFAULT_255_1_388
10
7.221545
20
44.6648132
40
0.2084074
50
210.3789935
51
238.4007996
0
ARC
8
DEFAULT_255_1_388
10
7.2193536
20
44.6700786
40
0.2117943
50
239.6521916
51
265.9793852
0
ARC
8
DEFAULT_255_1_388
10
7.2289385
20
44.7457358
40
0.2879689
50
265.1324455
51
270.0603288
0
ARC
8
DEFAULT_255_1_388
10
7.2321762
20
44.7092418
40
0.2514919
50
269.3314378
51
287.2180039
0
ARC
8
DEFAULT_255_1_388
10
7.2476845
20
44.6526291
40
0.1928357
50
287.7957942
51
329.0808983
0
ARC
8
DEFAULT_255_1_388
10
7.1399602
20
44.7198651
40
0.319808
50
328.6635261
51
343.3325043
0
ARC
8
DEFAULT_255_1_388
10
6.895506
20
44.7960195
40
0.5758408
50
343.0498092
51
351.9392499
0
ARC
8
DEFAULT_255_1_388
10
6.5054382
20
44.8535205
40
0.9701202
50
351.8071632
51
357.7957897
0
ARC
8
DEFAULT_255_1_388
10
6.1419859
20
44.8723724
40
1.3340376
50
357.5870923
51
359.2682493
0
LINE
8
DEFAULT_255_1_388
10
4.1862367
20
53.5924898
11
4.1862367
21
52.2769
0
LINE
8
DEFAULT_255_1_388
10
4.1862367
20
52.2769
11
4.0127523
21
52.2769
0
LINE
8
DEFAULT_255_1_388
10
4.0127523
20
52.2769
11
4.0127523
21
53.5924898
0
LINE
8
DEFAULT_255_1_388
10
4.0127523
20
53.5924898
11
4.1862367
21
53.5924898
0
LINE
8
DEFAULT_255_1_388
10
5.5144764
20
53.5924898
11
5.5144764
21
52.2769
0
LINE
8
DEFAULT_255_1_388
10
5.5144764
20
52.2769
11
5.3400885
21
52.2769
0
LINE
8
DEFAULT_255_1_388
10
5.3400885
20
52.2769
11
4.6777757
21
53.2906993
0
LINE
8
DEFAULT_255_1_388
10
4.6777757
20
53.2906993
11
4.6777757
21
52.2769
0
LINE
8
DEFAULT_255_1_388
10
4.6777757
20
52.2769
11
4.5033878
21
52.2769
0
LINE
8
DEFAULT_255_1_388
10
4.5033878
20
52.2769
11
4.5033878
21
53.5924898
0
LINE
8
DEFAULT_255_1_388
10
4.5033878
20
53.5924898
11
4.6777757
21
53.5924898
0
LINE
8
DEFAULT_255_1_388
10
4.6777757
20
53.5924898
11
5.3418956
21
52.5741727
0
LINE
8
DEFAULT_255_1_388
10
5.3418956
20
52.5741727
11
5.3418956
21
53.5924898
0
LINE
8
DEFAULT_255_1_388
10
5.3418956
20
53.5924898
11
5.5144764
21
53.5924898
0
LINE
8
DEFAULT_255_1_388
10
6.587911
20
53.0666153
11
6.587911
21
53.0178229
0
LINE
8
DEFAULT_255_1_388
10
5.978005
20
52.2759964
11
5.9454767
21
52.2759964
0
LINE
8
DEFAULT_255_1_388
10
5.9454767
20
52.2759964
11
5.9454767
21
52.4169525
0
LINE
8
DEFAULT_255_1_388
10
5.9454767
20
52.4169525
11
5.9807157
21
52.4169525
0
LINE
8
DEFAULT_255_1_388
10
6.4207516
20
53.034087
11
6.4207516
21
53.1009508
0
ARC
8
DEFAULT_255_1_388
10
6.1064608
20
53.1179877
40
0.4089973
50
297.4036461
51
320.0168133
0
ARC
8
DEFAULT_255_1_388
10
6.1390788
20
53.0553072
40
0.3383378
50
270.2631886
51
297.3852322
0
ARC
8
DEFAULT_255_1_388
10
6.1352464
20
53.1090343
40
0.3920983
50
269.9969069
51
270.7871389
0
ARC
8
DEFAULT_255_1_388
10
6.1323787
20
53.1072737
40
0.3903482
50
254.5997295
51
270.4178147
0
ARC
8
DEFAULT_255_1_388
10
6.1163319
20
53.0437693
40
0.3248657
50
236.4717231
51
254.3539376
0
ARC
8
DEFAULT_255_1_388
10
6.133905
20
53.0673999
40
0.3542746
50
208.4727261
51
236.2134628
0
ARC
8
DEFAULT_255_1_388
10
6.2057814
20
53.1113676
40
0.4384402
50
204.3450776
51
209.0455365
0
ARC
8
DEFAULT_255_1_388
10
6.282219
20
53.14378
40
0.5214459
50
183.9375459
51
204.1275509
0
ARC
8
DEFAULT_255_1_388
10
6.3844496
20
53.1547863
40
0.6242037
50
179.9652726
51
184.3010611
0
ARC
8
DEFAULT_255_1_388
10
6.3574041
20
53.1585004
40
0.5971675
50
166.7585952
51
180.3200491
0
ARC
8
DEFAULT_255_1_388
10
6.2621849
20
53.1791979
40
0.4997418
50
154.6954866
51
166.5679151
0
ARC
8
DEFAULT_255_1_388
10
6.1662089
20
53.2275411
40
0.3923208
50
136.3325251
51
155.0871367
0
ARC
8
DEFAULT_255_1_388
10
6.1346009
20
53.2546271
40
0.3507618
50
121.2365985
51
135.9680081
0
ARC
8
DEFAULT_255_1_388
10
6.1504073
20
53.2253541
40
0.3839917
50
96.8454764
51
120.9881329
0
ARC
8
DEFAULT_255_1_388
10
6.166788
20
53.1200942
40
0.4904679
50
89.887204
51
97.2797758
0
ARC
8
DEFAULT_255_1_388
10
6.1726852
20
53.1918652
40
0.418725
50
70.6505767
51
90.6748382
0
ARC
8
DEFAULT_255_1_388
10
6.1874549
20
53.2496091
40
0.3593866
50
36.7493297
51
69.8220487
0
ARC
8
DEFAULT_255_1_388
10
6.0750896
20
53.1620446
40
0.5018201
50
15.3958155
51
37.0841102
0
ARC
8
DEFAULT_255_1_388
10
5.8355181
20
53.0922111
40
0.7513436
50
3.9487796
51
15.6798517
0
ARC
8
DEFAULT_255_1_388
10
5.5653823
20
53.067881
40
1.0225293
50
359.9290791
51
4.266464
0
ARC
8
DEFAULT_255_1_388
10
5.047274
20
53.0103372
40
1.5406551
50
352.8365702
51
0.2783851
0
ARC
8
DEFAULT_255_1_388
10
5.6420971
20
52.9330664
40
0.9408425
50
341.8359339
51
352.9884057
0
ARC
8
DEFAULT_255_1_388
10
6.0041958
20
52.8110144
40
0.5587481
50
322.8579243
51
342.1527461
0
ARC
8
DEFAULT_255_1_388
10
6.101365
20
52.744735
40
0.4413099
50
319.3348471
51
322.100194
0
ARC
8
DEFAULT_255_1_388
10
6.0665582
20
52.7796814
40
0.4904992
50
285.954114
51
318.8878716
0
ARC
8
DEFAULT_255_1_388
10
5.9848019
20
53.0395865
40
0.7628991
50
272.9280841
51
286.4924389
0
ARC
8
DEFAULT_255_1_388
10
5.9634323
20
53.293024
40
1.017132
50
270.8209173
51
273.4010121
0
ARC
8
DEFAULT_255_1_388
10
5.9734346
20
53.0882073
40
0.6712943
50
270.6214576
51
281.4062333
0
ARC
8
DEFAULT_255_1_388
10
6.0218071
20
52.856925
40
0.4350167
50
281.1852583
51
299.0622058
0
ARC
8
DEFAULT_255_1_388
10
6.0638316
20
52.7758138
40
0.3437146
50
299.5068171
51
313.1200142
0
ARC
8
DEFAULT_255_1_388
10
6.0663053
20
52.7668959
40
0.3355418
50
313.8525725
51
338.5989631
0
ARC
8
DEFAULT_255_1_388
10
5.8836181
20
52.8419576
40
0.5330317
50
338.2523315
51
351.2431701
0
ARC
8
DEFAULT_255_1_388
10
5.6123932
20
52.8880494
40
0.8081235
50
350.940933
51
357.6690137
0
ARC
8
DEFAULT_255_1_388
10
6.1625812
20
53.1133048
40
0.2581236
50
269.9447107
51
306.8249644
0
ARC
8
DEFAULT_255_1_388
10
6.1359114
20
53.160906
40
0.3122948
50
305.5071046
51
327.0773808
0
ARC
8
DEFAULT_255_1_388
10
6.1492166
20
53.1502445
40
0.2953369
50
327.4106457
51
336.8396801
0
ARC
8
DEFAULT_255_1_388
10
5.8011879
20
53.1045932
40
0.6195743
50
359.663158
51
10.1176387
0
ARC
8
DEFAULT_255_1_388
10
5.9984642
20
53.1410922
40
0.4189561
50
9.9431549
51
26.7699242
0
ARC
8
DEFAULT_255_1_388
10
6.0656628
20
53.1720796
40
0.3450125
50
27.2018067
51
34.6833639
0
ARC
8
DEFAULT_255_1_388
10
6.1207241
20
53.213456
40
0.2762035
50
34.124913
51
50.30709
0
ARC
8
DEFAULT_255_1_388
10
6.1709724
20
53.2735741
40
0.1978518
50
50.3850304
51
90.6705051
0
ARC
8
DEFAULT_255_1_388
10
6.1657118
20
53.2393074
40
0.2321235
50
89.2729817
51
111.9140267
0
ARC
8
DEFAULT_255_1_388
10
6.1635205
20
53.2551308
40
0.2166604
50
112.9381864
51
142.5320936
0
ARC
8
DEFAULT_255_1_388
10
6.2249694
20
53.2052392
40
0.2957902
50
142.1024021
51
166.3835244
0
ARC
8
DEFAULT_255_1_388
10
6.3578664
20
53.1709213
40
0.4330361
50
166.1100968
51
178.6653563
0
ARC
8
DEFAULT_255_1_388
10
6.476059
20
53.1643061
40
0.5513642
50
178.2641888
51
180.010994
0
ARC
8
DEFAULT_255_1_388
10
6.3855091
20
53.1611136
40
0.4608248
50
179.6162225
51
191.8786013
0
ARC
8
DEFAULT_255_1_388
10
6.2482401
20
53.130759
40
0.3202502
50
191.6192934
51
215.2970746
0
ARC
8
DEFAULT_255_1_388
10
6.2243056
20
53.1164963
40
0.2924827
50
215.7258926
51
216.5355437
0
ARC
8
DEFAULT_255_1_388
10
6.1654677
20
53.0691919
40
0.2170661
50
215.7486606
51
239.9728403
0
ARC
8
DEFAULT_255_1_388
10
6.1575842
20
53.0634838
40
0.208217
50
241.065081
51
269.280972
0
ARC
8
DEFAULT_255_1_388
10
6.1623001
20
53.1190327
40
0.2638514
50
268.4083352
51
270.0069622
0
LINE
8
DEFAULT_255_1_388
10
4.1862367
20
61.5299898
11
4.1862367
21
60.2144
0
LINE
8
DEFAULT_255_1_388
10
4.1862367
20
60.2144
11
4.0127523
21
60.2144
0
LINE
8
DEFAULT_255_1_388
10
4.0127523
20
60.2144
11
4.0127523
21
61.5299898
0
LINE
8
DEFAULT_255_1_388
10
4.0127523
20
61.5299898
11
4.1862367
21
61.5299898
0
LINE
8
DEFAULT_255_1_388
10
5.5144764
20
61.5299898
11
5.5144764
21
60.2144
0
LINE
8
DEFAULT_255_1_388
10
5.5144764
20
60.2144
11
5.3400885
21
60.2144
0
LINE
8
DEFAULT_255_1_388
10
5.3400885
20
60.2144
11
4.6777757
21
61.2281993
0
LINE
8
DEFAULT_255_1_388
10
4.6777757
20
61.2281993
11
4.6777757
21
60.2144
0
LINE
8
DEFAULT_255_1_388
10
4.6777757
20
60.2144
11
4.5033878
21
60.2144
0
LINE
8
DEFAULT_255_1_388
10
4.5033878
20
60.2144
11
4.5033878
21
61.5299898
0
LINE
8
DEFAULT_255_1_388
10
4.5033878
20
61.5299898
11
4.6777757
21
61.5299898
0
LINE
8
DEFAULT_255_1_388
10
4.6777757
20
61.5299898
11
5.3418956
21
60.5116727
0
LINE
8
DEFAULT_255_1_388
10
5.3418956
20
60.5116727
11
5.3418956
21
61.5299898
0
LINE
8
DEFAULT_255_1_388
10
5.3418956
20
61.5299898
11
5.5144764
21
61.5299898
0
ARC
8
DEFAULT_255_1_388
10
6.2595713
20
61.183772
40
0.3175098
50
338.8762533
51
0.5167111
0
ARC
8
DEFAULT_255_1_388
10
6.2785307
20
61.17866
40
0.2979894
50
325.8415285
51
338.4793574
0
ARC
8
DEFAULT_255_1_388
10
6.2345941
20
61.2091242
40
0.351452
50
296.7587686
51
325.7536481
0
ARC
8
DEFAULT_255_1_388
10
6.2017568
20
61.2645363
40
0.4157374
50
296.0927901
51
297.3613472
0
ARC
8
DEFAULT_255_1_388
10
6.2311764
20
60.5262593
40
0.395855
50
47.9007294
51
67.1948823
0
ARC
8
DEFAULT_255_1_388
10
6.2532406
20
60.5539599
40
0.360516
50
35.2363914
51
47.551141
0
ARC
8
DEFAULT_255_1_388
10
6.282681
20
60.5736093
40
0.3251343
50
359.2759765
51
35.4014143
0
ARC
8
DEFAULT_255_1_388
10
6.1988736
20
60.5653787
40
0.4089365
50
343.1293083
51
0.5775513
0
ARC
8
DEFAULT_255_1_388
10
6.280385
20
60.5429336
40
0.3244269
50
310.8496669
51
342.7449331
0
ARC
8
DEFAULT_255_1_388
10
6.2333724
20
60.5965913
40
0.3957651
50
281.5472888
51
310.9170406
0
ARC
8
DEFAULT_255_1_388
10
6.1932599
20
60.7712814
40
0.5749654
50
269.619248
51
281.9789564
0
ARC
8
DEFAULT_255_1_388
10
6.1851377
20
60.7713776
40
0.5750649
50
257.4585678
51
270.4285689
0
ARC
8
DEFAULT_255_1_388
10
6.1422897
20
60.5909741
40
0.389671
50
228.7554326
51
257.8484789
0
ARC
8
DEFAULT_255_1_388
10
6.1074382
20
60.5490228
40
0.335154
50
184.0104975
51
228.5071184
0
ARC
8
DEFAULT_255_1_388
10
6.2382775
20
60.568943
40
0.4671891
50
179.9315832
51
185.3253753
0
ARC
8
DEFAULT_255_1_388
10
6.1059287
20
60.5731592
40
0.33486
50
145.6796023
51
180.6259786
0
ARC
8
DEFAULT_255_1_388
10
6.1243053
20
60.5603271
40
0.3572723
50
115.5537685
51
145.6415986
0
ARC
8
DEFAULT_255_1_388
10
6.1626097
20
60.4917087
40
0.4357296
50
113.243307
51
116.2057839
0
ARC
8
DEFAULT_255_1_388
10
6.1454749
20
61.2114379
40
0.3549126
50
222.9549744
51
244.1370481
0
ARC
8
DEFAULT_255_1_388
10
6.1317392
20
61.1960378
40
0.3343711
50
213.3436887
51
222.6274467
0
ARC
8
DEFAULT_255_1_388
10
6.1101461
20
61.1813653
40
0.3082678
50
180.431584
51
213.271499
0
ARC
8
DEFAULT_255_1_388
10
6.173646
20
61.1866296
40
0.3718363
50
179.9991191
51
181.1690594
0
ARC
8
DEFAULT_255_1_388
10
6.2208916
20
61.1905072
40
0.4190996
50
164.6186169
51
180.529336
0
ARC
8
DEFAULT_255_1_388
10
6.1198565
20
61.217678
40
0.3144772
50
132.2455553
51
164.5090724
0
ARC
8
DEFAULT_255_1_388
10
6.1521544
20
61.181107
40
0.3632644
50
100.7053914
51
132.1386381
0
ARC
8
DEFAULT_255_1_388
10
6.1864605
20
61.0261118
40
0.5219578
50
89.6730358
51
101.2451698
0
ARC
8
DEFAULT_255_1_388
10
6.1934596
20
61.0457648
40
0.5023124
50
76.287748
51
90.4586006
0
ARC
8
DEFAULT_255_1_388
10
6.2279098
20
61.1832671
40
0.3605639
50
47.8240511
51
76.4266241
0
ARC
8
DEFAULT_255_1_388
10
6.2529482
20
61.2125599
40
0.3220463
50
6.9168387
51
47.6262497
0
ARC
8
DEFAULT_255_1_388
10
6.1194935
20
61.1879004
40
0.4575765
50
359.8415968
51
7.9697453
0
ARC
8
DEFAULT_255_1_388
10
6.1579205
20
60.5758519
40
0.2827228
50
359.445363
51
16.9256873
0
ARC
8
DEFAULT_255_1_388
10
6.2106639
20
60.5903781
40
0.2280396
50
17.2920767
51
45.4630727
0
ARC
8
DEFAULT_255_1_388
10
6.2045774
20
60.5851324
40
0.2360485
50
45.30305
51
83.1920945
0
ARC
8
DEFAULT_255_1_388
10
6.1884519
20
60.4949473
40
0.3275527
50
82.2612665
51
90.1434275
0
ARC
8
DEFAULT_255_1_388
10
6.1849795
20
60.5211869
40
0.3013237
50
89.4956434
51
104.8580688
0
ARC
8
DEFAULT_255_1_388
10
6.1650985
20
60.5965455
40
0.2233867
50
104.8856641
51
135.244616
0
ARC
8
DEFAULT_255_1_388
10
6.1706974
20
60.5915352
40
0.2308906
50
135.3399546
51
172.1044062
0
ARC
8
DEFAULT_255_1_388
10
6.2614498
20
60.5741667
40
0.3232034
50
171.2645637
51
180.186429
0
ARC
8
DEFAULT_255_1_388
10
6.2424503
20
60.5705426
40
0.304213
50
179.5154935
51
193.6464289
0
ARC
8
DEFAULT_255_1_388
10
6.1506179
20
60.5471473
40
0.209456
50
193.3540274
51
225.8258581
0
ARC
8
DEFAULT_255_1_388
10
6.1552051
20
60.5551076
40
0.2183738
50
226.4180634
51
255.8552336
0
ARC
8
DEFAULT_255_1_388
10
6.1840518
20
60.6604521
40
0.3275812
50
255.4654104
51
268.7987425
0
ARC
8
DEFAULT_255_1_388
10
6.1893694
20
60.7546545
40
0.4218877
50
268.3449238
51
270.0094605
0
ARC
8
DEFAULT_255_1_388
10
6.1919927
20
60.6778094
40
0.3450519
50
269.5759586
51
282.0820163
0
ARC
8
DEFAULT_255_1_388
10
6.2172964
20
60.5659363
40
0.2303642
50
281.752014
51
306.6056188
0
ARC
8
DEFAULT_255_1_388
10
6.2283772
20
60.5477802
40
0.2091906
50
307.1346085
51
314.027845
0
ARC
8
DEFAULT_255_1_388
10
6.2243284
20
60.5507459
40
0.2141385
50
314.2552483
51
350.1694025
0
ARC
8
DEFAULT_255_1_388
10
6.1285521
20
60.5715175
40
0.312082
50
349.4140529
51
0.2933014
0
ARC
8
DEFAULT_255_1_388
10
6.1870798
20
61.1518924
40
0.2588377
50
89.477747
51
105.729729
0
ARC
8
DEFAULT_255_1_388
10
6.1717718
20
61.2087367
40
0.1999733
50
105.9233417
51
135.1660906
0
ARC
8
DEFAULT_255_1_388
10
6.1740749
20
61.2071412
40
0.2027322
50
135.3052302
51
168.9883645
0
ARC
8
DEFAULT_255_1_388
10
6.2671765
20
61.1857996
40
0.2982129
50
168.3801673
51
180.3602268
0
ARC
8
DEFAULT_255_1_388
10
6.2414882
20
61.1815622
40
0.2725291
50
179.5033122
51
194.9125571
0
ARC
8
DEFAULT_255_1_388
10
6.1756289
20
61.1642427
40
0.204431
50
194.9720816
51
224.194444
0
ARC
8
DEFAULT_255_1_388
10
6.1724654
20
61.1616635
40
0.2003651
50
224.2962453
51
262.015664
0
ARC
8
DEFAULT_255_1_388
10
6.1884658
20
61.2439315
40
0.2840925
50
261.1245923
51
270.1962896
0
ARC
8
DEFAULT_255_1_388
10
6.1918139
20
61.2228859
40
0.2630559
50
269.4827276
51
285.0987215
0
ARC
8
DEFAULT_255_1_388
10
6.2091575
20
61.1578175
40
0.1957162
50
285.1585357
51
315.9484501
0
ARC
8
DEFAULT_255_1_388
10
6.1991449
20
61.1670315
40
0.2093195
50
316.0413965
51
351.916092
0
ARC
8
DEFAULT_255_1_388
10
6.1166823
20
61.1829323
40
0.2932279
50
351.105835
51
0.1939062
0
ARC
8
DEFAULT_255_1_388
10
6.1462457
20
61.1863224
40
0.2636739
50
359.4789618
51
16.0678224
0
ARC
8
DEFAULT_255_1_388
10
6.1997929
20
61.2007721
40
0.2082215
50
16.3252067
51
44.7913869
0
ARC
8
DEFAULT_255_1_388
10
6.1977991
20
61.200832
40
0.2095992
50
44.3957814
51
88.2499162
0
ARC
8
DEFAULT_255_1_388
10
6.1895326
20
61.1320006
40
0.2787189
50
86.9833854
51
90.0192215
0
LINE
8
DEFAULT_255_1_388
10
4.1862367
20
69.4674898
11
4.1862367
21
68.1519
0
LINE
8
DEFAULT_255_1_388
10
4.1862367
20
68.1519
11
4.0127523
21
68.1519
0
LINE
8
DEFAULT_255_1_388
10
4.0127523
20
68.1519
11
4.0127523
21
69.4674898
0
LINE
8
DEFAULT_255_1_388
10
4.0127523
20
69.4674898
11
4.1862367
21
69.4674898
0
LINE
8
DEFAULT_255_1_388
10
5.5144764
20
69.4674898
11
5.5144764
21
68.1519
0
LINE
8
DEFAULT_255_1_388
10
5.5144764
20
68.1519
11
5.3400885
21
68.1519
0
LINE
8
DEFAULT_255_1_388
10
5.3400885
20
68.1519
11
4.6777757
21
69.1656993
0
LINE
8
DEFAULT_255_1_388
10
4.6777757
20
69.1656993
11
4.6777757
21
68.1519
0
LINE
8
DEFAULT_255_1_388
10
4.6777757
20
68.1519
11
4.5033878
21
68.1519
0
LINE
8
DEFAULT_255_1_388
10
4.5033878
20
68.1519
11
4.5033878
21
69.4674898
0
LINE
8
DEFAULT_255_1_388
10
4.5033878
20
69.4674898
11
4.6777757
21
69.4674898
0
LINE
8
DEFAULT_255_1_388
10
4.6777757
20
69.4674898
11
5.3418956
21
68.4491727
0
LINE
8
DEFAULT_255_1_388
10
5.3418956
20
68.4491727
11
5.3418956
21
69.4674898
0
LINE
8
DEFAULT_255_1_388
10
5.3418956
20
69.4674898
11
5.5144764
21
69.4674898
0
LINE
8
DEFAULT_255_1_388
10
6.6285714
20
69.4674898
11
6.6285714
21
69.3735191
0
LINE
8
DEFAULT_255_1_388
10
6.6285714
20
69.3735191
11
6.083722
21
68.1519
0
LINE
8
DEFAULT_255_1_388
10
6.083722
20
68.1519
11
5.9084305
21
68.1519
0
LINE
8
DEFAULT_255_1_388
10
5.9084305
20
68.1519
11
6.4514728
21
69.330148
0
LINE
8
DEFAULT_255_1_388
10
6.4514728
20
69.330148
11
5.739464
21
69.330148
0
LINE
8
DEFAULT_255_1_388
10
5.739464
20
69.330148
11
5.739464
21
69.4674898
0
LINE
8
DEFAULT_255_1_388
10
5.739464
20
69.4674898
11
6.6285714
21
69.4674898
0
LINE
8
DEFAULT_255_1_388
10
4.1862367
20
77.4049898
11
4.1862367
21
76.0894
0
LINE
8
DEFAULT_255_1_388
10
4.1862367
20
76.0894
11
4.0127523
21
76.0894
0
LINE
8
DEFAULT_255_1_388
10
4.0127523
20
76.0894
11
4.0127523
21
77.4049898
0
LINE
8
DEFAULT_255_1_388
10
4.0127523
20
77.4049898
11
4.1862367
21
77.4049898
0
LINE
8
DEFAULT_255_1_388
10
5.5144764
20
77.4049898
11
5.5144764
21
76.0894
0
LINE
8
DEFAULT_255_1_388
10
5.5144764
20
76.0894
11
5.3400885
21
76.0894
0
LINE
8
DEFAULT_255_1_388
10
5.3400885
20
76.0894
11
4.6777757
21
77.1031993
0
LINE
8
DEFAULT_255_1_388
10
4.6777757
20
77.1031993
11
4.6777757
21
76.0894
0
LINE
8
DEFAULT_255_1_388
10
4.6777757
20
76.0894
11
4.5033878
21
76.0894
0
LINE
8
DEFAULT_255_1_388
10
4.5033878
20
76.0894
11
4.5033878
21
77.4049898
0
LINE
8
DEFAULT_255_1_388
10
4.5033878
20
77.4049898
11
4.6777757
21
77.4049898
0
LINE
8
DEFAULT_255_1_388
10
4.6777757
20
77.4049898
11
5.3418956
21
76.3866727
0
LINE
8
DEFAULT_255_1_388
10
5.3418956
20
76.3866727
11
5.3418956
21
77.4049898
0
LINE
8
DEFAULT_255_1_388
10
5.3418956
20
77.4049898
11
5.5144764
21
77.4049898
0
LINE
8
DEFAULT_255_1_388
10
6.405391
20
77.4058934
11
6.4352086
21
77.4058934
0
LINE
8
DEFAULT_255_1_388
10
6.4352086
20
77.4058934
11
6.4352086
21
77.2640338
0
LINE
8
DEFAULT_255_1_388
10
6.4352086
20
77.2640338
11
6.4044874
21
77.2640338
0
LINE
8
DEFAULT_255_1_388
10
5.78916
20
76.5899747
11
5.78916
21
76.6541278
0
LINE
8
DEFAULT_255_1_388
10
5.957223
20
76.6324422
11
5.957223
21
76.5709999
0
ARC
8
DEFAULT_255_1_388
10
6.4103766
20
76.7017826
40
0.562282
50
90.6001079
51
104.5146616
0
ARC
8
DEFAULT_255_1_388
10
6.3666725
20
76.86431
40
0.3939917
50
104.2855758
51
133.8630124
0
ARC
8
DEFAULT_255_1_388
10
6.3850978
20
76.8521243
40
0.4155734
50
134.5304124
51
161.6210222
0
ARC
8
DEFAULT_255_1_388
10
6.571091
20
76.7865421
40
0.6127682
50
161.2850533
51
174.2074364
0
ARC
8
DEFAULT_255_1_388
10
6.7300477
20
76.7646437
40
0.7731446
50
173.7817938
51
174.9251711
0
ARC
8
DEFAULT_255_1_388
10
6.217467
20
76.609127
40
0.3412588
50
95.8332067
51
138.995412
0
ARC
8
DEFAULT_255_1_388
10
6.2425951
20
76.4652695
40
0.4870358
50
89.8755506
51
97.0540979
0
ARC
8
DEFAULT_255_1_388
10
6.247934
20
76.5592841
40
0.3930432
50
71.6407016
51
90.6240821
0
ARC
8
DEFAULT_255_1_388
10
6.2648733
20
76.6216433
40
0.3285421
50
39.6368051
51
71.0190743
0
ARC
8
DEFAULT_255_1_388
10
6.1932641
20
76.5597586
40
0.4231706
50
10.6588054
51
39.9044509
0
ARC
8
DEFAULT_255_1_388
10
6.0191186
20
76.5219223
40
0.60133
50
359.6827842
51
11.1326896
0
ARC
8
DEFAULT_255_1_388
10
6.0146522
20
76.5139715
40
0.6058047
50
347.2485908
51
0.4371098
0
ARC
8
DEFAULT_255_1_388
10
6.2022308
20
76.4688379
40
0.4128987
50
318.1408565
51
347.6118497
0
ARC
8
DEFAULT_255_1_388
10
6.2387904
20
76.4387903
40
0.3656244
50
275.6342406
51
317.824739
0
ARC
8
DEFAULT_255_1_388
10
6.2139425
20
76.5849827
40
0.513655
50
269.8872513
51
276.7916069
0
ARC
8
DEFAULT_255_1_388
10
6.2077618
20
76.4696181
40
0.398323
50
246.9139443
51
270.7436787
0
ARC
8
DEFAULT_255_1_388
10
6.2084814
20
76.4536044
40
0.3839368
50
218.1665534
51
245.8780431
0
ARC
8
DEFAULT_255_1_388
10
6.3074186
20
76.5363903
40
0.5128958
50
191.4115343
51
218.6077624
0
ARC
8
DEFAULT_255_1_388
10
6.5254502
20
76.5852777
40
0.7363054
50
179.6344971
51
191.7836758
0
ARC
8
DEFAULT_255_1_388
10
7.1534377
20
76.6616495
40
1.3642984
50
171.4523743
51
180.3158856
0
ARC
8
DEFAULT_255_1_388
10
6.6590104
20
76.7385895
40
0.8639311
50
157.9802296
51
171.6246761
0
ARC
8
DEFAULT_255_1_388
10
6.4099454
20
76.8379038
40
0.5958004
50
141.4299236
51
157.8541251
0
ARC
8
DEFAULT_255_1_388
10
6.3377538
20
76.8889746
40
0.5075416
50
102.871586
51
140.8564533
0
ARC
8
DEFAULT_255_1_388
10
6.410609
20
76.6144943
40
0.7914163
50
90.377773
51
103.5868422
0
ARC
8
DEFAULT_255_1_388
10
6.2150612
20
76.5464543
40
0.2667015
50
89.8751238
51
126.2072139
0
ARC
8
DEFAULT_255_1_388
10
6.2202083
20
76.5290847
40
0.2838229
50
124.9742447
51
144.8960197
0
ARC
8
DEFAULT_255_1_388
10
6.2004328
20
76.5451981
40
0.2583845
50
145.2974778
51
160.2660922
0
ARC
8
DEFAULT_255_1_388
10
6.5460816
20
76.5674151
40
0.5888695
50
179.6512124
51
190.285571
0
ARC
8
DEFAULT_255_1_388
10
6.3555296
20
76.5314968
40
0.3949683
50
190.0944895
51
207.5099647
0
ARC
8
DEFAULT_255_1_388
10
6.2918877
20
76.5012177
40
0.3245464
50
207.9585471
51
216.325377
0
ARC
8
DEFAULT_255_1_388
10
6.2536515
20
76.4697712
40
0.2751259
50
215.7661336
51
232.5457193
0
ARC
8
DEFAULT_255_1_388
10
6.210563
20
76.4150273
40
0.2054668
50
232.8005815
51
270.6605497
0
ARC
8
DEFAULT_255_1_388
10
6.2157055
20
76.4559853
40
0.2464268
50
269.3550767
51
288.474612
0
ARC
8
DEFAULT_255_1_388
10
6.2261562
20
76.4166721
40
0.2058436
50
289.1831976
51
322.9685307
0
ARC
8
DEFAULT_255_1_388
10
6.1573663
20
76.4709279
40
0.2934408
50
322.6007085
51
346.5183319
0
ARC
8
DEFAULT_255_1_388
10
6.0271419
20
76.5041434
40
0.4278249
50
346.2584622
51
358.7739592
0
ARC
8
DEFAULT_255_1_388
10
5.9119995
20
76.5103829
40
0.5430876
50
358.3757628
51
0.0082477
0
ARC
8
DEFAULT_255_1_388
10
5.9976813
20
76.5134856
40
0.4574157
50
359.6211417
51
11.28403
0
ARC
8
DEFAULT_255_1_388
10
6.1413419
20
76.5434535
40
0.3106708
50
11.0483152
51
31.8145585
0
ARC
8
DEFAULT_255_1_388
10
6.1761125
20
76.5623045
40
0.2711963
50
32.3028554
51
38.0820598
0
ARC
8
DEFAULT_255_1_388
10
6.2234358
20
76.6051717
40
0.2075566
50
36.8249851
51
85.741667
0
ARC
8
DEFAULT_255_1_388
10
6.215877
20
76.5488065
40
0.2643487
50
85.0150021
51
90.050843
0
LINE
8
DEFAULT_255_1_388
10
4.1862367
20
85.3424898
11
4.1862367
21
84.0269
0
LINE
8
DEFAULT_255_1_388
10
4.1862367
20
84.0269
11
4.0127523
21
84.0269
0
LINE
8
DEFAULT_255_1_388
10
4.0127523
20
84.0269
11
4.0127523
21
85.3424898
0
LINE
8
DEFAULT_255_1_388
10
4.0127523
20
85.3424898
11
4.1862367
21
85.3424898
0
LINE
8
DEFAULT_255_1_388
10
5.5144764
20
85.3424898
11
5.5144764
21
84.0269
0
LINE
8
DEFAULT_255_1_388
10
5.5144764
20
84.0269
11
5.3400885
21
84.0269
0
LINE
8
DEFAULT_255_1_388
10
5.3400885
20
84.0269
11
4.6777757
21
85.0406993
0
LINE
8
DEFAULT_255_1_388
10
4.6777757
20
85.0406993
11
4.6777757
21
84.0269
0
LINE
8
DEFAULT_255_1_388
10
4.6777757
20
84.0269
11
4.5033878
21
84.0269
0
LINE
8
DEFAULT_255_1_388
10
4.5033878
20
84.0269
11
4.5033878
21
85.3424898
0
LINE
8
DEFAULT_255_1_388
10
4.5033878
20
85.3424898
11
4.6777757
21
85.3424898
0
LINE
8
DEFAULT_255_1_388
10
4.6777757
20
85.3424898
11
5.3418956
21
84.3241727
0
LINE
8
DEFAULT_255_1_388
10
5.3418956
20
84.3241727
11
5.3418956
21
85.3424898
0
LINE
8
DEFAULT_255_1_388
10
5.3418956
20
85.3424898
11
5.5144764
21
85.3424898
0
LINE
8
DEFAULT_255_1_388
10
5.9897513
20
84.6521666
11
5.8560238
21
84.6865021
0
LINE
8
DEFAULT_255_1_388
10
5.8560238
20
84.6865021
11
5.9228875
21
85.3424898
0
LINE
8
DEFAULT_255_1_388
10
5.9228875
20
85.3424898
11
6.5969466
21
85.3424898
0
LINE
8
DEFAULT_255_1_388
10
6.5969466
20
85.3424898
11
6.5969466
21
85.1879803
0
LINE
8
DEFAULT_255_1_388
10
6.5969466
20
85.1879803
11
6.0647472
21
85.1879803
0
LINE
8
DEFAULT_255_1_388
10
6.0647472
20
85.1879803
11
6.0249903
21
84.8292652
0
LINE
8
DEFAULT_255_1_388
10
5.8090384
20
84.3729652
11
5.9671622
21
84.3729652
0
LINE
8
DEFAULT_255_1_388
10
6.034026
20
84.6883092
11
5.9897513
21
84.6521666
0
ARC
8
DEFAULT_255_1_388
10
6.2336517
20
84.4715241
40
0.4141476
50
93.7181681
51
120.253934
0
ARC
8
DEFAULT_255_1_388
10
6.2442569
20
84.3806284
40
0.5055616
50
89.9660471
51
94.2495185
0
ARC
8
DEFAULT_255_1_388
10
6.2488391
20
84.4469154
40
0.4392953
50
73.8045384
51
90.5585736
0
ARC
8
DEFAULT_255_1_388
10
6.2752649
20
84.543452
40
0.3392225
50
41.3071072
51
73.543002
0
ARC
8
DEFAULT_255_1_388
10
6.2284469
20
84.5031461
40
0.4009977
50
13.5075837
51
41.2174839
0
ARC
8
DEFAULT_255_1_388
10
6.0437566
20
84.4547907
40
0.5918864
50
1.1330171
51
13.8830737
0
ARC
8
DEFAULT_255_1_388
10
5.8841212
20
84.4462522
40
0.7516787
50
359.9925091
51
1.5431298
0
ARC
8
DEFAULT_255_1_388
10
6.0285827
20
84.4416027
40
0.6072343
50
347.8572712
51
0.4294349
0
ARC
8
DEFAULT_255_1_388
10
6.2254961
20
84.3969898
40
0.4053482
50
323.6727442
51
348.1674594
0
ARC
8
DEFAULT_255_1_388
10
6.2585926
20
84.3768175
40
0.3667495
50
316.8171818
51
323.1486802
0
ARC
8
DEFAULT_255_1_388
10
6.265505
20
84.3726612
40
0.358869
50
281.839603
51
316.5458142
0
ARC
8
DEFAULT_255_1_388
10
6.2232337
20
84.5476363
40
0.5388223
50
269.5770964
51
282.4214641
0
ARC
8
DEFAULT_255_1_388
10
6.2152258
20
84.523593
40
0.5147801
50
256.2425863
51
270.4486481
0
ARC
8
DEFAULT_255_1_388
10
6.1815786
20
84.3886124
40
0.3756708
50
228.9024379
51
256.33135
0
ARC
8
DEFAULT_255_1_388
10
6.1732766
20
84.3755054
40
0.360344
50
193.7536029
51
228.5272638
0
ARC
8
DEFAULT_255_1_388
10
6.3125331
20
84.4163463
40
0.5053599
50
184.9244437
51
194.4976052
0
ARC
8
DEFAULT_255_1_388
10
6.3341972
20
84.4203722
40
0.3700839
50
187.3596909
51
198.6733728
0
ARC
8
DEFAULT_255_1_388
10
6.2161216
20
84.3794373
40
0.2451195
50
198.4453795
51
217.7945479
0
ARC
8
DEFAULT_255_1_388
10
6.1828388
20
84.3558563
40
0.2043754
50
218.2887146
51
228.5613203
0
ARC
8
DEFAULT_255_1_388
10
6.1938395
20
84.3706902
40
0.2227819
50
228.9652423
51
258.1237049
0
ARC
8
DEFAULT_255_1_388
10
6.2169832
20
84.4697964
40
0.3245374
50
257.7260585
51
270.4013717
0
ARC
8
DEFAULT_255_1_388
10
6.222033
20
84.4197255
40
0.2744726
50
269.4204315
51
286.420998
0
ARC
8
DEFAULT_255_1_388
10
6.2387386
20
84.3590705
40
0.2115721
50
286.7250065
51
320.6004665
0
ARC
8
DEFAULT_255_1_388
10
6.1956302
20
84.3940527
40
0.2670878
50
320.6712228
51
344.5440474
0
ARC
8
DEFAULT_255_1_388
10
6.0655015
20
84.4322394
40
0.4026927
50
344.241448
51
356.735803
0
ARC
8
DEFAULT_255_1_388
10
5.9251323
20
84.4438656
40
0.5435085
50
356.3547471
51
0.0507222
0
ARC
8
DEFAULT_255_1_388
10
6.0753588
20
84.4473812
40
0.3932934
50
359.5579289
51
12.9534322
0
ARC
8
DEFAULT_255_1_388
10
6.1940428
20
84.4761586
40
0.2711827
50
12.6489751
51
41.608121
0
ARC
8
DEFAULT_255_1_388
10
6.2199588
20
84.4981946
40
0.2371737
50
41.7851122
51
85.9892156
0
ARC
8
DEFAULT_255_1_388
10
6.2060898
20
84.4066738
40
0.3295244
50
84.6965848
51
90.0672125
0
ARC
8
DEFAULT_255_1_388
10
6.2034465
20
84.3315118
40
0.4046926
50
89.6804991
51
99.161352
0
ARC
8
DEFAULT_255_1_388
10
6.1803474
20
84.4695848
40
0.2647044
50
98.9836248
51
113.8905702
0
ARC
8
DEFAULT_255_1_388
10
6.1545149
20
84.5305118
40
0.1985386
50
114.195234
51
127.3641866
0
LINE
8
DEFAULT_255_1_388
10
4.3185367
20
93.2799898
11
4.3185367
21
91.9644
0
LINE
8
DEFAULT_255_1_388
10
4.3185367
20
91.9644
11
4.1450523
21
91.9644
0
LINE
8
DEFAULT_255_1_388
10
4.1450523
20
91.9644
11
4.1450523
21
93.2799898
0
LINE
8
DEFAULT_255_1_388
10
4.1450523
20
93.2799898
11
4.3185367
21
93.2799898
0
LINE
8
DEFAULT_255_1_388
10
5.6467764
20
93.2799898
11
5.6467764
21
91.9644
0
LINE
8
DEFAULT_255_1_388
10
5.6467764
20
91.9644
11
5.4723885
21
91.9644
0
LINE
8
DEFAULT_255_1_388
10
5.4723885
20
91.9644
11
4.8100757
21
92.9781993
0
LINE
8
DEFAULT_255_1_388
10
4.8100757
20
92.9781993
11
4.8100757
21
91.9644
0
LINE
8
DEFAULT_255_1_388
10
4.8100757
20
91.9644
11
4.6356878
21
91.9644
0
LINE
8
DEFAULT_255_1_388
10
4.6356878
20
91.9644
11
4.6356878
21
93.2799898
0
LINE
8
DEFAULT_255_1_388
10
4.6356878
20
93.2799898
11
4.8100757
21
93.2799898
0
LINE
8
DEFAULT_255_1_388
10
4.8100757
20
93.2799898
11
5.4741956
21
92.2616727
0
LINE
8
DEFAULT_255_1_388
10
5.4741956
20
92.2616727
11
5.4741956
21
93.2799898
0
LINE
8
DEFAULT_255_1_388
10
5.4741956
20
93.2799898
11
5.6467764
21
93.2799898
0
LINE
8
DEFAULT_255_1_388
10
6.6172046
20
93.2799898
11
6.6172046
21
92.406243
0
LINE
8
DEFAULT_255_1_388
10
6.6172046
20
92.406243
11
6.7997247
21
92.406243
0
LINE
8
DEFAULT_255_1_388
10
6.7997247
20
92.406243
11
6.7997247
21
92.2698048
0
LINE
8
DEFAULT_255_1_388
10
6.7997247
20
92.2698048
11
6.6172046
21
92.2698048
0
LINE
8
DEFAULT_255_1_388
10
6.6172046
20
92.2698048
11
6.6172046
21
91.9644
0
LINE
8
DEFAULT_255_1_388
10
6.6172046
20
91.9644
11
6.4491417
21
91.9644
0
LINE
8
DEFAULT_255_1_388
10
6.4491417
20
91.9644
11
6.4491417
21
92.2698048
0
LINE
8
DEFAULT_255_1_388
10
6.4491417
20
92.2698048
11
5.8500784
21
92.2698048
0
LINE
8
DEFAULT_255_1_388
10
5.8500784
20
92.2698048
11
5.8500784
21
92.3682933
0
LINE
8
DEFAULT_255_1_388
10
5.8500784
20
92.3682933
11
6.4392024
21
93.2799898
0
LINE
8
DEFAULT_255_1_388
10
6.4392024
20
93.2799898
11
6.6172046
21
93.2799898
0
LINE
8
DEFAULT_255_1_388
10
6.4292632
20
93.0152455
11
6.039827
21
92.406243
0
LINE
8
DEFAULT_255_1_388
10
6.039827
20
92.406243
11
6.4491417
21
92.406243
0
LINE
8
DEFAULT_255_1_388
10
6.4491417
20
92.406243
11
6.4491417
21
93.051388
0
LINE
8
DEFAULT_255_1_388
10
6.4491417
20
93.051388
11
6.4292632
21
93.0152455
0
LINE
8
DEFAULT_255_1_388
10
4.1862367
20
101.2174898
11
4.1862367
21
99.9019
0
LINE
8
DEFAULT_255_1_388
10
4.1862367
20
99.9019
11
4.0127523
21
99.9019
0
LINE
8
DEFAULT_255_1_388
10
4.0127523
20
99.9019
11
4.0127523
21
101.2174898
0
LINE
8
DEFAULT_255_1_388
10
4.0127523
20
101.2174898
11
4.1862367
21
101.2174898
0
LINE
8
DEFAULT_255_1_388
10
5.5144764
20
101.2174898
11
5.5144764
21
99.9019
0
LINE
8
DEFAULT_255_1_388
10
5.5144764
20
99.9019
11
5.3400885
21
99.9019
0
LINE
8
DEFAULT_255_1_388
10
5.3400885
20
99.9019
11
4.6777757
21
100.9156993
0
LINE
8
DEFAULT_255_1_388
10
4.6777757
20
100.9156993
11
4.6777757
21
99.9019
0
LINE
8
DEFAULT_255_1_388
10
4.6777757
20
99.9019
11
4.5033878
21
99.9019
0
LINE
8
DEFAULT_255_1_388
10
4.5033878
20
99.9019
11
4.5033878
21
101.2174898
0
LINE
8
DEFAULT_255_1_388
10
4.5033878
20
101.2174898
11
4.6777757
21
101.2174898
0
LINE
8
DEFAULT_255_1_388
10
4.6777757
20
101.2174898
11
5.3418956
21
100.1991727
0
LINE
8
DEFAULT_255_1_388
10
5.3418956
20
100.1991727
11
5.3418956
21
101.2174898
0
LINE
8
DEFAULT_255_1_388
10
5.3418956
20
101.2174898
11
5.5144764
21
101.2174898
0
LINE
8
DEFAULT_255_1_388
10
6.0222796
20
100.5045775
11
6.0222796
21
100.6410157
0
LINE
8
DEFAULT_255_1_388
10
6.0222796
20
100.6410157
11
6.1478751
21
100.6410157
0
LINE
8
DEFAULT_255_1_388
10
5.9337303
20
100.8723282
11
5.7665709
21
100.8723282
0
LINE
8
DEFAULT_255_1_388
10
5.7548246
20
100.2488688
11
5.9228875
21
100.2488688
0
LINE
8
DEFAULT_255_1_388
10
6.1478751
20
100.5045775
11
6.0222796
21
100.5045775
0
ARC
8
DEFAULT_255_1_388
10
6.1445977
20
101.0226922
40
0.3816905
50
270.491971
51
281.8953028
0
ARC
8
DEFAULT_255_1_388
10
6.1717404
20
100.8987199
40
0.2547877
50
281.6690378
51
301.2943765
0
ARC
8
DEFAULT_255_1_388
10
6.1908856
20
100.8636926
40
0.2149197
50
301.7834992
51
311.754567
0
ARC
8
DEFAULT_255_1_388
10
6.2011897
20
100.852265
40
0.1995326
50
311.7325027
51
354.2803031
0
ARC
8
DEFAULT_255_1_388
10
6.1194313
20
100.866328
40
0.2823461
50
353.0941646
51
0.1174696
0
ARC
8
DEFAULT_255_1_388
10
6.0675871
20
100.8716874
40
0.3342238
50
359.1804452
51
15.0452323
0
ARC
8
DEFAULT_255_1_388
10
6.2189929
20
100.9158546
40
0.1765747
50
13.957816
51
77.6713812
0
ARC
8
DEFAULT_255_1_388
10
6.1755165
20
100.7600464
40
0.3381982
50
76.111571
51
90.7028736
0
ARC
8
DEFAULT_255_1_388
10
6.1688577
20
100.790825
40
0.3074046
50
89.5321574
51
103.5319393
0
ARC
8
DEFAULT_255_1_388
10
6.1462961
20
100.8807443
40
0.2147041
50
103.2930114
51
133.5619756
0
ARC
8
DEFAULT_255_1_388
10
6.1412902
20
100.8874351
40
0.2064084
50
133.8349761
51
173.5343225
0
ARC
8
DEFAULT_255_1_388
10
6.222656
20
100.8730144
40
0.2889266
50
172.5097183
51
180.1360699
0
ARC
8
DEFAULT_255_1_388
10
6.1156324
20
100.876888
40
0.3490913
50
155.3483706
51
180.7484035
0
ARC
8
DEFAULT_255_1_388
10
6.1101299
20
100.8736519
40
0.3454798
50
131.5745177
51
154.4799474
0
ARC
8
DEFAULT_255_1_388
10
6.1453582
20
100.8380422
40
0.3955058
50
96.9874487
51
131.9690874
0
ARC
8
DEFAULT_255_1_388
10
6.1700475
20
100.6979407
40
0.537622
50
89.8592909
51
97.7827481
0
ARC
8
DEFAULT_255_1_388
10
6.1754584
20
100.668436
40
0.5671399
50
78.3654493
51
90.4132586
0
ARC
8
DEFAULT_255_1_388
10
6.2157225
20
100.8550918
40
0.3762034
50
56.6229818
51
78.6387103
0
ARC
8
DEFAULT_255_1_388
10
6.2399054
20
100.8973846
40
0.3275964
50
47.0254604
51
56.085558
0
ARC
8
DEFAULT_255_1_388
10
6.2421305
20
100.9018189
40
0.3228382
50
10.9207523
51
46.777927
0
ARC
8
DEFAULT_255_1_388
10
6.0886899
20
100.8663401
40
0.4802559
50
359.6364235
51
11.6087615
0
ARC
8
DEFAULT_255_1_388
10
6.2951065
20
100.8646404
40
0.273833
50
332.3549969
51
359.7179765
0
ARC
8
DEFAULT_255_1_388
10
6.2219465
20
100.8993285
40
0.3547505
50
325.2332381
51
332.8746682
0
ARC
8
DEFAULT_255_1_388
10
6.2391048
20
100.8873763
40
0.3338396
50
292.9803892
51
325.2391113
0
ARC
8
DEFAULT_255_1_388
10
6.2080244
20
100.9478679
40
0.4016959
50
292.542178
51
293.6931461
0
ARC
8
DEFAULT_255_1_388
10
6.2523816
20
100.2213036
40
0.372079
50
57.643292
51
72.8626085
0
ARC
8
DEFAULT_255_1_388
10
6.292265
20
100.2859273
40
0.2961455
50
36.7246661
51
57.4701329
0
ARC
8
DEFAULT_255_1_388
10
6.2909807
20
100.287347
40
0.2963321
50
8.054535
51
36.3561529
0
ARC
8
DEFAULT_255_1_388
10
6.193948
20
100.2699073
40
0.3948682
50
359.8316595
51
8.5873361
0
ARC
8
DEFAULT_255_1_388
10
6.1516954
20
100.264497
40
0.4371398
50
343.9831631
51
0.557075
0
ARC
8
DEFAULT_255_1_388
10
6.2514004
20
100.2371963
40
0.3337749
50
311.6358204
51
343.7652116
0
ARC
8
DEFAULT_255_1_388
10
6.2088257
20
100.2851955
40
0.3979351
50
279.7829743
51
311.625622
0
ARC
8
DEFAULT_255_1_388
10
6.1749392
20
100.4468642
40
0.5630417
50
269.7285092
51
280.3857694
0
ARC
8
DEFAULT_255_1_388
10
6.1679705
20
100.4422241
40
0.5584119
50
256.6827433
51
270.4412869
0
ARC
8
DEFAULT_255_1_388
10
6.1298692
20
100.2864698
40
0.3980715
50
229.4223821
51
256.8554507
0
ARC
8
DEFAULT_255_1_388
10
6.0832245
20
100.2339683
40
0.3278564
50
181.8183354
51
229.6455015
0
ARC
8
DEFAULT_255_1_388
10
6.2001855
20
100.2486825
40
0.4453611
50
179.9760419
51
183.2330638
0
ARC
8
DEFAULT_255_1_388
10
6.1808407
20
100.2463781
40
0.2579652
50
179.4467996
51
196.2871626
0
ARC
8
DEFAULT_255_1_388
10
6.1259861
20
100.2313709
40
0.2011057
50
196.5661293
51
227.7059371
0
ARC
8
DEFAULT_255_1_388
10
6.1444468
20
100.2520155
40
0.2287994
50
227.7653015
51
257.8763321
0
ARC
8
DEFAULT_255_1_388
10
6.1697551
20
100.3580961
40
0.3378385
50
257.4583525
51
270.4267406
0
ARC
8
DEFAULT_255_1_388
10
6.1748801
20
100.390723
40
0.3704652
50
269.5965319
51
280.8788143
0
ARC
8
DEFAULT_255_1_388
10
6.2007029
20
100.2617529
40
0.2389415
50
280.6347277
51
299.8594068
0
ARC
8
DEFAULT_255_1_388
10
6.2221798
20
100.2209736
40
0.19289
50
300.3575552
51
314.5515667
0
ARC
8
DEFAULT_255_1_388
10
6.2128474
20
100.2278025
40
0.204312
50
315.0730962
51
345.0429362
0
ARC
8
DEFAULT_255_1_388
10
6.1089982
20
100.2580539
40
0.31246
50
344.598526
51
357.9270698
0
ARC
8
DEFAULT_255_1_388
10
6.0080286
20
100.2649705
40
0.4136265
50
357.4755098
51
0.0224936
0
ARC
8
DEFAULT_255_1_388
10
6.1233164
20
100.2677099
40
0.2983498
50
359.5051035
51
13.4236939
0
ARC
8
DEFAULT_255_1_388
10
6.2208254
20
100.2926637
40
0.1977186
50
12.9497905
51
48.7550905
0
ARC
8
DEFAULT_255_1_388
10
6.2003176
20
100.2646373
40
0.2323321
50
49.509109
51
72.1832965
0
ARC
8
DEFAULT_255_1_388
10
6.1600644
20
100.1451632
40
0.358397
50
71.9008458
51
84.3555134
0
ARC
8
DEFAULT_255_1_388
10
6.1419039
20
99.9919712
40
0.512641
50
84.019632
51
89.3326067
0
LINE
8
DEFAULT_255_1_388
10
4.1862367
20
109.1549898
11
4.1862367
21
107.8394
0
LINE
8
DEFAULT_255_1_388
10
4.1862367
20
107.8394
11
4.0127523
21
107.8394
0
LINE
8
DEFAULT_255_1_388
10
4.0127523
20
107.8394
11
4.0127523
21
109.1549898
0
LINE
8
DEFAULT_255_1_388
10
4.0127523
20
109.1549898
11
4.1862367
21
109.1549898
0
LINE
8
DEFAULT_255_1_388
10
5.5144764
20
109.1549898
11
5.5144764
21
107.8394
0
LINE
8
DEFAULT_255_1_388
10
5.5144764
20
107.8394
11
5.3400885
21
107.8394
0
LINE
8
DEFAULT_255_1_388
10
5.3400885
20
107.8394
11
4.6777757
21
108.8531993
0
LINE
8
DEFAULT_255_1_388
10
4.6777757
20
108.8531993
11
4.6777757
21
107.8394
0
LINE
8
DEFAULT_255_1_388
10
4.6777757
20
107.8394
11
4.5033878
21
107.8394
0
LINE
8
DEFAULT_255_1_388
10
4.5033878
20
107.8394
11
4.5033878
21
109.1549898
0
LINE
8
DEFAULT_255_1_388
10
4.5033878
20
109.1549898
11
4.6777757
21
109.1549898
0
LINE
8
DEFAULT_255_1_388
10
4.6777757
20
109.1549898
11
5.3418956
21
108.1366727
0
LINE
8
DEFAULT_255_1_388
10
5.3418956
20
108.1366727
11
5.3418956
21
109.1549898
0
LINE
8
DEFAULT_255_1_388
10
5.3418956
20
109.1549898
11
5.5144764
21
109.1549898
0
LINE
8
DEFAULT_255_1_388
10
6.6412213
20
107.9758382
11
6.6412213
21
107.8394
0
LINE
8
DEFAULT_255_1_388
10
6.6412213
20
107.8394
11
5.7792208
21
107.8394
0
LINE
8
DEFAULT_255_1_388
10
5.7792208
20
107.8394
11
5.7792208
21
107.9595741
0
LINE
8
DEFAULT_255_1_388
10
5.7792208
20
107.9595741
11
6.2346173
21
108.4655702
0
LINE
8
DEFAULT_255_1_388
10
5.9210804
20
108.7673607
11
5.753921
21
108.7673607
0
LINE
8
DEFAULT_255_1_388
10
6.3331058
20
108.358046
11
5.9807157
21
107.9758382
0
LINE
8
DEFAULT_255_1_388
10
5.9807157
20
107.9758382
11
6.6412213
21
107.9758382
0
ARC
8
DEFAULT_255_1_388
10
4.7170232
20
109.8075983
40
2.0258655
50
318.5132526
51
320.7829045
0
ARC
8
DEFAULT_255_1_388
10
5.3118189
20
109.3234929
40
1.2589638
50
320.7372878
51
323.9739031
0
ARC
8
DEFAULT_255_1_388
10
5.7527121
20
109.0040554
40
0.7145141
50
323.8962701
51
328.64194
0
ARC
8
DEFAULT_255_1_388
10
5.9829379
20
108.8620545
40
0.4440242
50
328.8294576
51
331.7891185
0
ARC
8
DEFAULT_255_1_388
10
6.0951699
20
108.8041374
40
0.3177517
50
331.4254512
51
352.9365785
0
ARC
8
DEFAULT_255_1_388
10
6.1104699
20
108.800705
40
0.3021496
50
353.2257659
51
0.0166158
0
ARC
8
DEFAULT_255_1_388
10
6.1341459
20
108.8032894
40
0.2784847
50
359.486299
51
15.9343185
0
ARC
8
DEFAULT_255_1_388
10
6.1911726
20
108.8186269
40
0.2194403
50
16.1712913
51
43.5286088
0
ARC
8
DEFAULT_255_1_388
10
6.1998671
20
108.8273191
40
0.2071504
50
43.4417391
51
83.1661095
0
ARC
8
DEFAULT_255_1_388
10
6.1847832
20
108.7444316
40
0.2912888
50
82.160179
51
90.1505708
0
ARC
8
DEFAULT_255_1_388
10
6.1812313
20
108.6840279
40
0.3517025
50
89.5460741
51
102.5418361
0
ARC
8
DEFAULT_255_1_388
10
6.1539033
20
108.7999933
40
0.2325748
50
102.1738499
51
129.206123
0
ARC
8
DEFAULT_255_1_388
10
6.1450487
20
108.8139664
40
0.2161591
50
129.72865
51
135.753947
0
ARC
8
DEFAULT_255_1_388
10
6.1586969
20
108.8030728
40
0.2335433
50
136.1757367
51
166.3673339
0
ARC
8
DEFAULT_255_1_388
10
6.2719657
20
108.7727148
40
0.3507873
50
165.9090694
51
178.8684636
0
ARC
8
DEFAULT_255_1_388
10
6.3695429
20
108.7674263
40
0.4484624
50
178.4391136
51
180.0083808
0
ARC
8
DEFAULT_255_1_388
10
6.211613
20
108.7718197
40
0.4577138
50
163.2878482
51
180.5581842
0
ARC
8
DEFAULT_255_1_388
10
6.1214171
20
108.7966393
40
0.3641968
50
133.4540601
51
162.947111
0
ARC
8
DEFAULT_255_1_388
10
6.1415053
20
108.7752789
40
0.3935189
50
100.7869829
51
133.4382499
0
ARC
8
DEFAULT_255_1_388
10
6.1806298
20
108.6010399
40
0.5720313
50
89.660664
51
101.3702276
0
ARC
8
DEFAULT_255_1_388
10
6.1880907
20
108.6079263
40
0.5651495
50
78.2172678
51
90.412935
0
ARC
8
DEFAULT_255_1_388
10
6.2280373
20
108.7906511
40
0.378122
50
55.9269121
51
78.4888449
0
ARC
8
DEFAULT_255_1_388
10
6.2501088
20
108.8287187
40
0.3342379
50
47.929771
51
55.4049217
0
ARC
8
DEFAULT_255_1_388
10
6.2615618
20
108.8403618
40
0.3179217
50
4.334829
51
48.0560205
0
ARC
8
DEFAULT_255_1_388
10
6.138342
20
108.8212487
40
0.442341
50
359.9251713
51
5.5971671
0
ARC
8
DEFAULT_255_1_388
10
6.1865575
20
108.8275728
40
0.3941854
50
337.8914027
51
358.9967534
0
ARC
8
DEFAULT_255_1_388
10
5.8813145
20
108.9453295
40
0.7213271
50
326.9132501
51
338.3508308
0
ARC
8
DEFAULT_255_1_388
10
5.4329257
20
109.2327105
40
1.2538973
50
319.6471833
51
327.0959558
0
ARC
8
DEFAULT_255_1_388
10
5.0015915
20
109.588505
40
1.8129975
50
317.2588228
51
319.9045804
0
LINE
8
DEFAULT_255_1_388
10
4.1775367
20
117.0924898
11
4.1775367
21
115.7769
0
LINE
8
DEFAULT_255_1_388
10
4.1775367
20
115.7769
11
4.0040523
21
115.7769
0
LINE
8
DEFAULT_255_1_388
10
4.0040523
20
115.7769
11
4.0040523
21
117.0924898
0
LINE
8
DEFAULT_255_1_388
10
4.0040523
20
117.0924898
11
4.1775367
21
117.0924898
0
LINE
8
DEFAULT_255_1_388
10
5.5057764
20
117.0924898
11
5.5057764
21
115.7769
0
LINE
8
DEFAULT_255_1_388
10
5.5057764
20
115.7769
11
5.3313885
21
115.7769
0
LINE
8
DEFAULT_255_1_388
10
5.3313885
20
115.7769
11
4.6690757
21
116.7906993
0
LINE
8
DEFAULT_255_1_388
10
4.6690757
20
116.7906993
11
4.6690757
21
115.7769
0
LINE
8
DEFAULT_255_1_388
10
4.6690757
20
115.7769
11
4.4946878
21
115.7769
0
LINE
8
DEFAULT_255_1_388
10
4.4946878
20
115.7769
11
4.4946878
21
117.0924898
0
LINE
8
DEFAULT_255_1_388
10
4.4946878
20
117.0924898
11
4.6690757
21
117.0924898
0
LINE
8
DEFAULT_255_1_388
10
4.6690757
20
117.0924898
11
5.3331956
21
116.0741727
0
LINE
8
DEFAULT_255_1_388
10
5.3331956
20
116.0741727
11
5.3331956
21
117.0924898
0
LINE
8
DEFAULT_255_1_388
10
5.3331956
20
117.0924898
11
5.5057764
21
117.0924898
0
LINE
8
DEFAULT_255_1_388
10
6.319888
20
117.0988148
11
6.319888
21
115.7769
0
LINE
8
DEFAULT_255_1_388
10
6.319888
20
115.7769
11
6.151825
21
115.7769
0
LINE
8
DEFAULT_255_1_388
10
6.151825
20
115.7769
11
6.151825
21
116.890995
0
LINE
8
DEFAULT_255_1_388
10
6.151825
20
116.890995
11
5.8147955
21
116.7672066
0
LINE
8
DEFAULT_255_1_388
10
5.8147955
20
116.7672066
11
5.8147955
21
116.9190055
0
LINE
8
DEFAULT_255_1_388
10
5.8147955
20
116.9190055
11
6.2936846
21
117.0988148
0
LINE
8
DEFAULT_255_1_388
10
6.2936846
20
117.0988148
11
6.319888
21
117.0988148
0
LINE
8
DEFAULT_255_1_388
10
4.1862367
20
125.0299898
11
4.1862367
21
123.7144
0
LINE
8
DEFAULT_255_1_388
10
4.1862367
20
123.7144
11
4.0127523
21
123.7144
0
LINE
8
DEFAULT_255_1_388
10
4.0127523
20
123.7144
11
4.0127523
21
125.0299898
0
LINE
8
DEFAULT_255_1_388
10
4.0127523
20
125.0299898
11
4.1862367
21
125.0299898
0
LINE
8
DEFAULT_255_1_388
10
5.5144764
20
125.0299898
11
5.5144764
21
123.7144
0
LINE
8
DEFAULT_255_1_388
10
5.5144764
20
123.7144
11
5.3400885
21
123.7144
0
LINE
8
DEFAULT_255_1_388
10
5.3400885
20
123.7144
11
4.6777757
21
124.7281993
0
LINE
8
DEFAULT_255_1_388
10
4.6777757
20
124.7281993
11
4.6777757
21
123.7144
0
LINE
8
DEFAULT_255_1_388
10
4.6777757
20
123.7144
11
4.5033878
21
123.7144
0
LINE
8
DEFAULT_255_1_388
10
4.5033878
20
123.7144
11
4.5033878
21
125.0299898
0
LINE
8
DEFAULT_255_1_388
10
4.5033878
20
125.0299898
11
4.6777757
21
125.0299898
0
LINE
8
DEFAULT_255_1_388
10
4.6777757
20
125.0299898
11
5.3418956
21
124.0116727
0
LINE
8
DEFAULT_255_1_388
10
5.3418956
20
124.0116727
11
5.3418956
21
125.0299898
0
LINE
8
DEFAULT_255_1_388
10
5.3418956
20
125.0299898
11
5.5144764
21
125.0299898
0
LINE
8
DEFAULT_255_1_388
10
6.6041751
20
124.492369
11
6.6041751
21
124.2755135
0
LINE
8
DEFAULT_255_1_388
10
5.7737994
20
124.2529244
11
5.7737994
21
124.4761048
0
LINE
8
DEFAULT_255_1_388
10
6.4370157
20
124.2303353
11
6.4370157
21
124.5041153
0
LINE
8
DEFAULT_255_1_388
10
5.9409588
20
124.5167652
11
5.9409588
21
124.2493102
0
ARC
8
DEFAULT_255_1_388
10
5.2264085
20
124.2700118
40
1.3777776
50
353.8440855
51
0.2287917
0
ARC
8
DEFAULT_255_1_388
10
5.7483103
20
124.2117414
40
0.852639
50
344.4934746
51
353.9763743
0
ARC
8
DEFAULT_255_1_388
10
6.084991
20
124.1160191
40
0.5026273
50
329.2803599
51
344.7473406
0
ARC
8
DEFAULT_255_1_388
10
6.1965406
20
124.0548038
40
0.3754848
50
324.9361395
51
328.6153007
0
ARC
8
DEFAULT_255_1_388
10
6.2391056
20
124.0250586
40
0.3235566
50
280.5801797
51
324.9173226
0
ARC
8
DEFAULT_255_1_388
10
6.1939684
20
124.2130236
40
0.5167077
50
269.5979457
51
281.6732777
0
ARC
8
DEFAULT_255_1_388
10
6.1858588
20
124.1995113
40
0.5032026
50
256.6228565
51
270.5105488
0
ARC
8
DEFAULT_255_1_388
10
6.140633
20
124.0253345
40
0.3233092
50
215.8618351
51
257.2787793
0
ARC
8
DEFAULT_255_1_388
10
6.2555037
20
124.1024106
40
0.4615831
50
197.9695203
51
215.2622745
0
ARC
8
DEFAULT_255_1_388
10
6.5350713
20
124.1967641
40
0.7566307
50
187.8816486
51
198.2346584
0
ARC
8
DEFAULT_255_1_388
10
6.9803951
20
124.2610453
40
1.2065653
50
180.8977266
51
188.0054894
0
ARC
8
DEFAULT_255_1_388
10
7.2854165
20
124.27254
40
1.5117443
50
180.7434591
51
181.152202
0
ARC
8
DEFAULT_255_1_388
10
7.1179161
20
124.4815371
40
1.3441277
50
173.7674302
51
180.2315596
0
ARC
8
DEFAULT_255_1_388
10
6.609703
20
124.5389779
40
0.8326847
50
164.3058537
51
173.9000553
0
ARC
8
DEFAULT_255_1_388
10
6.282103
20
124.6333652
40
0.4917711
50
148.7922028
51
164.5682288
0
ARC
8
DEFAULT_255_1_388
10
6.1751767
20
124.6930457
40
0.3694204
50
144.5883979
51
148.1161588
0
ARC
8
DEFAULT_255_1_388
10
6.1364513
20
124.7200667
40
0.322202
50
101.6440149
51
144.5142619
0
ARC
8
DEFAULT_255_1_388
10
6.1842705
20
124.5300337
40
0.5180451
50
89.528284
51
102.5820197
0
ARC
8
DEFAULT_255_1_388
10
6.1931697
20
124.5256376
40
0.5224441
50
77.0437914
51
90.508231
0
ARC
8
DEFAULT_255_1_388
10
6.238395
20
124.7104272
40
0.3322297
50
48.2777708
51
77.4996087
0
ARC
8
DEFAULT_255_1_388
10
6.246569
20
124.7249557
40
0.315966
50
36.3141586
51
47.6307332
0
ARC
8
DEFAULT_255_1_388
10
6.1488413
20
124.6591159
40
0.4337313
50
18.2931065
51
35.6770203
0
ARC
8
DEFAULT_255_1_388
10
5.8627253
20
124.5609107
40
0.7362203
50
8.0246996
51
18.5605636
0
ARC
8
DEFAULT_255_1_388
10
5.3943609
20
124.4917432
40
1.2096583
50
1.127539
51
8.1718423
0
ARC
8
DEFAULT_255_1_388
10
5.0294742
20
124.4774374
40
1.5747719
50
0.5432713
51
1.38669
0
ARC
8
DEFAULT_255_1_388
10
5.2352121
20
124.5081163
40
1.2018103
50
359.8092569
51
4.9408001
0
ARC
8
DEFAULT_255_1_388
10
5.7088702
20
124.55039
40
0.7262727
50
4.8364937
51
12.2906017
0
ARC
8
DEFAULT_255_1_388
10
6.0188167
20
124.6194485
40
0.4087324
50
12.0806994
51
23.8171225
0
ARC
8
DEFAULT_255_1_388
10
6.1508563
20
124.6753508
40
0.2653719
50
24.2874621
51
31.3934353
0
ARC
8
DEFAULT_255_1_388
10
6.2098999
20
124.7139822
40
0.1948607
50
30.7407708
51
82.4658033
0
ARC
8
DEFAULT_255_1_388
10
6.189666
20
124.6146017
40
0.2961198
50
81.1057101
51
90.2187368
0
ARC
8
DEFAULT_255_1_388
10
6.1856472
20
124.6436421
40
0.2670929
50
89.380395
51
105.6763916
0
ARC
8
DEFAULT_255_1_388
10
6.1650194
20
124.718632
40
0.1893189
50
105.7980655
51
149.7387869
0
ARC
8
DEFAULT_255_1_388
10
6.2847334
20
124.6466719
40
0.3289892
50
149.4208441
51
163.628295
0
ARC
8
DEFAULT_255_1_388
10
6.5199563
20
124.5749345
40
0.5749004
50
163.3764549
51
172.141138
0
ARC
8
DEFAULT_255_1_388
10
6.8912285
20
124.5217582
40
0.9499585
50
172.0258462
51
178.0705453
0
ARC
8
DEFAULT_255_1_388
10
7.2333838
20
124.5055682
40
1.2924734
50
177.8639301
51
179.5036263
0
ARC
8
DEFAULT_255_1_388
10
7.1114856
20
124.2452151
40
1.170534
50
179.7995545
51
185.246089
0
ARC
8
DEFAULT_255_1_388
10
6.6566449
20
124.2021404
40
0.7136613
50
185.1411911
51
193.0082205
0
ARC
8
DEFAULT_255_1_388
10
6.359271
20
124.1318441
40
0.4080987
50
192.7897338
51
205.2507384
0
ARC
8
DEFAULT_255_1_388
10
6.241492
20
124.0792538
40
0.2791522
50
205.8001921
51
211.2545876
0
ARC
8
DEFAULT_255_1_388
10
6.1826459
20
124.0398132
40
0.2084074
50
210.3789935
51
238.4007996
0
ARC
8
DEFAULT_255_1_388
10
6.1804545
20
124.0450786
40
0.2117943
50
239.6521916
51
265.9793852
0
ARC
8
DEFAULT_255_1_388
10
6.1900394
20
124.1207358
40
0.2879689
50
265.1324455
51
270.0603288
0
ARC
8
DEFAULT_255_1_388
10
6.1932771
20
124.0842418
40
0.2514919
50
269.3314378
51
287.2180039
0
ARC
8
DEFAULT_255_1_388
10
6.2087853
20
124.0276291
40
0.1928357
50
287.7957942
51
329.0808983
0
ARC
8
DEFAULT_255_1_388
10
6.101061
20
124.0948651
40
0.319808
50
328.6635261
51
343.3325043
0
ARC
8
DEFAULT_255_1_388
10
5.8566069
20
124.1710195
40
0.5758408
50
343.0498092
51
351.9392499
0
ARC
8
DEFAULT_255_1_388
10
5.4665391
20
124.2285205
40
0.9701202
50
351.8071632
51
357.7957897
0
ARC
8
DEFAULT_255_1_388
10
5.1030868
20
124.2473724
40
1.3340376
50
357.5870923
51
359.2682493
0
LINE
8
DEFAULT_255_1_388
10
23.1190856
20
132.429869
11
23.1190856
21
132.2130135
0
LINE
8
DEFAULT_255_1_388
10
22.2887099
20
132.1904244
11
22.2887099
21
132.4136048
0
LINE
8
DEFAULT_255_1_388
10
22.9519262
20
132.1678353
11
22.9519262
21
132.4416153
0
LINE
8
DEFAULT_255_1_388
10
22.4558693
20
132.4542652
11
22.4558693
21
132.1868102
0
ARC
8
DEFAULT_255_1_388
10
21.741319
20
132.2075118
40
1.3777776
50
353.8440855
51
0.2287917
0
ARC
8
DEFAULT_255_1_388
10
22.2632208
20
132.1492414
40
0.852639
50
344.4934746
51
353.9763743
0
ARC
8
DEFAULT_255_1_388
10
22.5999015
20
132.0535191
40
0.5026273
50
329.2803599
51
344.7473406
0
ARC
8
DEFAULT_255_1_388
10
22.7114511
20
131.9923038
40
0.3754848
50
324.9361395
51
328.6153007
0
ARC
8
DEFAULT_255_1_388
10
22.7540161
20
131.9625586
40
0.3235566
50
280.5801797
51
324.9173226
0
ARC
8
DEFAULT_255_1_388
10
22.7088789
20
132.1505236
40
0.5167077
50
269.5979457
51
281.6732777
0
ARC
8
DEFAULT_255_1_388
10
22.7007693
20
132.1370113
40
0.5032026
50
256.6228565
51
270.5105488
0
ARC
8
DEFAULT_255_1_388
10
22.6555435
20
131.9628345
40
0.3233092
50
215.8618351
51
257.2787793
0
ARC
8
DEFAULT_255_1_388
10
22.7704142
20
132.0399106
40
0.4615831
50
197.9695203
51
215.2622745
0
ARC
8
DEFAULT_255_1_388
10
23.0499818
20
132.1342641
40
0.7566307
50
187.8816486
51
198.2346584
0
ARC
8
DEFAULT_255_1_388
10
23.4953056
20
132.1985453
40
1.2065653
50
180.8977266
51
188.0054894
0
ARC
8
DEFAULT_255_1_388
10
23.800327
20
132.21004
40
1.5117443
50
180.7434591
51
181.152202
0
ARC
8
DEFAULT_255_1_388
10
23.6328266
20
132.4190371
40
1.3441277
50
173.7674302
51
180.2315596
0
ARC
8
DEFAULT_255_1_388
10
23.1246135
20
132.4764779
40
0.8326847
50
164.3058537
51
173.9000553
0
ARC
8
DEFAULT_255_1_388
10
22.7970135
20
132.5708652
40
0.4917711
50
148.7922028
51
164.5682288
0
ARC
8
DEFAULT_255_1_388
10
22.6900872
20
132.6305457
40
0.3694204
50
144.5883979
51
148.1161588
0
ARC
8
DEFAULT_255_1_388
10
22.6513618
20
132.6575667
40
0.322202
50
101.6440149
51
144.5142619
0
ARC
8
DEFAULT_255_1_388
10
22.699181
20
132.4675337
40
0.5180451
50
89.528284
51
102.5820197
0
ARC
8
DEFAULT_255_1_388
10
22.7080802
20
132.4631376
40
0.5224441
50
77.0437914
51
90.508231
0
ARC
8
DEFAULT_255_1_388
10
22.7533055
20
132.6479272
40
0.3322297
50
48.2777708
51
77.4996087
0
ARC
8
DEFAULT_255_1_388
10
22.7614795
20
132.6624557
40
0.315966
50
36.3141586
51
47.6307332
0
ARC
8
DEFAULT_255_1_388
10
22.6637518
20
132.5966159
40
0.4337313
50
18.2931065
51
35.6770203
0
ARC
8
DEFAULT_255_1_388
10
22.3776358
20
132.4984107
40
0.7362203
50
8.0246996
51
18.5605636
0
ARC
8
DEFAULT_255_1_388
10
21.9092714
20
132.4292432
40
1.2096583
50
1.127539
51
8.1718423
0
ARC
8
DEFAULT_255_1_388
10
21.5443847
20
132.4149374
40
1.5747719
50
0.5432713
51
1.38669
0
ARC
8
DEFAULT_255_1_388
10
21.7501226
20
132.4456163
40
1.2018103
50
359.8092569
51
4.9408001
0
ARC
8
DEFAULT_255_1_388
10
22.2237807
20
132.48789
40
0.7262727
50
4.8364937
51
12.2906017
0
ARC
8
DEFAULT_255_1_388
10
22.5337272
20
132.5569485
40
0.4087324
50
12.0806994
51
23.8171225
0
ARC
8
DEFAULT_255_1_388
10
22.6657668
20
132.6128508
40
0.2653719
50
24.2874621
51
31.3934353
0
ARC
8
DEFAULT_255_1_388
10
22.7248104
20
132.6514822
40
0.1948607
50
30.7407708
51
82.4658033
0
ARC
8
DEFAULT_255_1_388
10
22.7045765
20
132.5521017
40
0.2961198
50
81.1057101
51
90.2187368
0
ARC
8
DEFAULT_255_1_388
10
22.7005577
20
132.5811421
40
0.2670929
50
89.380395
51
105.6763916
0
ARC
8
DEFAULT_255_1_388
10
22.6799299
20
132.656132
40
0.1893189
50
105.7980655
51
149.7387869
0
ARC
8
DEFAULT_255_1_388
10
22.7996439
20
132.5841719
40
0.3289892
50
149.4208441
51
163.628295
0
ARC
8
DEFAULT_255_1_388
10
23.0348668
20
132.5124345
40
0.5749004
50
163.3764549
51
172.141138
0
ARC
8
DEFAULT_255_1_388
10
23.406139
20
132.4592582
40
0.9499585
50
172.0258462
51
178.0705453
0
ARC
8
DEFAULT_255_1_388
10
23.7482943
20
132.4430682
40
1.2924734
50
177.8639301
51
179.5036263
0
ARC
8
DEFAULT_255_1_388
10
23.6263961
20
132.1827151
40
1.170534
50
179.7995545
51
185.246089
0
ARC
8
DEFAULT_255_1_388
10
23.1715554
20
132.1396404
40
0.7136613
50
185.1411911
51
193.0082205
0
ARC
8
DEFAULT_255_1_388
10
22.8741815
20
132.0693441
40
0.4080987
50
192.7897338
51
205.2507384
0
ARC
8
DEFAULT_255_1_388
10
22.7564025
20
132.0167538
40
0.2791522
50
205.8001921
51
211.2545876
0
ARC
8
DEFAULT_255_1_388
10
22.6975564
20
131.9773132
40
0.2084074
50
210.3789935
51
238.4007996
0
ARC
8
DEFAULT_255_1_388
10
22.695365
20
131.9825786
40
0.2117943
50
239.6521916
51
265.9793852
0
ARC
8
DEFAULT_255_1_388
10
22.7049499
20
132.0582358
40
0.2879689
50
265.1324455
51
270.0603288
0
ARC
8
DEFAULT_255_1_388
10
22.7081876
20
132.0217418
40
0.2514919
50
269.3314378
51
287.2180039
0
ARC
8
DEFAULT_255_1_388
10
22.7236958
20
131.9651291
40
0.1928357
50
287.7957942
51
329.0808983
0
ARC
8
DEFAULT_255_1_388
10
22.6159715
20
132.0323651
40
0.319808
50
328.6635261
51
343.3325043
0
ARC
8
DEFAULT_255_1_388
10
22.3715174
20
132.1085195
40
0.5758408
50
343.0498092
51
351.9392499
0
ARC
8
DEFAULT_255_1_388
10
21.9814496
20
132.1660205
40
0.9701202
50
351.8071632
51
357.7957897
0
ARC
8
DEFAULT_255_1_388
10
21.6179973
20
132.1848724
40
1.3340376
50
357.5870923
51
359.2682493
0
LINE
8
DEFAULT_255_1_388
10
23.4380439
20
132.9674898
11
23.8121196
21
131.8823089
0
LINE
8
DEFAULT_255_1_388
10
23.8121196
20
131.8823089
11
24.1880024
21
132.9674898
0
LINE
8
DEFAULT_255_1_388
10
24.1880024
20
132.9674898
11
24.3777509
21
132.9674898
0
LINE
8
DEFAULT_255_1_388
10
24.3777509
20
132.9674898
11
23.8898261
21
131.6519
0
LINE
8
DEFAULT_255_1_388
10
23.8898261
20
131.6519
11
23.7362202
21
131.6519
0
LINE
8
DEFAULT_255_1_388
10
23.7362202
20
131.6519
11
23.2491989
21
132.9674898
0
LINE
8
DEFAULT_255_1_388
10
23.2491989
20
132.9674898
11
23.4380439
21
132.9674898
0
LINE
8
DEFAULT_255_1_388
10
21.0165946
20
68.8503553
11
21.0165946
21
68.7672274
0
LINE
8
DEFAULT_255_1_388
10
19.9585206
20
68.7554811
11
19.9585206
21
68.8503553
0
LINE
8
DEFAULT_255_1_388
10
20.8440138
20
68.7545775
11
20.8440138
21
68.8521625
0
LINE
8
DEFAULT_255_1_388
10
20.1311014
20
68.8639088
11
20.1311014
21
68.7672274
0
ARC
8
DEFAULT_255_1_388
10
20.0443684
20
68.7627726
40
0.9722364
50
350.4878118
51
0.2625322
0
ARC
8
DEFAULT_255_1_388
10
20.3023644
20
68.7183994
40
0.7104556
50
336.0277991
51
350.5787241
0
ARC
8
DEFAULT_255_1_388
10
20.4536751
20
68.6500243
40
0.544417
50
319.887443
51
336.1331163
0
ARC
8
DEFAULT_255_1_388
10
20.5214563
20
68.5957733
40
0.4576311
50
302.4806296
51
319.6144102
0
ARC
8
DEFAULT_255_1_388
10
20.5085184
20
68.6207067
40
0.4856183
50
275.8196423
51
302.1885521
0
ARC
8
DEFAULT_255_1_388
10
20.4898046
20
68.7492466
40
0.6154183
50
269.9169897
51
276.339506
0
ARC
8
DEFAULT_255_1_388
10
20.4847646
20
68.672068
40
0.5382553
50
252.5221437
51
270.441579
0
ARC
8
DEFAULT_255_1_388
10
20.4685897
20
68.6114046
40
0.4755426
50
237.5349961
51
252.1858334
0
ARC
8
DEFAULT_255_1_388
10
20.4786273
20
68.624212
40
0.4917393
50
209.0632754
51
237.3492577
0
ARC
8
DEFAULT_255_1_388
10
20.5765599
20
68.6857104
40
0.6072464
50
205.118533
51
209.6465345
0
ARC
8
DEFAULT_255_1_388
10
20.6661601
20
68.7237174
40
0.7045164
50
188.7216633
51
204.8239753
0
ARC
8
DEFAULT_255_1_388
10
20.8908376
20
68.7615387
40
0.9323368
50
180.3722704
51
188.9253909
0
ARC
8
DEFAULT_255_1_388
10
20.8877938
20
68.8548416
40
0.929284
50
169.5253055
51
180.2766048
0
ARC
8
DEFAULT_255_1_388
10
20.6737737
20
68.8942024
40
0.7116745
50
155.8314601
51
169.5088611
0
ARC
8
DEFAULT_255_1_388
10
20.52972
20
68.9610312
40
0.5528904
50
139.6259579
51
156.0379072
0
ARC
8
DEFAULT_255_1_388
10
20.4633733
20
69.0144143
40
0.4677708
50
122.6414784
51
139.3431662
0
ARC
8
DEFAULT_255_1_388
10
20.4746988
20
68.9937787
40
0.4912586
50
93.0224537
51
122.4556091
0
ARC
8
DEFAULT_255_1_388
10
20.4868509
20
68.8851776
40
0.6003837
50
89.9756766
51
93.6340839
0
ARC
8
DEFAULT_255_1_388
10
20.4912107
20
68.9300879
40
0.5554884
50
73.7463329
51
90.4234008
0
ARC
8
DEFAULT_255_1_388
10
20.510958
20
69.0065772
40
0.4765353
50
57.663051
51
73.4516911
0
ARC
8
DEFAULT_255_1_388
10
20.5100618
20
69.0090108
40
0.4749629
50
29.1441355
51
57.4146687
0
ARC
8
DEFAULT_255_1_388
10
20.4048429
20
68.9433046
40
0.5988917
50
24.0985653
51
29.732054
0
ARC
8
DEFAULT_255_1_388
10
20.2886061
20
68.8951154
40
0.7246823
50
8.6654943
51
23.8241215
0
ARC
8
DEFAULT_255_1_388
10
20.0372479
20
68.8541037
40
0.9793537
50
359.7807044
51
8.8218476
0
ARC
8
DEFAULT_255_1_388
10
19.9082184
20
68.8569731
40
0.9358078
50
359.7054632
51
8.0359751
0
ARC
8
DEFAULT_255_1_388
10
20.2457235
20
68.9061252
40
0.5947474
50
7.8926278
51
20.2962188
0
ARC
8
DEFAULT_255_1_388
10
20.4288085
20
68.9736367
40
0.3996117
50
20.3231056
51
36.4990255
0
ARC
8
DEFAULT_255_1_388
10
20.5059383
20
69.0330399
40
0.3022818
50
36.1436715
51
85.6627846
0
ARC
8
DEFAULT_255_1_388
10
20.4876638
20
68.9160881
40
0.4203853
50
84.3845912
51
90.076054
0
ARC
8
DEFAULT_255_1_388
10
20.4828993
20
68.9903416
40
0.346157
50
89.3037228
51
109.9046209
0
ARC
8
DEFAULT_255_1_388
10
20.4724826
20
69.0333379
40
0.3022217
50
110.8229774
51
143.917961
0
ARC
8
DEFAULT_255_1_388
10
20.5775185
20
68.9531455
40
0.434348
50
143.5289166
51
163.2980252
0
ARC
8
DEFAULT_255_1_388
10
20.7921472
20
68.8856685
40
0.659321
50
163.0418884
51
174.3139873
0
ARC
8
DEFAULT_255_1_388
10
21.0626437
20
68.8544378
40
0.9315905
50
174.050934
51
179.4174954
0
ARC
8
DEFAULT_255_1_388
10
21.0058381
20
68.7625382
40
0.8747493
50
179.6928582
51
188.7908948
0
ARC
8
DEFAULT_255_1_388
10
20.7062181
20
68.7146086
40
0.5713262
50
188.6328449
51
202.5630732
0
ARC
8
DEFAULT_255_1_388
10
20.5651018
20
68.6579142
40
0.4192612
50
202.8078931
51
216.1195888
0
ARC
8
DEFAULT_255_1_388
10
20.4740535
20
68.5846479
40
0.3025752
50
215.0755613
51
264.6379773
0
ARC
8
DEFAULT_255_1_388
10
20.4883372
20
68.6781376
40
0.3970284
50
263.8464302
51
270.0830805
0
ARC
8
DEFAULT_255_1_388
10
20.4929917
20
68.6490808
40
0.3679937
50
269.3649295
51
287.5149684
0
ARC
8
DEFAULT_255_1_388
10
20.5130358
20
68.5762714
40
0.2925408
50
288.0629019
51
323.8115617
0
ARC
8
DEFAULT_255_1_388
10
20.4150334
20
68.6493754
40
0.4148018
50
323.6546541
51
342.6591359
0
ARC
8
DEFAULT_255_1_388
10
20.1864992
20
68.723728
40
0.6551163
50
342.4092446
51
353.6451501
0
ARC
8
DEFAULT_255_1_388
10
19.8679785
20
68.7633565
40
0.9760748
50
353.4027553
51
359.4846611
0
LINE
8
DEFAULT_255_1_388
10
22.0285868
20
69.4674898
11
22.2029747
21
69.4674898
0
LINE
8
DEFAULT_255_1_388
10
22.2029747
20
69.4674898
11
22.2029747
21
68.572961
0
LINE
8
DEFAULT_255_1_388
10
21.7710709
20
68.1356358
11
21.7249891
21
68.1338287
0
LINE
8
DEFAULT_255_1_388
10
21.2506178
20
68.5711539
11
21.2506178
21
69.4674898
0
LINE
8
DEFAULT_255_1_388
10
21.2506178
20
69.4674898
11
21.422295
21
69.4674898
0
LINE
8
DEFAULT_255_1_388
10
21.422295
20
69.4674898
11
21.422295
21
68.5765753
0
LINE
8
DEFAULT_255_1_388
10
22.0285868
20
68.5756717
11
22.0285868
21
69.4674898
0
ARC
8
DEFAULT_255_1_388
10
21.7132546
20
68.570727
40
0.4897252
50
343.0897723
51
0.2613727
0
ARC
8
DEFAULT_255_1_388
10
21.8064517
20
68.544727
40
0.3930016
50
315.3344451
51
342.7642569
0
ARC
8
DEFAULT_255_1_388
10
21.7813012
20
68.5708085
40
0.4292244
50
284.6605441
51
315.2183439
0
ARC
8
DEFAULT_255_1_388
10
21.7300792
20
68.7447508
40
0.6104926
50
273.8500371
51
285.1796441
0
ARC
8
DEFAULT_255_1_388
10
21.7201857
20
68.7831762
40
0.6493653
50
257.6315393
51
270.4238259
0
ARC
8
DEFAULT_255_1_388
10
21.672394
20
68.5782915
40
0.4390079
50
230.6086859
51
257.9965362
0
ARC
8
DEFAULT_255_1_388
10
21.6577998
20
68.5553643
40
0.4120404
50
227.745033
51
230.1538266
0
ARC
8
DEFAULT_255_1_388
10
21.6424528
20
68.5369253
40
0.3880742
50
189.2524335
51
227.5915299
0
ARC
8
DEFAULT_255_1_388
10
21.8136399
20
68.5737735
40
0.5630282
50
180.2665782
51
190.1525221
0
ARC
8
DEFAULT_255_1_388
10
21.8386127
20
68.5734254
40
0.4163296
50
179.566507
51
191.9954402
0
ARC
8
DEFAULT_255_1_388
10
21.7004816
20
68.5426151
40
0.274815
50
191.6974619
51
215.1403758
0
ARC
8
DEFAULT_255_1_388
10
21.6737208
20
68.5266689
40
0.2437647
50
215.6958251
51
224.8509274
0
ARC
8
DEFAULT_255_1_388
10
21.6799684
20
68.5356016
40
0.2545012
50
225.2846515
51
255.0110023
0
ARC
8
DEFAULT_255_1_388
10
21.716413
20
68.6609017
40
0.384974
50
254.5945979
51
267.9129427
0
ARC
8
DEFAULT_255_1_388
10
21.7247823
20
68.7826444
40
0.506956
50
267.4687563
51
270.0233681
0
ARC
8
DEFAULT_255_1_388
10
21.7281819
20
68.7166288
40
0.440952
50
269.5851384
51
281.1845308
0
ARC
8
DEFAULT_255_1_388
10
21.7595423
20
68.5644469
40
0.2855802
50
280.9345159
51
300.9740496
0
ARC
8
DEFAULT_255_1_388
10
21.7834603
20
68.5204128
40
0.2355257
50
301.4982546
51
315.1468616
0
ARC
8
DEFAULT_255_1_388
10
21.7672099
20
68.5337488
40
0.2564594
50
315.5952932
51
345.6679188
0
ARC
8
DEFAULT_255_1_388
10
21.6412656
20
68.5688235
40
0.3871766
50
345.2525685
51
358.6303941
0
ARC
8
DEFAULT_255_1_388
10
21.5269047
20
68.5755695
40
0.5016822
50
358.1723541
51
0.0116795
0
LINE
8
DEFAULT_255_1_388
10
23.3857406
20
69.4674898
11
23.3857406
21
69.3247267
0
LINE
8
DEFAULT_255_1_388
10
23.3857406
20
69.3247267
11
22.9628724
21
69.3247267
0
LINE
8
DEFAULT_255_1_388
10
22.9628724
20
69.3247267
11
22.9628724
21
68.1519
0
LINE
8
DEFAULT_255_1_388
10
22.9628724
20
68.1519
11
22.7902916
21
68.1519
0
LINE
8
DEFAULT_255_1_388
10
22.7902916
20
68.1519
11
22.7902916
21
69.3247267
0
LINE
8
DEFAULT_255_1_388
10
22.7902916
20
69.3247267
11
22.368327
21
69.3247267
0
LINE
8
DEFAULT_255_1_388
10
22.368327
20
69.3247267
11
22.368327
21
69.4674898
0
LINE
8
DEFAULT_255_1_388
10
22.368327
20
69.4674898
11
23.3857406
21
69.4674898
0
LINE
8
DEFAULT_255_1_388
10
24.38689
20
69.4674898
11
24.38689
21
69.3735191
0
LINE
8
DEFAULT_255_1_388
10
24.38689
20
69.3735191
11
23.8420406
21
68.1519
0
LINE
8
DEFAULT_255_1_388
10
23.8420406
20
68.1519
11
23.6667491
21
68.1519
0
LINE
8
DEFAULT_255_1_388
10
23.6667491
20
68.1519
11
24.2097914
21
69.330148
0
LINE
8
DEFAULT_255_1_388
10
24.2097914
20
69.330148
11
23.4977826
21
69.330148
0
LINE
8
DEFAULT_255_1_388
10
23.4977826
20
69.330148
11
23.4977826
21
69.4674898
0
LINE
8
DEFAULT_255_1_388
10
23.4977826
20
69.4674898
11
24.38689
21
69.4674898
0
LINE
8
DEFAULT_255_1_388
10
21.0165946
20
76.7878553
11
21.0165946
21
76.7047274
0
LINE
8
DEFAULT_255_1_388
10
19.9585206
20
76.6929811
11
19.9585206
21
76.7878553
0
LINE
8
DEFAULT_255_1_388
10
20.8440138
20
76.6920775
11
20.8440138
21
76.7896625
0
LINE
8
DEFAULT_255_1_388
10
20.1311014
20
76.8014088
11
20.1311014
21
76.7047274
0
ARC
8
DEFAULT_255_1_388
10
20.0443684
20
76.7002726
40
0.9722364
50
350.4878118
51
0.2625322
0
ARC
8
DEFAULT_255_1_388
10
20.3023644
20
76.6558994
40
0.7104556
50
336.0277991
51
350.5787241
0
ARC
8
DEFAULT_255_1_388
10
20.4536751
20
76.5875243
40
0.544417
50
319.887443
51
336.1331163
0
ARC
8
DEFAULT_255_1_388
10
20.5214563
20
76.5332733
40
0.4576311
50
302.4806296
51
319.6144102
0
ARC
8
DEFAULT_255_1_388
10
20.5085184
20
76.5582067
40
0.4856183
50
275.8196423
51
302.1885521
0
ARC
8
DEFAULT_255_1_388
10
20.4898046
20
76.6867466
40
0.6154183
50
269.9169897
51
276.339506
0
ARC
8
DEFAULT_255_1_388
10
20.4847646
20
76.609568
40
0.5382553
50
252.5221437
51
270.441579
0
ARC
8
DEFAULT_255_1_388
10
20.4685897
20
76.5489046
40
0.4755426
50
237.5349961
51
252.1858334
0
ARC
8
DEFAULT_255_1_388
10
20.4786273
20
76.561712
40
0.4917393
50
209.0632754
51
237.3492577
0
ARC
8
DEFAULT_255_1_388
10
20.5765599
20
76.6232104
40
0.6072464
50
205.118533
51
209.6465345
0
ARC
8
DEFAULT_255_1_388
10
20.6661601
20
76.6612174
40
0.7045164
50
188.7216633
51
204.8239753
0
ARC
8
DEFAULT_255_1_388
10
20.8908376
20
76.6990387
40
0.9323368
50
180.3722704
51
188.9253909
0
ARC
8
DEFAULT_255_1_388
10
20.8877938
20
76.7923416
40
0.929284
50
169.5253055
51
180.2766048
0
ARC
8
DEFAULT_255_1_388
10
20.6737737
20
76.8317024
40
0.7116745
50
155.8314601
51
169.5088611
0
ARC
8
DEFAULT_255_1_388
10
20.52972
20
76.8985312
40
0.5528904
50
139.6259579
51
156.0379072
0
ARC
8
DEFAULT_255_1_388
10
20.4633733
20
76.9519143
40
0.4677708
50
122.6414784
51
139.3431662
0
ARC
8
DEFAULT_255_1_388
10
20.4746988
20
76.9312787
40
0.4912586
50
93.0224537
51
122.4556091
0
ARC
8
DEFAULT_255_1_388
10
20.4868509
20
76.8226776
40
0.6003837
50
89.9756766
51
93.6340839
0
ARC
8
DEFAULT_255_1_388
10
20.4912107
20
76.8675879
40
0.5554884
50
73.7463329
51
90.4234008
0
ARC
8
DEFAULT_255_1_388
10
20.510958
20
76.9440772
40
0.4765353
50
57.663051
51
73.4516911
0
ARC
8
DEFAULT_255_1_388
10
20.5100618
20
76.9465108
40
0.4749629
50
29.1441355
51
57.4146687
0
ARC
8
DEFAULT_255_1_388
10
20.4048429
20
76.8808046
40
0.5988917
50
24.0985653
51
29.732054
0
ARC
8
DEFAULT_255_1_388
10
20.2886061
20
76.8326154
40
0.7246823
50
8.6654943
51
23.8241215
0
ARC
8
DEFAULT_255_1_388
10
20.0372479
20
76.7916037
40
0.9793537
50
359.7807044
51
8.8218476
0
ARC
8
DEFAULT_255_1_388
10
19.9082184
20
76.7944731
40
0.9358078
50
359.7054632
51
8.0359751
0
ARC
8
DEFAULT_255_1_388
10
20.2457235
20
76.8436252
40
0.5947474
50
7.8926278
51
20.2962188
0
ARC
8
DEFAULT_255_1_388
10
20.4288085
20
76.9111367
40
0.3996117
50
20.3231056
51
36.4990255
0
ARC
8
DEFAULT_255_1_388
10
20.5059383
20
76.9705399
40
0.3022818
50
36.1436715
51
85.6627846
0
ARC
8
DEFAULT_255_1_388
10
20.4876638
20
76.8535881
40
0.4203853
50
84.3845912
51
90.076054
0
ARC
8
DEFAULT_255_1_388
10
20.4828993
20
76.9278416
40
0.346157
50
89.3037228
51
109.9046209
0
ARC
8
DEFAULT_255_1_388
10
20.4724826
20
76.9708379
40
0.3022217
50
110.8229774
51
143.917961
0
ARC
8
DEFAULT_255_1_388
10
20.5775185
20
76.8906455
40
0.434348
50
143.5289166
51
163.2980252
0
ARC
8
DEFAULT_255_1_388
10
20.7921472
20
76.8231685
40
0.659321
50
163.0418884
51
174.3139873
0
ARC
8
DEFAULT_255_1_388
10
21.0626437
20
76.7919378
40
0.9315905
50
174.050934
51
179.4174954
0
ARC
8
DEFAULT_255_1_388
10
21.0058381
20
76.7000382
40
0.8747493
50
179.6928582
51
188.7908948
0
ARC
8
DEFAULT_255_1_388
10
20.7062181
20
76.6521086
40
0.5713262
50
188.6328449
51
202.5630732
0
ARC
8
DEFAULT_255_1_388
10
20.5651018
20
76.5954142
40
0.4192612
50
202.8078931
51
216.1195888
0
ARC
8
DEFAULT_255_1_388
10
20.4740535
20
76.5221479
40
0.3025752
50
215.0755613
51
264.6379773
0
ARC
8
DEFAULT_255_1_388
10
20.4883372
20
76.6156376
40
0.3970284
50
263.8464302
51
270.0830805
0
ARC
8
DEFAULT_255_1_388
10
20.4929917
20
76.5865808
40
0.3679937
50
269.3649295
51
287.5149684
0
ARC
8
DEFAULT_255_1_388
10
20.5130358
20
76.5137714
40
0.2925408
50
288.0629019
51
323.8115617
0
ARC
8
DEFAULT_255_1_388
10
20.4150334
20
76.5868754
40
0.4148018
50
323.6546541
51
342.6591359
0
ARC
8
DEFAULT_255_1_388
10
20.1864992
20
76.661228
40
0.6551163
50
342.4092446
51
353.6451501
0
ARC
8
DEFAULT_255_1_388
10
19.8679785
20
76.7008565
40
0.9760748
50
353.4027553
51
359.4846611
0
LINE
8
DEFAULT_255_1_388
10
22.0285868
20
77.4049898
11
22.2029747
21
77.4049898
0
LINE
8
DEFAULT_255_1_388
10
22.2029747
20
77.4049898
11
22.2029747
21
76.510461
0
LINE
8
DEFAULT_255_1_388
10
21.7710709
20
76.0731358
11
21.7249891
21
76.0713287
0
LINE
8
DEFAULT_255_1_388
10
21.2506178
20
76.5086539
11
21.2506178
21
77.4049898
0
LINE
8
DEFAULT_255_1_388
10
21.2506178
20
77.4049898
11
21.422295
21
77.4049898
0
LINE
8
DEFAULT_255_1_388
10
21.422295
20
77.4049898
11
21.422295
21
76.5140753
0
LINE
8
DEFAULT_255_1_388
10
22.0285868
20
76.5131717
11
22.0285868
21
77.4049898
0
ARC
8
DEFAULT_255_1_388
10
21.7132546
20
76.508227
40
0.4897252
50
343.0897723
51
0.2613727
0
ARC
8
DEFAULT_255_1_388
10
21.8064517
20
76.482227
40
0.3930016
50
315.3344451
51
342.7642569
0
ARC
8
DEFAULT_255_1_388
10
21.7813012
20
76.5083085
40
0.4292244
50
284.6605441
51
315.2183439
0
ARC
8
DEFAULT_255_1_388
10
21.7300792
20
76.6822508
40
0.6104926
50
273.8500371
51
285.1796441
0
ARC
8
DEFAULT_255_1_388
10
21.7201857
20
76.7206762
40
0.6493653
50
257.6315393
51
270.4238259
0
ARC
8
DEFAULT_255_1_388
10
21.672394
20
76.5157915
40
0.4390079
50
230.6086859
51
257.9965362
0
ARC
8
DEFAULT_255_1_388
10
21.6577998
20
76.4928643
40
0.4120404
50
227.745033
51
230.1538266
0
ARC
8
DEFAULT_255_1_388
10
21.6424528
20
76.4744253
40
0.3880742
50
189.2524335
51
227.5915299
0
ARC
8
DEFAULT_255_1_388
10
21.8136399
20
76.5112735
40
0.5630282
50
180.2665782
51
190.1525221
0
ARC
8
DEFAULT_255_1_388
10
21.8386127
20
76.5109254
40
0.4163296
50
179.566507
51
191.9954402
0
ARC
8
DEFAULT_255_1_388
10
21.7004816
20
76.4801151
40
0.274815
50
191.6974619
51
215.1403758
0
ARC
8
DEFAULT_255_1_388
10
21.6737208
20
76.4641689
40
0.2437647
50
215.6958251
51
224.8509274
0
ARC
8
DEFAULT_255_1_388
10
21.6799684
20
76.4731016
40
0.2545012
50
225.2846515
51
255.0110023
0
ARC
8
DEFAULT_255_1_388
10
21.716413
20
76.5984017
40
0.384974
50
254.5945979
51
267.9129427
0
ARC
8
DEFAULT_255_1_388
10
21.7247823
20
76.7201444
40
0.506956
50
267.4687563
51
270.0233681
0
ARC
8
DEFAULT_255_1_388
10
21.7281819
20
76.6541288
40
0.440952
50
269.5851384
51
281.1845308
0
ARC
8
DEFAULT_255_1_388
10
21.7595423
20
76.5019469
40
0.2855802
50
280.9345159
51
300.9740496
0
ARC
8
DEFAULT_255_1_388
10
21.7834603
20
76.4579128
40
0.2355257
50
301.4982546
51
315.1468616
0
ARC
8
DEFAULT_255_1_388
10
21.7672099
20
76.4712488
40
0.2564594
50
315.5952932
51
345.6679188
0
ARC
8
DEFAULT_255_1_388
10
21.6412656
20
76.5063235
40
0.3871766
50
345.2525685
51
358.6303941
0
ARC
8
DEFAULT_255_1_388
10
21.5269047
20
76.5130695
40
0.5016822
50
358.1723541
51
0.0116795
0
LINE
8
DEFAULT_255_1_388
10
23.3857406
20
77.4049898
11
23.3857406
21
77.2622267
0
LINE
8
DEFAULT_255_1_388
10
23.3857406
20
77.2622267
11
22.9628724
21
77.2622267
0
LINE
8
DEFAULT_255_1_388
10
22.9628724
20
77.2622267
11
22.9628724
21
76.0894
0
LINE
8
DEFAULT_255_1_388
10
22.9628724
20
76.0894
11
22.7902916
21
76.0894
0
LINE
8
DEFAULT_255_1_388
10
22.7902916
20
76.0894
11
22.7902916
21
77.2622267
0
LINE
8
DEFAULT_255_1_388
10
22.7902916
20
77.2622267
11
22.368327
21
77.2622267
0
LINE
8
DEFAULT_255_1_388
10
22.368327
20
77.2622267
11
22.368327
21
77.4049898
0
LINE
8
DEFAULT_255_1_388
10
22.368327
20
77.4049898
11
23.3857406
21
77.4049898
0
LINE
8
DEFAULT_255_1_388
10
24.1637096
20
77.4058934
11
24.1935272
21
77.4058934
0
LINE
8
DEFAULT_255_1_388
10
24.1935272
20
77.4058934
11
24.1935272
21
77.2640338
0
LINE
8
DEFAULT_255_1_388
10
24.1935272
20
77.2640338
11
24.162806
21
77.2640338
0
LINE
8
DEFAULT_255_1_388
10
23.5474786
20
76.5899747
11
23.5474786
21
76.6541278
0
LINE
8
DEFAULT_255_1_388
10
23.7155416
20
76.6324422
11
23.7155416
21
76.5709999
0
ARC
8
DEFAULT_255_1_388
10
24.1686952
20
76.7017826
40
0.562282
50
90.6001079
51
104.5146616
0
ARC
8
DEFAULT_255_1_388
10
24.1249911
20
76.86431
40
0.3939917
50
104.2855758
51
133.8630124
0
ARC
8
DEFAULT_255_1_388
10
24.1434164
20
76.8521243
40
0.4155734
50
134.5304124
51
161.6210222
0
ARC
8
DEFAULT_255_1_388
10
24.3294096
20
76.7865421
40
0.6127682
50
161.2850533
51
174.2074364
0
ARC
8
DEFAULT_255_1_388
10
24.4883663
20
76.7646437
40
0.7731446
50
173.7817938
51
174.9251711
0
ARC
8
DEFAULT_255_1_388
10
23.9757856
20
76.609127
40
0.3412588
50
95.8332067
51
138.995412
0
ARC
8
DEFAULT_255_1_388
10
24.0009137
20
76.4652695
40
0.4870358
50
89.8755506
51
97.0540979
0
ARC
8
DEFAULT_255_1_388
10
24.0062526
20
76.5592841
40
0.3930432
50
71.6407016
51
90.6240821
0
ARC
8
DEFAULT_255_1_388
10
24.0231919
20
76.6216433
40
0.3285421
50
39.6368051
51
71.0190743
0
ARC
8
DEFAULT_255_1_388
10
23.9515827
20
76.5597586
40
0.4231706
50
10.6588054
51
39.9044509
0
ARC
8
DEFAULT_255_1_388
10
23.7774372
20
76.5219223
40
0.60133
50
359.6827842
51
11.1326896
0
ARC
8
DEFAULT_255_1_388
10
23.7729708
20
76.5139715
40
0.6058047
50
347.2485908
51
0.4371098
0
ARC
8
DEFAULT_255_1_388
10
23.9605494
20
76.4688379
40
0.4128987
50
318.1408565
51
347.6118497
0
ARC
8
DEFAULT_255_1_388
10
23.997109
20
76.4387903
40
0.3656244
50
275.6342406
51
317.824739
0
ARC
8
DEFAULT_255_1_388
10
23.9722611
20
76.5849827
40
0.513655
50
269.8872513
51
276.7916069
0
ARC
8
DEFAULT_255_1_388
10
23.9660804
20
76.4696181
40
0.398323
50
246.9139443
51
270.7436787
0
ARC
8
DEFAULT_255_1_388
10
23.9668
20
76.4536044
40
0.3839368
50
218.1665534
51
245.8780431
0
ARC
8
DEFAULT_255_1_388
10
24.0657372
20
76.5363903
40
0.5128958
50
191.4115343
51
218.6077624
0
ARC
8
DEFAULT_255_1_388
10
24.2837688
20
76.5852777
40
0.7363054
50
179.6344971
51
191.7836758
0
ARC
8
DEFAULT_255_1_388
10
24.9117563
20
76.6616495
40
1.3642984
50
171.4523743
51
180.3158856
0
ARC
8
DEFAULT_255_1_388
10
24.417329
20
76.7385895
40
0.8639311
50
157.9802296
51
171.6246761
0
ARC
8
DEFAULT_255_1_388
10
24.168264
20
76.8379038
40
0.5958004
50
141.4299236
51
157.8541251
0
ARC
8
DEFAULT_255_1_388
10
24.0960724
20
76.8889746
40
0.5075416
50
102.871586
51
140.8564533
0
ARC
8
DEFAULT_255_1_388
10
24.1689276
20
76.6144943
40
0.7914163
50
90.377773
51
103.5868422
0
ARC
8
DEFAULT_255_1_388
10
23.9733798
20
76.5464543
40
0.2667015
50
89.8751238
51
126.2072139
0
ARC
8
DEFAULT_255_1_388
10
23.9785269
20
76.5290847
40
0.2838229
50
124.9742447
51
144.8960197
0
ARC
8
DEFAULT_255_1_388
10
23.9587514
20
76.5451981
40
0.2583845
50
145.2974778
51
160.2660922
0
ARC
8
DEFAULT_255_1_388
10
24.3044002
20
76.5674151
40
0.5888695
50
179.6512124
51
190.285571
0
ARC
8
DEFAULT_255_1_388
10
24.1138482
20
76.5314968
40
0.3949683
50
190.0944895
51
207.5099647
0
ARC
8
DEFAULT_255_1_388
10
24.0502063
20
76.5012177
40
0.3245464
50
207.9585471
51
216.325377
0
ARC
8
DEFAULT_255_1_388
10
24.0119701
20
76.4697712
40
0.2751259
50
215.7661336
51
232.5457193
0
ARC
8
DEFAULT_255_1_388
10
23.9688816
20
76.4150273
40
0.2054668
50
232.8005815
51
270.6605497
0
ARC
8
DEFAULT_255_1_388
10
23.9740241
20
76.4559853
40
0.2464268
50
269.3550767
51
288.474612
0
ARC
8
DEFAULT_255_1_388
10
23.9844748
20
76.4166721
40
0.2058436
50
289.1831976
51
322.9685307
0
ARC
8
DEFAULT_255_1_388
10
23.9156849
20
76.4709279
40
0.2934408
50
322.6007085
51
346.5183319
0
ARC
8
DEFAULT_255_1_388
10
23.7854605
20
76.5041434
40
0.4278249
50
346.2584622
51
358.7739592
0
ARC
8
DEFAULT_255_1_388
10
23.6703181
20
76.5103829
40
0.5430876
50
358.3757628
51
0.0082477
0
ARC
8
DEFAULT_255_1_388
10
23.7559999
20
76.5134856
40
0.4574157
50
359.6211417
51
11.28403
0
ARC
8
DEFAULT_255_1_388
10
23.8996605
20
76.5434535
40
0.3106708
50
11.0483152
51
31.8145585
0
ARC
8
DEFAULT_255_1_388
10
23.9344311
20
76.5623045
40
0.2711963
50
32.3028554
51
38.0820598
0
ARC
8
DEFAULT_255_1_388
10
23.9817544
20
76.6051717
40
0.2075566
50
36.8249851
51
85.741667
0
ARC
8
DEFAULT_255_1_388
10
23.9741956
20
76.5488065
40
0.2643487
50
85.0150021
51
90.050843
0
LINE
8
DEFAULT_255_1_388
10
21.0165946
20
84.7253553
11
21.0165946
21
84.6422274
0
LINE
8
DEFAULT_255_1_388
10
19.9585206
20
84.6304811
11
19.9585206
21
84.7253553
0
LINE
8
DEFAULT_255_1_388
10
20.8440138
20
84.6295775
11
20.8440138
21
84.7271625
0
LINE
8
DEFAULT_255_1_388
10
20.1311014
20
84.7389088
11
20.1311014
21
84.6422274
0
ARC
8
DEFAULT_255_1_388
10
20.0443684
20
84.6377726
40
0.9722364
50
350.4878118
51
0.2625322
0
ARC
8
DEFAULT_255_1_388
10
20.3023644
20
84.5933994
40
0.7104556
50
336.0277991
51
350.5787241
0
ARC
8
DEFAULT_255_1_388
10
20.4536751
20
84.5250243
40
0.544417
50
319.887443
51
336.1331163
0
ARC
8
DEFAULT_255_1_388
10
20.5214563
20
84.4707733
40
0.4576311
50
302.4806296
51
319.6144102
0
ARC
8
DEFAULT_255_1_388
10
20.5085184
20
84.4957067
40
0.4856183
50
275.8196423
51
302.1885521
0
ARC
8
DEFAULT_255_1_388
10
20.4898046
20
84.6242466
40
0.6154183
50
269.9169897
51
276.339506
0
ARC
8
DEFAULT_255_1_388
10
20.4847646
20
84.547068
40
0.5382553
50
252.5221437
51
270.441579
0
ARC
8
DEFAULT_255_1_388
10
20.4685897
20
84.4864046
40
0.4755426
50
237.5349961
51
252.1858334
0
ARC
8
DEFAULT_255_1_388
10
20.4786273
20
84.499212
40
0.4917393
50
209.0632754
51
237.3492577
0
ARC
8
DEFAULT_255_1_388
10
20.5765599
20
84.5607104
40
0.6072464
50
205.118533
51
209.6465345
0
ARC
8
DEFAULT_255_1_388
10
20.6661601
20
84.5987174
40
0.7045164
50
188.7216633
51
204.8239753
0
ARC
8
DEFAULT_255_1_388
10
20.8908376
20
84.6365387
40
0.9323368
50
180.3722704
51
188.9253909
0
ARC
8
DEFAULT_255_1_388
10
20.8877938
20
84.7298416
40
0.929284
50
169.5253055
51
180.2766048
0
ARC
8
DEFAULT_255_1_388
10
20.6737737
20
84.7692024
40
0.7116745
50
155.8314601
51
169.5088611
0
ARC
8
DEFAULT_255_1_388
10
20.52972
20
84.8360312
40
0.5528904
50
139.6259579
51
156.0379072
0
ARC
8
DEFAULT_255_1_388
10
20.4633733
20
84.8894143
40
0.4677708
50
122.6414784
51
139.3431662
0
ARC
8
DEFAULT_255_1_388
10
20.4746988
20
84.8687787
40
0.4912586
50
93.0224537
51
122.4556091
0
ARC
8
DEFAULT_255_1_388
10
20.4868509
20
84.7601776
40
0.6003837
50
89.9756766
51
93.6340839
0
ARC
8
DEFAULT_255_1_388
10
20.4912107
20
84.8050879
40
0.5554884
50
73.7463329
51
90.4234008
0
ARC
8
DEFAULT_255_1_388
10
20.510958
20
84.8815772
40
0.4765353
50
57.663051
51
73.4516911
0
ARC
8
DEFAULT_255_1_388
10
20.5100618
20
84.8840108
40
0.4749629
50
29.1441355
51
57.4146687
0
ARC
8
DEFAULT_255_1_388
10
20.4048429
20
84.8183046
40
0.5988917
50
24.0985653
51
29.732054
0
ARC
8
DEFAULT_255_1_388
10
20.2886061
20
84.7701154
40
0.7246823
50
8.6654943
51
23.8241215
0
ARC
8
DEFAULT_255_1_388
10
20.0372479
20
84.7291037
40
0.9793537
50
359.7807044
51
8.8218476
0
ARC
8
DEFAULT_255_1_388
10
19.9082184
20
84.7319731
40
0.9358078
50
359.7054632
51
8.0359751
0
ARC
8
DEFAULT_255_1_388
10
20.2457235
20
84.7811252
40
0.5947474
50
7.8926278
51
20.2962188
0
ARC
8
DEFAULT_255_1_388
10
20.4288085
20
84.8486367
40
0.3996117
50
20.3231056
51
36.4990255
0
ARC
8
DEFAULT_255_1_388
10
20.5059383
20
84.9080399
40
0.3022818
50
36.1436715
51
85.6627846
0
ARC
8
DEFAULT_255_1_388
10
20.4876638
20
84.7910881
40
0.4203853
50
84.3845912
51
90.076054
0
ARC
8
DEFAULT_255_1_388
10
20.4828993
20
84.8653416
40
0.346157
50
89.3037228
51
109.9046209
0
ARC
8
DEFAULT_255_1_388
10
20.4724826
20
84.9083379
40
0.3022217
50
110.8229774
51
143.917961
0
ARC
8
DEFAULT_255_1_388
10
20.5775185
20
84.8281455
40
0.434348
50
143.5289166
51
163.2980252
0
ARC
8
DEFAULT_255_1_388
10
20.7921472
20
84.7606685
40
0.659321
50
163.0418884
51
174.3139873
0
ARC
8
DEFAULT_255_1_388
10
21.0626437
20
84.7294378
40
0.9315905
50
174.050934
51
179.4174954
0
ARC
8
DEFAULT_255_1_388
10
21.0058381
20
84.6375382
40
0.8747493
50
179.6928582
51
188.7908948
0
ARC
8
DEFAULT_255_1_388
10
20.7062181
20
84.5896086
40
0.5713262
50
188.6328449
51
202.5630732
0
ARC
8
DEFAULT_255_1_388
10
20.5651018
20
84.5329142
40
0.4192612
50
202.8078931
51
216.1195888
0
ARC
8
DEFAULT_255_1_388
10
20.4740535
20
84.4596479
40
0.3025752
50
215.0755613
51
264.6379773
0
ARC
8
DEFAULT_255_1_388
10
20.4883372
20
84.5531376
40
0.3970284
50
263.8464302
51
270.0830805
0
ARC
8
DEFAULT_255_1_388
10
20.4929917
20
84.5240808
40
0.3679937
50
269.3649295
51
287.5149684
0
ARC
8
DEFAULT_255_1_388
10
20.5130358
20
84.4512714
40
0.2925408
50
288.0629019
51
323.8115617
0
ARC
8
DEFAULT_255_1_388
10
20.4150334
20
84.5243754
40
0.4148018
50
323.6546541
51
342.6591359
0
ARC
8
DEFAULT_255_1_388
10
20.1864992
20
84.598728
40
0.6551163
50
342.4092446
51
353.6451501
0
ARC
8
DEFAULT_255_1_388
10
19.8679785
20
84.6383565
40
0.9760748
50
353.4027553
51
359.4846611
0
LINE
8
DEFAULT_255_1_388
10
22.0285868
20
85.3424898
11
22.2029747
21
85.3424898
0
LINE
8
DEFAULT_255_1_388
10
22.2029747
20
85.3424898
11
22.2029747
21
84.447961
0
LINE
8
DEFAULT_255_1_388
10
21.7710709
20
84.0106358
11
21.7249891
21
84.0088287
0
LINE
8
DEFAULT_255_1_388
10
21.2506178
20
84.4461539
11
21.2506178
21
85.3424898
0
LINE
8
DEFAULT_255_1_388
10
21.2506178
20
85.3424898
11
21.422295
21
85.3424898
0
LINE
8
DEFAULT_255_1_388
10
21.422295
20
85.3424898
11
21.422295
21
84.4515753
0
LINE
8
DEFAULT_255_1_388
10
22.0285868
20
84.4506717
11
22.0285868
21
85.3424898
0
ARC
8
DEFAULT_255_1_388
10
21.7132546
20
84.445727
40
0.4897252
50
343.0897723
51
0.2613727
0
ARC
8
DEFAULT_255_1_388
10
21.8064517
20
84.419727
40
0.3930016
50
315.3344451
51
342.7642569
0
ARC
8
DEFAULT_255_1_388
10
21.7813012
20
84.4458085
40
0.4292244
50
284.6605441
51
315.2183439
0
ARC
8
DEFAULT_255_1_388
10
21.7300792
20
84.6197508
40
0.6104926
50
273.8500371
51
285.1796441
0
ARC
8
DEFAULT_255_1_388
10
21.7201857
20
84.6581762
40
0.6493653
50
257.6315393
51
270.4238259
0
ARC
8
DEFAULT_255_1_388
10
21.672394
20
84.4532915
40
0.4390079
50
230.6086859
51
257.9965362
0
ARC
8
DEFAULT_255_1_388
10
21.6577998
20
84.4303643
40
0.4120404
50
227.745033
51
230.1538266
0
ARC
8
DEFAULT_255_1_388
10
21.6424528
20
84.4119253
40
0.3880742
50
189.2524335
51
227.5915299
0
ARC
8
DEFAULT_255_1_388
10
21.8136399
20
84.4487735
40
0.5630282
50
180.2665782
51
190.1525221
0
ARC
8
DEFAULT_255_1_388
10
21.8386127
20
84.4484254
40
0.4163296
50
179.566507
51
191.9954402
0
ARC
8
DEFAULT_255_1_388
10
21.7004816
20
84.4176151
40
0.274815
50
191.6974619
51
215.1403758
0
ARC
8
DEFAULT_255_1_388
10
21.6737208
20
84.4016689
40
0.2437647
50
215.6958251
51
224.8509274
0
ARC
8
DEFAULT_255_1_388
10
21.6799684
20
84.4106016
40
0.2545012
50
225.2846515
51
255.0110023
0
ARC
8
DEFAULT_255_1_388
10
21.716413
20
84.5359017
40
0.384974
50
254.5945979
51
267.9129427
0
ARC
8
DEFAULT_255_1_388
10
21.7247823
20
84.6576444
40
0.506956
50
267.4687563
51
270.0233681
0
ARC
8
DEFAULT_255_1_388
10
21.7281819
20
84.5916288
40
0.440952
50
269.5851384
51
281.1845308
0
ARC
8
DEFAULT_255_1_388
10
21.7595423
20
84.4394469
40
0.2855802
50
280.9345159
51
300.9740496
0
ARC
8
DEFAULT_255_1_388
10
21.7834603
20
84.3954128
40
0.2355257
50
301.4982546
51
315.1468616
0
ARC
8
DEFAULT_255_1_388
10
21.7672099
20
84.4087488
40
0.2564594
50
315.5952932
51
345.6679188
0
ARC
8
DEFAULT_255_1_388
10
21.6412656
20
84.4438235
40
0.3871766
50
345.2525685
51
358.6303941
0
ARC
8
DEFAULT_255_1_388
10
21.5269047
20
84.4505695
40
0.5016822
50
358.1723541
51
0.0116795
0
LINE
8
DEFAULT_255_1_388
10
23.3857406
20
85.3424898
11
23.3857406
21
85.1997267
0
LINE
8
DEFAULT_255_1_388
10
23.3857406
20
85.1997267
11
22.9628724
21
85.1997267
0
LINE
8
DEFAULT_255_1_388
10
22.9628724
20
85.1997267
11
22.9628724
21
84.0269
0
LINE
8
DEFAULT_255_1_388
10
22.9628724
20
84.0269
11
22.7902916
21
84.0269
0
LINE
8
DEFAULT_255_1_388
10
22.7902916
20
84.0269
11
22.7902916
21
85.1997267
0
LINE
8
DEFAULT_255_1_388
10
22.7902916
20
85.1997267
11
22.368327
21
85.1997267
0
LINE
8
DEFAULT_255_1_388
10
22.368327
20
85.1997267
11
22.368327
21
85.3424898
0
LINE
8
DEFAULT_255_1_388
10
22.368327
20
85.3424898
11
23.3857406
21
85.3424898
0
LINE
8
DEFAULT_255_1_388
10
23.7480699
20
84.6521666
11
23.6143424
21
84.6865021
0
LINE
8
DEFAULT_255_1_388
10
23.6143424
20
84.6865021
11
23.6812062
21
85.3424898
0
LINE
8
DEFAULT_255_1_388
10
23.6812062
20
85.3424898
11
24.3552652
21
85.3424898
0
LINE
8
DEFAULT_255_1_388
10
24.3552652
20
85.3424898
11
24.3552652
21
85.1879803
0
LINE
8
DEFAULT_255_1_388
10
24.3552652
20
85.1879803
11
23.8230658
21
85.1879803
0
LINE
8
DEFAULT_255_1_388
10
23.8230658
20
85.1879803
11
23.7833089
21
84.8292652
0
LINE
8
DEFAULT_255_1_388
10
23.567357
20
84.3729652
11
23.7254808
21
84.3729652
0
LINE
8
DEFAULT_255_1_388
10
23.7923446
20
84.6883092
11
23.7480699
21
84.6521666
0
ARC
8
DEFAULT_255_1_388
10
23.9919703
20
84.4715241
40
0.4141476
50
93.7181681
51
120.253934
0
ARC
8
DEFAULT_255_1_388
10
24.0025755
20
84.3806284
40
0.5055616
50
89.9660471
51
94.2495185
0
ARC
8
DEFAULT_255_1_388
10
24.0071577
20
84.4469154
40
0.4392953
50
73.8045384
51
90.5585736
0
ARC
8
DEFAULT_255_1_388
10
24.0335835
20
84.543452
40
0.3392225
50
41.3071072
51
73.543002
0
ARC
8
DEFAULT_255_1_388
10
23.9867655
20
84.5031461
40
0.4009977
50
13.5075837
51
41.2174839
0
ARC
8
DEFAULT_255_1_388
10
23.8020752
20
84.4547907
40
0.5918864
50
1.1330171
51
13.8830737
0
ARC
8
DEFAULT_255_1_388
10
23.6424398
20
84.4462522
40
0.7516787
50
359.9925091
51
1.5431298
0
ARC
8
DEFAULT_255_1_388
10
23.7869013
20
84.4416027
40
0.6072343
50
347.8572712
51
0.4294349
0
ARC
8
DEFAULT_255_1_388
10
23.9838148
20
84.3969898
40
0.4053482
50
323.6727442
51
348.1674594
0
ARC
8
DEFAULT_255_1_388
10
24.0169112
20
84.3768175
40
0.3667495
50
316.8171818
51
323.1486802
0
ARC
8
DEFAULT_255_1_388
10
24.0238236
20
84.3726612
40
0.358869
50
281.839603
51
316.5458142
0
ARC
8
DEFAULT_255_1_388
10
23.9815523
20
84.5476363
40
0.5388223
50
269.5770964
51
282.4214641
0
ARC
8
DEFAULT_255_1_388
10
23.9735444
20
84.523593
40
0.5147801
50
256.2425863
51
270.4486481
0
ARC
8
DEFAULT_255_1_388
10
23.9398972
20
84.3886124
40
0.3756708
50
228.9024379
51
256.33135
0
ARC
8
DEFAULT_255_1_388
10
23.9315952
20
84.3755054
40
0.360344
50
193.7536029
51
228.5272638
0
ARC
8
DEFAULT_255_1_388
10
24.0708517
20
84.4163463
40
0.5053599
50
184.9244437
51
194.4976052
0
ARC
8
DEFAULT_255_1_388
10
24.0925158
20
84.4203722
40
0.3700839
50
187.3596909
51
198.6733728
0
ARC
8
DEFAULT_255_1_388
10
23.9744402
20
84.3794373
40
0.2451195
50
198.4453795
51
217.7945479
0
ARC
8
DEFAULT_255_1_388
10
23.9411574
20
84.3558563
40
0.2043754
50
218.2887146
51
228.5613203
0
ARC
8
DEFAULT_255_1_388
10
23.9521581
20
84.3706902
40
0.2227819
50
228.9652423
51
258.1237049
0
ARC
8
DEFAULT_255_1_388
10
23.9753018
20
84.4697964
40
0.3245374
50
257.7260585
51
270.4013717
0
ARC
8
DEFAULT_255_1_388
10
23.9803516
20
84.4197255
40
0.2744726
50
269.4204315
51
286.420998
0
ARC
8
DEFAULT_255_1_388
10
23.9970572
20
84.3590705
40
0.2115721
50
286.7250065
51
320.6004665
0
ARC
8
DEFAULT_255_1_388
10
23.9539488
20
84.3940527
40
0.2670878
50
320.6712228
51
344.5440474
0
ARC
8
DEFAULT_255_1_388
10
23.8238202
20
84.4322394
40
0.4026927
50
344.241448
51
356.735803
0
ARC
8
DEFAULT_255_1_388
10
23.6834509
20
84.4438656
40
0.5435085
50
356.3547471
51
0.0507222
0
ARC
8
DEFAULT_255_1_388
10
23.8336774
20
84.4473812
40
0.3932934
50
359.5579289
51
12.9534322
0
ARC
8
DEFAULT_255_1_388
10
23.9523614
20
84.4761586
40
0.2711827
50
12.6489751
51
41.608121
0
ARC
8
DEFAULT_255_1_388
10
23.9782774
20
84.4981946
40
0.2371737
50
41.7851122
51
85.9892156
0
ARC
8
DEFAULT_255_1_388
10
23.9644084
20
84.4066738
40
0.3295244
50
84.6965848
51
90.0672125
0
ARC
8
DEFAULT_255_1_388
10
23.9617651
20
84.3315118
40
0.4046926
50
89.6804991
51
99.161352
0
ARC
8
DEFAULT_255_1_388
10
23.9386661
20
84.4695848
40
0.2647044
50
98.9836248
51
113.8905702
0
ARC
8
DEFAULT_255_1_388
10
23.9128335
20
84.5305118
40
0.1985386
50
114.195234
51
127.3641866
0
LINE
8
DEFAULT_255_1_388
10
20.8842946
20
92.6628553
11
20.8842946
21
92.5797274
0
LINE
8
DEFAULT_255_1_388
10
19.8262206
20
92.5679811
11
19.8262206
21
92.6628553
0
LINE
8
DEFAULT_255_1_388
10
20.7117138
20
92.5670775
11
20.7117138
21
92.6646625
0
LINE
8
DEFAULT_255_1_388
10
19.9988014
20
92.6764088
11
19.9988014
21
92.5797274
0
ARC
8
DEFAULT_255_1_388
10
19.9120684
20
92.5752726
40
0.9722364
50
350.4878118
51
0.2625322
0
ARC
8
DEFAULT_255_1_388
10
20.1700644
20
92.5308994
40
0.7104556
50
336.0277991
51
350.5787241
0
ARC
8
DEFAULT_255_1_388
10
20.3213751
20
92.4625243
40
0.544417
50
319.887443
51
336.1331163
0
ARC
8
DEFAULT_255_1_388
10
20.3891563
20
92.4082733
40
0.4576311
50
302.4806296
51
319.6144102
0
ARC
8
DEFAULT_255_1_388
10
20.3762184
20
92.4332067
40
0.4856183
50
275.8196423
51
302.1885521
0
ARC
8
DEFAULT_255_1_388
10
20.3575046
20
92.5617466
40
0.6154183
50
269.9169897
51
276.339506
0
ARC
8
DEFAULT_255_1_388
10
20.3524646
20
92.484568
40
0.5382553
50
252.5221437
51
270.441579
0
ARC
8
DEFAULT_255_1_388
10
20.3362897
20
92.4239046
40
0.4755426
50
237.5349961
51
252.1858334
0
ARC
8
DEFAULT_255_1_388
10
20.3463273
20
92.436712
40
0.4917393
50
209.0632754
51
237.3492577
0
ARC
8
DEFAULT_255_1_388
10
20.4442599
20
92.4982104
40
0.6072464
50
205.118533
51
209.6465345
0
ARC
8
DEFAULT_255_1_388
10
20.5338601
20
92.5362174
40
0.7045164
50
188.7216633
51
204.8239753
0
ARC
8
DEFAULT_255_1_388
10
20.7585376
20
92.5740387
40
0.9323368
50
180.3722704
51
188.9253909
0
ARC
8
DEFAULT_255_1_388
10
20.7554938
20
92.6673416
40
0.929284
50
169.5253055
51
180.2766048
0
ARC
8
DEFAULT_255_1_388
10
20.5414737
20
92.7067024
40
0.7116745
50
155.8314601
51
169.5088611
0
ARC
8
DEFAULT_255_1_388
10
20.39742
20
92.7735312
40
0.5528904
50
139.6259579
51
156.0379072
0
ARC
8
DEFAULT_255_1_388
10
20.3310733
20
92.8269143
40
0.4677708
50
122.6414784
51
139.3431662
0
ARC
8
DEFAULT_255_1_388
10
20.3423988
20
92.8062787
40
0.4912586
50
93.0224537
51
122.4556091
0
ARC
8
DEFAULT_255_1_388
10
20.3545509
20
92.6976776
40
0.6003837
50
89.9756766
51
93.6340839
0
ARC
8
DEFAULT_255_1_388
10
20.3589107
20
92.7425879
40
0.5554884
50
73.7463329
51
90.4234008
0
ARC
8
DEFAULT_255_1_388
10
20.378658
20
92.8190772
40
0.4765353
50
57.663051
51
73.4516911
0
ARC
8
DEFAULT_255_1_388
10
20.3777618
20
92.8215108
40
0.4749629
50
29.1441355
51
57.4146687
0
ARC
8
DEFAULT_255_1_388
10
20.2725429
20
92.7558046
40
0.5988917
50
24.0985653
51
29.732054
0
ARC
8
DEFAULT_255_1_388
10
20.1563061
20
92.7076154
40
0.7246823
50
8.6654943
51
23.8241215
0
ARC
8
DEFAULT_255_1_388
10
19.9049479
20
92.6666037
40
0.9793537
50
359.7807044
51
8.8218476
0
ARC
8
DEFAULT_255_1_388
10
19.7759184
20
92.6694731
40
0.9358078
50
359.7054632
51
8.0359751
0
ARC
8
DEFAULT_255_1_388
10
20.1134235
20
92.7186252
40
0.5947474
50
7.8926278
51
20.2962188
0
ARC
8
DEFAULT_255_1_388
10
20.2965085
20
92.7861367
40
0.3996117
50
20.3231056
51
36.4990255
0
ARC
8
DEFAULT_255_1_388
10
20.3736383
20
92.8455399
40
0.3022818
50
36.1436715
51
85.6627846
0
ARC
8
DEFAULT_255_1_388
10
20.3553638
20
92.7285881
40
0.4203853
50
84.3845912
51
90.076054
0
ARC
8
DEFAULT_255_1_388
10
20.3505993
20
92.8028416
40
0.346157
50
89.3037228
51
109.9046209
0
ARC
8
DEFAULT_255_1_388
10
20.3401826
20
92.8458379
40
0.3022217
50
110.8229774
51
143.917961
0
ARC
8
DEFAULT_255_1_388
10
20.4452185
20
92.7656455
40
0.434348
50
143.5289166
51
163.2980252
0
ARC
8
DEFAULT_255_1_388
10
20.6598472
20
92.6981685
40
0.659321
50
163.0418884
51
174.3139873
0
ARC
8
DEFAULT_255_1_388
10
20.9303437
20
92.6669378
40
0.9315905
50
174.050934
51
179.4174954
0
ARC
8
DEFAULT_255_1_388
10
20.8735381
20
92.5750382
40
0.8747493
50
179.6928582
51
188.7908948
0
ARC
8
DEFAULT_255_1_388
10
20.5739181
20
92.5271086
40
0.5713262
50
188.6328449
51
202.5630732
0
ARC
8
DEFAULT_255_1_388
10
20.4328018
20
92.4704142
40
0.4192612
50
202.8078931
51
216.1195888
0
ARC
8
DEFAULT_255_1_388
10
20.3417535
20
92.3971479
40
0.3025752
50
215.0755613
51
264.6379773
0
ARC
8
DEFAULT_255_1_388
10
20.3560372
20
92.4906376
40
0.3970284
50
263.8464302
51
270.0830805
0
ARC
8
DEFAULT_255_1_388
10
20.3606917
20
92.4615808
40
0.3679937
50
269.3649295
51
287.5149684
0
ARC
8
DEFAULT_255_1_388
10
20.3807358
20
92.3887714
40
0.2925408
50
288.0629019
51
323.8115617
0
ARC
8
DEFAULT_255_1_388
10
20.2827334
20
92.4618754
40
0.4148018
50
323.6546541
51
342.6591359
0
ARC
8
DEFAULT_255_1_388
10
20.0541992
20
92.536228
40
0.6551163
50
342.4092446
51
353.6451501
0
ARC
8
DEFAULT_255_1_388
10
19.7356785
20
92.5758565
40
0.9760748
50
353.4027553
51
359.4846611
0
LINE
8
DEFAULT_255_1_388
10
21.8962868
20
93.2799898
11
22.0706747
21
93.2799898
0
LINE
8
DEFAULT_255_1_388
10
22.0706747
20
93.2799898
11
22.0706747
21
92.385461
0
LINE
8
DEFAULT_255_1_388
10
21.6387709
20
91.9481358
11
21.5926891
21
91.9463287
0
LINE
8
DEFAULT_255_1_388
10
21.1183178
20
92.3836539
11
21.1183178
21
93.2799898
0
LINE
8
DEFAULT_255_1_388
10
21.1183178
20
93.2799898
11
21.289995
21
93.2799898
0
LINE
8
DEFAULT_255_1_388
10
21.289995
20
93.2799898
11
21.289995
21
92.3890753
0
LINE
8
DEFAULT_255_1_388
10
21.8962868
20
92.3881717
11
21.8962868
21
93.2799898
0
ARC
8
DEFAULT_255_1_388
10
21.5809546
20
92.383227
40
0.4897252
50
343.0897723
51
0.2613727
0
ARC
8
DEFAULT_255_1_388
10
21.6741517
20
92.357227
40
0.3930016
50
315.3344451
51
342.7642569
0
ARC
8
DEFAULT_255_1_388
10
21.6490012
20
92.3833085
40
0.4292244
50
284.6605441
51
315.2183439
0
ARC
8
DEFAULT_255_1_388
10
21.5977792
20
92.5572508
40
0.6104926
50
273.8500371
51
285.1796441
0
ARC
8
DEFAULT_255_1_388
10
21.5878857
20
92.5956762
40
0.6493653
50
257.6315393
51
270.4238259
0
ARC
8
DEFAULT_255_1_388
10
21.540094
20
92.3907915
40
0.4390079
50
230.6086859
51
257.9965362
0
ARC
8
DEFAULT_255_1_388
10
21.5254998
20
92.3678643
40
0.4120404
50
227.745033
51
230.1538266
0
ARC
8
DEFAULT_255_1_388
10
21.5101528
20
92.3494253
40
0.3880742
50
189.2524335
51
227.5915299
0
ARC
8
DEFAULT_255_1_388
10
21.6813399
20
92.3862735
40
0.5630282
50
180.2665782
51
190.1525221
0
ARC
8
DEFAULT_255_1_388
10
21.7063127
20
92.3859254
40
0.4163296
50
179.566507
51
191.9954402
0
ARC
8
DEFAULT_255_1_388
10
21.5681816
20
92.3551151
40
0.274815
50
191.6974619
51
215.1403758
0
ARC
8
DEFAULT_255_1_388
10
21.5414208
20
92.3391689
40
0.2437647
50
215.6958251
51
224.8509274
0
ARC
8
DEFAULT_255_1_388
10
21.5476684
20
92.3481016
40
0.2545012
50
225.2846515
51
255.0110023
0
ARC
8
DEFAULT_255_1_388
10
21.584113
20
92.4734017
40
0.384974
50
254.5945979
51
267.9129427
0
ARC
8
DEFAULT_255_1_388
10
21.5924823
20
92.5951444
40
0.506956
50
267.4687563
51
270.0233681
0
ARC
8
DEFAULT_255_1_388
10
21.5958819
20
92.5291288
40
0.440952
50
269.5851384
51
281.1845308
0
ARC
8
DEFAULT_255_1_388
10
21.6272423
20
92.3769469
40
0.2855802
50
280.9345159
51
300.9740496
0
ARC
8
DEFAULT_255_1_388
10
21.6511603
20
92.3329128
40
0.2355257
50
301.4982546
51
315.1468616
0
ARC
8
DEFAULT_255_1_388
10
21.6349099
20
92.3462488
40
0.2564594
50
315.5952932
51
345.6679188
0
ARC
8
DEFAULT_255_1_388
10
21.5089656
20
92.3813235
40
0.3871766
50
345.2525685
51
358.6303941
0
ARC
8
DEFAULT_255_1_388
10
21.3946047
20
92.3880695
40
0.5016822
50
358.1723541
51
0.0116795
0
LINE
8
DEFAULT_255_1_388
10
23.2534406
20
93.2799898
11
23.2534406
21
93.1372267
0
LINE
8
DEFAULT_255_1_388
10
23.2534406
20
93.1372267
11
22.8305724
21
93.1372267
0
LINE
8
DEFAULT_255_1_388
10
22.8305724
20
93.1372267
11
22.8305724
21
91.9644
0
LINE
8
DEFAULT_255_1_388
10
22.8305724
20
91.9644
11
22.6579916
21
91.9644
0
LINE
8
DEFAULT_255_1_388
10
22.6579916
20
91.9644
11
22.6579916
21
93.1372267
0
LINE
8
DEFAULT_255_1_388
10
22.6579916
20
93.1372267
11
22.236027
21
93.1372267
0
LINE
8
DEFAULT_255_1_388
10
22.236027
20
93.1372267
11
22.236027
21
93.2799898
0
LINE
8
DEFAULT_255_1_388
10
22.236027
20
93.2799898
11
23.2534406
21
93.2799898
0
LINE
8
DEFAULT_255_1_388
10
24.1109232
20
93.2799898
11
24.1109232
21
92.406243
0
LINE
8
DEFAULT_255_1_388
10
24.1109232
20
92.406243
11
24.2934433
21
92.406243
0
LINE
8
DEFAULT_255_1_388
10
24.2934433
20
92.406243
11
24.2934433
21
92.2698048
0
LINE
8
DEFAULT_255_1_388
10
24.2934433
20
92.2698048
11
24.1109232
21
92.2698048
0
LINE
8
DEFAULT_255_1_388
10
24.1109232
20
92.2698048
11
24.1109232
21
91.9644
0
LINE
8
DEFAULT_255_1_388
10
24.1109232
20
91.9644
11
23.9428603
21
91.9644
0
LINE
8
DEFAULT_255_1_388
10
23.9428603
20
91.9644
11
23.9428603
21
92.2698048
0
LINE
8
DEFAULT_255_1_388
10
23.9428603
20
92.2698048
11
23.343797
21
92.2698048
0
LINE
8
DEFAULT_255_1_388
10
23.343797
20
92.2698048
11
23.343797
21
92.3682933
0
LINE
8
DEFAULT_255_1_388
10
23.343797
20
92.3682933
11
23.932921
21
93.2799898
0
LINE
8
DEFAULT_255_1_388
10
23.932921
20
93.2799898
11
24.1109232
21
93.2799898
0
LINE
8
DEFAULT_255_1_388
10
23.9229818
20
93.0152455
11
23.5335456
21
92.406243
0
LINE
8
DEFAULT_255_1_388
10
23.5335456
20
92.406243
11
23.9428603
21
92.406243
0
LINE
8
DEFAULT_255_1_388
10
23.9428603
20
92.406243
11
23.9428603
21
93.051388
0
LINE
8
DEFAULT_255_1_388
10
23.9428603
20
93.051388
11
23.9229818
21
93.0152455
0
LINE
8
DEFAULT_255_1_388
10
21.0165946
20
100.6003553
11
21.0165946
21
100.5172274
0
LINE
8
DEFAULT_255_1_388
10
19.9585206
20
100.5054811
11
19.9585206
21
100.6003553
0
LINE
8
DEFAULT_255_1_388
10
20.8440138
20
100.5045775
11
20.8440138
21
100.6021625
0
LINE
8
DEFAULT_255_1_388
10
20.1311014
20
100.6139088
11
20.1311014
21
100.5172274
0
ARC
8
DEFAULT_255_1_388
10
20.0443684
20
100.5127726
40
0.9722364
50
350.4878118
51
0.2625322
0
ARC
8
DEFAULT_255_1_388
10
20.3023644
20
100.4683994
40
0.7104556
50
336.0277991
51
350.5787241
0
ARC
8
DEFAULT_255_1_388
10
20.4536751
20
100.4000243
40
0.544417
50
319.887443
51
336.1331163
0
ARC
8
DEFAULT_255_1_388
10
20.5214563
20
100.3457733
40
0.4576311
50
302.4806296
51
319.6144102
0
ARC
8
DEFAULT_255_1_388
10
20.5085184
20
100.3707067
40
0.4856183
50
275.8196423
51
302.1885521
0
ARC
8
DEFAULT_255_1_388
10
20.4898046
20
100.4992466
40
0.6154183
50
269.9169897
51
276.339506
0
ARC
8
DEFAULT_255_1_388
10
20.4847646
20
100.422068
40
0.5382553
50
252.5221437
51
270.441579
0
ARC
8
DEFAULT_255_1_388
10
20.4685897
20
100.3614046
40
0.4755426
50
237.5349961
51
252.1858334
0
ARC
8
DEFAULT_255_1_388
10
20.4786273
20
100.374212
40
0.4917393
50
209.0632754
51
237.3492577
0
ARC
8
DEFAULT_255_1_388
10
20.5765599
20
100.4357104
40
0.6072464
50
205.118533
51
209.6465345
0
ARC
8
DEFAULT_255_1_388
10
20.6661601
20
100.4737174
40
0.7045164
50
188.7216633
51
204.8239753
0
ARC
8
DEFAULT_255_1_388
10
20.8908376
20
100.5115387
40
0.9323368
50
180.3722704
51
188.9253909
0
ARC
8
DEFAULT_255_1_388
10
20.8877938
20
100.6048416
40
0.929284
50
169.5253055
51
180.2766048
0
ARC
8
DEFAULT_255_1_388
10
20.6737737
20
100.6442024
40
0.7116745
50
155.8314601
51
169.5088611
0
ARC
8
DEFAULT_255_1_388
10
20.52972
20
100.7110312
40
0.5528904
50
139.6259579
51
156.0379072
0
ARC
8
DEFAULT_255_1_388
10
20.4633733
20
100.7644143
40
0.4677708
50
122.6414784
51
139.3431662
0
ARC
8
DEFAULT_255_1_388
10
20.4746988
20
100.7437787
40
0.4912586
50
93.0224537
51
122.4556091
0
ARC
8
DEFAULT_255_1_388
10
20.4868509
20
100.6351776
40
0.6003837
50
89.9756766
51
93.6340839
0
ARC
8
DEFAULT_255_1_388
10
20.4912107
20
100.6800879
40
0.5554884
50
73.7463329
51
90.4234008
0
ARC
8
DEFAULT_255_1_388
10
20.510958
20
100.7565772
40
0.4765353
50
57.663051
51
73.4516911
0
ARC
8
DEFAULT_255_1_388
10
20.5100618
20
100.7590108
40
0.4749629
50
29.1441355
51
57.4146687
0
ARC
8
DEFAULT_255_1_388
10
20.4048429
20
100.6933046
40
0.5988917
50
24.0985653
51
29.732054
0
ARC
8
DEFAULT_255_1_388
10
20.2886061
20
100.6451154
40
0.7246823
50
8.6654943
51
23.8241215
0
ARC
8
DEFAULT_255_1_388
10
20.0372479
20
100.6041037
40
0.9793537
50
359.7807044
51
8.8218476
0
ARC
8
DEFAULT_255_1_388
10
19.9082184
20
100.6069731
40
0.9358078
50
359.7054632
51
8.0359751
0
ARC
8
DEFAULT_255_1_388
10
20.2457235
20
100.6561252
40
0.5947474
50
7.8926278
51
20.2962188
0
ARC
8
DEFAULT_255_1_388
10
20.4288085
20
100.7236367
40
0.3996117
50
20.3231056
51
36.4990255
0
ARC
8
DEFAULT_255_1_388
10
20.5059383
20
100.7830399
40
0.3022818
50
36.1436715
51
85.6627846
0
ARC
8
DEFAULT_255_1_388
10
20.4876638
20
100.6660881
40
0.4203853
50
84.3845912
51
90.076054
0
ARC
8
DEFAULT_255_1_388
10
20.4828993
20
100.7403416
40
0.346157
50
89.3037228
51
109.9046209
0
ARC
8
DEFAULT_255_1_388
10
20.4724826
20
100.7833379
40
0.3022217
50
110.8229774
51
143.917961
0
ARC
8
DEFAULT_255_1_388
10
20.5775185
20
100.7031455
40
0.434348
50
143.5289166
51
163.2980252
0
ARC
8
DEFAULT_255_1_388
10
20.7921472
20
100.6356685
40
0.659321
50
163.0418884
51
174.3139873
0
ARC
8
DEFAULT_255_1_388
10
21.0626437
20
100.6044378
40
0.9315905
50
174.050934
51
179.4174954
0
ARC
8
DEFAULT_255_1_388
10
21.0058381
20
100.5125382
40
0.8747493
50
179.6928582
51
188.7908948
0
ARC
8
DEFAULT_255_1_388
10
20.7062181
20
100.4646086
40
0.5713262
50
188.6328449
51
202.5630732
0
ARC
8
DEFAULT_255_1_388
10
20.5651018
20
100.4079142
40
0.4192612
50
202.8078931
51
216.1195888
0
ARC
8
DEFAULT_255_1_388
10
20.4740535
20
100.3346479
40
0.3025752
50
215.0755613
51
264.6379773
0
ARC
8
DEFAULT_255_1_388
10
20.4883372
20
100.4281376
40
0.3970284
50
263.8464302
51
270.0830805
0
ARC
8
DEFAULT_255_1_388
10
20.4929917
20
100.3990808
40
0.3679937
50
269.3649295
51
287.5149684
0
ARC
8
DEFAULT_255_1_388
10
20.5130358
20
100.3262714
40
0.2925408
50
288.0629019
51
323.8115617
0
ARC
8
DEFAULT_255_1_388
10
20.4150334
20
100.3993754
40
0.4148018
50
323.6546541
51
342.6591359
0
ARC
8
DEFAULT_255_1_388
10
20.1864992
20
100.473728
40
0.6551163
50
342.4092446
51
353.6451501
0
ARC
8
DEFAULT_255_1_388
10
19.8679785
20
100.5133565
40
0.9760748
50
353.4027553
51
359.4846611
0
LINE
8
DEFAULT_255_1_388
10
22.0285868
20
101.2174898
11
22.2029747
21
101.2174898
0
LINE
8
DEFAULT_255_1_388
10
22.2029747
20
101.2174898
11
22.2029747
21
100.322961
0
LINE
8
DEFAULT_255_1_388
10
21.7710709
20
99.8856358
11
21.7249891
21
99.8838287
0
LINE
8
DEFAULT_255_1_388
10
21.2506178
20
100.3211539
11
21.2506178
21
101.2174898
0
LINE
8
DEFAULT_255_1_388
10
21.2506178
20
101.2174898
11
21.422295
21
101.2174898
0
LINE
8
DEFAULT_255_1_388
10
21.422295
20
101.2174898
11
21.422295
21
100.3265753
0
LINE
8
DEFAULT_255_1_388
10
22.0285868
20
100.3256717
11
22.0285868
21
101.2174898
0
ARC
8
DEFAULT_255_1_388
10
21.7132546
20
100.320727
40
0.4897252
50
343.0897723
51
0.2613727
0
ARC
8
DEFAULT_255_1_388
10
21.8064517
20
100.294727
40
0.3930016
50
315.3344451
51
342.7642569
0
ARC
8
DEFAULT_255_1_388
10
21.7813012
20
100.3208085
40
0.4292244
50
284.6605441
51
315.2183439
0
ARC
8
DEFAULT_255_1_388
10
21.7300792
20
100.4947508
40
0.6104926
50
273.8500371
51
285.1796441
0
ARC
8
DEFAULT_255_1_388
10
21.7201857
20
100.5331762
40
0.6493653
50
257.6315393
51
270.4238259
0
ARC
8
DEFAULT_255_1_388
10
21.672394
20
100.3282915
40
0.4390079
50
230.6086859
51
257.9965362
0
ARC
8
DEFAULT_255_1_388
10
21.6577998
20
100.3053643
40
0.4120404
50
227.745033
51
230.1538266
0
ARC
8
DEFAULT_255_1_388
10
21.6424528
20
100.2869253
40
0.3880742
50
189.2524335
51
227.5915299
0
ARC
8
DEFAULT_255_1_388
10
21.8136399
20
100.3237735
40
0.5630282
50
180.2665782
51
190.1525221
0
ARC
8
DEFAULT_255_1_388
10
21.8386127
20
100.3234254
40
0.4163296
50
179.566507
51
191.9954402
0
ARC
8
DEFAULT_255_1_388
10
21.7004816
20
100.2926151
40
0.274815
50
191.6974619
51
215.1403758
0
ARC
8
DEFAULT_255_1_388
10
21.6737208
20
100.2766689
40
0.2437647
50
215.6958251
51
224.8509274
0
ARC
8
DEFAULT_255_1_388
10
21.6799684
20
100.2856016
40
0.2545012
50
225.2846515
51
255.0110023
0
ARC
8
DEFAULT_255_1_388
10
21.716413
20
100.4109017
40
0.384974
50
254.5945979
51
267.9129427
0
ARC
8
DEFAULT_255_1_388
10
21.7247823
20
100.5326444
40
0.506956
50
267.4687563
51
270.0233681
0
ARC
8
DEFAULT_255_1_388
10
21.7281819
20
100.4666288
40
0.440952
50
269.5851384
51
281.1845308
0
ARC
8
DEFAULT_255_1_388
10
21.7595423
20
100.3144469
40
0.2855802
50
280.9345159
51
300.9740496
0
ARC
8
DEFAULT_255_1_388
10
21.7834603
20
100.2704128
40
0.2355257
50
301.4982546
51
315.1468616
0
ARC
8
DEFAULT_255_1_388
10
21.7672099
20
100.2837488
40
0.2564594
50
315.5952932
51
345.6679188
0
ARC
8
DEFAULT_255_1_388
10
21.6412656
20
100.3188235
40
0.3871766
50
345.2525685
51
358.6303941
0
ARC
8
DEFAULT_255_1_388
10
21.5269047
20
100.3255695
40
0.5016822
50
358.1723541
51
0.0116795
0
LINE
8
DEFAULT_255_1_388
10
23.3857406
20
101.2174898
11
23.3857406
21
101.0747267
0
LINE
8
DEFAULT_255_1_388
10
23.3857406
20
101.0747267
11
22.9628724
21
101.0747267
0
LINE
8
DEFAULT_255_1_388
10
22.9628724
20
101.0747267
11
22.9628724
21
99.9019
0
LINE
8
DEFAULT_255_1_388
10
22.9628724
20
99.9019
11
22.7902916
21
99.9019
0
LINE
8
DEFAULT_255_1_388
10
22.7902916
20
99.9019
11
22.7902916
21
101.0747267
0
LINE
8
DEFAULT_255_1_388
10
22.7902916
20
101.0747267
11
22.368327
21
101.0747267
0
LINE
8
DEFAULT_255_1_388
10
22.368327
20
101.0747267
11
22.368327
21
101.2174898
0
LINE
8
DEFAULT_255_1_388
10
22.368327
20
101.2174898
11
23.3857406
21
101.2174898
0
LINE
8
DEFAULT_255_1_388
10
23.7805982
20
100.5045775
11
23.7805982
21
100.6410157
0
LINE
8
DEFAULT_255_1_388
10
23.7805982
20
100.6410157
11
23.9061937
21
100.6410157
0
LINE
8
DEFAULT_255_1_388
10
23.6920489
20
100.8723282
11
23.5248895
21
100.8723282
0
LINE
8
DEFAULT_255_1_388
10
23.5131432
20
100.2488688
11
23.6812062
21
100.2488688
0
LINE
8
DEFAULT_255_1_388
10
23.9061937
20
100.5045775
11
23.7805982
21
100.5045775
0
ARC
8
DEFAULT_255_1_388
10
23.9029164
20
101.0226922
40
0.3816905
50
270.491971
51
281.8953028
0
ARC
8
DEFAULT_255_1_388
10
23.930059
20
100.8987199
40
0.2547877
50
281.6690378
51
301.2943765
0
ARC
8
DEFAULT_255_1_388
10
23.9492042
20
100.8636926
40
0.2149197
50
301.7834992
51
311.754567
0
ARC
8
DEFAULT_255_1_388
10
23.9595083
20
100.852265
40
0.1995326
50
311.7325027
51
354.2803031
0
ARC
8
DEFAULT_255_1_388
10
23.8777499
20
100.866328
40
0.2823461
50
353.0941646
51
0.1174696
0
ARC
8
DEFAULT_255_1_388
10
23.8259057
20
100.8716874
40
0.3342238
50
359.1804452
51
15.0452323
0
ARC
8
DEFAULT_255_1_388
10
23.9773115
20
100.9158546
40
0.1765747
50
13.957816
51
77.6713812
0
ARC
8
DEFAULT_255_1_388
10
23.9338351
20
100.7600464
40
0.3381982
50
76.111571
51
90.7028736
0
ARC
8
DEFAULT_255_1_388
10
23.9271763
20
100.790825
40
0.3074046
50
89.5321574
51
103.5319393
0
ARC
8
DEFAULT_255_1_388
10
23.9046147
20
100.8807443
40
0.2147041
50
103.2930114
51
133.5619756
0
ARC
8
DEFAULT_255_1_388
10
23.8996088
20
100.8874351
40
0.2064084
50
133.8349761
51
173.5343225
0
ARC
8
DEFAULT_255_1_388
10
23.9809746
20
100.8730144
40
0.2889266
50
172.5097183
51
180.1360699
0
ARC
8
DEFAULT_255_1_388
10
23.873951
20
100.876888
40
0.3490913
50
155.3483706
51
180.7484035
0
ARC
8
DEFAULT_255_1_388
10
23.8684486
20
100.8736519
40
0.3454798
50
131.5745177
51
154.4799474
0
ARC
8
DEFAULT_255_1_388
10
23.9036768
20
100.8380422
40
0.3955058
50
96.9874487
51
131.9690874
0
ARC
8
DEFAULT_255_1_388
10
23.9283661
20
100.6979407
40
0.537622
50
89.8592909
51
97.7827481
0
ARC
8
DEFAULT_255_1_388
10
23.933777
20
100.668436
40
0.5671399
50
78.3654493
51
90.4132586
0
ARC
8
DEFAULT_255_1_388
10
23.9740411
20
100.8550918
40
0.3762034
50
56.6229818
51
78.6387103
0
ARC
8
DEFAULT_255_1_388
10
23.998224
20
100.8973846
40
0.3275964
50
47.0254604
51
56.085558
0
ARC
8
DEFAULT_255_1_388
10
24.0004491
20
100.9018189
40
0.3228382
50
10.9207523
51
46.777927
0
ARC
8
DEFAULT_255_1_388
10
23.8470085
20
100.8663401
40
0.4802559
50
359.6364235
51
11.6087615
0
ARC
8
DEFAULT_255_1_388
10
24.0534251
20
100.8646404
40
0.273833
50
332.3549969
51
359.7179765
0
ARC
8
DEFAULT_255_1_388
10
23.9802651
20
100.8993285
40
0.3547505
50
325.2332381
51
332.8746682
0
ARC
8
DEFAULT_255_1_388
10
23.9974234
20
100.8873763
40
0.3338396
50
292.9803892
51
325.2391113
0
ARC
8
DEFAULT_255_1_388
10
23.966343
20
100.9478679
40
0.4016959
50
292.542178
51
293.6931461
0
ARC
8
DEFAULT_255_1_388
10
24.0107002
20
100.2213036
40
0.372079
50
57.643292
51
72.8626085
0
ARC
8
DEFAULT_255_1_388
10
24.0505836
20
100.2859273
40
0.2961455
50
36.7246661
51
57.4701329
0
ARC
8
DEFAULT_255_1_388
10
24.0492993
20
100.287347
40
0.2963321
50
8.054535
51
36.3561529
0
ARC
8
DEFAULT_255_1_388
10
23.9522666
20
100.2699073
40
0.3948682
50
359.8316595
51
8.5873361
0
ARC
8
DEFAULT_255_1_388
10
23.910014
20
100.264497
40
0.4371398
50
343.9831631
51
0.557075
0
ARC
8
DEFAULT_255_1_388
10
24.009719
20
100.2371963
40
0.3337749
50
311.6358204
51
343.7652116
0
ARC
8
DEFAULT_255_1_388
10
23.9671443
20
100.2851955
40
0.3979351
50
279.7829743
51
311.625622
0
ARC
8
DEFAULT_255_1_388
10
23.9332579
20
100.4468642
40
0.5630417
50
269.7285092
51
280.3857694
0
ARC
8
DEFAULT_255_1_388
10
23.9262891
20
100.4422241
40
0.5584119
50
256.6827433
51
270.4412869
0
ARC
8
DEFAULT_255_1_388
10
23.8881878
20
100.2864698
40
0.3980715
50
229.4223821
51
256.8554507
0
ARC
8
DEFAULT_255_1_388
10
23.8415431
20
100.2339683
40
0.3278564
50
181.8183354
51
229.6455015
0
ARC
8
DEFAULT_255_1_388
10
23.9585041
20
100.2486825
40
0.4453611
50
179.9760419
51
183.2330638
0
ARC
8
DEFAULT_255_1_388
10
23.9391593
20
100.2463781
40
0.2579652
50
179.4467996
51
196.2871626
0
ARC
8
DEFAULT_255_1_388
10
23.8843047
20
100.2313709
40
0.2011057
50
196.5661293
51
227.7059371
0
ARC
8
DEFAULT_255_1_388
10
23.9027654
20
100.2520155
40
0.2287994
50
227.7653015
51
257.8763321
0
ARC
8
DEFAULT_255_1_388
10
23.9280737
20
100.3580961
40
0.3378385
50
257.4583525
51
270.4267406
0
ARC
8
DEFAULT_255_1_388
10
23.9331987
20
100.390723
40
0.3704652
50
269.5965319
51
280.8788143
0
ARC
8
DEFAULT_255_1_388
10
23.9590215
20
100.2617529
40
0.2389415
50
280.6347277
51
299.8594068
0
ARC
8
DEFAULT_255_1_388
10
23.9804985
20
100.2209736
40
0.19289
50
300.3575552
51
314.5515667
0
ARC
8
DEFAULT_255_1_388
10
23.971166
20
100.2278025
40
0.204312
50
315.0730962
51
345.0429362
0
ARC
8
DEFAULT_255_1_388
10
23.8673168
20
100.2580539
40
0.31246
50
344.598526
51
357.9270698
0
ARC
8
DEFAULT_255_1_388
10
23.7663472
20
100.2649705
40
0.4136265
50
357.4755098
51
0.0224936
0
ARC
8
DEFAULT_255_1_388
10
23.881635
20
100.2677099
40
0.2983498
50
359.5051035
51
13.4236939
0
ARC
8
DEFAULT_255_1_388
10
23.979144
20
100.2926637
40
0.1977186
50
12.9497905
51
48.7550905
0
ARC
8
DEFAULT_255_1_388
10
23.9586362
20
100.2646373
40
0.2323321
50
49.509109
51
72.1832965
0
ARC
8
DEFAULT_255_1_388
10
23.918383
20
100.1451632
40
0.358397
50
71.9008458
51
84.3555134
0
ARC
8
DEFAULT_255_1_388
10
23.9002225
20
99.9919712
40
0.512641
50
84.019632
51
89.3326067
0
LINE
8
DEFAULT_255_1_388
10
21.0165946
20
108.5378553
11
21.0165946
21
108.4547274
0
LINE
8
DEFAULT_255_1_388
10
19.9585206
20
108.4429811
11
19.9585206
21
108.5378553
0
LINE
8
DEFAULT_255_1_388
10
20.8440138
20
108.4420775
11
20.8440138
21
108.5396625
0
LINE
8
DEFAULT_255_1_388
10
20.1311014
20
108.5514088
11
20.1311014
21
108.4547274
0
ARC
8
DEFAULT_255_1_388
10
20.0443684
20
108.4502726
40
0.9722364
50
350.4878118
51
0.2625322
0
ARC
8
DEFAULT_255_1_388
10
20.3023644
20
108.4058994
40
0.7104556
50
336.0277991
51
350.5787241
0
ARC
8
DEFAULT_255_1_388
10
20.4536751
20
108.3375243
40
0.544417
50
319.887443
51
336.1331163
0
ARC
8
DEFAULT_255_1_388
10
20.5214563
20
108.2832733
40
0.4576311
50
302.4806296
51
319.6144102
0
ARC
8
DEFAULT_255_1_388
10
20.5085184
20
108.3082067
40
0.4856183
50
275.8196423
51
302.1885521
0
ARC
8
DEFAULT_255_1_388
10
20.4898046
20
108.4367466
40
0.6154183
50
269.9169897
51
276.339506
0
ARC
8
DEFAULT_255_1_388
10
20.4847646
20
108.359568
40
0.5382553
50
252.5221437
51
270.441579
0
ARC
8
DEFAULT_255_1_388
10
20.4685897
20
108.2989046
40
0.4755426
50
237.5349961
51
252.1858334
0
ARC
8
DEFAULT_255_1_388
10
20.4786273
20
108.311712
40
0.4917393
50
209.0632754
51
237.3492577
0
ARC
8
DEFAULT_255_1_388
10
20.5765599
20
108.3732104
40
0.6072464
50
205.118533
51
209.6465345
0
ARC
8
DEFAULT_255_1_388
10
20.6661601
20
108.4112174
40
0.7045164
50
188.7216633
51
204.8239753
0
ARC
8
DEFAULT_255_1_388
10
20.8908376
20
108.4490387
40
0.9323368
50
180.3722704
51
188.9253909
0
ARC
8
DEFAULT_255_1_388
10
20.8877938
20
108.5423416
40
0.929284
50
169.5253055
51
180.2766048
0
ARC
8
DEFAULT_255_1_388
10
20.6737737
20
108.5817024
40
0.7116745
50
155.8314601
51
169.5088611
0
ARC
8
DEFAULT_255_1_388
10
20.52972
20
108.6485312
40
0.5528904
50
139.6259579
51
156.0379072
0
ARC
8
DEFAULT_255_1_388
10
20.4633733
20
108.7019143
40
0.4677708
50
122.6414784
51
139.3431662
0
ARC
8
DEFAULT_255_1_388
10
20.4746988
20
108.6812787
40
0.4912586
50
93.0224537
51
122.4556091
0
ARC
8
DEFAULT_255_1_388
10
20.4868509
20
108.5726776
40
0.6003837
50
89.9756766
51
93.6340839
0
ARC
8
DEFAULT_255_1_388
10
20.4912107
20
108.6175879
40
0.5554884
50
73.7463329
51
90.4234008
0
ARC
8
DEFAULT_255_1_388
10
20.510958
20
108.6940772
40
0.4765353
50
57.663051
51
73.4516911
0
ARC
8
DEFAULT_255_1_388
10
20.5100618
20
108.6965108
40
0.4749629
50
29.1441355
51
57.4146687
0
ARC
8
DEFAULT_255_1_388
10
20.4048429
20
108.6308046
40
0.5988917
50
24.0985653
51
29.732054
0
ARC
8
DEFAULT_255_1_388
10
20.2886061
20
108.5826154
40
0.7246823
50
8.6654943
51
23.8241215
0
ARC
8
DEFAULT_255_1_388
10
20.0372479
20
108.5416037
40
0.9793537
50
359.7807044
51
8.8218476
0
ARC
8
DEFAULT_255_1_388
10
19.9082184
20
108.5444731
40
0.9358078
50
359.7054632
51
8.0359751
0
ARC
8
DEFAULT_255_1_388
10
20.2457235
20
108.5936252
40
0.5947474
50
7.8926278
51
20.2962188
0
ARC
8
DEFAULT_255_1_388
10
20.4288085
20
108.6611367
40
0.3996117
50
20.3231056
51
36.4990255
0
ARC
8
DEFAULT_255_1_388
10
20.5059383
20
108.7205399
40
0.3022818
50
36.1436715
51
85.6627846
0
ARC
8
DEFAULT_255_1_388
10
20.4876638
20
108.6035881
40
0.4203853
50
84.3845912
51
90.076054
0
ARC
8
DEFAULT_255_1_388
10
20.4828993
20
108.6778416
40
0.346157
50
89.3037228
51
109.9046209
0
ARC
8
DEFAULT_255_1_388
10
20.4724826
20
108.7208379
40
0.3022217
50
110.8229774
51
143.917961
0
ARC
8
DEFAULT_255_1_388
10
20.5775185
20
108.6406455
40
0.434348
50
143.5289166
51
163.2980252
0
ARC
8
DEFAULT_255_1_388
10
20.7921472
20
108.5731685
40
0.659321
50
163.0418884
51
174.3139873
0
ARC
8
DEFAULT_255_1_388
10
21.0626437
20
108.5419378
40
0.9315905
50
174.050934
51
179.4174954
0
ARC
8
DEFAULT_255_1_388
10
21.0058381
20
108.4500382
40
0.8747493
50
179.6928582
51
188.7908948
0
ARC
8
DEFAULT_255_1_388
10
20.7062181
20
108.4021086
40
0.5713262
50
188.6328449
51
202.5630732
0
ARC
8
DEFAULT_255_1_388
10
20.5651018
20
108.3454142
40
0.4192612
50
202.8078931
51
216.1195888
0
ARC
8
DEFAULT_255_1_388
10
20.4740535
20
108.2721479
40
0.3025752
50
215.0755613
51
264.6379773
0
ARC
8
DEFAULT_255_1_388
10
20.4883372
20
108.3656376
40
0.3970284
50
263.8464302
51
270.0830805
0
ARC
8
DEFAULT_255_1_388
10
20.4929917
20
108.3365808
40
0.3679937
50
269.3649295
51
287.5149684
0
ARC
8
DEFAULT_255_1_388
10
20.5130358
20
108.2637714
40
0.2925408
50
288.0629019
51
323.8115617
0
ARC
8
DEFAULT_255_1_388
10
20.4150334
20
108.3368754
40
0.4148018
50
323.6546541
51
342.6591359
0
ARC
8
DEFAULT_255_1_388
10
20.1864992
20
108.411228
40
0.6551163
50
342.4092446
51
353.6451501
0
ARC
8
DEFAULT_255_1_388
10
19.8679785
20
108.4508565
40
0.9760748
50
353.4027553
51
359.4846611
0
LINE
8
DEFAULT_255_1_388
10
22.0285868
20
109.1549898
11
22.2029747
21
109.1549898
0
LINE
8
DEFAULT_255_1_388
10
22.2029747
20
109.1549898
11
22.2029747
21
108.260461
0
LINE
8
DEFAULT_255_1_388
10
21.7710709
20
107.8231358
11
21.7249891
21
107.8213287
0
LINE
8
DEFAULT_255_1_388
10
21.2506178
20
108.2586539
11
21.2506178
21
109.1549898
0
LINE
8
DEFAULT_255_1_388
10
21.2506178
20
109.1549898
11
21.422295
21
109.1549898
0
LINE
8
DEFAULT_255_1_388
10
21.422295
20
109.1549898
11
21.422295
21
108.2640753
0
LINE
8
DEFAULT_255_1_388
10
22.0285868
20
108.2631717
11
22.0285868
21
109.1549898
0
ARC
8
DEFAULT_255_1_388
10
21.7132546
20
108.258227
40
0.4897252
50
343.0897723
51
0.2613727
0
ARC
8
DEFAULT_255_1_388
10
21.8064517
20
108.232227
40
0.3930016
50
315.3344451
51
342.7642569
0
ARC
8
DEFAULT_255_1_388
10
21.7813012
20
108.2583085
40
0.4292244
50
284.6605441
51
315.2183439
0
ARC
8
DEFAULT_255_1_388
10
21.7300792
20
108.4322508
40
0.6104926
50
273.8500371
51
285.1796441
0
ARC
8
DEFAULT_255_1_388
10
21.7201857
20
108.4706762
40
0.6493653
50
257.6315393
51
270.4238259
0
ARC
8
DEFAULT_255_1_388
10
21.672394
20
108.2657915
40
0.4390079
50
230.6086859
51
257.9965362
0
ARC
8
DEFAULT_255_1_388
10
21.6577998
20
108.2428643
40
0.4120404
50
227.745033
51
230.1538266
0
ARC
8
DEFAULT_255_1_388
10
21.6424528
20
108.2244253
40
0.3880742
50
189.2524335
51
227.5915299
0
ARC
8
DEFAULT_255_1_388
10
21.8136399
20
108.2612735
40
0.5630282
50
180.2665782
51
190.1525221
0
ARC
8
DEFAULT_255_1_388
10
21.8386127
20
108.2609254
40
0.4163296
50
179.566507
51
191.9954402
0
ARC
8
DEFAULT_255_1_388
10
21.7004816
20
108.2301151
40
0.274815
50
191.6974619
51
215.1403758
0
ARC
8
DEFAULT_255_1_388
10
21.6737208
20
108.2141689
40
0.2437647
50
215.6958251
51
224.8509274
0
ARC
8
DEFAULT_255_1_388
10
21.6799684
20
108.2231016
40
0.2545012
50
225.2846515
51
255.0110023
0
ARC
8
DEFAULT_255_1_388
10
21.716413
20
108.3484017
40
0.384974
50
254.5945979
51
267.9129427
0
ARC
8
DEFAULT_255_1_388
10
21.7247823
20
108.4701444
40
0.506956
50
267.4687563
51
270.0233681
0
ARC
8
DEFAULT_255_1_388
10
21.7281819
20
108.4041288
40
0.440952
50
269.5851384
51
281.1845308
0
ARC
8
DEFAULT_255_1_388
10
21.7595423
20
108.2519469
40
0.2855802
50
280.9345159
51
300.9740496
0
ARC
8
DEFAULT_255_1_388
10
21.7834603
20
108.2079128
40
0.2355257
50
301.4982546
51
315.1468616
0
ARC
8
DEFAULT_255_1_388
10
21.7672099
20
108.2212488
40
0.2564594
50
315.5952932
51
345.6679188
0
ARC
8
DEFAULT_255_1_388
10
21.6412656
20
108.2563235
40
0.3871766
50
345.2525685
51
358.6303941
0
ARC
8
DEFAULT_255_1_388
10
21.5269047
20
108.2630695
40
0.5016822
50
358.1723541
51
0.0116795
0
LINE
8
DEFAULT_255_1_388
10
23.3857406
20
109.1549898
11
23.3857406
21
109.0122267
0
LINE
8
DEFAULT_255_1_388
10
23.3857406
20
109.0122267
11
22.9628724
21
109.0122267
0
LINE
8
DEFAULT_255_1_388
10
22.9628724
20
109.0122267
11
22.9628724
21
107.8394
0
LINE
8
DEFAULT_255_1_388
10
22.9628724
20
107.8394
11
22.7902916
21
107.8394
0
LINE
8
DEFAULT_255_1_388
10
22.7902916
20
107.8394
11
22.7902916
21
109.0122267
0
LINE
8
DEFAULT_255_1_388
10
22.7902916
20
109.0122267
11
22.368327
21
109.0122267
0
LINE
8
DEFAULT_255_1_388
10
22.368327
20
109.0122267
11
22.368327
21
109.1549898
0
LINE
8
DEFAULT_255_1_388
10
22.368327
20
109.1549898
11
23.3857406
21
109.1549898
0
LINE
8
DEFAULT_255_1_388
10
24.3995399
20
107.9758382
11
24.3995399
21
107.8394
0
LINE
8
DEFAULT_255_1_388
10
24.3995399
20
107.8394
11
23.5375394
21
107.8394
0
LINE
8
DEFAULT_255_1_388
10
23.5375394
20
107.8394
11
23.5375394
21
107.9595741
0
LINE
8
DEFAULT_255_1_388
10
23.5375394
20
107.9595741
11
23.9929359
21
108.4655702
0
LINE
8
DEFAULT_255_1_388
10
23.679399
20
108.7673607
11
23.5122396
21
108.7673607
0
LINE
8
DEFAULT_255_1_388
10
24.0914244
20
108.358046
11
23.7390343
21
107.9758382
0
LINE
8
DEFAULT_255_1_388
10
23.7390343
20
107.9758382
11
24.3995399
21
107.9758382
0
ARC
8
DEFAULT_255_1_388
10
22.4753418
20
109.8075983
40
2.0258655
50
318.5132526
51
320.7829045
0
ARC
8
DEFAULT_255_1_388
10
23.0701375
20
109.3234929
40
1.2589638
50
320.7372878
51
323.9739031
0
ARC
8
DEFAULT_255_1_388
10
23.5110307
20
109.0040554
40
0.7145141
50
323.8962701
51
328.64194
0
ARC
8
DEFAULT_255_1_388
10
23.7412565
20
108.8620545
40
0.4440242
50
328.8294576
51
331.7891185
0
ARC
8
DEFAULT_255_1_388
10
23.8534885
20
108.8041374
40
0.3177517
50
331.4254512
51
352.9365785
0
ARC
8
DEFAULT_255_1_388
10
23.8687885
20
108.800705
40
0.3021496
50
353.2257659
51
0.0166158
0
ARC
8
DEFAULT_255_1_388
10
23.8924645
20
108.8032894
40
0.2784847
50
359.486299
51
15.9343185
0
ARC
8
DEFAULT_255_1_388
10
23.9494912
20
108.8186269
40
0.2194403
50
16.1712913
51
43.5286088
0
ARC
8
DEFAULT_255_1_388
10
23.9581857
20
108.8273191
40
0.2071504
50
43.4417391
51
83.1661095
0
ARC
8
DEFAULT_255_1_388
10
23.9431018
20
108.7444316
40
0.2912888
50
82.160179
51
90.1505708
0
ARC
8
DEFAULT_255_1_388
10
23.9395499
20
108.6840279
40
0.3517025
50
89.5460741
51
102.5418361
0
ARC
8
DEFAULT_255_1_388
10
23.9122219
20
108.7999933
40
0.2325748
50
102.1738499
51
129.206123
0
ARC
8
DEFAULT_255_1_388
10
23.9033673
20
108.8139664
40
0.2161591
50
129.72865
51
135.753947
0
ARC
8
DEFAULT_255_1_388
10
23.9170155
20
108.8030728
40
0.2335433
50
136.1757367
51
166.3673339
0
ARC
8
DEFAULT_255_1_388
10
24.0302843
20
108.7727148
40
0.3507873
50
165.9090694
51
178.8684636
0
ARC
8
DEFAULT_255_1_388
10
24.1278615
20
108.7674263
40
0.4484624
50
178.4391136
51
180.0083808
0
ARC
8
DEFAULT_255_1_388
10
23.9699316
20
108.7718197
40
0.4577138
50
163.2878482
51
180.5581842
0
ARC
8
DEFAULT_255_1_388
10
23.8797357
20
108.7966393
40
0.3641968
50
133.4540601
51
162.947111
0
ARC
8
DEFAULT_255_1_388
10
23.8998239
20
108.7752789
40
0.3935189
50
100.7869829
51
133.4382499
0
ARC
8
DEFAULT_255_1_388
10
23.9389484
20
108.6010399
40
0.5720313
50
89.660664
51
101.3702276
0
ARC
8
DEFAULT_255_1_388
10
23.9464093
20
108.6079263
40
0.5651495
50
78.2172678
51
90.412935
0
ARC
8
DEFAULT_255_1_388
10
23.9863559
20
108.7906511
40
0.378122
50
55.9269121
51
78.4888449
0
ARC
8
DEFAULT_255_1_388
10
24.0084274
20
108.8287187
40
0.3342379
50
47.929771
51
55.4049217
0
ARC
8
DEFAULT_255_1_388
10
24.0198804
20
108.8403618
40
0.3179217
50
4.334829
51
48.0560205
0
ARC
8
DEFAULT_255_1_388
10
23.8966606
20
108.8212487
40
0.442341
50
359.9251713
51
5.5971671
0
ARC
8
DEFAULT_255_1_388
10
23.9448761
20
108.8275728
40
0.3941854
50
337.8914027
51
358.9967534
0
ARC
8
DEFAULT_255_1_388
10
23.6396331
20
108.9453295
40
0.7213271
50
326.9132501
51
338.3508308
0
ARC
8
DEFAULT_255_1_388
10
23.1912443
20
109.2327105
40
1.2538973
50
319.6471833
51
327.0959558
0
ARC
8
DEFAULT_255_1_388
10
22.7599101
20
109.588505
40
1.8129975
50
317.2588228
51
319.9045804
0
LINE
8
DEFAULT_255_1_388
10
21.0244946
20
116.4753553
11
21.0244946
21
116.3922274
0
LINE
8
DEFAULT_255_1_388
10
19.9664206
20
116.3804811
11
19.9664206
21
116.4753553
0
LINE
8
DEFAULT_255_1_388
10
20.8519138
20
116.3795775
11
20.8519138
21
116.4771625
0
LINE
8
DEFAULT_255_1_388
10
20.1390014
20
116.4889088
11
20.1390014
21
116.3922274
0
ARC
8
DEFAULT_255_1_388
10
20.0522684
20
116.3877726
40
0.9722364
50
350.4878118
51
0.2625322
0
ARC
8
DEFAULT_255_1_388
10
20.3102644
20
116.3433994
40
0.7104556
50
336.0277991
51
350.5787241
0
ARC
8
DEFAULT_255_1_388
10
20.4615751
20
116.2750243
40
0.544417
50
319.887443
51
336.1331163
0
ARC
8
DEFAULT_255_1_388
10
20.5293563
20
116.2207733
40
0.4576311
50
302.4806296
51
319.6144102
0
ARC
8
DEFAULT_255_1_388
10
20.5164184
20
116.2457067
40
0.4856183
50
275.8196423
51
302.1885521
0
ARC
8
DEFAULT_255_1_388
10
20.4977046
20
116.3742466
40
0.6154183
50
269.9169897
51
276.339506
0
ARC
8
DEFAULT_255_1_388
10
20.4926646
20
116.297068
40
0.5382553
50
252.5221437
51
270.441579
0
ARC
8
DEFAULT_255_1_388
10
20.4764897
20
116.2364046
40
0.4755426
50
237.5349961
51
252.1858334
0
ARC
8
DEFAULT_255_1_388
10
20.4865273
20
116.249212
40
0.4917393
50
209.0632754
51
237.3492577
0
ARC
8
DEFAULT_255_1_388
10
20.5844599
20
116.3107104
40
0.6072464
50
205.118533
51
209.6465345
0
ARC
8
DEFAULT_255_1_388
10
20.6740601
20
116.3487174
40
0.7045164
50
188.7216633
51
204.8239753
0
ARC
8
DEFAULT_255_1_388
10
20.8987376
20
116.3865387
40
0.9323368
50
180.3722704
51
188.9253909
0
ARC
8
DEFAULT_255_1_388
10
20.8956938
20
116.4798416
40
0.929284
50
169.5253055
51
180.2766048
0
ARC
8
DEFAULT_255_1_388
10
20.6816737
20
116.5192024
40
0.7116745
50
155.8314601
51
169.5088611
0
ARC
8
DEFAULT_255_1_388
10
20.53762
20
116.5860312
40
0.5528904
50
139.6259579
51
156.0379072
0
ARC
8
DEFAULT_255_1_388
10
20.4712733
20
116.6394143
40
0.4677708
50
122.6414784
51
139.3431662
0
ARC
8
DEFAULT_255_1_388
10
20.4825988
20
116.6187787
40
0.4912586
50
93.0224537
51
122.4556091
0
ARC
8
DEFAULT_255_1_388
10
20.4947509
20
116.5101776
40
0.6003837
50
89.9756766
51
93.6340839
0
ARC
8
DEFAULT_255_1_388
10
20.4991107
20
116.5550879
40
0.5554884
50
73.7463329
51
90.4234008
0
ARC
8
DEFAULT_255_1_388
10
20.518858
20
116.6315772
40
0.4765353
50
57.663051
51
73.4516911
0
ARC
8
DEFAULT_255_1_388
10
20.5179618
20
116.6340108
40
0.4749629
50
29.1441355
51
57.4146687
0
ARC
8
DEFAULT_255_1_388
10
20.4127429
20
116.5683046
40
0.5988917
50
24.0985653
51
29.732054
0
ARC
8
DEFAULT_255_1_388
10
20.2965061
20
116.5201154
40
0.7246823
50
8.6654943
51
23.8241215
0
ARC
8
DEFAULT_255_1_388
10
20.0451479
20
116.4791037
40
0.9793537
50
359.7807044
51
8.8218476
0
ARC
8
DEFAULT_255_1_388
10
19.9161184
20
116.4819731
40
0.9358078
50
359.7054632
51
8.0359751
0
ARC
8
DEFAULT_255_1_388
10
20.2536235
20
116.5311252
40
0.5947474
50
7.8926278
51
20.2962188
0
ARC
8
DEFAULT_255_1_388
10
20.4367085
20
116.5986367
40
0.3996117
50
20.3231056
51
36.4990255
0
ARC
8
DEFAULT_255_1_388
10
20.5138383
20
116.6580399
40
0.3022818
50
36.1436715
51
85.6627846
0
ARC
8
DEFAULT_255_1_388
10
20.4955638
20
116.5410881
40
0.4203853
50
84.3845912
51
90.076054
0
ARC
8
DEFAULT_255_1_388
10
20.4907993
20
116.6153416
40
0.346157
50
89.3037228
51
109.9046209
0
ARC
8
DEFAULT_255_1_388
10
20.4803826
20
116.6583379
40
0.3022217
50
110.8229774
51
143.917961
0
ARC
8
DEFAULT_255_1_388
10
20.5854185
20
116.5781455
40
0.434348
50
143.5289166
51
163.2980252
0
ARC
8
DEFAULT_255_1_388
10
20.8000472
20
116.5106685
40
0.659321
50
163.0418884
51
174.3139873
0
ARC
8
DEFAULT_255_1_388
10
21.0705437
20
116.4794378
40
0.9315905
50
174.050934
51
179.4174954
0
ARC
8
DEFAULT_255_1_388
10
21.0137381
20
116.3875382
40
0.8747493
50
179.6928582
51
188.7908948
0
ARC
8
DEFAULT_255_1_388
10
20.7141181
20
116.3396086
40
0.5713262
50
188.6328449
51
202.5630732
0
ARC
8
DEFAULT_255_1_388
10
20.5730018
20
116.2829142
40
0.4192612
50
202.8078931
51
216.1195888
0
ARC
8
DEFAULT_255_1_388
10
20.4819535
20
116.2096479
40
0.3025752
50
215.0755613
51
264.6379773
0
ARC
8
DEFAULT_255_1_388
10
20.4962372
20
116.3031376
40
0.3970284
50
263.8464302
51
270.0830805
0
ARC
8
DEFAULT_255_1_388
10
20.5008917
20
116.2740808
40
0.3679937
50
269.3649295
51
287.5149684
0
ARC
8
DEFAULT_255_1_388
10
20.5209358
20
116.2012714
40
0.2925408
50
288.0629019
51
323.8115617
0
ARC
8
DEFAULT_255_1_388
10
20.4229334
20
116.2743754
40
0.4148018
50
323.6546541
51
342.6591359
0
ARC
8
DEFAULT_255_1_388
10
20.1943992
20
116.348728
40
0.6551163
50
342.4092446
51
353.6451501
0
ARC
8
DEFAULT_255_1_388
10
19.8758785
20
116.3883565
40
0.9760748
50
353.4027553
51
359.4846611
0
LINE
8
DEFAULT_255_1_388
10
22.0364868
20
117.0924898
11
22.2108747
21
117.0924898
0
LINE
8
DEFAULT_255_1_388
10
22.2108747
20
117.0924898
11
22.2108747
21
116.197961
0
LINE
8
DEFAULT_255_1_388
10
21.7789709
20
115.7606358
11
21.7328891
21
115.7588287
0
LINE
8
DEFAULT_255_1_388
10
21.2585178
20
116.1961539
11
21.2585178
21
117.0924898
0
LINE
8
DEFAULT_255_1_388
10
21.2585178
20
117.0924898
11
21.430195
21
117.0924898
0
LINE
8
DEFAULT_255_1_388
10
21.430195
20
117.0924898
11
21.430195
21
116.2015753
0
LINE
8
DEFAULT_255_1_388
10
22.0364868
20
116.2006717
11
22.0364868
21
117.0924898
0
ARC
8
DEFAULT_255_1_388
10
21.7211546
20
116.195727
40
0.4897252
50
343.0897723
51
0.2613727
0
ARC
8
DEFAULT_255_1_388
10
21.8143517
20
116.169727
40
0.3930016
50
315.3344451
51
342.7642569
0
ARC
8
DEFAULT_255_1_388
10
21.7892012
20
116.1958085
40
0.4292244
50
284.6605441
51
315.2183439
0
ARC
8
DEFAULT_255_1_388
10
21.7379792
20
116.3697508
40
0.6104926
50
273.8500371
51
285.1796441
0
ARC
8
DEFAULT_255_1_388
10
21.7280857
20
116.4081762
40
0.6493653
50
257.6315393
51
270.4238259
0
ARC
8
DEFAULT_255_1_388
10
21.680294
20
116.2032915
40
0.4390079
50
230.6086859
51
257.9965362
0
ARC
8
DEFAULT_255_1_388
10
21.6656998
20
116.1803643
40
0.4120404
50
227.745033
51
230.1538266
0
ARC
8
DEFAULT_255_1_388
10
21.6503528
20
116.1619253
40
0.3880742
50
189.2524335
51
227.5915299
0
ARC
8
DEFAULT_255_1_388
10
21.8215399
20
116.1987735
40
0.5630282
50
180.2665782
51
190.1525221
0
ARC
8
DEFAULT_255_1_388
10
21.8465127
20
116.1984254
40
0.4163296
50
179.566507
51
191.9954402
0
ARC
8
DEFAULT_255_1_388
10
21.7083816
20
116.1676151
40
0.274815
50
191.6974619
51
215.1403758
0
ARC
8
DEFAULT_255_1_388
10
21.6816208
20
116.1516689
40
0.2437647
50
215.6958251
51
224.8509274
0
ARC
8
DEFAULT_255_1_388
10
21.6878684
20
116.1606016
40
0.2545012
50
225.2846515
51
255.0110023
0
ARC
8
DEFAULT_255_1_388
10
21.724313
20
116.2859017
40
0.384974
50
254.5945979
51
267.9129427
0
ARC
8
DEFAULT_255_1_388
10
21.7326823
20
116.4076444
40
0.506956
50
267.4687563
51
270.0233681
0
ARC
8
DEFAULT_255_1_388
10
21.7360819
20
116.3416288
40
0.440952
50
269.5851384
51
281.1845308
0
ARC
8
DEFAULT_255_1_388
10
21.7674423
20
116.1894469
40
0.2855802
50
280.9345159
51
300.9740496
0
ARC
8
DEFAULT_255_1_388
10
21.7913603
20
116.1454128
40
0.2355257
50
301.4982546
51
315.1468616
0
ARC
8
DEFAULT_255_1_388
10
21.7751099
20
116.1587488
40
0.2564594
50
315.5952932
51
345.6679188
0
ARC
8
DEFAULT_255_1_388
10
21.6491656
20
116.1938235
40
0.3871766
50
345.2525685
51
358.6303941
0
ARC
8
DEFAULT_255_1_388
10
21.5348047
20
116.2005695
40
0.5016822
50
358.1723541
51
0.0116795
0
LINE
8
DEFAULT_255_1_388
10
23.3936406
20
117.0924898
11
23.3936406
21
116.9497267
0
LINE
8
DEFAULT_255_1_388
10
23.3936406
20
116.9497267
11
22.9707724
21
116.9497267
0
LINE
8
DEFAULT_255_1_388
10
22.9707724
20
116.9497267
11
22.9707724
21
115.7769
0
LINE
8
DEFAULT_255_1_388
10
22.9707724
20
115.7769
11
22.7981916
21
115.7769
0
LINE
8
DEFAULT_255_1_388
10
22.7981916
20
115.7769
11
22.7981916
21
116.9497267
0
LINE
8
DEFAULT_255_1_388
10
22.7981916
20
116.9497267
11
22.376227
21
116.9497267
0
LINE
8
DEFAULT_255_1_388
10
22.376227
20
116.9497267
11
22.376227
21
117.0924898
0
LINE
8
DEFAULT_255_1_388
10
22.376227
20
117.0924898
11
23.3936406
21
117.0924898
0
LINE
8
DEFAULT_255_1_388
10
24.0948066
20
117.0988148
11
24.0948066
21
115.7769
0
LINE
8
DEFAULT_255_1_388
10
24.0948066
20
115.7769
11
23.9267436
21
115.7769
0
LINE
8
DEFAULT_255_1_388
10
23.9267436
20
115.7769
11
23.9267436
21
116.890995
0
LINE
8
DEFAULT_255_1_388
10
23.9267436
20
116.890995
11
23.5897141
21
116.7672066
0
LINE
8
DEFAULT_255_1_388
10
23.5897141
20
116.7672066
11
23.5897141
21
116.9190055
0
LINE
8
DEFAULT_255_1_388
10
23.5897141
20
116.9190055
11
24.0686032
21
117.0988148
0
LINE
8
DEFAULT_255_1_388
10
24.0686032
20
117.0988148
11
24.0948066
21
117.0988148
0
LINE
8
DEFAULT_255_1_388
10
21.0165946
20
124.4128553
11
21.0165946
21
124.3297274
0
LINE
8
DEFAULT_255_1_388
10
19.9585206
20
124.3179811
11
19.9585206
21
124.4128553
0
LINE
8
DEFAULT_255_1_388
10
20.8440138
20
124.3170775
11
20.8440138
21
124.4146625
0
LINE
8
DEFAULT_255_1_388
10
20.1311014
20
124.4264088
11
20.1311014
21
124.3297274
0
ARC
8
DEFAULT_255_1_388
10
20.0443684
20
124.3252726
40
0.9722364
50
350.4878118
51
0.2625322
0
ARC
8
DEFAULT_255_1_388
10
20.3023644
20
124.2808994
40
0.7104556
50
336.0277991
51
350.5787241
0
ARC
8
DEFAULT_255_1_388
10
20.4536751
20
124.2125243
40
0.544417
50
319.887443
51
336.1331163
0
ARC
8
DEFAULT_255_1_388
10
20.5214563
20
124.1582733
40
0.4576311
50
302.4806296
51
319.6144102
0
ARC
8
DEFAULT_255_1_388
10
20.5085184
20
124.1832067
40
0.4856183
50
275.8196423
51
302.1885521
0
ARC
8
DEFAULT_255_1_388
10
20.4898046
20
124.3117466
40
0.6154183
50
269.9169897
51
276.339506
0
ARC
8
DEFAULT_255_1_388
10
20.4847646
20
124.234568
40
0.5382553
50
252.5221437
51
270.441579
0
ARC
8
DEFAULT_255_1_388
10
20.4685897
20
124.1739046
40
0.4755426
50
237.5349961
51
252.1858334
0
ARC
8
DEFAULT_255_1_388
10
20.4786273
20
124.186712
40
0.4917393
50
209.0632754
51
237.3492577
0
ARC
8
DEFAULT_255_1_388
10
20.5765599
20
124.2482104
40
0.6072464
50
205.118533
51
209.6465345
0
ARC
8
DEFAULT_255_1_388
10
20.6661601
20
124.2862174
40
0.7045164
50
188.7216633
51
204.8239753
0
ARC
8
DEFAULT_255_1_388
10
20.8908376
20
124.3240387
40
0.9323368
50
180.3722704
51
188.9253909
0
ARC
8
DEFAULT_255_1_388
10
20.8877938
20
124.4173416
40
0.929284
50
169.5253055
51
180.2766048
0
ARC
8
DEFAULT_255_1_388
10
20.6737737
20
124.4567024
40
0.7116745
50
155.8314601
51
169.5088611
0
ARC
8
DEFAULT_255_1_388
10
20.52972
20
124.5235312
40
0.5528904
50
139.6259579
51
156.0379072
0
ARC
8
DEFAULT_255_1_388
10
20.4633733
20
124.5769143
40
0.4677708
50
122.6414784
51
139.3431662
0
ARC
8
DEFAULT_255_1_388
10
20.4746988
20
124.5562787
40
0.4912586
50
93.0224537
51
122.4556091
0
ARC
8
DEFAULT_255_1_388
10
20.4868509
20
124.4476776
40
0.6003837
50
89.9756766
51
93.6340839
0
ARC
8
DEFAULT_255_1_388
10
20.4912107
20
124.4925879
40
0.5554884
50
73.7463329
51
90.4234008
0
ARC
8
DEFAULT_255_1_388
10
20.510958
20
124.5690772
40
0.4765353
50
57.663051
51
73.4516911
0
ARC
8
DEFAULT_255_1_388
10
20.5100618
20
124.5715108
40
0.4749629
50
29.1441355
51
57.4146687
0
ARC
8
DEFAULT_255_1_388
10
20.4048429
20
124.5058046
40
0.5988917
50
24.0985653
51
29.732054
0
ARC
8
DEFAULT_255_1_388
10
20.2886061
20
124.4576154
40
0.7246823
50
8.6654943
51
23.8241215
0
ARC
8
DEFAULT_255_1_388
10
20.0372479
20
124.4166037
40
0.9793537
50
359.7807044
51
8.8218476
0
ARC
8
DEFAULT_255_1_388
10
19.9082184
20
124.4194731
40
0.9358078
50
359.7054632
51
8.0359751
0
ARC
8
DEFAULT_255_1_388
10
20.2457235
20
124.4686252
40
0.5947474
50
7.8926278
51
20.2962188
0
ARC
8
DEFAULT_255_1_388
10
20.4288085
20
124.5361367
40
0.3996117
50
20.3231056
51
36.4990255
0
ARC
8
DEFAULT_255_1_388
10
20.5059383
20
124.5955399
40
0.3022818
50
36.1436715
51
85.6627846
0
ARC
8
DEFAULT_255_1_388
10
20.4876638
20
124.4785881
40
0.4203853
50
84.3845912
51
90.076054
0
ARC
8
DEFAULT_255_1_388
10
20.4828993
20
124.5528416
40
0.346157
50
89.3037228
51
109.9046209
0
ARC
8
DEFAULT_255_1_388
10
20.4724826
20
124.5958379
40
0.3022217
50
110.8229774
51
143.917961
0
ARC
8
DEFAULT_255_1_388
10
20.5775185
20
124.5156455
40
0.434348
50
143.5289166
51
163.2980252
0
ARC
8
DEFAULT_255_1_388
10
20.7921472
20
124.4481685
40
0.659321
50
163.0418884
51
174.3139873
0
ARC
8
DEFAULT_255_1_388
10
21.0626437
20
124.4169378
40
0.9315905
50
174.050934
51
179.4174954
0
ARC
8
DEFAULT_255_1_388
10
21.0058381
20
124.3250382
40
0.8747493
50
179.6928582
51
188.7908948
0
ARC
8
DEFAULT_255_1_388
10
20.7062181
20
124.2771086
40
0.5713262
50
188.6328449
51
202.5630732
0
ARC
8
DEFAULT_255_1_388
10
20.5651018
20
124.2204142
40
0.4192612
50
202.8078931
51
216.1195888
0
ARC
8
DEFAULT_255_1_388
10
20.4740535
20
124.1471479
40
0.3025752
50
215.0755613
51
264.6379773
0
ARC
8
DEFAULT_255_1_388
10
20.4883372
20
124.2406376
40
0.3970284
50
263.8464302
51
270.0830805
0
ARC
8
DEFAULT_255_1_388
10
20.4929917
20
124.2115808
40
0.3679937
50
269.3649295
51
287.5149684
0
ARC
8
DEFAULT_255_1_388
10
20.5130358
20
124.1387714
40
0.2925408
50
288.0629019
51
323.8115617
0
ARC
8
DEFAULT_255_1_388
10
20.4150334
20
124.2118754
40
0.4148018
50
323.6546541
51
342.6591359
0
ARC
8
DEFAULT_255_1_388
10
20.1864992
20
124.286228
40
0.6551163
50
342.4092446
51
353.6451501
0
ARC
8
DEFAULT_255_1_388
10
19.8679785
20
124.3258565
40
0.9760748
50
353.4027553
51
359.4846611
0
LINE
8
DEFAULT_255_1_388
10
22.0285868
20
125.0299898
11
22.2029747
21
125.0299898
0
LINE
8
DEFAULT_255_1_388
10
22.2029747
20
125.0299898
11
22.2029747
21
124.135461
0
LINE
8
DEFAULT_255_1_388
10
21.7710709
20
123.6981358
11
21.7249891
21
123.6963287
0
LINE
8
DEFAULT_255_1_388
10
21.2506178
20
124.1336539
11
21.2506178
21
125.0299898
0
LINE
8
DEFAULT_255_1_388
10
21.2506178
20
125.0299898
11
21.422295
21
125.0299898
0
LINE
8
DEFAULT_255_1_388
10
21.422295
20
125.0299898
11
21.422295
21
124.1390753
0
LINE
8
DEFAULT_255_1_388
10
22.0285868
20
124.1381717
11
22.0285868
21
125.0299898
0
ARC
8
DEFAULT_255_1_388
10
21.7132546
20
124.133227
40
0.4897252
50
343.0897723
51
0.2613727
0
ARC
8
DEFAULT_255_1_388
10
21.8064517
20
124.107227
40
0.3930016
50
315.3344451
51
342.7642569
0
ARC
8
DEFAULT_255_1_388
10
21.7813012
20
124.1333085
40
0.4292244
50
284.6605441
51
315.2183439
0
ARC
8
DEFAULT_255_1_388
10
21.7300792
20
124.3072508
40
0.6104926
50
273.8500371
51
285.1796441
0
ARC
8
DEFAULT_255_1_388
10
21.7201857
20
124.3456762
40
0.6493653
50
257.6315393
51
270.4238259
0
ARC
8
DEFAULT_255_1_388
10
21.672394
20
124.1407915
40
0.4390079
50
230.6086859
51
257.9965362
0
ARC
8
DEFAULT_255_1_388
10
21.6577998
20
124.1178643
40
0.4120404
50
227.745033
51
230.1538266
0
ARC
8
DEFAULT_255_1_388
10
21.6424528
20
124.0994253
40
0.3880742
50
189.2524335
51
227.5915299
0
ARC
8
DEFAULT_255_1_388
10
21.8136399
20
124.1362735
40
0.5630282
50
180.2665782
51
190.1525221
0
ARC
8
DEFAULT_255_1_388
10
21.8386127
20
124.1359254
40
0.4163296
50
179.566507
51
191.9954402
0
ARC
8
DEFAULT_255_1_388
10
21.7004816
20
124.1051151
40
0.274815
50
191.6974619
51
215.1403758
0
ARC
8
DEFAULT_255_1_388
10
21.6737208
20
124.0891689
40
0.2437647
50
215.6958251
51
224.8509274
0
ARC
8
DEFAULT_255_1_388
10
21.6799684
20
124.0981016
40
0.2545012
50
225.2846515
51
255.0110023
0
ARC
8
DEFAULT_255_1_388
10
21.716413
20
124.2234017
40
0.384974
50
254.5945979
51
267.9129427
0
ARC
8
DEFAULT_255_1_388
10
21.7247823
20
124.3451444
40
0.506956
50
267.4687563
51
270.0233681
0
ARC
8
DEFAULT_255_1_388
10
21.7281819
20
124.2791288
40
0.440952
50
269.5851384
51
281.1845308
0
ARC
8
DEFAULT_255_1_388
10
21.7595423
20
124.1269469
40
0.2855802
50
280.9345159
51
300.9740496
0
ARC
8
DEFAULT_255_1_388
10
21.7834603
20
124.0829128
40
0.2355257
50
301.4982546
51
315.1468616
0
ARC
8
DEFAULT_255_1_388
10
21.7672099
20
124.0962488
40
0.2564594
50
315.5952932
51
345.6679188
0
ARC
8
DEFAULT_255_1_388
10
21.6412656
20
124.1313235
40
0.3871766
50
345.2525685
51
358.6303941
0
ARC
8
DEFAULT_255_1_388
10
21.5269047
20
124.1380695
40
0.5016822
50
358.1723541
51
0.0116795
0
LINE
8
DEFAULT_255_1_388
10
23.3857406
20
125.0299898
11
23.3857406
21
124.8872267
0
LINE
8
DEFAULT_255_1_388
10
23.3857406
20
124.8872267
11
22.9628724
21
124.8872267
0
LINE
8
DEFAULT_255_1_388
10
22.9628724
20
124.8872267
11
22.9628724
21
123.7144
0
LINE
8
DEFAULT_255_1_388
10
22.9628724
20
123.7144
11
22.7902916
21
123.7144
0
LINE
8
DEFAULT_255_1_388
10
22.7902916
20
123.7144
11
22.7902916
21
124.8872267
0
LINE
8
DEFAULT_255_1_388
10
22.7902916
20
124.8872267
11
22.368327
21
124.8872267
0
LINE
8
DEFAULT_255_1_388
10
22.368327
20
124.8872267
11
22.368327
21
125.0299898
0
LINE
8
DEFAULT_255_1_388
10
22.368327
20
125.0299898
11
23.3857406
21
125.0299898
0
LINE
8
DEFAULT_255_1_388
10
24.3624938
20
124.492369
11
24.3624938
21
124.2755135
0
LINE
8
DEFAULT_255_1_388
10
23.532118
20
124.2529244
11
23.532118
21
124.4761048
0
LINE
8
DEFAULT_255_1_388
10
24.1953343
20
124.2303353
11
24.1953343
21
124.5041153
0
LINE
8
DEFAULT_255_1_388
10
23.6992774
20
124.5167652
11
23.6992774
21
124.2493102
0
ARC
8
DEFAULT_255_1_388
10
22.9847271
20
124.2700118
40
1.3777776
50
353.8440855
51
0.2287917
0
ARC
8
DEFAULT_255_1_388
10
23.5066289
20
124.2117414
40
0.852639
50
344.4934746
51
353.9763743
0
ARC
8
DEFAULT_255_1_388
10
23.8433096
20
124.1160191
40
0.5026273
50
329.2803599
51
344.7473406
0
ARC
8
DEFAULT_255_1_388
10
23.9548592
20
124.0548038
40
0.3754848
50
324.9361395
51
328.6153007
0
ARC
8
DEFAULT_255_1_388
10
23.9974242
20
124.0250586
40
0.3235566
50
280.5801797
51
324.9173226
0
ARC
8
DEFAULT_255_1_388
10
23.952287
20
124.2130236
40
0.5167077
50
269.5979457
51
281.6732777
0
ARC
8
DEFAULT_255_1_388
10
23.9441774
20
124.1995113
40
0.5032026
50
256.6228565
51
270.5105488
0
ARC
8
DEFAULT_255_1_388
10
23.8989516
20
124.0253345
40
0.3233092
50
215.8618351
51
257.2787793
0
ARC
8
DEFAULT_255_1_388
10
24.0138223
20
124.1024106
40
0.4615831
50
197.9695203
51
215.2622745
0
ARC
8
DEFAULT_255_1_388
10
24.2933899
20
124.1967641
40
0.7566307
50
187.8816486
51
198.2346584
0
ARC
8
DEFAULT_255_1_388
10
24.7387137
20
124.2610453
40
1.2065653
50
180.8977266
51
188.0054894
0
ARC
8
DEFAULT_255_1_388
10
25.0437351
20
124.27254
40
1.5117443
50
180.7434591
51
181.152202
0
ARC
8
DEFAULT_255_1_388
10
24.8762347
20
124.4815371
40
1.3441277
50
173.7674302
51
180.2315596
0
ARC
8
DEFAULT_255_1_388
10
24.3680216
20
124.5389779
40
0.8326847
50
164.3058537
51
173.9000553
0
ARC
8
DEFAULT_255_1_388
10
24.0404216
20
124.6333652
40
0.4917711
50
148.7922028
51
164.5682288
0
ARC
8
DEFAULT_255_1_388
10
23.9334953
20
124.6930457
40
0.3694204
50
144.5883979
51
148.1161588
0
ARC
8
DEFAULT_255_1_388
10
23.8947699
20
124.7200667
40
0.322202
50
101.6440149
51
144.5142619
0
ARC
8
DEFAULT_255_1_388
10
23.9425891
20
124.5300337
40
0.5180451
50
89.528284
51
102.5820197
0
ARC
8
DEFAULT_255_1_388
10
23.9514883
20
124.5256376
40
0.5224441
50
77.0437914
51
90.508231
0
ARC
8
DEFAULT_255_1_388
10
23.9967136
20
124.7104272
40
0.3322297
50
48.2777708
51
77.4996087
0
ARC
8
DEFAULT_255_1_388
10
24.0048876
20
124.7249557
40
0.315966
50
36.3141586
51
47.6307332
0
ARC
8
DEFAULT_255_1_388
10
23.9071599
20
124.6591159
40
0.4337313
50
18.2931065
51
35.6770203
0
ARC
8
DEFAULT_255_1_388
10
23.6210439
20
124.5609107
40
0.7362203
50
8.0246996
51
18.5605636
0
ARC
8
DEFAULT_255_1_388
10
23.1526795
20
124.4917432
40
1.2096583
50
1.127539
51
8.1718423
0
ARC
8
DEFAULT_255_1_388
10
22.7877928
20
124.4774374
40
1.5747719
50
0.5432713
51
1.38669
0
ARC
8
DEFAULT_255_1_388
10
22.9935307
20
124.5081163
40
1.2018103
50
359.8092569
51
4.9408001
0
ARC
8
DEFAULT_255_1_388
10
23.4671888
20
124.55039
40
0.7262727
50
4.8364937
51
12.2906017
0
ARC
8
DEFAULT_255_1_388
10
23.7771353
20
124.6194485
40
0.4087324
50
12.0806994
51
23.8171225
0
ARC
8
DEFAULT_255_1_388
10
23.9091749
20
124.6753508
40
0.2653719
50
24.2874621
51
31.3934353
0
ARC
8
DEFAULT_255_1_388
10
23.9682185
20
124.7139822
40
0.1948607
50
30.7407708
51
82.4658033
0
ARC
8
DEFAULT_255_1_388
10
23.9479846
20
124.6146017
40
0.2961198
50
81.1057101
51
90.2187368
0
ARC
8
DEFAULT_255_1_388
10
23.9439658
20
124.6436421
40
0.2670929
50
89.380395
51
105.6763916
0
ARC
8
DEFAULT_255_1_388
10
23.923338
20
124.718632
40
0.1893189
50
105.7980655
51
149.7387869
0
ARC
8
DEFAULT_255_1_388
10
24.043052
20
124.6466719
40
0.3289892
50
149.4208441
51
163.628295
0
ARC
8
DEFAULT_255_1_388
10
24.278275
20
124.5749345
40
0.5749004
50
163.3764549
51
172.141138
0
ARC
8
DEFAULT_255_1_388
10
24.6495471
20
124.5217582
40
0.9499585
50
172.0258462
51
178.0705453
0
ARC
8
DEFAULT_255_1_388
10
24.9917024
20
124.5055682
40
1.2924734
50
177.8639301
51
179.5036263
0
ARC
8
DEFAULT_255_1_388
10
24.8698042
20
124.2452151
40
1.170534
50
179.7995545
51
185.246089
0
ARC
8
DEFAULT_255_1_388
10
24.4149636
20
124.2021404
40
0.7136613
50
185.1411911
51
193.0082205
0
ARC
8
DEFAULT_255_1_388
10
24.1175896
20
124.1318441
40
0.4080987
50
192.7897338
51
205.2507384
0
ARC
8
DEFAULT_255_1_388
10
23.9998106
20
124.0792538
40
0.2791522
50
205.8001921
51
211.2545876
0
ARC
8
DEFAULT_255_1_388
10
23.9409645
20
124.0398132
40
0.2084074
50
210.3789935
51
238.4007996
0
ARC
8
DEFAULT_255_1_388
10
23.9387731
20
124.0450786
40
0.2117943
50
239.6521916
51
265.9793852
0
ARC
8
DEFAULT_255_1_388
10
23.948358
20
124.1207358
40
0.2879689
50
265.1324455
51
270.0603288
0
ARC
8
DEFAULT_255_1_388
10
23.9515957
20
124.0842418
40
0.2514919
50
269.3314378
51
287.2180039
0
ARC
8
DEFAULT_255_1_388
10
23.9671039
20
124.0276291
40
0.1928357
50
287.7957942
51
329.0808983
0
ARC
8
DEFAULT_255_1_388
10
23.8593797
20
124.0948651
40
0.319808
50
328.6635261
51
343.3325043
0
ARC
8
DEFAULT_255_1_388
10
23.6149255
20
124.1710195
40
0.5758408
50
343.0498092
51
351.9392499
0
ARC
8
DEFAULT_255_1_388
10
23.2248577
20
124.2285205
40
0.9701202
50
351.8071632
51
357.7957897
0
ARC
8
DEFAULT_255_1_388
10
22.8614054
20
124.2473724
40
1.3340376
50
357.5870923
51
359.2682493
0
ENDSEC
0
EOF