0
SECTION
2
HEADER
9
$MEASUREMENT
70
1
0
ENDSEC
0
SECTION
2
TABLES
0
TABLE
2
LTYPE
0
LTYPE
72
65
70
64
2
CONTINUOUS
3
______
73
0
40
0
0
ENDTAB
0
TABLE
2
LAYER
0
LAYER
2
DEFAULT_255_2_778
70
0
62
255
6
CONTINUOUS
0
ENDTAB
0
ENDSEC
0
SECTION
2
ENTITIES
0
ARC
8
DEFAULT_255_2_778
10
15.9809628
20
27.9625077
40
1.9974677
50
180.001124
51
219.9500541
0
LINE
8
DEFAULT_255_2_778
10
13.9834951
20
27.9624685
11
13.9834951
21
27.9628946
0
ARC
8
DEFAULT_255_2_778
10
5.3123635
20
48.0920806
40
1.9976683
50
180.003215
51
219.9479608
0
LINE
8
DEFAULT_255_2_778
10
3.3146951
20
48.0919685
11
3.3146951
21
48.0923946
0
LINE
8
DEFAULT_255_2_778
10
28.8112951
20
130.8912946
11
28.7855951
21
130.8656946
0
LINE
8
DEFAULT_255_2_778
10
28.7855951
20
130.8656946
11
28.7855951
21
138.0350946
0
LINE
8
DEFAULT_255_2_778
10
28.7855951
20
138.0350946
11
28.8744951
21
143.1332946
0
LINE
8
DEFAULT_255_2_778
10
28.8744951
20
143.1332946
11
30.7778951
21
145.0401946
0
LINE
8
DEFAULT_255_2_778
10
30.7778951
20
145.0401946
11
56.2284951
21
145.0401946
0
LINE
8
DEFAULT_255_2_778
10
56.2284951
20
145.0401946
11
56.2284951
21
143.4470946
0
LINE
8
DEFAULT_255_2_778
10
56.2284951
20
143.4470946
11
54.3821951
21
141.5973946
0
LINE
8
DEFAULT_255_2_778
10
54.3821951
20
141.5973946
11
54.3821951
21
141.3478946
0
LINE
8
DEFAULT_255_2_778
10
54.3821951
20
141.3478946
11
48.8073951
21
141.3478946
0
LINE
8
DEFAULT_255_2_778
10
48.8073951
20
141.3478946
11
48.8073951
21
141.5973946
0
LINE
8
DEFAULT_255_2_778
10
48.8073951
20
141.5973946
11
54.3821951
21
141.5973946
0
LINE
8
DEFAULT_255_2_778
10
54.3821951
20
141.5973946
11
54.5583951
21
141.4209946
0
LINE
8
DEFAULT_255_2_778
10
54.5583951
20
141.4209946
11
56.4046951
21
143.2706946
0
LINE
8
DEFAULT_255_2_778
10
56.4046951
20
143.2706946
11
56.2284951
21
143.4470946
0
LINE
8
DEFAULT_255_2_778
10
56.2284951
20
143.4470946
11
56.4773951
21
143.4470946
0
LINE
8
DEFAULT_255_2_778
10
56.4773951
20
143.4470946
11
56.4773951
21
144.7906946
0
LINE
8
DEFAULT_255_2_778
10
56.4773951
20
144.7906946
11
30.8807951
21
144.7906946
0
LINE
8
DEFAULT_255_2_778
10
30.8807951
20
144.7906946
11
29.1215951
21
143.0279946
0
LINE
8
DEFAULT_255_2_778
10
29.1215951
20
143.0279946
11
28.9101951
21
130.8915946
0
LINE
8
DEFAULT_255_2_778
10
28.9101951
20
130.8915946
11
31.1739951
21
130.8915946
0
LINE
8
DEFAULT_255_2_778
10
28.7855951
20
0.3890946
11
56.4773951
21
0.3890946
0
LINE
8
DEFAULT_255_2_778
10
56.4773951
20
0.3890946
11
56.4773951
21
1.7328946
0
LINE
8
DEFAULT_255_2_778
10
56.4773951
20
1.7328946
11
56.2284951
21
1.7328946
0
LINE
8
DEFAULT_255_2_778
10
56.2284951
20
1.7328946
11
54.3821951
21
3.5825946
0
LINE
8
DEFAULT_255_2_778
10
54.3821951
20
3.5825946
11
48.8073951
21
3.5825946
0
LINE
8
DEFAULT_255_2_778
10
48.8073951
20
3.5825946
11
48.8073951
21
3.8320946
0
LINE
8
DEFAULT_255_2_778
10
48.8073951
20
3.8320946
11
54.3821951
21
3.8320946
0
LINE
8
DEFAULT_255_2_778
10
54.3821951
20
3.8320946
11
54.3821951
21
3.5825946
0
LINE
8
DEFAULT_255_2_778
10
54.3821951
20
3.5825946
11
54.5583951
21
3.7590946
0
LINE
8
DEFAULT_255_2_778
10
54.5583951
20
3.7590946
11
56.4046951
21
1.9093946
0
LINE
8
DEFAULT_255_2_778
10
56.4046951
20
1.9093946
11
56.2284951
21
1.7328946
0
LINE
8
DEFAULT_255_2_778
10
56.2284951
20
1.7328946
11
56.2284951
21
0.1397946
0
LINE
8
DEFAULT_255_2_778
10
56.2284951
20
0.1397946
11
28.7855951
21
0.1397946
0
LINE
8
DEFAULT_255_2_778
10
28.7855951
20
0.1397946
11
28.7855951
21
9.5637946
0
LINE
8
DEFAULT_255_2_778
10
28.7855951
20
9.5637946
11
14.4496951
21
26.6798946
0
LINE
8
DEFAULT_255_2_778
10
13.9834951
20
27.9628946
11
13.9834951
21
34.6282946
0
LINE
8
DEFAULT_255_2_778
10
13.9834951
20
34.6282946
11
3.7808951
21
46.8093946
0
LINE
8
DEFAULT_255_2_778
10
3.3146951
20
48.0923946
11
3.3146951
21
77.5978946
0
LINE
8
DEFAULT_255_2_778
10
3.3146951
20
77.5978946
11
5.4032951
21
77.6343946
0
LINE
8
DEFAULT_255_2_778
10
5.4032951
20
77.6343946
11
5.4032951
21
110.4919946
0
LINE
8
DEFAULT_255_2_778
10
56.4773951
20
10.7307946
11
56.4773951
21
10.7307946
0
LINE
8
DEFAULT_255_2_778
10
56.4773951
20
10.7307946
11
56.4773951
21
10.7307946
0
LINE
8
DEFAULT_255_2_778
10
56.4773951
20
10.7307946
11
56.4773951
21
7.7274946
0
LINE
8
DEFAULT_255_2_778
10
56.4773951
20
7.7274946
11
56.2284951
21
7.7274946
0
LINE
8
DEFAULT_255_2_778
10
56.2284951
20
7.7274946
11
56.4046951
21
7.5510946
0
LINE
8
DEFAULT_255_2_778
10
56.4046951
20
7.5510946
11
54.5583951
21
5.7013946
0
LINE
8
DEFAULT_255_2_778
10
54.5583951
20
5.7013946
11
54.3821951
21
5.8777946
0
LINE
8
DEFAULT_255_2_778
10
54.3821951
20
5.8777946
11
48.8073951
21
5.8777946
0
LINE
8
DEFAULT_255_2_778
10
48.8073951
20
5.8777946
11
48.8073951
21
5.6282946
0
LINE
8
DEFAULT_255_2_778
10
48.8073951
20
5.6282946
11
54.3821951
21
5.6282946
0
LINE
8
DEFAULT_255_2_778
10
54.3821951
20
5.6282946
11
54.3821951
21
5.8777946
0
LINE
8
DEFAULT_255_2_778
10
54.3821951
20
5.8777946
11
56.2284951
21
7.7274946
0
LINE
8
DEFAULT_255_2_778
10
56.2284951
20
7.7274946
11
56.2284951
21
10.9802946
0
LINE
8
DEFAULT_255_2_778
10
56.2284951
20
10.9802946
11
118.2234951
21
10.9802946
0
LINE
8
DEFAULT_255_2_778
10
118.2234951
20
10.9802946
11
118.2234951
21
19.6538946
0
LINE
8
DEFAULT_255_2_778
10
131.6707191
20
10.7308429
11
131.6710947
21
10.7308427
0
ARC
8
DEFAULT_255_2_778
10
131.6710252
20
10.9794918
40
0.2486492
50
270.0160223
51
315.0562229
0
ARC
8
DEFAULT_255_2_778
10
131.6701294
20
10.9799258
40
0.2495899
50
315.1309638
51
0.0088788
0
ARC
8
DEFAULT_255_2_778
10
131.7406951
20
10.9800591
40
0.1790243
50
359.969718
51
0.0908507
0
LINE
8
DEFAULT_255_2_778
10
1.6912191
20
142.4261429
11
28.0882191
21
142.4261429
0
LINE
8
DEFAULT_255_2_778
10
28.0882191
20
142.4261429
11
28.0882191
21
110.4920429
0
LINE
8
DEFAULT_255_2_778
10
28.0882191
20
110.4920429
11
0.1971191
21
110.4920429
0
LINE
8
DEFAULT_255_2_778
10
0.1971191
20
110.4920429
11
0.1971191
21
140.9291429
0
LINE
8
DEFAULT_255_2_778
10
0.1971191
20
140.9291429
11
1.6912191
21
142.4261429
0
LINE
8
DEFAULT_255_2_778
10
1.6912191
20
142.4261429
11
1.6912191
21
110.4920429
0
LINE
8
DEFAULT_255_2_778
10
56.4774191
20
134.4486429
11
56.4774191
21
134.4486429
0
LINE
8
DEFAULT_255_2_778
10
56.4774191
20
134.4486429
11
56.4774191
21
134.4486429
0
LINE
8
DEFAULT_255_2_778
10
56.4774191
20
134.4486429
11
56.4774191
21
137.4522429
0
LINE
8
DEFAULT_255_2_778
10
56.4774191
20
137.4522429
11
56.2284191
21
137.4522429
0
LINE
8
DEFAULT_255_2_778
10
56.2284191
20
137.4522429
11
54.3822191
21
139.3019429
0
LINE
8
DEFAULT_255_2_778
10
54.3822191
20
139.3019429
11
48.8074191
21
139.3019429
0
LINE
8
DEFAULT_255_2_778
10
48.8074191
20
139.3019429
11
48.8074191
21
139.5514429
0
LINE
8
DEFAULT_255_2_778
10
48.8074191
20
139.5514429
11
54.3822191
21
139.5514429
0
LINE
8
DEFAULT_255_2_778
10
54.3822191
20
139.5514429
11
54.3822191
21
139.3019429
0
LINE
8
DEFAULT_255_2_778
10
54.3822191
20
139.3019429
11
54.5584191
21
139.4784429
0
LINE
8
DEFAULT_255_2_778
10
54.5584191
20
139.4784429
11
56.4047191
21
137.6287429
0
LINE
8
DEFAULT_255_2_778
10
56.4047191
20
137.6287429
11
56.2284191
21
137.4522429
0
LINE
8
DEFAULT_255_2_778
10
56.2284191
20
137.4522429
11
56.2284191
21
134.1994429
0
LINE
8
DEFAULT_255_2_778
10
56.2284191
20
134.1994429
11
118.2235191
21
134.1994429
0
LINE
8
DEFAULT_255_2_778
10
118.2235191
20
134.1994429
11
118.2235191
21
125.5258429
0
LINE
8
DEFAULT_255_2_778
10
118.2235191
20
125.5258429
11
118.8506191
21
126.0611429
0
LINE
8
DEFAULT_255_2_778
10
118.8506191
20
126.0611429
11
118.8773191
21
126.1725429
0
LINE
8
DEFAULT_255_2_778
10
118.8773191
20
126.1725429
11
119.2554191
21
126.3212429
0
LINE
8
DEFAULT_255_2_778
10
119.2554191
20
126.3212429
11
127.2778191
21
126.3212429
0
LINE
8
DEFAULT_255_2_778
10
127.2778191
20
126.3212429
11
127.6559191
21
126.1725429
0
LINE
8
DEFAULT_255_2_778
10
127.6559191
20
126.1725429
11
118.8773191
21
126.1725429
0
LINE
8
DEFAULT_255_2_778
10
127.8038191
20
134.4621429
11
131.6839191
21
134.4621429
0
LINE
8
DEFAULT_255_2_778
10
131.6839191
20
134.4621429
11
131.6707191
21
134.4489429
0
LINE
8
DEFAULT_255_2_778
10
131.6707191
20
134.4489429
11
131.6707191
21
10.7308429
0
LINE
8
DEFAULT_255_2_778
10
131.9197191
20
10.9803429
11
131.9197191
21
134.1997429
0
LINE
8
DEFAULT_255_2_778
10
131.9197191
20
134.1997429
11
131.9329191
21
134.2129429
0
LINE
8
DEFAULT_255_2_778
10
131.9329191
20
134.2129429
11
131.9329191
21
10.9676429
0
LINE
8
DEFAULT_255_2_778
10
131.9329191
20
10.9676429
11
131.9197191
21
10.9808429
0
LINE
8
DEFAULT_255_2_778
10
131.9197191
20
10.9808429
11
128.3097191
21
10.9808429
0
LINE
8
DEFAULT_255_2_778
10
128.3097191
20
10.9808429
11
128.3097191
21
19.6544429
0
LINE
8
DEFAULT_255_2_778
10
128.3097191
20
19.6544429
11
118.2235191
21
19.6544429
0
LINE
8
DEFAULT_255_2_778
10
118.2235191
20
19.6544429
11
118.8506191
21
19.1192429
0
LINE
8
DEFAULT_255_2_778
10
118.8506191
20
19.1192429
11
118.8773191
21
19.0078429
0
ARC
8
DEFAULT_255_2_778
10
118.5790779
20
134.2272166
40
0.2715583
50
358.5579783
51
0.0032173
0
ARC
8
DEFAULT_255_2_778
10
118.5678368
20
134.2269947
40
0.2827995
50
0.0480485
51
8.3336168
0
ARC
8
DEFAULT_255_2_778
10
118.5695584
20
134.2268013
40
0.2811245
50
8.4234759
51
17.916282
0
ARC
8
DEFAULT_255_2_778
10
118.574257
20
134.2259761
40
0.2769164
50
18.3778216
51
27.6496021
0
ARC
8
DEFAULT_255_2_778
10
131.6825433
20
134.1940742
40
0.2371079
50
359.8329176
51
0.0151621
0
ARC
8
DEFAULT_255_2_778
10
131.6710745
20
134.1942177
40
0.2485769
50
359.9813828
51
44.9656655
0
ARC
8
DEFAULT_255_2_778
10
131.6710283
20
134.1944074
40
0.2484756
50
44.9271907
51
90.0004357
0
LINE
8
DEFAULT_255_2_778
10
131.6710264
20
134.442883
11
131.6706502
21
134.4428827
0
ARC
8
DEFAULT_255_2_778
10
127.959833
20
134.2209066
40
0.2775945
50
152.5238999
51
161.7839857
0
ARC
8
DEFAULT_255_2_778
10
127.9547753
20
134.2231888
40
0.2720775
50
161.9075581
51
171.6961962
0
ARC
8
DEFAULT_255_2_778
10
127.9655718
20
134.2214798
40
0.2830077
50
171.6694987
51
179.9616779
0
ARC
8
DEFAULT_255_2_778
10
127.9573014
20
134.2216565
40
0.2747372
50
179.9973842
51
181.4336558
0
LINE
8
DEFAULT_255_2_778
10
119.2553502
20
126.3217827
11
119.6061502
21
126.3905827
0
LINE
8
DEFAULT_255_2_778
10
119.6061502
20
126.3905827
11
119.6061502
21
134.1711827
0
LINE
8
DEFAULT_255_2_778
10
119.6061502
20
134.1711827
11
118.8505502
21
134.2203827
0
LINE
8
DEFAULT_255_2_778
10
118.8195502
20
134.3544827
11
118.7965502
21
134.3902827
0
LINE
8
DEFAULT_255_2_778
10
118.7965502
20
134.3902827
11
118.7835502
21
134.4055827
0
LINE
8
DEFAULT_255_2_778
10
118.7835502
20
134.4055827
11
118.7701502
21
134.4190827
0
LINE
8
DEFAULT_255_2_778
10
118.7701502
20
134.4190827
11
118.7566502
21
134.4306827
0
LINE
8
DEFAULT_255_2_778
10
118.7566502
20
134.4306827
11
118.7436502
21
134.4402827
0
LINE
8
DEFAULT_255_2_778
10
118.7436502
20
134.4402827
11
118.7322502
21
134.4476827
0
LINE
8
DEFAULT_255_2_778
10
118.7322502
20
134.4476827
11
118.7277502
21
134.4505827
0
LINE
8
DEFAULT_255_2_778
10
118.7277502
20
134.4505827
11
118.7243502
21
134.4526827
0
LINE
8
DEFAULT_255_2_778
10
118.7243502
20
134.4526827
11
118.7219502
21
134.4542827
0
LINE
8
DEFAULT_255_2_778
10
118.7219502
20
134.4542827
11
118.7209502
21
134.4552827
0
LINE
8
DEFAULT_255_2_778
10
118.7209502
20
134.4552827
11
118.7211502
21
134.4560827
0
LINE
8
DEFAULT_255_2_778
10
118.7211502
20
134.4560827
11
118.7224502
21
134.4563827
0
LINE
8
DEFAULT_255_2_778
10
118.7224502
20
134.4563827
11
118.1388502
21
134.4484827
0
LINE
8
DEFAULT_255_2_778
10
118.1388502
20
134.4484827
11
56.4774502
21
134.4484827
0
LINE
8
DEFAULT_255_2_778
10
56.4774502
20
134.4484827
11
56.2284502
21
134.1989827
0
LINE
8
DEFAULT_255_2_778
10
28.8115502
20
120.8289827
11
31.1739502
21
120.8289827
0
LINE
8
DEFAULT_255_2_778
10
28.0881502
20
120.8705827
11
28.7853502
21
120.8705827
0
LINE
8
DEFAULT_255_2_778
10
118.2234502
20
125.5197827
11
128.3096502
21
125.5197827
0
LINE
8
DEFAULT_255_2_778
10
128.3096502
20
125.5197827
11
128.3096502
21
134.1933827
0
LINE
8
DEFAULT_255_2_778
10
128.3096502
20
134.1933827
11
131.9196502
21
134.1933827
0
LINE
8
DEFAULT_255_2_778
10
131.6706502
20
134.4428827
11
128.3943502
21
134.4428827
0
LINE
8
DEFAULT_255_2_778
10
128.3943502
20
134.4428827
11
127.8106502
21
134.4507827
0
LINE
8
DEFAULT_255_2_778
10
127.8106502
20
134.4507827
11
127.8119502
21
134.4505827
0
LINE
8
DEFAULT_255_2_778
10
127.8119502
20
134.4505827
11
127.8119502
21
134.4497827
0
LINE
8
DEFAULT_255_2_778
10
127.8119502
20
134.4497827
11
127.8109502
21
134.4486827
0
LINE
8
DEFAULT_255_2_778
10
127.8109502
20
134.4486827
11
127.8085502
21
134.4470827
0
LINE
8
DEFAULT_255_2_778
10
127.8085502
20
134.4470827
11
127.8051502
21
134.4449827
0
LINE
8
DEFAULT_255_2_778
10
127.8051502
20
134.4449827
11
127.8006502
21
134.4420827
0
LINE
8
DEFAULT_255_2_778
10
127.8006502
20
134.4420827
11
127.7892502
21
134.4346827
0
LINE
8
DEFAULT_255_2_778
10
127.7892502
20
134.4346827
11
127.7762502
21
134.4251827
0
LINE
8
DEFAULT_255_2_778
10
127.7762502
20
134.4251827
11
127.7627502
21
134.4134827
0
LINE
8
DEFAULT_255_2_778
10
127.7627502
20
134.4134827
11
127.7492502
21
134.3999827
0
LINE
8
DEFAULT_255_2_778
10
127.7492502
20
134.3999827
11
127.7363502
21
134.3846827
0
LINE
8
DEFAULT_255_2_778
10
127.7363502
20
134.3846827
11
127.7135502
21
134.3489827
0
LINE
8
DEFAULT_255_2_778
10
127.6826502
20
134.2147827
11
126.9269502
21
134.1655827
0
LINE
8
DEFAULT_255_2_778
10
126.9269502
20
134.1655827
11
126.9269502
21
126.3849827
0
LINE
8
DEFAULT_255_2_778
10
126.9269502
20
126.3849827
11
127.2777502
21
126.3161827
0
ARC
8
DEFAULT_255_2_778
10
53.7904397
20
24.1828865
40
2.492216
50
270.0093597
51
315.0697578
0
ARC
8
DEFAULT_255_2_778
10
53.7839379
20
24.1896686
40
2.5016089
50
315.0649575
51
0.004625
0
ARC
8
DEFAULT_255_2_778
10
36.8570809
20
120.9970309
40
2.4920397
50
90.0076793
51
135.0714407
0
ARC
8
DEFAULT_255_2_778
10
36.8636357
20
120.9899392
40
2.5016888
50
135.0624709
51
180.0038627
0
LINE
8
DEFAULT_255_2_778
10
34.3622468
20
24.1898705
11
34.3622467
21
24.1891148
0
ARC
8
DEFAULT_255_2_778
10
36.8623706
20
24.1890543
40
2.5001239
50
179.998613
51
224.9491158
0
ARC
8
DEFAULT_255_2_778
10
36.857354
20
24.1828865
40
2.492216
50
224.9302422
51
269.9906403
0
ARC
8
DEFAULT_255_2_778
10
48.8063368
20
140.4544799
40
0.893391
50
89.9480523
51
138.2290381
0
ARC
8
DEFAULT_255_2_778
10
48.8066041
20
140.4510801
40
0.8958582
50
138.0782574
51
180.0901528
0
ARC
8
DEFAULT_255_2_778
10
48.7121032
20
140.4485383
40
0.8013572
50
179.9190445
51
179.9999993
0
ARC
8
DEFAULT_255_2_778
10
48.8075146
20
140.4485243
40
0.8967684
50
179.9991055
51
224.9496718
0
ARC
8
DEFAULT_255_2_778
10
48.8074767
20
140.4481416
40
0.8964712
50
224.9340757
51
269.978921
0
ARC
8
DEFAULT_255_2_778
10
48.8057521
20
140.4578366
40
1.1393352
50
89.9147755
51
127.2273714
0
ARC
8
DEFAULT_255_2_778
10
48.8086112
20
140.450589
40
1.1468377
50
127.1220454
51
175.2876982
0
ARC
8
DEFAULT_255_2_778
10
48.8272264
20
140.4494999
40
1.1654797
50
175.3095208
51
180.0063589
0
ARC
8
DEFAULT_255_2_778
10
48.8054381
20
140.4473947
40
1.143693
50
179.9010171
51
216.4269841
0
ARC
8
DEFAULT_255_2_778
10
48.8068309
20
140.4456244
40
1.1437644
50
216.3141967
51
265.6269303
0
ARC
8
DEFAULT_255_2_778
10
48.8073353
20
140.4625789
40
1.1607085
50
265.6659213
51
270.0055072
0
ARC
8
DEFAULT_255_2_778
10
38.2445365
20
128.3215706
40
4.8061619
50
57.7037166
51
70.1850352
0
ARC
8
DEFAULT_255_2_778
10
38.2627448
20
128.3549256
40
4.7682392
50
39.6060741
51
57.6745163
0
ARC
8
DEFAULT_255_2_778
10
38.2209988
20
128.3193136
40
4.8231051
50
1.4012237
51
39.6158601
0
ARC
8
DEFAULT_255_2_778
10
38.2670637
20
128.3250323
40
4.7769164
50
0.000001
51
1.3461629
0
ARC
8
DEFAULT_255_2_778
10
38.2679317
20
128.3250407
40
4.7760485
50
354.5038282
51
359.9999004
0
ARC
8
DEFAULT_255_2_778
10
38.2576362
20
128.326045
40
4.7863927
50
351.0670633
51
354.5036653
0
ARC
8
DEFAULT_255_2_778
10
38.2322283
20
128.3302198
40
4.8121405
50
346.3412997
51
351.0649341
0
ARC
8
DEFAULT_255_2_778
10
38.183333
20
128.3421583
40
4.8624722
50
342.0790697
51
346.3406531
0
ARC
8
DEFAULT_255_2_778
10
38.1442809
20
128.3543997
40
4.9033963
50
341.2933817
51
342.0833825
0
ARC
8
DEFAULT_255_2_778
10
38.2201619
20
128.3257135
40
4.8223246
50
328.7235125
51
341.3270542
0
ARC
8
DEFAULT_255_2_778
10
38.2641096
20
128.3015779
40
4.7722338
50
311.0505527
51
328.6972395
0
ARC
8
DEFAULT_255_2_778
10
38.2421177
20
128.3237637
40
4.803408
50
271.5534226
51
311.0745862
0
ARC
8
DEFAULT_255_2_778
10
38.2495802
20
128.2711447
40
4.7506099
50
270.0001747
51
271.4806562
0
ARC
8
DEFAULT_255_2_778
10
38.2496398
20
128.2716911
40
4.7511563
50
264.6034362
51
269.9994555
0
ARC
8
DEFAULT_255_2_778
10
38.2512443
20
128.288134
40
4.7676772
50
260.3712291
51
264.6028239
0
ARC
8
DEFAULT_255_2_778
10
38.2568234
20
128.3206202
40
4.8006389
50
256.3449063
51
260.3704327
0
ARC
8
DEFAULT_255_2_778
10
38.2688005
20
128.3697269
40
4.8511851
50
252.5588786
51
256.3443679
0
ARC
8
DEFAULT_255_2_778
10
38.2857473
20
128.4246953
40
4.9087058
50
252.3111292
51
252.5624704
0
ARC
8
DEFAULT_255_2_778
10
38.2512199
20
128.3254307
40
4.8036441
50
239.4855904
51
252.3437353
0
ARC
8
DEFAULT_255_2_778
10
38.236087
20
128.2944575
40
4.7692776
50
220.6419242
51
239.4532765
0
ARC
8
DEFAULT_255_2_778
10
38.2755926
20
128.3302751
40
4.8225835
50
183.6312115
51
220.6591159
0
ARC
8
DEFAULT_255_2_778
10
38.2295235
20
128.3229161
40
4.7761429
50
180.0001016
51
183.5781113
0
ARC
8
DEFAULT_255_2_778
10
38.2329307
20
128.3228276
40
4.7795502
50
174.3975786
51
179.9990407
0
ARC
8
DEFAULT_255_2_778
10
38.2562964
20
128.3204661
40
4.8030349
50
169.7165318
51
174.3967538
0
ARC
8
DEFAULT_255_2_778
10
38.2945459
20
128.3135682
40
4.8419013
50
166.1914914
51
169.7170179
0
ARC
8
DEFAULT_255_2_778
10
38.3378403
20
128.3029881
40
4.8864699
50
163.4443493
51
166.1921842
0
ARC
8
DEFAULT_255_2_778
10
38.2770031
20
128.3242881
40
4.8220863
50
150.7623568
51
163.4809654
0
ARC
8
DEFAULT_255_2_778
10
38.2337773
20
128.3458524
40
4.7738352
50
132.5038345
51
150.7348019
0
ARC
8
DEFAULT_255_2_778
10
38.2555701
20
128.3257594
40
4.8033732
50
93.5694634
51
132.5335446
0
ARC
8
DEFAULT_255_2_778
10
38.2460626
20
128.3802524
40
4.7483979
50
89.9999849
51
93.4959022
0
ARC
8
DEFAULT_255_2_778
10
38.2459503
20
128.3735906
40
4.7550597
50
84.4995411
51
89.9986316
0
ARC
8
DEFAULT_255_2_778
10
38.2430453
20
128.34443
40
4.7843645
50
79.6488533
51
84.4983857
0
ARC
8
DEFAULT_255_2_778
10
38.2375713
20
128.312912
40
4.8163529
50
78.9579575
51
79.6521636
0
ARC
8
DEFAULT_255_2_778
10
38.2338623
20
128.2948368
40
4.8348039
50
76.1480273
51
78.9558426
0
ARC
8
DEFAULT_255_2_778
10
38.2254164
20
128.2601708
40
4.8704839
50
74.4627601
51
76.1491955
0
ARC
8
DEFAULT_255_2_778
10
39.4387629
20
128.3244982
40
0.327766
50
179.9873617
51
209.9081435
0
ARC
8
DEFAULT_255_2_778
10
39.4387625
20
128.324643
40
0.3277657
50
150.0918477
51
180.0126638
0
ARC
8
DEFAULT_255_2_778
10
39.2054884
20
128.8777501
40
0.1505335
50
329.9943869
51
0.0125577
0
ARC
8
DEFAULT_255_2_778
10
39.1914151
20
128.8776923
40
0.1646067
50
0.0315854
51
0.1579264
0
ARC
8
DEFAULT_255_2_778
10
39.2050788
20
128.8777813
40
0.150943
50
0.1384502
51
29.9639422
0
ARC
8
DEFAULT_255_2_778
10
39.205104
20
128.8777182
40
0.1509528
50
29.9894632
51
89.8698831
0
ARC
8
DEFAULT_255_2_778
10
38.8432917
20
129.3547267
40
0.3260561
50
209.904284
51
269.974549
0
ARC
8
DEFAULT_255_2_778
10
38.2490973
20
128.3219364
40
1.1669841
50
82.8204071
51
90.0024787
0
ARC
8
DEFAULT_255_2_778
10
38.2489964
20
128.3219364
40
1.1669841
50
89.9975213
51
97.1795929
0
ARC
8
DEFAULT_255_2_778
10
37.6548787
20
129.354767
40
0.3260964
50
270.0119703
51
330.091612
0
ARC
8
DEFAULT_255_2_778
10
37.2930129
20
128.8776776
40
0.1509932
50
90.100961
51
150.0015892
0
ARC
8
DEFAULT_255_2_778
10
37.2930149
20
128.8777813
40
0.1509431
50
150.0360578
51
179.8615498
0
ARC
8
DEFAULT_255_2_778
10
37.3066786
20
128.8776923
40
0.1646069
50
179.8420736
51
179.9684146
0
ARC
8
DEFAULT_255_2_778
10
37.2926053
20
128.8777501
40
0.1505334
50
179.9874423
51
210.0056131
0
ARC
8
DEFAULT_255_2_778
10
37.0594324
20
128.3246435
40
0.3277643
50
359.9872508
51
29.9081817
0
ARC
8
DEFAULT_255_2_778
10
37.0594324
20
128.3244976
40
0.3277645
50
330.0918183
51
0.0127492
0
ARC
8
DEFAULT_255_2_778
10
37.2930258
20
127.7713784
40
0.150954
50
150.0372037
51
180.0029955
0
ARC
8
DEFAULT_255_2_778
10
37.2930258
20
127.7713627
40
0.150954
50
179.9970045
51
209.9627963
0
ARC
8
DEFAULT_255_2_778
10
37.2927797
20
127.7712601
40
0.1506895
50
209.97575
51
269.9875151
0
ARC
8
DEFAULT_255_2_778
10
37.6547574
20
127.2942645
40
0.3263061
50
29.9296725
51
89.9667305
0
ARC
8
DEFAULT_255_2_778
10
38.2489976
20
128.3368694
40
1.1765739
50
262.8791663
51
270.0023959
0
ARC
8
DEFAULT_255_2_778
10
38.249096
20
128.3368694
40
1.1765739
50
269.9976041
51
277.1208337
0
ARC
8
DEFAULT_255_2_778
10
38.8435536
20
127.294062
40
0.3265088
50
90.0713738
51
150.0498008
0
ARC
8
DEFAULT_255_2_778
10
39.2053373
20
127.7712195
40
0.150649
50
270.0416647
51
330.0331782
0
ARC
8
DEFAULT_255_2_778
10
39.2050679
20
127.7713627
40
0.150954
50
330.0372037
51
0.0029955
0
ARC
8
DEFAULT_255_2_778
10
39.2050679
20
127.7713784
40
0.150954
50
359.9970045
51
29.9627963
0
ARC
8
DEFAULT_255_2_778
10
38.3030799
20
128.3285526
40
4.5348348
50
165.739768
51
180.0503115
0
ARC
8
DEFAULT_255_2_778
10
38.2369504
20
128.342565
40
4.4672921
50
143.8497258
51
165.7050265
0
ARC
8
DEFAULT_255_2_778
10
38.2434652
20
128.3414642
40
4.4732029
50
108.9935836
51
143.8875659
0
ARC
8
DEFAULT_255_2_778
10
38.2392862
20
128.3375698
40
4.4755283
50
93.537666
51
108.9267708
0
ARC
8
DEFAULT_255_2_778
10
38.2486043
20
128.2308795
40
4.5825912
50
89.9957176
51
93.571637
0
ARC
8
DEFAULT_255_2_778
10
38.252894
20
128.3027515
40
4.5107208
50
75.6440452
51
90.0501372
0
ARC
8
DEFAULT_255_2_778
10
38.2642837
20
128.3599166
40
4.4525178
50
53.1297989
51
75.6036419
0
ARC
8
DEFAULT_255_2_778
10
38.2492232
20
128.3363058
40
4.4804432
50
19.5592074
51
53.1568875
0
ARC
8
DEFAULT_255_2_778
10
38.2340755
20
128.3350334
40
4.4951445
50
3.8009062
51
19.5098522
0
ARC
8
DEFAULT_255_2_778
10
38.1243381
20
128.3249695
40
4.6053086
50
359.9950361
51
3.8353343
0
ARC
8
DEFAULT_255_2_778
10
38.1948138
20
128.3205885
40
4.5348348
50
345.739768
51
0.0503115
0
ARC
8
DEFAULT_255_2_778
10
38.2609433
20
128.3065761
40
4.4672921
50
323.8497258
51
345.7050265
0
ARC
8
DEFAULT_255_2_778
10
38.2544285
20
128.3076769
40
4.4732029
50
288.9935836
51
323.8875659
0
ARC
8
DEFAULT_255_2_778
10
38.2586075
20
128.3115713
40
4.4755283
50
273.537666
51
288.9267708
0
ARC
8
DEFAULT_255_2_778
10
38.2492894
20
128.4182616
40
4.5825912
50
269.9957176
51
273.571637
0
ARC
8
DEFAULT_255_2_778
10
38.2449997
20
128.3463896
40
4.5107208
50
255.6440452
51
270.0501372
0
ARC
8
DEFAULT_255_2_778
10
38.23361
20
128.2892245
40
4.4525178
50
233.1297989
51
255.6036419
0
ARC
8
DEFAULT_255_2_778
10
38.2486704
20
128.3128353
40
4.4804432
50
199.5592074
51
233.1568875
0
ARC
8
DEFAULT_255_2_778
10
38.2638182
20
128.3141077
40
4.4951445
50
183.8009062
51
199.5098522
0
ARC
8
DEFAULT_255_2_778
10
38.3735556
20
128.3241716
40
4.6053086
50
179.9950361
51
183.8353343
0
ARC
8
DEFAULT_255_2_778
10
38.2859329
20
128.3284148
40
3.6479881
50
163.9235522
51
180.0603784
0
ARC
8
DEFAULT_255_2_778
10
38.2443987
20
128.3368439
40
3.6057456
50
134.9488939
51
163.8694914
0
ARC
8
DEFAULT_255_2_778
10
38.2397949
20
128.346134
40
3.5959198
50
105.8113152
51
135.0015539
0
ARC
8
DEFAULT_255_2_778
10
38.2452942
20
128.3122508
40
3.6300216
50
89.9423474
51
105.7491117
0
ARC
8
DEFAULT_255_2_778
10
38.2527905
20
128.3142074
40
3.6280652
50
73.6878265
51
90.0607007
0
ARC
8
DEFAULT_255_2_778
10
38.256693
20
128.3434657
40
3.5988912
50
41.9034876
51
73.6166238
0
ARC
8
DEFAULT_255_2_778
10
38.2554536
20
128.3378277
40
3.6035807
50
15.028848
51
41.9570452
0
ARC
8
DEFAULT_255_2_778
10
38.2078976
20
128.3280336
40
3.6520509
50
359.9456695
51
14.9837839
0
ARC
8
DEFAULT_255_2_778
10
38.2120459
20
128.3207225
40
3.647903
50
343.9233633
51
0.0604397
0
ARC
8
DEFAULT_255_2_778
10
38.2536768
20
128.312267
40
3.6055603
50
314.9477506
51
343.8692741
0
ARC
8
DEFAULT_255_2_778
10
38.2581637
20
128.303105
40
3.5959077
50
285.8102947
51
315.0002835
0
ARC
8
DEFAULT_255_2_778
10
38.2526004
20
128.3371838
40
3.6302152
50
269.9423365
51
285.7482358
0
ARC
8
DEFAULT_255_2_778
10
38.2451009
20
128.3352132
40
3.6282447
50
253.6886942
51
270.0607336
0
ARC
8
DEFAULT_255_2_778
10
38.2411274
20
128.3057586
40
3.5988624
50
221.9047216
51
253.6177059
0
ARC
8
DEFAULT_255_2_778
10
38.2422581
20
128.3112834
40
3.6033954
50
195.0290287
51
221.9580952
0
ARC
8
DEFAULT_255_2_778
10
38.289917
20
128.3211043
40
3.6519718
50
179.9456173
51
194.983947
0
ARC
8
DEFAULT_255_2_778
10
38.2765728
20
128.3281288
40
3.1529282
50
162.5078895
51
180.0682966
0
ARC
8
DEFAULT_255_2_778
10
38.2463625
20
128.3340362
40
3.1223412
50
106.9159269
51
162.444649
0
ARC
8
DEFAULT_255_2_778
10
38.2454761
20
128.3166437
40
3.138729
50
89.9366441
51
106.8080672
0
ARC
8
DEFAULT_255_2_778
10
38.252687
20
128.3191935
40
3.1361793
50
72.2690698
51
90.0683303
0
ARC
8
DEFAULT_255_2_778
10
38.2512947
20
128.3339248
40
3.1225771
50
16.4875225
51
72.1624159
0
ARC
8
DEFAULT_255_2_778
10
38.2181743
20
128.3278041
40
3.1560746
50
359.9376661
51
16.423423
0
ARC
8
DEFAULT_255_2_778
10
38.2210461
20
128.3206075
40
3.153203
50
342.5086559
51
0.0683774
0
ARC
8
DEFAULT_255_2_778
10
38.2515171
20
128.3145956
40
3.1223359
50
286.9162276
51
342.4458148
0
ARC
8
DEFAULT_255_2_778
10
38.2524189
20
128.3319797
40
3.138711
50
269.9366198
51
286.8081412
0
ARC
8
DEFAULT_255_2_778
10
38.2452061
20
128.3294235
40
3.1361551
50
252.2689421
51
270.0683419
0
ARC
8
DEFAULT_255_2_778
10
38.2466163
20
128.3147107
40
3.1225763
50
196.4863612
51
252.1620781
0
ARC
8
DEFAULT_255_2_778
10
38.2800014
20
128.3209329
40
3.1563565
50
179.9375983
51
196.4226854
0
ARC
8
DEFAULT_255_2_778
10
38.2524861
20
128.3338445
40
2.9917543
50
180.0012333
51
180.1814384
0
ARC
8
DEFAULT_255_2_778
10
38.2449735
20
128.3336442
40
2.9842415
50
135.050235
51
179.9973899
0
ARC
8
DEFAULT_255_2_778
10
38.2451765
20
128.3337925
40
2.9842803
50
89.9998968
51
135.0550041
0
ARC
8
DEFAULT_255_2_778
10
38.2451817
20
128.3645941
40
2.9534788
50
89.9269579
51
89.9999965
0
ARC
8
DEFAULT_255_2_778
10
38.2526699
20
128.3209678
40
2.997105
50
71.7360445
51
90.0711735
0
ARC
8
DEFAULT_255_2_778
10
38.2509795
20
128.3334611
40
2.9857759
50
15.0904216
51
71.6301068
0
ARC
8
DEFAULT_255_2_778
10
38.2153689
20
128.3272425
40
3.0217793
50
359.9455458
51
15.0284805
0
ARC
8
DEFAULT_255_2_778
10
38.2232691
20
128.3206811
40
3.01388
50
342.1554526
51
0.070139
0
ARC
8
DEFAULT_255_2_778
10
38.2516316
20
128.3148418
40
2.9850944
50
285.6943242
51
342.0953203
0
ARC
8
DEFAULT_255_2_778
10
38.2519244
20
128.3349055
40
3.0043364
50
269.9432141
51
285.585443
0
ARC
8
DEFAULT_255_2_778
10
38.2452232
20
128.3276506
40
2.9970824
50
251.7359148
51
270.0711852
0
ARC
8
DEFAULT_255_2_778
10
38.2469342
20
128.315178
40
2.9857795
50
195.0892036
51
251.6297269
0
ARC
8
DEFAULT_255_2_778
10
38.2828144
20
128.3214952
40
3.0220689
50
179.945486
51
195.0277561
0
ARC
8
DEFAULT_255_2_778
10
38.2701663
20
128.328069
40
2.7927219
50
161.095664
51
180.0758774
0
ARC
8
DEFAULT_255_2_778
10
38.2459657
20
128.3335653
40
2.7680471
50
103.2203481
51
161.0410014
0
ARC
8
DEFAULT_255_2_778
10
38.2471157
20
128.3068229
40
2.7943484
50
89.9563017
51
103.1179005
0
ARC
8
DEFAULT_255_2_778
10
38.2529281
20
128.3231657
40
2.7780073
50
70.8505741
51
90.0759245
0
ARC
8
DEFAULT_255_2_778
10
38.2510263
20
128.332832
40
2.7695041
50
13.0760301
51
70.7478068
0
ARC
8
DEFAULT_255_2_778
10
38.2118615
20
128.3265054
40
2.8090862
50
359.9564558
51
13.0209943
0
ARC
8
DEFAULT_255_2_778
10
38.2280282
20
128.3206638
40
2.7929211
50
341.0963963
51
0.0760417
0
ARC
8
DEFAULT_255_2_778
10
38.2525234
20
128.3150593
40
2.7679326
50
283.2378892
51
341.0418814
0
ARC
8
DEFAULT_255_2_778
10
38.2513805
20
128.3417553
40
2.7941855
50
269.9562491
51
283.1353481
0
ARC
8
DEFAULT_255_2_778
10
38.2455567
20
128.3259959
40
2.7784278
50
250.8526793
51
270.0760979
0
ARC
8
DEFAULT_255_2_778
10
38.2472436
20
128.3158167
40
2.7693695
50
193.0753812
51
250.7506326
0
ARC
8
DEFAULT_255_2_778
10
38.2867612
20
128.3222322
40
2.8093153
50
179.9563878
51
193.0204973
0
ARC
8
DEFAULT_255_2_778
10
38.2470947
20
128.3235165
40
1.3827332
50
286.8388869
51
358.26239
0
ARC
8
DEFAULT_255_2_778
10
38.2331885
20
128.3243512
40
1.3966584
50
358.245459
51
0.0007919
0
ARC
8
DEFAULT_255_2_778
10
38.2471296
20
128.3251695
40
1.3827175
50
359.9668948
51
71.3918411
0
ARC
8
DEFAULT_255_2_778
10
38.2462495
20
128.3184414
40
1.3893752
50
71.4459816
51
73.207594
0
ARC
8
DEFAULT_255_2_778
10
38.2512767
20
128.3252464
40
1.3826102
50
106.8394605
51
178.2634219
0
ARC
8
DEFAULT_255_2_778
10
38.265712
20
128.3243833
40
1.3970651
50
178.245983
51
180.000523
0
ARC
8
DEFAULT_255_2_778
10
38.2513138
20
128.323402
40
1.3826673
50
179.959865
51
251.3889757
0
ARC
8
DEFAULT_255_2_778
10
38.2521427
20
128.3301949
40
1.3893702
50
251.4459823
51
253.2075948
0
ARC
8
DEFAULT_255_2_778
10
39.4698674
20
132.7380167
40
0.2232295
50
58.2159028
51
74.0669973
0
ARC
8
DEFAULT_255_2_778
10
42.0334611
20
133.1456002
40
0.0888577
50
74.607302
51
89.5295856
0
ARC
8
DEFAULT_255_2_778
10
41.9133473
20
131.356233
40
1.8821054
50
86.3187092
51
88.8467213
0
ARC
8
DEFAULT_255_2_778
10
41.8000019
20
126.9523496
40
6.2874265
50
88.6217742
51
89.9239546
0
ARC
8
DEFAULT_255_2_778
10
41.8002498
20
127.3278481
40
5.911928
50
89.9215272
51
91.4574391
0
ARC
8
DEFAULT_255_2_778
10
41.6777173
20
131.866472
40
1.3716741
50
91.1627098
51
94.2592221
0
ARC
8
DEFAULT_255_2_778
10
41.5739555
20
133.1993022
40
0.0351065
50
86.9156593
51
114.4106519
0
ARC
8
DEFAULT_255_2_778
10
41.576769
20
133.2737083
40
0.0458369
50
247.7957597
51
272.7388963
0
ARC
8
DEFAULT_255_2_778
10
41.6899774
20
134.7970326
40
1.5730314
50
265.9529351
51
268.7090136
0
ARC
8
DEFAULT_255_2_778
10
41.8142507
20
139.203054
40
5.9807864
50
268.4697645
51
269.9434413
0
ARC
8
DEFAULT_255_2_778
10
122.3101663
20
129.4180211
40
0.1508445
50
149.9880664
51
180.0030704
0
ARC
8
DEFAULT_255_2_778
10
122.218703
20
129.4179585
40
0.0593812
50
179.9474352
51
180.1576946
0
ARC
8
DEFAULT_255_2_778
10
122.3099499
20
129.4179889
40
0.1506281
50
180.0737407
51
209.95798
0
ARC
8
DEFAULT_255_2_778
10
122.3102833
20
129.4183851
40
0.151115
50
210.0249912
51
269.8724387
0
ARC
8
DEFAULT_255_2_778
10
122.6720789
20
128.9411745
40
0.3260961
50
29.9083409
51
89.9880601
0
ARC
8
DEFAULT_255_2_778
10
123.2662886
20
129.9662747
40
1.1590291
50
262.7662705
51
270.0004067
0
ARC
8
DEFAULT_255_2_778
10
123.2663049
20
129.9662779
40
1.1590324
50
269.9996009
51
277.2337168
0
ARC
8
DEFAULT_255_2_778
10
123.8605148
20
128.9411745
40
0.3260961
50
90.0119399
51
150.0916591
0
ARC
8
DEFAULT_255_2_778
10
124.22231
20
129.4183859
40
0.1511157
50
270.1277308
51
329.974836
0
ARC
8
DEFAULT_255_2_778
10
124.2225074
20
129.4181003
40
0.1508019
50
330.0312345
51
359.8840289
0
ARC
8
DEFAULT_255_2_778
10
124.2678283
20
129.418013
40
0.105481
50
359.8816203
51
0.0394598
0
ARC
8
DEFAULT_255_2_778
10
124.2230645
20
129.4181176
40
0.1502448
50
359.9878104
51
30.1015888
0
ARC
8
DEFAULT_255_2_778
10
124.4559602
20
129.9712975
40
0.3277632
50
179.9872243
51
209.9082602
0
ARC
8
DEFAULT_255_2_778
10
124.4559613
20
129.9714435
40
0.3277645
50
150.0918183
51
180.0127492
0
ARC
8
DEFAULT_255_2_778
10
124.2226456
20
130.5246362
40
0.1506637
50
329.9412395
51
359.9750375
0
ARC
8
DEFAULT_255_2_778
10
124.2224992
20
130.5246385
40
0.1508102
50
0.0017091
51
29.9679523
0
ARC
8
DEFAULT_255_2_778
10
124.2225439
20
130.5245597
40
0.1508109
50
30.0023606
51
89.960876
0
ARC
8
DEFAULT_255_2_778
10
123.8606267
20
131.0015605
40
0.32619
50
209.8976157
51
269.9684003
0
ARC
8
DEFAULT_255_2_778
10
123.2663048
20
129.9764601
40
1.1590354
50
82.7662952
51
90.0003919
0
ARC
8
DEFAULT_255_2_778
10
123.2662888
20
129.9764632
40
1.1590324
50
89.9996009
51
97.2337168
0
ARC
8
DEFAULT_255_2_778
10
122.6719671
20
131.0015603
40
0.3261898
50
270.0315693
51
330.1024106
0
ARC
8
DEFAULT_255_2_778
10
122.3100499
20
130.5245596
40
0.150811
50
90.0391379
51
149.9976014
0
ARC
8
DEFAULT_255_2_778
10
122.3099623
20
130.5247487
40
0.1506406
50
150.0432489
51
180.012573
0
LINE
8
DEFAULT_255_2_778
10
122.1593218
20
130.5247157
11
122.1593218
21
130.5245705
0
ARC
8
DEFAULT_255_2_778
10
122.3105894
20
130.5247335
40
0.1512676
50
180.0617096
51
209.9689939
0
ARC
8
DEFAULT_255_2_778
10
122.0766339
20
129.9714437
40
0.3277629
50
359.9872162
51
29.9082842
0
ARC
8
DEFAULT_255_2_778
10
122.0766335
20
129.9712975
40
0.3277633
50
330.0917398
51
0.0127757
0
ARC
8
DEFAULT_255_2_778
10
123.2941639
20
129.9748244
40
3.1530193
50
162.5081444
51
180.0682144
0
ARC
8
DEFAULT_255_2_778
10
123.2639824
20
129.9807436
40
3.1224562
50
106.9175858
51
162.4452761
0
ARC
8
DEFAULT_255_2_778
10
123.2629771
20
129.9636299
40
3.1385425
50
89.9366572
51
106.8091131
0
ARC
8
DEFAULT_255_2_778
10
123.2701894
20
129.966268
40
3.1359048
50
72.2676991
51
90.0683792
0
ARC
8
DEFAULT_255_2_778
10
123.2686611
20
129.9807464
40
3.1225852
50
16.4853132
51
72.1600772
0
ARC
8
DEFAULT_255_2_778
10
123.2353107
20
129.9745038
40
3.1563381
50
359.937678
51
16.4221815
0
ARC
8
DEFAULT_255_2_778
10
123.2384504
20
129.9673138
40
3.1531986
50
342.5092258
51
0.0682627
0
ARC
8
DEFAULT_255_2_778
10
123.2689067
20
129.9612746
40
3.1223374
50
286.9181675
51
342.4469505
0
ARC
8
DEFAULT_255_2_778
10
123.2699208
20
129.9784223
40
3.1384536
50
269.936579
51
286.8093551
0
ARC
8
DEFAULT_255_2_778
10
123.2627089
20
129.9759654
40
3.1359971
50
252.2679632
51
270.0682935
0
ARC
8
DEFAULT_255_2_778
10
123.2642233
20
129.9615126
40
3.1226975
50
196.4869583
51
252.1607302
0
ARC
8
DEFAULT_255_2_778
10
123.2973059
20
129.967641
40
3.1561611
50
179.9377404
51
196.4231971
0
ARC
8
DEFAULT_255_2_778
10
123.2707432
20
129.9805457
40
2.9925113
50
180.0012331
51
180.1814153
0
ARC
8
DEFAULT_255_2_778
10
123.2625304
20
129.9804205
40
2.9842984
50
135.0506856
51
179.9988323
0
ARC
8
DEFAULT_255_2_778
10
123.2626765
20
129.9805925
40
2.9842803
50
89.9998968
51
135.0550041
0
ARC
8
DEFAULT_255_2_778
10
123.2626817
20
130.0113941
40
2.9534788
50
89.9269579
51
89.9999965
0
ARC
8
DEFAULT_255_2_778
10
123.2701671
20
129.9679462
40
2.9969267
50
71.7348625
51
90.0711235
0
ARC
8
DEFAULT_255_2_778
10
123.2683523
20
129.9801618
40
2.9859004
50
15.0899071
51
71.6283297
0
ARC
8
DEFAULT_255_2_778
10
123.2327891
20
129.9739391
40
3.0218591
50
359.9456117
51
15.0282825
0
ARC
8
DEFAULT_255_2_778
10
123.2410433
20
129.9673859
40
3.0136058
50
342.1546347
51
0.0700536
0
ARC
8
DEFAULT_255_2_778
10
123.2691437
20
129.9616529
40
2.9851024
50
285.6940414
51
342.0940935
0
ARC
8
DEFAULT_255_2_778
10
123.269423
20
129.9817263
40
3.0043573
50
269.9432417
51
285.5853597
0
ARC
8
DEFAULT_255_2_778
10
123.2627238
20
129.9744733
40
2.997105
50
251.7360445
51
270.0711735
0
ARC
8
DEFAULT_255_2_778
10
123.2644142
20
129.96198
40
2.9857759
50
195.0904216
51
251.6301068
0
ARC
8
DEFAULT_255_2_778
10
123.3000248
20
129.9681986
40
3.0217793
50
179.9455458
51
195.0284805
0
ARC
8
DEFAULT_255_2_778
10
123.2878375
20
129.9747796
40
2.7928932
50
161.0962498
51
180.0760901
0
ARC
8
DEFAULT_255_2_778
10
123.263373
20
129.9803581
40
2.767942
50
103.2365618
51
161.0414286
0
ARC
8
DEFAULT_255_2_778
10
123.2646106
20
129.9533881
40
2.7944832
50
89.9561996
51
103.1346475
0
ARC
8
DEFAULT_255_2_778
10
123.2704314
20
129.9697117
40
2.7781613
50
70.8517516
51
90.0759897
0
ARC
8
DEFAULT_255_2_778
10
123.268634
20
129.9796323
40
2.7693837
50
13.0751456
51
70.7492984
0
ARC
8
DEFAULT_255_2_778
10
123.2291324
20
129.9732107
40
2.8093152
50
359.9563526
51
13.0204612
0
ARC
8
DEFAULT_255_2_778
10
123.2455282
20
129.9673638
40
2.7929211
50
341.0963963
51
0.0760417
0
ARC
8
DEFAULT_255_2_778
10
123.2700234
20
129.9617593
40
2.7679326
50
283.2378892
51
341.0418814
0
ARC
8
DEFAULT_255_2_778
10
123.2688805
20
129.9884553
40
2.7941855
50
269.9562491
51
283.1353481
0
ARC
8
DEFAULT_255_2_778
10
123.2630567
20
129.9726959
40
2.7784278
50
250.8526793
51
270.0760979
0
ARC
8
DEFAULT_255_2_778
10
123.2647436
20
129.9625167
40
2.7693695
50
193.0753812
51
250.7506326
0
ARC
8
DEFAULT_255_2_778
10
123.3042612
20
129.9689322
40
2.8093153
50
179.9563878
51
193.0204973
0
ARC
8
DEFAULT_255_2_778
10
123.2646199
20
129.9703002
40
1.3827103
50
286.8380816
51
358.259175
0
ARC
8
DEFAULT_255_2_778
10
123.2511351
20
129.9710513
40
1.3962118
50
358.2451789
51
0.0007915
0
ARC
8
DEFAULT_255_2_778
10
123.2645957
20
129.9719451
40
1.3827515
50
359.9637634
51
71.3908323
0
ARC
8
DEFAULT_255_2_778
10
123.2637495
20
129.9652414
40
1.3893752
50
71.4459816
51
73.207594
0
ARC
8
DEFAULT_255_2_778
10
123.2689004
20
129.9719547
40
1.3827338
50
106.8432674
51
178.2636441
0
ARC
8
DEFAULT_255_2_778
10
123.283634
20
129.9710835
40
1.3974871
50
178.2462453
51
180.0005304
0
ARC
8
DEFAULT_255_2_778
10
123.2687043
20
129.9701167
40
1.3825577
50
179.9604697
51
251.3922381
0
ARC
8
DEFAULT_255_2_778
10
123.2691742
20
129.9761943
40
1.3884685
50
251.4538877
51
253.2165603
0
ARC
8
DEFAULT_255_2_778
10
125.9462947
20
125.494233
40
1.0702744
50
122.0813938
51
129.3662018
0
ARC
8
DEFAULT_255_2_778
10
125.965299
20
125.494233
40
1.0702744
50
50.6337982
51
57.9186062
0
ARC
8
DEFAULT_255_2_778
10
119.6836131
20
125.8853029
40
0.5111031
50
92.1916804
51
98.7404212
0
ARC
8
DEFAULT_255_2_778
10
119.8194024
20
123.4183388
40
2.9817423
50
90.4864742
51
92.9862011
0
ARC
8
DEFAULT_255_2_778
10
119.8463904
20
121.7946924
40
4.6055782
50
89.9955657
51
90.6507085
0
ARC
8
DEFAULT_255_2_778
10
126.6939471
20
122.519455
40
3.8808228
50
87.8498872
51
90.1107331
0
ARC
8
DEFAULT_255_2_778
10
126.8108568
20
125.4345827
40
0.9633901
50
83.6447737
51
88.293463
0
ARC
8
DEFAULT_255_2_778
10
126.89879
20
126.2459218
40
0.1473232
50
78.8627812
51
82.705039
0
ARC
8
DEFAULT_255_2_778
10
127.1675245
20
134.1842595
40
0.2363654
50
93.9245862
51
115.9627585
0
ARC
8
DEFAULT_255_2_778
10
127.1702998
20
134.18045
40
0.2410068
50
116.1594871
51
137.9822432
0
ARC
8
DEFAULT_255_2_778
10
127.1751451
20
134.1761364
40
0.2474939
50
137.9911424
51
159.4851724
0
ARC
8
DEFAULT_255_2_778
10
127.1878087
20
134.1715959
40
0.2609457
50
159.5258828
51
175.2230163
0
ARC
8
DEFAULT_255_2_778
10
127.1701728
20
134.173206
40
0.243237
50
175.2550283
51
179.971273
0
ARC
8
DEFAULT_255_2_778
10
127.1627195
20
134.1733481
40
0.2357836
50
180.0048804
51
180.55345
0
ARC
8
DEFAULT_255_2_778
10
119.339042
20
134.1710584
40
0.2671049
50
0.002605
51
0.9588329
0
ARC
8
DEFAULT_255_2_778
10
119.3422872
20
134.171308
40
0.263856
50
0.9164404
51
20.3049822
0
ARC
8
DEFAULT_255_2_778
10
119.3616819
20
134.1784029
40
0.2432045
50
20.3229581
51
42.200714
0
ARC
8
DEFAULT_255_2_778
10
119.3632352
20
134.1812265
40
0.2401594
50
41.9506121
51
63.8319352
0
ARC
8
DEFAULT_255_2_778
10
119.3655336
20
134.1837513
40
0.2368817
50
64.0615594
51
86.0510981
0
ARC
8
DEFAULT_255_2_778
10
128.767101
20
134.2330742
40
0.4545846
50
166.5161111
51
172.0852145
0
ARC
8
DEFAULT_255_2_778
10
129.0077412
20
134.1956229
40
0.6981007
50
171.7603332
51
179.7580706
0
ARC
8
DEFAULT_255_2_778
10
117.5662399
20
134.1986702
40
0.6570069
50
359.9913105
51
8.4901731
0
ARC
8
DEFAULT_255_2_778
10
117.7327916
20
134.2268389
40
0.4881326
50
8.1063028
51
13.2923859
0
LINE
8
DEFAULT_255_2_778
10
28.0881468
20
130.8653705
11
28.7853468
21
130.8656705
0
LINE
8
DEFAULT_255_2_778
10
28.0881468
20
140.7673705
11
28.8332468
21
140.7803705
0
LINE
8
DEFAULT_255_2_778
10
28.0881468
20
141.0168705
11
28.8377468
21
141.0298705
0
LINE
8
DEFAULT_255_2_778
10
30.7779468
20
145.0401705
11
30.8810468
21
144.7906705
0
LINE
8
DEFAULT_255_2_778
10
28.8744468
20
143.1332705
11
29.1216468
21
143.0282705
0
LINE
8
DEFAULT_255_2_778
10
28.8112468
20
130.8915705
11
28.9102468
21
130.8918705
0
LINE
8
DEFAULT_255_2_778
10
28.0881468
20
130.8500705
11
28.7853468
21
130.8500705
0
LINE
8
DEFAULT_255_2_778
10
28.7853468
20
130.8500705
11
31.1737468
21
130.8918705
0
LINE
8
DEFAULT_255_2_778
10
31.1737468
20
130.8918705
11
31.1737468
21
120.8289705
0
LINE
8
DEFAULT_255_2_778
10
31.1737468
20
120.8289705
11
28.7853468
21
120.8707705
0
LINE
8
DEFAULT_255_2_778
10
28.7853468
20
120.8707705
11
28.7853468
21
130.8500705
0
LINE
8
DEFAULT_255_2_778
10
28.0881468
20
120.8551705
11
28.7853468
21
120.8548705
0
LINE
8
DEFAULT_255_2_778
10
28.7853468
20
120.8548705
11
28.8112468
21
120.8286705
0
LINE
8
DEFAULT_255_2_778
10
28.8112468
20
120.8286705
11
28.8112468
21
110.4956705
0
LINE
8
DEFAULT_255_2_778
10
28.8112468
20
110.4956705
11
28.7853468
21
110.5218705
0
LINE
8
DEFAULT_255_2_778
10
28.7853468
20
110.5218705
11
28.7853468
21
120.8548705
0
LINE
8
DEFAULT_255_2_778
10
37.8105468
20
143.5431705
11
32.2720468
21
143.5431705
0
LINE
8
DEFAULT_255_2_778
10
32.2720468
20
143.5431705
11
32.2720468
21
144.0892705
0
LINE
8
DEFAULT_255_2_778
10
32.2720468
20
144.0892705
11
46.4753468
21
144.0892705
0
LINE
8
DEFAULT_255_2_778
10
46.4753468
20
144.0892705
11
46.4753468
21
136.8597705
0
LINE
8
DEFAULT_255_2_778
10
46.4753468
20
136.8597705
11
45.0598468
21
136.8597705
0
LINE
8
DEFAULT_255_2_778
10
45.0598468
20
136.8597705
11
45.0598468
21
135.4812705
0
LINE
8
DEFAULT_255_2_778
10
45.0598468
20
135.4812705
11
43.2963468
21
135.4839705
0
LINE
8
DEFAULT_255_2_778
10
43.2963468
20
135.4839705
11
43.2963468
21
132.8410705
0
LINE
8
DEFAULT_255_2_778
10
43.2963468
20
132.8410705
11
39.8737468
21
132.8431705
0
LINE
8
DEFAULT_255_2_778
10
39.5300468
20
132.9526705
11
39.5300468
21
135.4897705
0
LINE
8
DEFAULT_255_2_778
10
39.5300468
20
135.4897705
11
33.4660468
21
135.4990705
0
LINE
8
DEFAULT_255_2_778
10
33.4660468
20
135.4990705
11
33.4660468
21
136.8597705
0
LINE
8
DEFAULT_255_2_778
10
33.4660468
20
136.8597705
11
33.2681468
21
136.8597705
0
LINE
8
DEFAULT_255_2_778
10
33.2681468
20
136.8597705
11
33.2681468
21
137.4058705
0
LINE
8
DEFAULT_255_2_778
10
33.2681468
20
137.4058705
11
35.7187468
21
137.4058705
0
LINE
8
DEFAULT_255_2_778
10
39.3358468
20
127.8467705
11
39.1546468
21
128.1610705
0
LINE
8
DEFAULT_255_2_778
10
39.1546468
20
128.4880705
11
39.3358468
21
128.8024705
0
LINE
8
DEFAULT_255_2_778
10
39.2054468
20
129.0286705
11
38.8431468
21
129.0286705
0
LINE
8
DEFAULT_255_2_778
10
38.5606468
20
129.1921705
11
38.3949468
21
129.4797705
0
LINE
8
DEFAULT_255_2_778
10
38.1031468
20
129.4797705
11
37.9375468
21
129.1921705
0
LINE
8
DEFAULT_255_2_778
10
37.6549468
20
129.0286705
11
37.2927468
21
129.0286705
0
LINE
8
DEFAULT_255_2_778
10
37.1622468
20
128.8024705
11
37.3435468
21
128.4880705
0
LINE
8
DEFAULT_255_2_778
10
37.3435468
20
128.1610705
11
37.1622468
21
127.8467705
0
LINE
8
DEFAULT_255_2_778
10
37.2927468
20
127.6205705
11
37.6549468
21
127.6205705
0
LINE
8
DEFAULT_255_2_778
10
37.9375468
20
127.4570705
11
38.1031468
21
127.1693705
0
LINE
8
DEFAULT_255_2_778
10
38.3949468
20
127.1693705
11
38.5606468
21
127.4570705
0
LINE
8
DEFAULT_255_2_778
10
38.8431468
20
127.6205705
11
39.2054468
21
127.6205705
0
LINE
8
DEFAULT_255_2_778
10
39.3358468
20
127.8467705
11
39.3358468
21
127.8467705
0
LINE
8
DEFAULT_255_2_778
10
33.7682468
20
128.3245705
11
33.7682468
21
128.3245705
0
LINE
8
DEFAULT_255_2_778
10
34.6379468
20
128.3245705
11
34.6379468
21
128.3245705
0
LINE
8
DEFAULT_255_2_778
10
37.8504468
20
129.0939705
11
37.8504468
21
130.4401705
0
LINE
8
DEFAULT_255_2_778
10
37.8504468
20
130.4401705
11
38.6474468
21
130.4401705
0
LINE
8
DEFAULT_255_2_778
10
38.6474468
20
130.4401705
11
38.6474468
21
129.0939705
0
LINE
8
DEFAULT_255_2_778
10
38.6474468
20
127.5548705
11
38.6474468
21
126.2086705
0
LINE
8
DEFAULT_255_2_778
10
38.6474468
20
126.2086705
11
37.8504468
21
126.2086705
0
LINE
8
DEFAULT_255_2_778
10
37.8504468
20
126.2086705
11
37.8504468
21
127.5548705
0
LINE
8
DEFAULT_255_2_778
10
35.1236468
20
128.3243705
11
35.1236468
21
128.3243705
0
LINE
8
DEFAULT_255_2_778
10
35.2607468
20
128.3243705
11
35.2607468
21
128.3243705
0
LINE
8
DEFAULT_255_2_778
10
35.4774468
20
128.3243705
11
35.4774468
21
128.3243705
0
LINE
8
DEFAULT_255_2_778
10
39.9332468
20
133.4638705
11
42.8944468
21
133.4638705
0
LINE
8
DEFAULT_255_2_778
10
39.8745468
20
132.8428705
11
39.7406468
21
132.8843705
0
LINE
8
DEFAULT_255_2_778
10
39.7406468
20
132.8843705
11
39.6044468
21
132.9166705
0
LINE
8
DEFAULT_255_2_778
10
39.6044468
20
132.9166705
11
39.5874468
21
132.9277705
0
LINE
8
DEFAULT_255_2_778
10
39.9335468
20
133.2407705
11
41.8083468
21
133.2397705
0
LINE
8
DEFAULT_255_2_778
10
42.8947468
20
133.1518705
11
42.1753468
21
133.1524705
0
LINE
8
DEFAULT_255_2_778
10
42.1753468
20
133.1524705
11
42.0570468
21
133.2312705
0
LINE
8
DEFAULT_255_2_778
10
41.8083468
20
133.2222705
11
41.8083468
21
133.2222705
0
LINE
8
DEFAULT_255_2_778
10
122.3099468
20
129.2672705
11
122.6721468
21
129.2672705
0
LINE
8
DEFAULT_255_2_778
10
122.9547468
20
129.1037705
11
123.1203468
21
128.8164705
0
LINE
8
DEFAULT_255_2_778
10
123.4122468
20
128.8164705
11
123.5778468
21
129.1037705
0
LINE
8
DEFAULT_255_2_778
10
123.8604468
20
129.2672705
11
124.2226468
21
129.2672705
0
LINE
8
DEFAULT_255_2_778
10
124.3530468
20
129.4934705
11
124.1718468
21
129.8078705
0
LINE
8
DEFAULT_255_2_778
10
124.1718468
20
130.1348705
11
124.3530468
21
130.4491705
0
LINE
8
DEFAULT_255_2_778
10
124.2226468
20
130.6753705
11
123.8604468
21
130.6753705
0
LINE
8
DEFAULT_255_2_778
10
123.5778468
20
130.8389705
11
123.4122468
21
131.1262705
0
LINE
8
DEFAULT_255_2_778
10
123.1203468
20
131.1262705
11
122.9547468
21
130.8389705
0
LINE
8
DEFAULT_255_2_778
10
122.6721468
20
130.6753705
11
122.3099468
21
130.6753705
0
LINE
8
DEFAULT_255_2_778
10
122.1795468
20
130.4491705
11
122.3607468
21
130.1348705
0
LINE
8
DEFAULT_255_2_778
10
122.3607468
20
129.8078705
11
122.1795468
21
129.4934705
0
LINE
8
DEFAULT_255_2_778
10
122.8679468
20
130.7407705
11
122.8679468
21
132.0869705
0
LINE
8
DEFAULT_255_2_778
10
122.8679468
20
132.0869705
11
123.6649468
21
132.0869705
0
LINE
8
DEFAULT_255_2_778
10
123.6649468
20
132.0869705
11
123.6649468
21
130.7407705
0
LINE
8
DEFAULT_255_2_778
10
123.6649468
20
129.2016705
11
123.6649468
21
127.8554705
0
LINE
8
DEFAULT_255_2_778
10
123.6649468
20
127.8554705
11
122.8679468
21
127.8554705
0
LINE
8
DEFAULT_255_2_778
10
122.8679468
20
127.8554705
11
122.8679468
21
129.2016705
0
LINE
8
DEFAULT_255_2_778
10
120.1411468
20
129.9710705
11
120.1411468
21
129.9710705
0
LINE
8
DEFAULT_255_2_778
10
120.2782468
20
129.9710705
11
120.2782468
21
129.9710705
0
LINE
8
DEFAULT_255_2_778
10
120.4949468
20
129.9710705
11
120.4949468
21
129.9710705
0
LINE
8
DEFAULT_255_2_778
10
127.8101468
20
134.4568705
11
127.7863468
21
134.4610705
0
LINE
8
DEFAULT_255_2_778
10
127.7863468
20
134.4610705
11
127.8032468
21
134.4621705
0
LINE
8
DEFAULT_255_2_778
10
127.6826468
20
134.2205705
11
127.6826468
21
134.2112705
0
LINE
8
DEFAULT_255_2_778
10
127.6826468
20
134.2112705
11
127.6826468
21
134.2070705
0
LINE
8
DEFAULT_255_2_778
10
118.8502468
20
134.2070705
11
118.8502468
21
134.2112705
0
LINE
8
DEFAULT_255_2_778
10
118.8502468
20
134.2112705
11
118.8502468
21
134.2205705
0
LINE
8
DEFAULT_255_2_778
10
118.7296468
20
134.4621705
11
118.7465468
21
134.4610705
0
LINE
8
DEFAULT_255_2_778
10
118.7465468
20
134.4610705
11
118.7227468
21
134.4568705
0
LINE
8
DEFAULT_255_2_778
10
127.6828468
20
126.0613705
11
128.3099468
21
125.5260705
0
LINE
8
DEFAULT_255_2_778
10
126.6867468
20
134.4142705
11
119.3834468
21
134.4200705
0
LINE
8
DEFAULT_255_2_778
10
119.3834468
20
134.4200705
11
118.7428468
21
134.4618705
0
LINE
8
DEFAULT_255_2_778
10
127.1515468
20
134.4200705
11
126.6867468
21
134.4142705
0
LINE
8
DEFAULT_255_2_778
10
126.6867468
20
134.4142705
11
126.6867468
21
126.4002705
0
LINE
8
DEFAULT_255_2_778
10
126.6867468
20
126.4002705
11
119.8469468
21
126.4002705
0
LINE
8
DEFAULT_255_2_778
10
119.8469468
20
126.4002705
11
119.8469468
21
134.4142705
0
LINE
8
DEFAULT_255_2_778
10
127.7908468
20
134.4618705
11
127.1513468
21
134.4200705
0
LINE
8
DEFAULT_255_2_778
10
126.9269468
20
134.1710705
11
126.6864468
21
134.1647705
0
LINE
8
DEFAULT_255_2_778
10
126.6864468
20
134.1647705
11
119.8467468
21
134.1647705
0
LINE
8
DEFAULT_255_2_778
10
119.8467468
20
134.1647705
11
119.6061468
21
134.1710705
0
LINE
8
DEFAULT_255_2_778
10
128.3940468
20
134.4488705
11
128.3781468
21
134.4435705
0
LINE
8
DEFAULT_255_2_778
10
128.3781468
20
134.4435705
11
128.3628468
21
134.4295705
0
LINE
8
DEFAULT_255_2_778
10
128.3628468
20
134.4295705
11
128.3485468
21
134.4070705
0
LINE
8
DEFAULT_255_2_778
10
128.3485468
20
134.4070705
11
128.3358468
21
134.3766705
0
LINE
8
DEFAULT_255_2_778
10
128.3358468
20
134.3766705
11
128.3250468
21
134.3390705
0
LINE
8
DEFAULT_255_2_778
10
128.3096468
20
134.1985705
11
127.6826468
21
134.2070705
0
LINE
8
DEFAULT_255_2_778
10
127.6826468
20
134.2070705
11
127.6826468
21
126.0613705
0
LINE
8
DEFAULT_255_2_778
10
127.6826468
20
126.0613705
11
127.6558468
21
126.1727705
0
LINE
8
DEFAULT_255_2_778
10
118.8502468
20
126.0613705
11
118.8502468
21
134.2070705
0
LINE
8
DEFAULT_255_2_778
10
118.8502468
20
134.2070705
11
118.2232468
21
134.1985705
0
LINE
8
DEFAULT_255_2_778
10
118.2078468
20
134.3390705
11
118.1970468
21
134.3766705
0
LINE
8
DEFAULT_255_2_778
10
118.1970468
20
134.3766705
11
118.1840468
21
134.4070705
0
LINE
8
DEFAULT_255_2_778
10
118.1840468
20
134.4070705
11
118.1697468
21
134.4295705
0
LINE
8
DEFAULT_255_2_778
10
118.1697468
20
134.4295705
11
118.1544468
21
134.4435705
0
LINE
8
DEFAULT_255_2_778
10
118.1544468
20
134.4435705
11
118.1385468
21
134.4488705
0
ARC
8
DEFAULT_255_2_778
10
41.1013484
20
137.955347
40
0.2353388
50
359.832295
51
0.0152184
0
ARC
8
DEFAULT_255_2_778
10
41.0875134
20
137.9552461
40
0.2491739
50
0.0375767
51
44.9088381
0
ARC
8
DEFAULT_255_2_778
10
41.0879922
20
137.9555093
40
0.2486491
50
44.9437771
51
89.9839777
0
LINE
8
DEFAULT_255_2_778
10
41.0880618
20
138.2041584
11
41.0876862
21
138.2041581
0
LINE
8
DEFAULT_255_2_778
10
37.6012862
20
138.2041581
11
37.60091
21
138.2041584
0
ARC
8
DEFAULT_255_2_778
10
37.6009081
20
137.9556827
40
0.2484757
50
89.9995643
51
135.0728093
0
ARC
8
DEFAULT_255_2_778
10
37.6010365
20
137.9554208
40
0.2487516
50
135.0509854
51
180.0019585
0
ARC
8
DEFAULT_255_2_778
10
37.5893917
20
137.9553496
40
0.2371067
50
179.984838
51
180.1670826
0
ARC
8
DEFAULT_255_2_778
10
43.4047355
20
142.7415128
40
0.058485
50
66.0399966
51
92.8371881
0
ARC
8
DEFAULT_255_2_778
10
43.2622997
20
141.1207371
40
1.684977
50
85.2496269
51
87.666068
0
ARC
8
DEFAULT_255_2_778
10
43.0415153
20
136.327278
40
6.4835005
50
87.4416502
51
88.2839962
0
ARC
8
DEFAULT_255_2_778
10
42.7510266
20
126.7459761
40
16.0692049
50
88.2717232
51
88.8682953
0
ARC
8
DEFAULT_255_2_778
10
42.4130689
20
110.0732247
40
32.74538
50
88.8532591
51
89.2534945
0
ARC
8
DEFAULT_255_2_778
10
42.1283679
20
88.6182683
40
54.202225
50
89.248052
51
89.5724069
0
ARC
8
DEFAULT_255_2_778
10
41.9804404
20
69.831221
40
72.9898536
50
89.5663479
51
89.7924284
0
ARC
8
DEFAULT_255_2_778
10
41.9366091
20
58.3748558
40
84.4463024
50
89.7908496
51
90.0015082
0
ARC
8
DEFAULT_255_2_778
10
41.9328484
20
141.5452364
40
1.4925642
50
179.9070358
51
209.4959541
0
ARC
8
DEFAULT_255_2_778
10
41.935367
20
141.5450565
40
1.4946685
50
209.4424143
51
262.5478342
0
ARC
8
DEFAULT_255_2_778
10
41.9340149
20
141.5565885
40
1.5059305
50
262.6557489
51
270.0141247
0
ARC
8
DEFAULT_255_2_778
10
41.9366566
20
141.5357315
40
1.4850751
50
269.9124051
51
299.9512136
0
ARC
8
DEFAULT_255_2_778
10
41.93067
20
141.5471562
40
1.4979629
50
299.931445
51
351.6811904
0
ARC
8
DEFAULT_255_2_778
10
41.9159982
20
141.5472001
40
1.5124881
50
351.7599565
51
0.0173496
0
LINE
8
DEFAULT_255_2_778
10
43.6287862
20
142.7949581
11
43.6291618
21
142.7949579
0
ARC
8
DEFAULT_255_2_778
10
43.6290198
20
143.0437816
40
0.2488238
50
270.0326936
51
315.0395456
0
ARC
8
DEFAULT_255_2_778
10
43.6289613
20
143.0435844
40
0.2487258
50
315.0812101
51
0.027277
0
ARC
8
DEFAULT_255_2_778
10
43.6400134
20
143.0437657
40
0.2376739
50
359.9848301
51
0.1669137
0
ARC
8
DEFAULT_255_2_778
10
40.1304917
20
143.0439667
40
0.2371066
50
179.8329174
51
180.015162
0
ARC
8
DEFAULT_255_2_778
10
40.1420533
20
143.0438606
40
0.2486683
50
179.9900062
51
224.9242881
0
ARC
8
DEFAULT_255_2_778
10
40.1421193
20
143.0439029
40
0.2487447
50
224.9204595
51
270.0384439
0
LINE
8
DEFAULT_255_2_778
10
41.0876862
20
138.2041581
11
37.6012862
21
138.2041581
0
LINE
8
DEFAULT_255_2_778
10
43.4284862
20
141.5476581
11
43.4284862
21
142.7949581
0
LINE
8
DEFAULT_255_2_778
10
41.9343862
20
142.8211581
11
40.4402862
21
142.7949581
0
LINE
8
DEFAULT_255_2_778
10
40.4402862
20
142.7949581
11
40.4402862
21
142.7949581
0
LINE
8
DEFAULT_255_2_778
10
40.4402862
20
142.7949581
11
40.4402862
21
141.5476581
0
LINE
8
DEFAULT_255_2_778
10
43.4284862
20
141.5476581
11
43.4284862
21
141.5476581
0
LINE
8
DEFAULT_255_2_778
10
43.8776862
20
143.0444581
11
43.8776862
21
143.1370581
0
LINE
8
DEFAULT_255_2_778
10
39.8933862
20
143.1383581
11
39.8933862
21
143.0446581
0
LINE
8
DEFAULT_255_2_778
10
43.6287862
20
142.8877581
11
40.1422862
21
142.8888581
0
LINE
8
DEFAULT_255_2_778
10
40.1422862
20
142.8888581
11
40.1422862
21
142.7951581
0
LINE
8
DEFAULT_255_2_778
10
40.1422862
20
142.7951581
11
40.4402862
21
142.7951581
0
LINE
8
DEFAULT_255_2_778
10
40.4402862
20
142.7951581
11
40.4402862
21
141.5476581
0
LINE
8
DEFAULT_255_2_778
10
40.4402862
20
141.5476581
11
43.4284862
21
141.5476581
0
LINE
8
DEFAULT_255_2_778
10
43.4284862
20
141.5476581
11
43.4284862
21
142.7946581
0
LINE
8
DEFAULT_255_2_778
10
43.4284862
20
142.7946581
11
43.6287862
21
142.7946581
0
LINE
8
DEFAULT_255_2_778
10
43.6287862
20
142.7946581
11
43.6287862
21
142.8877581
0
ARC
8
DEFAULT_255_2_778
10
32.2717766
20
142.5488228
40
0.9943917
50
89.9993462
51
135.093583
0
ARC
8
DEFAULT_255_2_778
10
32.2743713
20
142.5452055
40
0.9987833
50
135.0516896
51
179.9994829
0
ARC
8
DEFAULT_255_2_778
10
32.2694792
20
142.5574117
40
1.5319045
50
89.9136474
51
119.2553253
0
ARC
8
DEFAULT_255_2_778
10
32.2757485
20
142.5455265
40
1.5453376
50
119.2427692
51
171.5801551
0
ARC
8
DEFAULT_255_2_778
10
32.2899982
20
142.5456966
40
1.5594104
50
171.6630005
51
180.0177129
0
ARC
8
DEFAULT_255_2_778
10
45.8195674
20
140.3401744
40
2.7148543
50
270.6520806
51
277.9656017
0
ARC
8
DEFAULT_255_2_778
10
45.8189698
20
140.3594363
40
2.7341219
50
270.0003813
51
270.6600093
0
ARC
8
DEFAULT_255_2_778
10
38.2448592
20
142.6467926
40
0.826622
50
90.0049399
51
115.0249135
0
ARC
8
DEFAULT_255_2_778
10
33.7641091
20
139.4585015
40
1.8188451
50
115.0015295
51
142.5405851
0
ARC
8
DEFAULT_255_2_778
10
33.7728008
20
139.4512297
40
1.8301674
50
142.5253712
51
179.9645489
0
ARC
8
DEFAULT_255_2_778
10
33.7695628
20
139.452531
40
1.826929
50
180.0052964
51
189.2482251
0
ARC
8
DEFAULT_255_2_778
10
33.7832037
20
139.4545179
40
1.8407119
50
189.2410287
51
189.8606029
0
ARC
8
DEFAULT_255_2_778
10
33.7874199
20
139.4552818
40
1.8449968
50
189.8615541
51
192.4757282
0
ARC
8
DEFAULT_255_2_778
10
33.7658797
20
139.4490779
40
1.8226255
50
192.4315869
51
223.1921957
0
ARC
8
DEFAULT_255_2_778
10
33.7656422
20
139.4463767
40
1.8206045
50
223.1353339
51
265.8276267
0
ARC
8
DEFAULT_255_2_778
10
33.7654891
20
139.4582726
40
1.8324581
50
265.8594654
51
270.0030921
0
ARC
8
DEFAULT_255_2_778
10
45.8186864
20
140.3481923
40
2.3929778
50
270.0000367
51
279.0668491
0
LINE
8
DEFAULT_255_2_778
10
38.244788
20
143.6429145
11
38.2441059
21
143.6429148
0
ARC
8
DEFAULT_255_2_778
10
38.2442432
20
142.6488785
40
0.9940363
50
90.0079166
51
115.0227324
0
ARC
8
DEFAULT_255_2_778
10
33.7666342
20
139.4550363
40
1.4937824
50
115.0315976
51
146.8015661
0
ARC
8
DEFAULT_255_2_778
10
33.7701307
20
139.4516101
40
1.4985844
50
146.7651487
51
179.9674397
0
ARC
8
DEFAULT_255_2_778
10
33.7683808
20
139.4526333
40
1.4968343
50
180.0065693
51
189.9028328
0
ARC
8
DEFAULT_255_2_778
10
33.7828538
20
139.4549201
40
1.5114851
50
189.8938748
51
192.4984585
0
ARC
8
DEFAULT_255_2_778
10
33.7645488
20
139.4484625
40
1.4922184
50
192.4084908
51
229.4501377
0
ARC
8
DEFAULT_255_2_778
10
33.7662908
20
139.4476969
40
1.4927702
50
229.3802316
51
268.9957605
0
ARC
8
DEFAULT_255_2_778
10
33.7671785
20
139.465933
40
1.5110192
50
268.9742239
51
269.9510643
0
ARC
8
DEFAULT_255_2_778
10
33.7677006
20
139.4557266
40
1.9923533
50
115.0542009
51
140.6501764
0
ARC
8
DEFAULT_255_2_778
10
33.773372
20
139.4507611
40
1.9998872
50
140.6431918
51
179.9577286
0
ARC
8
DEFAULT_255_2_778
10
33.7678995
20
139.4523918
40
1.9944141
50
180.0044591
51
188.6445676
0
ARC
8
DEFAULT_255_2_778
10
33.7814572
20
139.4542314
40
2.0080943
50
188.6383174
51
189.8801374
0
ARC
8
DEFAULT_255_2_778
10
33.7883518
20
139.4554779
40
2.0151004
50
189.8814158
51
192.4829875
0
ARC
8
DEFAULT_255_2_778
10
33.766404
20
139.4488217
40
1.9922334
50
192.4325201
51
221.1008311
0
ARC
8
DEFAULT_255_2_778
10
33.7664235
20
139.4466032
40
1.9907902
50
221.052348
51
264.8430469
0
ARC
8
DEFAULT_255_2_778
10
33.7657224
20
139.4562593
40
2.0003446
50
264.8879057
51
270.0047413
0
ARC
8
DEFAULT_255_2_778
10
33.2672834
20
139.399153
40
1.9916974
50
179.9205588
51
204.2679526
0
ARC
8
DEFAULT_255_2_778
10
33.2708402
20
139.4008919
40
1.9956545
50
204.271493
51
260.6919895
0
ARC
8
DEFAULT_255_2_778
10
33.2672654
20
139.4088519
40
2.0029375
50
260.8297342
51
270.0206699
0
ARC
8
DEFAULT_255_2_778
10
35.0122417
20
139.3996011
40
4.2816543
50
179.9690424
51
179.9938083
0
ARC
8
DEFAULT_255_2_778
10
33.2646985
20
139.3970899
40
2.5341129
50
179.9327597
51
200.7742006
0
ARC
8
DEFAULT_255_2_778
10
33.2729673
20
139.4033089
40
2.5440515
50
200.8391053
51
259.2169144
0
ARC
8
DEFAULT_255_2_778
10
33.269361
20
139.41397
40
2.5538558
50
259.3411431
51
269.9691966
0
ARC
8
DEFAULT_255_2_778
10
32.2721437
20
142.5485563
40
1.2912583
50
90.015784
51
135.0563979
0
ARC
8
DEFAULT_255_2_778
10
32.2755561
20
142.5455912
40
1.2957682
50
135.0701872
51
180.0166537
0
ARC
8
DEFAULT_255_2_778
10
33.27484
20
139.4016536
40
2.295052
50
179.993487
51
224.9291611
0
ARC
8
DEFAULT_255_2_778
10
33.2685213
20
139.3956601
40
2.2863456
50
224.9346535
51
269.9916473
0
ARC
8
DEFAULT_255_2_778
10
45.8202553
20
140.3319257
40
2.8760114
50
269.9747514
51
277.5449686
0
ARC
8
DEFAULT_255_2_778
10
45.641928
20
143.4738849
40
0.1770606
50
359.8477781
51
359.9695541
0
ARC
8
DEFAULT_255_2_778
10
45.6497033
20
143.4736939
40
0.1692851
50
0.0328027
51
44.9607469
0
ARC
8
DEFAULT_255_2_778
10
45.6497232
20
143.473522
40
0.1693925
50
45.006636
51
90.0119264
0
ARC
8
DEFAULT_255_2_778
10
35.4849329
20
135.8690176
40
1.6463717
50
174.9385044
51
178.8585519
0
ARC
8
DEFAULT_255_2_778
10
34.0049795
20
136.008163
40
0.1601149
50
161.6524944
51
177.8146054
0
ARC
8
DEFAULT_255_2_778
10
33.8560472
20
136.0574011
40
0.0032578
50
107.1243626
51
159.0889683
0
ARC
8
DEFAULT_255_2_778
10
38.2451051
20
142.6461372
40
0.4977774
50
90.0134894
51
115.044126
0
LINE
8
DEFAULT_255_2_778
10
37.601588
20
138.2042145
11
37.603388
21
138.2026145
0
LINE
8
DEFAULT_255_2_778
10
37.603388
20
138.2026145
11
37.609488
21
138.2010145
0
LINE
8
DEFAULT_255_2_778
10
37.609488
20
138.2010145
11
37.619788
21
138.1994145
0
LINE
8
DEFAULT_255_2_778
10
37.619788
20
138.1994145
11
37.634388
21
138.1978145
0
LINE
8
DEFAULT_255_2_778
10
37.634388
20
138.1978145
11
37.652888
21
138.1962145
0
LINE
8
DEFAULT_255_2_778
10
37.652888
20
138.1962145
11
37.675588
21
138.1949145
0
LINE
8
DEFAULT_255_2_778
10
37.675588
20
138.1949145
11
37.733088
21
138.1920145
0
LINE
8
DEFAULT_255_2_778
10
37.733088
20
138.1920145
11
37.806088
21
138.1894145
0
LINE
8
DEFAULT_255_2_778
10
37.806088
20
138.1894145
11
37.893888
21
138.1867145
0
LINE
8
DEFAULT_255_2_778
10
37.893888
20
138.1867145
11
37.995788
21
138.1843145
0
LINE
8
DEFAULT_255_2_778
10
37.995788
20
138.1843145
11
38.110588
21
138.1822145
0
LINE
8
DEFAULT_255_2_778
10
38.110588
20
138.1822145
11
38.237388
21
138.1801145
0
LINE
8
DEFAULT_255_2_778
10
38.237388
20
138.1801145
11
38.374888
21
138.1782145
0
LINE
8
DEFAULT_255_2_778
10
38.374888
20
138.1782145
11
38.676588
21
138.1753145
0
LINE
8
DEFAULT_255_2_778
10
38.676588
20
138.1753145
11
39.004088
21
138.1735145
0
LINE
8
DEFAULT_255_2_778
10
39.004088
20
138.1735145
11
39.344588
21
138.1730145
0
LINE
8
DEFAULT_255_2_778
10
39.344588
20
138.1730145
11
39.685188
21
138.1735145
0
LINE
8
DEFAULT_255_2_778
10
39.685188
20
138.1735145
11
40.012688
21
138.1753145
0
LINE
8
DEFAULT_255_2_778
10
40.012688
20
138.1753145
11
40.314288
21
138.1782145
0
LINE
8
DEFAULT_255_2_778
10
40.314288
20
138.1782145
11
40.451888
21
138.1801145
0
LINE
8
DEFAULT_255_2_778
10
40.451888
20
138.1801145
11
40.578688
21
138.1822145
0
LINE
8
DEFAULT_255_2_778
10
40.578688
20
138.1822145
11
40.693488
21
138.1843145
0
LINE
8
DEFAULT_255_2_778
10
40.693488
20
138.1843145
11
40.795288
21
138.1867145
0
LINE
8
DEFAULT_255_2_778
10
40.795288
20
138.1867145
11
40.883188
21
138.1894145
0
LINE
8
DEFAULT_255_2_778
10
40.883188
20
138.1894145
11
40.956188
21
138.1920145
0
LINE
8
DEFAULT_255_2_778
10
40.956188
20
138.1920145
11
41.013588
21
138.1949145
0
LINE
8
DEFAULT_255_2_778
10
41.013588
20
138.1949145
11
41.036388
21
138.1962145
0
LINE
8
DEFAULT_255_2_778
10
41.036388
20
138.1962145
11
41.054888
21
138.1978145
0
LINE
8
DEFAULT_255_2_778
10
41.054888
20
138.1978145
11
41.069488
21
138.1994145
0
LINE
8
DEFAULT_255_2_778
10
41.069488
20
138.1994145
11
41.079788
21
138.2010145
0
LINE
8
DEFAULT_255_2_778
10
41.079788
20
138.2010145
11
41.085888
21
138.2026145
0
LINE
8
DEFAULT_255_2_778
10
41.085888
20
138.2026145
11
41.087688
21
138.2042145
0
LINE
8
DEFAULT_255_2_778
10
31.275588
20
142.5452145
11
30.730588
21
142.5452145
0
LINE
8
DEFAULT_255_2_778
10
30.730588
20
142.5452145
11
30.730588
21
139.4017145
0
LINE
8
DEFAULT_255_2_778
10
30.730588
20
139.4017145
11
31.275588
21
139.4017145
0
LINE
8
DEFAULT_255_2_778
10
31.275588
20
139.4017145
11
31.275588
21
142.5452145
0
LINE
8
DEFAULT_255_2_778
10
46.195488
20
137.4557145
11
43.228988
21
137.4557145
0
LINE
8
DEFAULT_255_2_778
10
45.818988
20
137.6253145
11
43.228988
21
137.6253145
0
LINE
8
DEFAULT_255_2_778
10
43.228988
20
135.8872145
11
43.228988
21
137.9547145
0
LINE
8
DEFAULT_255_2_778
10
43.228988
20
137.9547145
11
35.718488
21
137.9547145
0
LINE
8
DEFAULT_255_2_778
10
35.718488
20
137.9547145
11
35.718488
21
135.8986145
0
LINE
8
DEFAULT_255_2_778
10
43.229288
20
136.9567145
11
35.718488
21
136.9567145
0
LINE
8
DEFAULT_255_2_778
10
42.893788
20
133.9629145
11
39.932488
21
133.9629145
0
LINE
8
DEFAULT_255_2_778
10
42.893788
20
134.9609145
11
39.932488
21
134.9609145
0
LINE
8
DEFAULT_255_2_778
10
43.228988
20
136.0775145
11
44.435988
21
136.0777145
0
LINE
8
DEFAULT_255_2_778
10
44.435988
20
136.0777145
11
44.435988
21
137.4059145
0
LINE
8
DEFAULT_255_2_778
10
44.435988
20
137.4059145
11
43.228988
21
137.4059145
0
LINE
8
DEFAULT_255_2_778
10
43.228988
20
137.1776145
11
44.435988
21
137.1779145
0
LINE
8
DEFAULT_255_2_778
10
45.320988
20
143.1439145
11
45.818988
21
143.1439145
0
LINE
8
DEFAULT_255_2_778
10
45.818988
20
143.1439145
11
45.818988
21
143.4734145
0
LINE
8
DEFAULT_255_2_778
10
45.818988
20
143.4734145
11
38.244788
21
143.4734145
0
LINE
8
DEFAULT_255_2_778
10
37.895188
20
143.3958145
11
32.995388
21
141.1069145
0
LINE
8
DEFAULT_255_2_778
10
33.765588
20
137.6258145
11
35.717988
21
137.6258145
0
LINE
8
DEFAULT_255_2_778
10
35.717988
20
137.9552145
11
35.219988
21
137.9552145
0
LINE
8
DEFAULT_255_2_778
10
43.726888
20
137.9552145
11
43.228988
21
137.9552145
0
LINE
8
DEFAULT_255_2_778
10
44.811488
20
135.7306145
11
44.811488
21
135.7306145
0
LINE
8
DEFAULT_255_2_778
10
33.714288
20
135.7480145
11
33.714288
21
135.7480145
0
LINE
8
DEFAULT_255_2_778
10
45.688788
20
143.6353145
11
46.021888
21
143.6353145
0
LINE
8
DEFAULT_255_2_778
10
46.475188
20
144.0893145
11
46.226188
21
143.8398145
0
LINE
8
DEFAULT_255_2_778
10
46.226188
20
143.8398145
11
32.271788
21
143.8398145
0
LINE
8
DEFAULT_255_2_778
10
30.979788
20
142.5452145
11
30.979788
21
139.4019145
0
LINE
8
DEFAULT_255_2_778
10
33.268188
20
137.1093145
11
33.715588
21
137.1093145
0
LINE
8
DEFAULT_255_2_778
10
33.715588
20
137.1093145
11
33.976988
21
137.1747145
0
LINE
8
DEFAULT_255_2_778
10
45.803088
20
143.5432145
11
45.930388
21
143.5432145
0
LINE
8
DEFAULT_255_2_778
10
42.893988
20
135.8880145
11
44.626488
21
135.8854145
0
LINE
8
DEFAULT_255_2_778
10
39.530388
20
135.4901145
11
39.778588
21
135.7383145
0
LINE
8
DEFAULT_255_2_778
10
39.778588
20
135.7383145
11
33.714588
21
135.7475145
0
LINE
8
DEFAULT_255_2_778
10
33.714588
20
135.7475145
11
33.466388
21
135.4993145
0
LINE
8
DEFAULT_255_2_778
10
44.626488
20
137.1400145
11
46.195988
21
137.1400145
0
LINE
8
DEFAULT_255_2_778
10
33.976988
20
136.0764145
11
35.718488
21
136.0767145
0
LINE
8
DEFAULT_255_2_778
10
44.435988
20
136.2489145
11
44.626188
21
136.2550145
0
LINE
8
DEFAULT_255_2_778
10
45.818988
20
137.4559145
11
45.818988
21
137.9547145
0
LINE
8
DEFAULT_255_2_778
10
45.818988
20
137.9547145
11
43.727188
21
137.9547145
0
LINE
8
DEFAULT_255_2_778
10
43.727188
20
137.9547145
11
43.727188
21
137.4557145
0
LINE
8
DEFAULT_255_2_778
10
45.649688
20
143.6429145
11
38.244788
21
143.6429145
0
LINE
8
DEFAULT_255_2_778
10
38.244788
20
143.6429145
11
38.244788
21
143.1439145
0
LINE
8
DEFAULT_255_2_778
10
38.244788
20
143.1439145
11
45.320988
21
143.1439145
0
LINE
8
DEFAULT_255_2_778
10
45.320988
20
143.1439145
11
45.320988
21
143.6429145
0
LINE
8
DEFAULT_255_2_778
10
45.059888
20
136.8598145
11
44.812288
21
137.1080145
0
LINE
8
DEFAULT_255_2_778
10
44.812288
20
137.1080145
11
44.812288
21
135.7298145
0
LINE
8
DEFAULT_255_2_778
10
44.812288
20
135.7298145
11
45.059888
21
135.4813145
0
LINE
8
DEFAULT_255_2_778
10
35.220588
20
137.4559145
11
35.220588
21
137.9547145
0
LINE
8
DEFAULT_255_2_778
10
35.220588
20
137.9547145
11
33.766188
21
137.9547145
0
LINE
8
DEFAULT_255_2_778
10
33.766188
20
137.9547145
11
33.766188
21
137.4557145
0
LINE
8
DEFAULT_255_2_778
10
33.766188
20
137.4557145
11
35.718488
21
137.4557145
0
LINE
8
DEFAULT_255_2_778
10
33.855088
20
136.0605145
11
33.976988
21
136.0759145
0
LINE
8
DEFAULT_255_2_778
10
33.976988
20
136.0759145
11
33.976988
21
137.1744145
0
LINE
8
DEFAULT_255_2_778
10
33.976988
20
137.1744145
11
35.718488
21
137.1749145
0
LINE
8
DEFAULT_255_2_778
10
39.603388
20
132.9165145
11
39.778288
21
133.0914145
0
LINE
8
DEFAULT_255_2_778
10
39.778288
20
133.0914145
11
39.778288
21
135.7380145
0
LINE
8
DEFAULT_255_2_778
10
39.778288
20
135.7380145
11
39.932788
21
135.8925145
0
LINE
8
DEFAULT_255_2_778
10
39.932788
20
135.8925145
11
39.932788
21
133.1538145
0
LINE
8
DEFAULT_255_2_778
10
39.932788
20
133.1538145
11
39.779588
21
133.0927145
0
LINE
8
DEFAULT_255_2_778
10
39.779588
20
133.0927145
11
43.047188
21
133.0906145
0
LINE
8
DEFAULT_255_2_778
10
43.047188
20
133.0906145
11
42.893988
21
133.1520145
0
LINE
8
DEFAULT_255_2_778
10
42.893988
20
133.1520145
11
42.893988
21
135.8877145
0
LINE
8
DEFAULT_255_2_778
10
42.893988
20
135.8877145
11
43.048488
21
135.7330145
0
LINE
8
DEFAULT_255_2_778
10
43.048488
20
135.7330145
11
43.048488
21
133.0898145
0
LINE
8
DEFAULT_255_2_778
10
43.048488
20
133.0898145
11
43.296688
21
132.8411145
0
LINE
8
DEFAULT_255_2_778
10
43.296688
20
135.4840145
11
43.048488
21
135.7330145
0
LINE
8
DEFAULT_255_2_778
10
43.048488
20
135.7330145
11
44.811988
21
135.7303145
0
LINE
8
DEFAULT_255_2_778
10
44.811988
20
135.7303145
11
44.626488
21
135.8854145
0
LINE
8
DEFAULT_255_2_778
10
44.626488
20
135.8854145
11
44.626488
21
137.1400145
0
LINE
8
DEFAULT_255_2_778
10
44.626488
20
137.1400145
11
44.810088
21
137.1093145
0
LINE
8
DEFAULT_255_2_778
10
44.810088
20
137.1093145
11
46.226388
21
137.1093145
0
LINE
8
DEFAULT_255_2_778
10
46.226388
20
137.1093145
11
46.195988
21
137.1400145
0
LINE
8
DEFAULT_255_2_778
10
46.195988
20
137.1400145
11
46.195988
21
143.8094145
0
LINE
8
DEFAULT_255_2_778
10
46.195988
20
143.8094145
11
46.226388
21
143.8401145
0
LINE
8
DEFAULT_255_2_778
10
46.226388
20
143.8401145
11
46.226388
21
137.1096145
0
LINE
8
DEFAULT_255_2_778
10
46.226388
20
137.1096145
11
46.475388
21
136.8601145
0
LINE
8
DEFAULT_255_2_778
10
46.022188
20
138.2343145
11
46.022188
21
143.6353145
0
LINE
8
DEFAULT_255_2_778
10
46.022188
20
143.6353145
11
45.930388
21
143.5435145
0
LINE
8
DEFAULT_255_2_778
10
45.930388
20
143.5435145
11
45.930388
21
138.2343145
0
LINE
8
DEFAULT_255_2_778
10
45.930388
20
138.2343145
11
46.195988
21
138.2343145
0
LINE
8
DEFAULT_255_2_778
10
39.932788
20
135.8925145
11
33.837888
21
135.9018145
0
LINE
8
DEFAULT_255_2_778
10
33.837888
20
135.9018145
11
33.714788
21
135.7478145
0
LINE
8
DEFAULT_255_2_778
10
33.714788
20
135.7478145
11
33.714788
21
137.1088145
0
LINE
8
DEFAULT_255_2_778
10
33.714788
20
137.1088145
11
33.466388
21
136.8598145
0
LINE
8
DEFAULT_255_2_778
10
38.034388
20
143.0971145
11
37.824088
21
143.5493145
0
LINE
8
DEFAULT_255_2_778
10
37.824088
20
143.5493145
11
32.924288
21
141.2604145
0
LINE
8
DEFAULT_255_2_778
10
32.924288
20
141.2604145
11
33.134888
21
140.8082145
0
LINE
8
DEFAULT_255_2_778
10
33.134888
20
140.8082145
11
38.034388
21
143.0971145
0
ARC
8
DEFAULT_255_2_778
10
48.8903237
20
140.5489276
40
0.9973476
50
252.7711508
51
265.2318511
0
ARC
8
DEFAULT_255_2_778
10
48.8914994
20
140.5491079
40
0.9980752
50
193.5047353
51
222.5067282
0
ARC
8
DEFAULT_255_2_778
10
50.705784
20
140.5495971
40
1.9986637
50
156.3758629
51
179.9904085
0
ARC
8
DEFAULT_255_2_778
10
45.8054716
20
140.3503404
40
2.4034488
50
347.7414466
51
359.9950225
0
ARC
8
DEFAULT_255_2_778
10
45.8105894
20
140.3501133
40
2.8965311
50
344.481167
51
0.0003625
0
ARC
8
DEFAULT_255_2_778
10
50.700821
20
140.5505048
40
2.4919007
50
165.188552
51
180.0131788
0
ARC
8
DEFAULT_255_2_778
10
50.7040137
20
140.5507891
40
2.1662937
50
158.5314586
51
180.0226793
0
ARC
8
DEFAULT_255_2_778
10
45.816703
20
140.3495246
40
2.7210175
50
344.7111393
51
0.0190993
0
LINE
8
DEFAULT_255_2_778
10
48.2089203
20
140.5499316
11
48.7068203
21
140.5499316
0
LINE
8
DEFAULT_255_2_778
10
48.7068203
20
140.5499316
11
48.7068203
21
140.3504316
0
LINE
8
DEFAULT_255_2_778
10
48.7068203
20
140.3504316
11
48.2089203
21
140.3504316
0
LINE
8
DEFAULT_255_2_778
10
48.2089203
20
140.3504316
11
48.2089203
21
140.5499316
0
LINE
8
DEFAULT_255_2_778
10
48.5377203
20
140.5499316
11
48.5377203
21
140.3504316
0
ARC
8
DEFAULT_255_2_778
10
41.4152292
20
16.8769407
40
4.5107208
50
269.9498628
51
284.3559548
0
ARC
8
DEFAULT_255_2_778
10
41.4266189
20
16.8197755
40
4.4525178
50
284.3963581
51
306.8702011
0
ARC
8
DEFAULT_255_2_778
10
41.4115584
20
16.8433864
40
4.4804432
50
306.8431125
51
340.4407926
0
ARC
8
DEFAULT_255_2_778
10
41.3964107
20
16.8446588
40
4.4951445
50
340.4901478
51
356.1990938
0
ARC
8
DEFAULT_255_2_778
10
41.2866733
20
16.8547226
40
4.6053086
50
356.1646657
51
0.0049639
0
ARC
8
DEFAULT_255_2_778
10
41.357149
20
16.8591037
40
4.5348348
50
359.9496885
51
14.260232
0
ARC
8
DEFAULT_255_2_778
10
41.4232785
20
16.8731161
40
4.4672921
50
14.2949735
51
36.1502742
0
ARC
8
DEFAULT_255_2_778
10
41.4167637
20
16.8720153
40
4.4732029
50
36.1124341
51
71.0064164
0
ARC
8
DEFAULT_255_2_778
10
41.4209426
20
16.8681209
40
4.4755283
50
71.0732292
51
86.462334
0
ARC
8
DEFAULT_255_2_778
10
41.4116245
20
16.7614305
40
4.5825912
50
86.428363
51
90.0042824
0
ARC
8
DEFAULT_255_2_778
10
41.4073349
20
16.8333025
40
4.5107208
50
89.9498628
51
104.3559548
0
ARC
8
DEFAULT_255_2_778
10
41.3959452
20
16.8904677
40
4.4525178
50
104.3963581
51
126.8702011
0
ARC
8
DEFAULT_255_2_778
10
41.4110056
20
16.8668569
40
4.4804432
50
126.8431125
51
160.4407926
0
ARC
8
DEFAULT_255_2_778
10
41.4261533
20
16.8655844
40
4.4951445
50
160.4901478
51
176.1990938
0
ARC
8
DEFAULT_255_2_778
10
41.5358907
20
16.8555206
40
4.6053086
50
176.1646657
51
180.0049639
0
ARC
8
DEFAULT_255_2_778
10
41.465415
20
16.8511396
40
4.5348348
50
179.9496885
51
194.260232
0
ARC
8
DEFAULT_255_2_778
10
41.3992856
20
16.8371271
40
4.4672921
50
194.2949735
51
216.1502742
0
ARC
8
DEFAULT_255_2_778
10
41.4058004
20
16.8382279
40
4.4732029
50
216.1124341
51
251.0064164
0
ARC
8
DEFAULT_255_2_778
10
41.4016214
20
16.8421224
40
4.4755283
50
251.0732292
51
266.462334
0
ARC
8
DEFAULT_255_2_778
10
41.4109395
20
16.9488127
40
4.5825912
50
266.428363
51
270.0042824
0
LINE
8
DEFAULT_255_2_778
10
41.411282
20
12.3662216
11
41.411282
21
12.3662216
0
ARC
8
DEFAULT_255_2_778
10
41.4151117
20
16.8657851
40
3.6283463
50
269.9392405
51
286.3115386
0
ARC
8
DEFAULT_255_2_778
10
41.4190852
20
16.8363135
40
3.5989476
50
286.3826049
51
318.0958673
0
ARC
8
DEFAULT_255_2_778
10
41.4179169
20
16.8418754
40
3.6035335
50
318.0424552
51
344.9710865
0
ARC
8
DEFAULT_255_2_778
10
41.3703375
20
16.8516763
40
3.6520282
50
345.0161448
51
0.0543542
0
ARC
8
DEFAULT_255_2_778
10
41.3744926
20
16.858991
40
3.6478735
50
359.9395272
51
16.076736
0
ARC
8
DEFAULT_255_2_778
10
41.4161409
20
16.8674531
40
3.6055122
50
16.1308018
51
45.0528204
0
ARC
8
DEFAULT_255_2_778
10
41.4205496
20
16.8765269
40
3.5959771
50
45.0004002
51
74.1904417
0
ARC
8
DEFAULT_255_2_778
10
41.4149214
20
16.842243
40
3.6304998
50
74.2523858
51
90.057719
0
ARC
8
DEFAULT_255_2_778
10
41.4074181
20
16.8444982
40
3.6282447
50
89.9392664
51
106.3113058
0
ARC
8
DEFAULT_255_2_778
10
41.4034446
20
16.8739528
40
3.5988624
50
106.3822941
51
138.0952784
0
ARC
8
DEFAULT_255_2_778
10
41.4045753
20
16.868428
40
3.6033954
50
138.0419048
51
164.9709713
0
ARC
8
DEFAULT_255_2_778
10
41.4522342
20
16.8586071
40
3.6519718
50
165.016053
51
180.0543827
0
ARC
8
DEFAULT_255_2_778
10
41.4482501
20
16.8512966
40
3.6479881
50
179.9396216
51
196.0764478
0
ARC
8
DEFAULT_255_2_778
10
41.4067159
20
16.8428675
40
3.6057456
50
196.1305086
51
225.0511061
0
ARC
8
DEFAULT_255_2_778
10
41.4021121
20
16.8335773
40
3.5959198
50
224.9984461
51
254.1886848
0
ARC
8
DEFAULT_255_2_778
10
41.4076114
20
16.8674606
40
3.6300216
50
254.2508883
51
270.0576526
0
LINE
8
DEFAULT_255_2_778
10
41.4112641
20
13.2374408
11
41.4112641
21
13.2374408
0
ARC
8
DEFAULT_255_2_778
10
41.4147874
20
16.8599596
40
3.1360869
50
269.931584
51
287.7311942
0
ARC
8
DEFAULT_255_2_778
10
41.4133813
20
16.8452029
40
3.1224648
50
287.8382369
51
343.5141226
0
ARC
8
DEFAULT_255_2_778
10
41.3799931
20
16.8514377
40
3.1562516
50
343.5775926
51
0.0623962
0
ARC
8
DEFAULT_255_2_778
10
41.3830463
20
16.8586317
40
3.1531986
50
359.9317373
51
17.4907742
0
ARC
8
DEFAULT_255_2_778
10
41.4135025
20
16.8646709
40
3.1223374
50
17.5530495
51
73.0818325
0
ARC
8
DEFAULT_255_2_778
10
41.4145167
20
16.8475232
40
3.1384536
50
73.1906449
51
90.063421
0
ARC
8
DEFAULT_255_2_778
10
41.4072955
20
16.849797
40
3.1361801
50
89.9315417
51
107.7315146
0
ARC
8
DEFAULT_255_2_778
10
41.4087181
20
16.8645375
40
3.1225785
50
107.8387516
51
163.5143972
0
ARC
8
DEFAULT_255_2_778
10
41.4420601
20
16.8583095
40
3.1563192
50
163.5777432
51
180.0623467
0
ARC
8
DEFAULT_255_2_778
10
41.4388234
20
16.8511119
40
3.1530829
50
179.9316203
51
197.4911346
0
ARC
8
DEFAULT_255_2_778
10
41.4083559
20
16.8451023
40
3.1222197
50
197.5539962
51
253.0846571
0
ARC
8
DEFAULT_255_2_778
10
41.4075634
20
16.8627907
40
3.1389179
50
253.1924388
51
270.0635085
0
LINE
8
DEFAULT_255_2_778
10
41.4110427
20
13.7238749
11
41.4110427
21
13.7238749
0
ARC
8
DEFAULT_255_2_778
10
41.4147173
20
16.8584637
40
2.997105
50
269.9288265
51
288.2639555
0
ARC
8
DEFAULT_255_2_778
10
41.4130269
20
16.8459704
40
2.9857759
50
288.3698932
51
344.9095784
0
ARC
8
DEFAULT_255_2_778
10
41.3774163
20
16.8521891
40
3.0217793
50
344.9715195
51
0.0544542
0
ARC
8
DEFAULT_255_2_778
10
41.3854964
20
16.8587409
40
3.0137001
50
359.9300389
51
17.8450823
0
ARC
8
DEFAULT_255_2_778
10
41.4135758
20
16.8644898
40
2.9852117
50
17.9052037
51
74.30425
0
ARC
8
DEFAULT_255_2_778
10
41.4139688
20
16.8446925
40
3.00417
50
74.4136119
51
90.0567313
0
ARC
8
DEFAULT_255_2_778
10
41.407274
20
16.8519366
40
2.9969267
50
89.9288765
51
108.2651375
0
ARC
8
DEFAULT_255_2_778
10
41.4090887
20
16.8641522
40
2.9859004
50
108.3716703
51
164.9100929
0
ARC
8
DEFAULT_255_2_778
10
41.444652
20
16.8579295
40
3.0218591
50
164.9717175
51
180.0543883
0
ARC
8
DEFAULT_255_2_778
10
41.4363978
20
16.8513763
40
3.0136058
50
179.9299464
51
197.8453653
0
ARC
8
DEFAULT_255_2_778
10
41.4082974
20
16.8456434
40
2.9851024
50
197.9059065
51
254.3059586
0
ARC
8
DEFAULT_255_2_778
10
41.4080181
20
16.8657168
40
3.0043573
50
254.4146403
51
270.0567583
0
LINE
8
DEFAULT_255_2_778
10
41.4109942
20
13.861361
11
41.4109942
21
13.861361
0
ARC
8
DEFAULT_255_2_778
10
41.4150102
20
16.8562596
40
2.7781613
50
269.9240103
51
289.1482484
0
ARC
8
DEFAULT_255_2_778
10
41.4132128
20
16.846339
40
2.7693837
50
289.2507016
51
346.9248544
0
ARC
8
DEFAULT_255_2_778
10
41.3737112
20
16.8527606
40
2.8093152
50
346.9795388
51
0.0436474
0
ARC
8
DEFAULT_255_2_778
10
41.390107
20
16.8586074
40
2.7929211
50
359.9239583
51
18.9036037
0
ARC
8
DEFAULT_255_2_778
10
41.4146022
20
16.864212
40
2.7679326
50
18.9581186
51
76.7621108
0
ARC
8
DEFAULT_255_2_778
10
41.4134593
20
16.837516
40
2.7941855
50
76.8646519
51
90.0437509
0
ARC
8
DEFAULT_255_2_778
10
41.4076354
20
16.8532754
40
2.7784278
50
89.9239021
51
109.1473207
0
ARC
8
DEFAULT_255_2_778
10
41.4093224
20
16.8634545
40
2.7693695
50
109.2493674
51
166.9246188
0
ARC
8
DEFAULT_255_2_778
10
41.44884
20
16.8570391
40
2.8093153
50
166.9795027
51
180.0436122
0
ARC
8
DEFAULT_255_2_778
10
41.4324163
20
16.8511917
40
2.7928932
50
179.9239099
51
198.9037502
0
ARC
8
DEFAULT_255_2_778
10
41.4079517
20
16.8456132
40
2.767942
50
198.9585714
51
256.7634382
0
ARC
8
DEFAULT_255_2_778
10
41.4091894
20
16.8725832
40
2.7944832
50
256.8653525
51
270.0438004
0
LINE
8
DEFAULT_255_2_778
10
41.4113256
20
14.0781007
11
41.4113256
21
14.0781007
0
LINE
8
DEFAULT_255_2_778
10
41.0128384
20
15.5306208
11
41.0128384
21
16.0854208
0
LINE
8
DEFAULT_255_2_778
10
41.8097384
20
15.5306208
11
41.8097384
21
16.0854208
0
LINE
8
DEFAULT_255_2_778
10
41.8097384
20
18.1790208
11
41.8097384
21
17.6242208
0
LINE
8
DEFAULT_255_2_778
10
41.0128384
20
18.1790208
11
41.0128384
21
17.6242208
0
LINE
8
DEFAULT_255_2_778
10
41.8097384
20
18.1790208
11
41.8097384
21
18.9704208
0
LINE
8
DEFAULT_255_2_778
10
41.8097384
20
18.9704208
11
41.0128384
21
18.9704208
0
LINE
8
DEFAULT_255_2_778
10
41.0128384
20
18.9704208
11
41.0128384
21
18.1790208
0
ARC
8
DEFAULT_255_2_778
10
41.4134161
20
16.8540795
40
1.3827643
50
181.7372682
51
253.1558189
0
ARC
8
DEFAULT_255_2_778
10
41.427291
20
16.8549215
40
1.3966584
50
179.9992081
51
181.754541
0
ARC
8
DEFAULT_255_2_778
10
41.4133649
20
16.8557531
40
1.3827325
50
108.3182627
51
180.0336561
0
ARC
8
DEFAULT_255_2_778
10
41.4141732
20
16.8491045
40
1.3892988
50
106.7952221
51
108.263733
0
ARC
8
DEFAULT_255_2_778
10
41.4090491
20
16.8540795
40
1.3827643
50
286.8441811
51
358.2627318
0
ARC
8
DEFAULT_255_2_778
10
41.3951742
20
16.8549215
40
1.3966584
50
358.245459
51
0.0007919
0
ARC
8
DEFAULT_255_2_778
10
41.4091003
20
16.8557531
40
1.3827325
50
359.9663439
51
71.6817373
0
ARC
8
DEFAULT_255_2_778
10
41.408292
20
16.8491045
40
1.3892988
50
71.736267
51
73.2047779
0
ARC
8
DEFAULT_255_2_778
10
40.817733
20
15.8253607
40
0.3248754
50
29.8455809
51
53.0944057
0
ARC
8
DEFAULT_255_2_778
10
41.4111308
20
16.8490509
40
1.1585363
50
262.7647308
51
269.9994754
0
ARC
8
DEFAULT_255_2_778
10
41.4111096
20
16.8490509
40
1.1585363
50
270.0005246
51
277.2352692
0
ARC
8
DEFAULT_255_2_778
10
42.007685
20
15.8222615
40
0.3292625
50
127.0238999
51
149.9704877
0
ARC
8
DEFAULT_255_2_778
10
42.0048724
20
15.8257808
40
0.3247593
50
90.0195363
51
127.0015975
0
LINE
8
DEFAULT_255_2_778
10
42.0047617
20
16.1505399
11
42.0052202
21
16.1505396
0
ARC
8
DEFAULT_255_2_778
10
42.3672757
20
16.3013224
40
0.1507829
50
270.0548898
51
330.047656
0
ARC
8
DEFAULT_255_2_778
10
42.3674586
20
16.3013466
40
0.1506366
50
330.0049351
51
0.0163314
0
ARC
8
DEFAULT_255_2_778
10
42.3674586
20
16.3014325
40
0.1506366
50
359.9836686
51
29.9950649
0
ARC
8
DEFAULT_255_2_778
10
42.6006323
20
16.85454
40
0.3276623
50
179.9891458
51
209.913068
0
ARC
8
DEFAULT_255_2_778
10
42.4386465
20
16.8546931
40
0.1656764
50
179.9055564
51
180.0314812
0
ARC
8
DEFAULT_255_2_778
10
42.6010399
20
16.8546307
40
0.3280697
50
150.1060171
51
179.9414101
0
ARC
8
DEFAULT_255_2_778
10
42.3674586
20
17.4077466
40
0.1506366
50
330.0049351
51
0.0163314
0
ARC
8
DEFAULT_255_2_778
10
42.3674586
20
17.4078325
40
0.1506366
50
359.9836686
51
29.9950649
0
ARC
8
DEFAULT_255_2_778
10
42.3673966
20
17.4080659
40
0.1505737
50
29.9063666
51
89.9910382
0
ARC
8
DEFAULT_255_2_778
10
42.0050889
20
17.8840486
40
0.3254091
50
233.0368654
51
270.0231189
0
ARC
8
DEFAULT_255_2_778
10
42.0086226
20
17.8877467
40
0.3304891
50
210.0726091
51
232.9328792
0
ARC
8
DEFAULT_255_2_778
10
41.4111096
20
16.8602283
40
1.1585363
50
82.7647308
51
89.9994754
0
ARC
8
DEFAULT_255_2_778
10
41.4111308
20
16.8602283
40
1.1585363
50
90.0005246
51
97.2352692
0
ARC
8
DEFAULT_255_2_778
10
40.8136826
20
17.8873977
40
0.3301717
50
307.094658
51
329.9654807
0
ARC
8
DEFAULT_255_2_778
10
40.8170776
20
17.8842687
40
0.3256292
50
269.9898958
51
306.9502348
0
ARC
8
DEFAULT_255_2_778
10
40.45482
20
17.4081069
40
0.1505327
50
90.0379935
51
150.1026602
0
ARC
8
DEFAULT_255_2_778
10
40.4547818
20
17.4078325
40
0.1506366
50
150.0049351
51
180.0163314
0
ARC
8
DEFAULT_255_2_778
10
40.4547818
20
17.4077466
40
0.1506366
50
179.9836686
51
209.9950649
0
ARC
8
DEFAULT_255_2_778
10
40.2211005
20
16.8546307
40
0.3280697
50
0.0585899
51
29.8939829
0
ARC
8
DEFAULT_255_2_778
10
40.3834938
20
16.8546931
40
0.1656764
50
359.9685188
51
0.0944436
0
ARC
8
DEFAULT_255_2_778
10
40.2215077
20
16.8545397
40
0.3276625
50
330.087005
51
0.0109051
0
ARC
8
DEFAULT_255_2_778
10
40.4547818
20
16.3014325
40
0.1506366
50
150.0049351
51
180.0163314
0
ARC
8
DEFAULT_255_2_778
10
40.4547818
20
16.3013466
40
0.1506366
50
179.9836686
51
209.9950649
0
ARC
8
DEFAULT_255_2_778
10
40.4549415
20
16.3012822
40
0.1507428
50
209.9435167
51
269.9158823
0
LINE
8
DEFAULT_255_2_778
10
40.8170202
20
16.1505396
11
40.8174787
21
16.1505399
0
ARC
8
DEFAULT_255_2_778
10
40.8172947
20
15.8255617
40
0.3249783
50
53.0113295
51
89.9675566
0
LINE
8
DEFAULT_255_2_778
10
41.0128202
20
15.5306396
11
41.0128202
21
14.7392396
0
LINE
8
DEFAULT_255_2_778
10
41.0128202
20
14.7392396
11
41.8097202
21
14.7392396
0
LINE
8
DEFAULT_255_2_778
10
41.8097202
20
14.7392396
11
41.8097202
21
15.5306396
0
LINE
8
DEFAULT_255_2_778
10
41.0995202
20
15.9870396
11
41.2652202
21
15.6997396
0
LINE
8
DEFAULT_255_2_778
10
41.5570202
20
15.6997396
11
41.7226202
21
15.9870396
0
LINE
8
DEFAULT_255_2_778
10
42.0052202
20
16.1505396
11
42.3674202
21
16.1505396
0
LINE
8
DEFAULT_255_2_778
10
42.4979202
20
16.3767396
11
42.3166202
21
16.6911396
0
LINE
8
DEFAULT_255_2_778
10
42.3166202
20
17.0181396
11
42.4979202
21
17.3324396
0
LINE
8
DEFAULT_255_2_778
10
42.3674202
20
17.5586396
11
42.0052202
21
17.5586396
0
LINE
8
DEFAULT_255_2_778
10
41.7226202
20
17.7221396
11
41.5570202
21
18.0095396
0
LINE
8
DEFAULT_255_2_778
10
41.2652202
20
18.0095396
11
41.0995202
21
17.7221396
0
LINE
8
DEFAULT_255_2_778
10
40.8170202
20
17.5586396
11
40.4547202
21
17.5586396
0
LINE
8
DEFAULT_255_2_778
10
40.3243202
20
17.3324396
11
40.5055202
21
17.0181396
0
LINE
8
DEFAULT_255_2_778
10
40.5055202
20
16.6911396
11
40.3243202
21
16.3767396
0
LINE
8
DEFAULT_255_2_778
10
40.4547202
20
16.1505396
11
40.8170202
21
16.1505396
0
LINE
8
DEFAULT_255_2_778
10
41.0128202
20
16.0851396
11
41.0128202
21
16.0851396
0
ARC
8
DEFAULT_255_2_778
10
127.2026781
20
11.0131615
40
0.2765439
50
180.8902583
51
200.3339784
0
ARC
8
DEFAULT_255_2_778
10
127.1767353
20
11.0047517
40
0.249298
50
200.5935112
51
221.9301622
0
ARC
8
DEFAULT_255_2_778
10
127.1693136
20
10.9981521
40
0.2393666
50
221.9419905
51
243.9161403
0
ARC
8
DEFAULT_255_2_778
10
127.1677842
20
10.995994
40
0.2367561
50
244.018944
51
265.8298275
0
LINE
8
DEFAULT_255_2_778
10
126.6862675
20
10.7601647
11
127.1500675
21
10.7598647
0
LINE
8
DEFAULT_255_2_778
10
127.7874675
20
10.7183647
11
127.1500675
21
10.7598647
0
LINE
8
DEFAULT_255_2_778
10
119.8467675
20
10.7654647
11
126.6864675
21
10.7601647
0
LINE
8
DEFAULT_255_2_778
10
126.6862675
20
18.7796647
11
126.6862675
21
10.7601647
0
LINE
8
DEFAULT_255_2_778
10
119.8467038
20
11.0152617
11
119.8467038
21
10.7654617
0
LINE
8
DEFAULT_255_2_778
10
118.7455038
20
10.7181617
11
119.7594038
21
10.7654617
0
LINE
8
DEFAULT_255_2_778
10
119.7594038
20
10.7654617
11
119.8464038
21
10.7654617
0
ARC
8
DEFAULT_255_2_778
10
119.3655166
20
10.9967121
40
0.237384
50
273.9442435
51
295.9104302
0
ARC
8
DEFAULT_255_2_778
10
119.3633336
20
10.9987345
40
0.2401594
50
296.1680648
51
318.0493879
0
ARC
8
DEFAULT_255_2_778
10
119.3539062
20
11.0063384
40
0.2522548
50
318.19632
51
339.2799992
0
ARC
8
DEFAULT_255_2_778
10
119.3330308
20
11.0127197
40
0.2740413
50
339.5763084
51
359.1993451
0
LINE
8
DEFAULT_255_2_778
10
119.6067453
20
11.0088904
11
119.8467453
21
11.0151904
0
LINE
8
DEFAULT_255_2_778
10
119.8306453
20
18.7796904
11
119.8464453
21
11.0151904
0
LINE
8
DEFAULT_255_2_778
10
126.9262453
20
11.0088904
11
126.6862453
21
11.0151904
0
LINE
8
DEFAULT_255_2_778
10
126.6862453
20
11.0151904
11
119.8464453
21
11.0151904
0
LINE
8
DEFAULT_255_2_778
10
119.6062453
20
18.7894904
11
119.6070453
21
11.0088904
0
LINE
8
DEFAULT_255_2_778
10
118.8503453
20
10.9728904
11
118.9709453
21
10.9673904
0
LINE
8
DEFAULT_255_2_778
10
118.9709453
20
10.9673904
11
119.6067453
21
11.0088904
0
LINE
8
DEFAULT_255_2_778
10
126.9270453
20
18.7894904
11
126.9262453
21
11.0088904
0
LINE
8
DEFAULT_255_2_778
10
127.6826453
20
10.9752904
11
127.5620453
21
10.9673904
0
LINE
8
DEFAULT_255_2_778
10
127.5620453
20
10.9673904
11
126.9262453
21
11.0088904
0
ARC
8
DEFAULT_255_2_778
10
126.8486781
20
19.2990065
40
0.5153926
50
272.2082623
51
278.7104303
0
ARC
8
DEFAULT_255_2_778
10
126.7133872
20
21.7540481
40
2.9741011
50
270.4887782
51
272.9903077
0
ARC
8
DEFAULT_255_2_778
10
126.6865828
20
23.3626683
40
4.58291
50
269.995584
51
270.652315
0
ARC
8
DEFAULT_255_2_778
10
119.6840616
20
19.2952252
40
0.5116522
50
261.2275933
51
267.6680346
0
ARC
8
DEFAULT_255_2_778
10
119.8226529
20
21.7826552
40
3.0028928
50
266.9569946
51
270.0408105
0
ARC
8
DEFAULT_255_2_778
10
119.8306274
20
22.3270566
40
3.5472983
50
269.9057439
51
270.0000352
0
LINE
8
DEFAULT_255_2_778
10
119.8306296
20
18.7797583
11
126.6862296
21
18.7797583
0
LINE
8
DEFAULT_255_2_778
10
127.2757296
20
18.8577583
11
127.6559296
21
19.0072583
0
LINE
8
DEFAULT_255_2_778
10
127.6826296
20
19.1186583
11
127.6559296
21
19.0072583
0
LINE
8
DEFAULT_255_2_778
10
119.2575296
20
18.8577583
11
118.8773296
21
19.0072583
0
LINE
8
DEFAULT_255_2_778
10
118.8773296
20
19.0072583
11
127.6559296
21
19.0072583
0
LINE
8
DEFAULT_255_2_778
10
119.2572745
20
18.8578022
11
127.2754745
21
18.8578022
0
LINE
8
DEFAULT_255_2_778
10
126.9267745
20
18.7895022
11
127.2754745
21
18.8578022
0
LINE
8
DEFAULT_255_2_778
10
119.6059745
20
18.7895022
11
119.2572745
21
18.8578022
0
LINE
8
DEFAULT_255_2_778
10
127.6826745
20
10.9753022
11
127.6826745
21
19.1186022
0
LINE
8
DEFAULT_255_2_778
10
128.3097745
20
19.6539022
11
127.6826745
21
19.1186022
0
LINE
8
DEFAULT_255_2_778
10
127.6826
20
10.9752869
11
127.6826
21
10.9728869
0
ARC
8
DEFAULT_255_2_778
10
127.9032531
20
10.9110145
40
0.1865385
50
266.8096646
51
269.3747957
0
ARC
8
DEFAULT_255_2_778
10
127.9045273
20
10.9236095
40
0.1991858
50
244.863428
51
266.6453448
0
ARC
8
DEFAULT_255_2_778
10
127.9151395
20
10.9435486
40
0.2217474
50
221.7167839
51
244.5695058
0
ARC
8
DEFAULT_255_2_778
10
127.9386592
20
10.9663306
40
0.2544674
50
200.6989748
51
222.0217101
0
ARC
8
DEFAULT_255_2_778
10
127.9579936
20
10.9748829
40
0.275579
50
181.3091906
51
200.9414859
0
ARC
8
DEFAULT_255_2_778
10
127.9587331
20
10.9749806
40
0.2763208
50
180.3511614
51
181.3259269
0
ARC
8
DEFAULT_255_2_778
10
128.9818388
20
10.9817223
40
0.6721211
50
180.0200581
51
188.3353606
0
LINE
8
DEFAULT_255_2_778
10
128.3941176
20
10.731087
11
128.3782176
21
10.736387
0
LINE
8
DEFAULT_255_2_778
10
128.3782176
20
10.736387
11
128.3629176
21
10.750487
0
LINE
8
DEFAULT_255_2_778
10
128.3629176
20
10.750487
11
128.3486176
21
10.772887
0
LINE
8
DEFAULT_255_2_778
10
128.3486176
20
10.772887
11
128.3359176
21
10.803387
0
LINE
8
DEFAULT_255_2_778
10
128.3359176
20
10.803387
11
128.3250176
21
10.840987
0
LINE
8
DEFAULT_255_2_778
10
128.3250176
20
10.840987
11
128.3168176
21
10.884287
0
LINE
8
DEFAULT_255_2_778
10
128.3097176
20
10.981487
11
127.6826176
21
10.972987
0
LINE
8
DEFAULT_255_2_778
10
118.8503176
20
19.118687
11
118.8503176
21
10.972987
0
LINE
8
DEFAULT_255_2_778
10
118.8503
20
10.9729
11
118.8503
21
10.9729
0
ARC
8
DEFAULT_255_2_778
10
117.5256312
20
10.9835991
40
0.6980784
50
351.8191918
51
359.8165808
0
ARC
8
DEFAULT_255_2_778
10
118.6303847
20
10.9052471
40
0.1807876
50
270.4187298
51
272.9797257
0
ARC
8
DEFAULT_255_2_778
10
118.6287442
20
10.9215144
40
0.1971198
50
273.2101379
51
295.2746056
0
ARC
8
DEFAULT_255_2_778
10
118.6177201
20
10.9440727
40
0.2222258
50
295.3615591
51
318.1697112
0
ARC
8
DEFAULT_255_2_778
10
118.5928279
20
10.9669705
40
0.2560453
50
318.0666809
51
339.2759333
0
ARC
8
DEFAULT_255_2_778
10
118.5674536
20
10.9762725
40
0.2830695
50
339.3324168
51
359.3708749
0
LINE
8
DEFAULT_255_2_778
10
118.1547059
20
10.7363644
11
118.1388059
21
10.7310644
0
LINE
8
DEFAULT_255_2_778
10
118.1388059
20
10.7310644
11
118.1703059
21
10.7503644
0
LINE
8
DEFAULT_255_2_778
10
118.1703059
20
10.7503644
11
118.1846059
21
10.7728644
0
LINE
8
DEFAULT_255_2_778
10
118.1846059
20
10.7728644
11
118.1975059
21
10.8032644
0
LINE
8
DEFAULT_255_2_778
10
118.1975059
20
10.8032644
11
118.2084059
21
10.8408644
0
LINE
8
DEFAULT_255_2_778
10
118.2084059
20
10.8408644
11
118.2166059
21
10.8842644
0
LINE
8
DEFAULT_255_2_778
10
118.2237059
20
10.9813644
11
118.8508059
21
10.9728644
0
ARC
8
DEFAULT_255_2_778
10
123.2702915
20
15.2134596
40
3.1360869
50
269.931584
51
287.7311942
0
ARC
8
DEFAULT_255_2_778
10
123.2688853
20
15.1987029
40
3.1224648
50
287.8382369
51
343.5141226
0
ARC
8
DEFAULT_255_2_778
10
123.2354971
20
15.2049377
40
3.1562516
50
343.5775926
51
0.0623962
0
ARC
8
DEFAULT_255_2_778
10
123.2385503
20
15.2121317
40
3.1531986
50
359.9317373
51
17.4907742
0
ARC
8
DEFAULT_255_2_778
10
123.2690065
20
15.2181709
40
3.1223374
50
17.5530495
51
73.0818325
0
ARC
8
DEFAULT_255_2_778
10
123.2700207
20
15.2010232
40
3.1384536
50
73.1906449
51
90.063421
0
ARC
8
DEFAULT_255_2_778
10
123.2627996
20
15.203297
40
3.1361801
50
89.9315417
51
107.7315146
0
ARC
8
DEFAULT_255_2_778
10
123.2642221
20
15.2180375
40
3.1225785
50
107.8387516
51
163.5143972
0
ARC
8
DEFAULT_255_2_778
10
123.2975642
20
15.2118095
40
3.1563192
50
163.5777432
51
180.0623467
0
ARC
8
DEFAULT_255_2_778
10
123.2943274
20
15.2046119
40
3.1530829
50
179.9316203
51
197.4911346
0
ARC
8
DEFAULT_255_2_778
10
123.2638599
20
15.1986023
40
3.1222197
50
197.5539962
51
253.0846571
0
ARC
8
DEFAULT_255_2_778
10
123.2630674
20
15.2162907
40
3.1389179
50
253.1924388
51
270.0635085
0
LINE
8
DEFAULT_255_2_778
10
123.2665467
20
12.0773749
11
123.2665467
21
12.0773749
0
ARC
8
DEFAULT_255_2_778
10
123.2702173
20
15.2117637
40
2.997105
50
269.9288265
51
288.2639555
0
ARC
8
DEFAULT_255_2_778
10
123.2685269
20
15.1992704
40
2.9857759
50
288.3698932
51
344.9095784
0
ARC
8
DEFAULT_255_2_778
10
123.2329163
20
15.2054891
40
3.0217793
50
344.9715195
51
0.0544542
0
ARC
8
DEFAULT_255_2_778
10
123.2409964
20
15.2120409
40
3.0137001
50
359.9300389
51
17.8450823
0
ARC
8
DEFAULT_255_2_778
10
123.2690758
20
15.2177898
40
2.9852117
50
17.9052037
51
74.30425
0
ARC
8
DEFAULT_255_2_778
10
123.2694688
20
15.1979925
40
3.00417
50
74.4136119
51
90.0567313
0
ARC
8
DEFAULT_255_2_778
10
123.262774
20
15.2052366
40
2.9969267
50
89.9288765
51
108.2651375
0
ARC
8
DEFAULT_255_2_778
10
123.2645887
20
15.2174522
40
2.9859004
50
108.3716703
51
164.9100929
0
ARC
8
DEFAULT_255_2_778
10
123.300152
20
15.2112295
40
3.0218591
50
164.9717175
51
180.0543883
0
ARC
8
DEFAULT_255_2_778
10
123.2918978
20
15.2046763
40
3.0136058
50
179.9299464
51
197.8453653
0
ARC
8
DEFAULT_255_2_778
10
123.2637974
20
15.1989434
40
2.9851024
50
197.9059065
51
254.3059586
0
ARC
8
DEFAULT_255_2_778
10
123.2635181
20
15.2190168
40
3.0043573
50
254.4146403
51
270.0567583
0
LINE
8
DEFAULT_255_2_778
10
123.2664942
20
12.214661
11
123.2664942
21
12.214661
0
ARC
8
DEFAULT_255_2_778
10
123.2702011
20
15.2098566
40
2.7782583
50
269.9241169
51
289.1479103
0
ARC
8
DEFAULT_255_2_778
10
123.2684287
20
15.1999443
40
2.7694803
50
289.2498137
51
346.9230809
0
ARC
8
DEFAULT_255_2_778
10
123.2291889
20
15.2062641
40
2.8091336
50
346.9786093
51
0.0435793
0
ARC
8
DEFAULT_255_2_778
10
123.2455825
20
15.2121046
40
2.7927416
50
359.9240112
51
18.9049251
0
ARC
8
DEFAULT_255_2_778
10
123.2697999
20
15.2175848
40
2.7680564
50
18.9600225
51
76.7803038
0
ARC
8
DEFAULT_255_2_778
10
123.2686491
20
15.1909011
40
2.7943004
50
76.8824558
51
90.0436243
0
ARC
8
DEFAULT_255_2_778
10
123.2628314
20
15.2067754
40
2.7784278
50
89.9239021
51
109.1473207
0
ARC
8
DEFAULT_255_2_778
10
123.2645184
20
15.2169545
40
2.7693695
50
109.2493674
51
166.9246188
0
ARC
8
DEFAULT_255_2_778
10
123.3040359
20
15.2105391
40
2.8093153
50
166.9795027
51
180.0436122
0
ARC
8
DEFAULT_255_2_778
10
123.2876123
20
15.2046917
40
2.7928932
50
179.9239099
51
198.9037502
0
ARC
8
DEFAULT_255_2_778
10
123.2631477
20
15.1991132
40
2.767942
50
198.9585714
51
256.7634382
0
ARC
8
DEFAULT_255_2_778
10
123.2643853
20
15.2260832
40
2.7944832
50
256.8653525
51
270.0438004
0
LINE
8
DEFAULT_255_2_778
10
123.2665216
20
12.4316007
11
123.2665216
21
12.4316007
0
LINE
8
DEFAULT_255_2_778
10
122.8680343
20
13.8841208
11
122.8680343
21
14.4389208
0
LINE
8
DEFAULT_255_2_778
10
123.6649343
20
13.8841208
11
123.6649343
21
14.4389208
0
LINE
8
DEFAULT_255_2_778
10
123.6649343
20
16.5325208
11
123.6649343
21
15.9777208
0
LINE
8
DEFAULT_255_2_778
10
122.8680343
20
16.5325208
11
122.8680343
21
15.9777208
0
LINE
8
DEFAULT_255_2_778
10
123.6649343
20
16.5325208
11
123.6649343
21
17.3239208
0
LINE
8
DEFAULT_255_2_778
10
123.6649343
20
17.3239208
11
122.8680343
21
17.3239208
0
LINE
8
DEFAULT_255_2_778
10
122.8680343
20
17.3239208
11
122.8680343
21
16.5325208
0
ARC
8
DEFAULT_255_2_778
10
123.2686201
20
15.2075795
40
1.3827643
50
181.7372682
51
253.1558189
0
ARC
8
DEFAULT_255_2_778
10
123.282495
20
15.2084215
40
1.3966584
50
179.9992081
51
181.754541
0
ARC
8
DEFAULT_255_2_778
10
123.2685689
20
15.2092531
40
1.3827325
50
108.3182627
51
180.0336561
0
ARC
8
DEFAULT_255_2_778
10
123.2693773
20
15.2026045
40
1.3892988
50
106.7952221
51
108.263733
0
ARC
8
DEFAULT_255_2_778
10
123.2642532
20
15.2075795
40
1.3827643
50
286.8441811
51
358.2627318
0
ARC
8
DEFAULT_255_2_778
10
123.2503783
20
15.2084215
40
1.3966584
50
358.245459
51
0.0007919
0
ARC
8
DEFAULT_255_2_778
10
123.2643044
20
15.2092531
40
1.3827325
50
359.9663439
51
71.6817373
0
ARC
8
DEFAULT_255_2_778
10
123.263496
20
15.2026045
40
1.3892988
50
71.736267
51
73.2047779
0
ARC
8
DEFAULT_255_2_778
10
123.8602063
20
16.2371136
40
0.3246594
50
233.0218326
51
270.0094258
0
LINE
8
DEFAULT_255_2_778
10
123.8602597
20
15.9124543
11
123.8607202
21
15.9124546
0
ARC
8
DEFAULT_255_2_778
10
124.2226539
20
15.7614615
40
0.1509934
50
29.9984367
51
89.8989681
0
ARC
8
DEFAULT_255_2_778
10
124.2226412
20
15.7615625
40
0.150954
50
359.9970045
51
29.9627963
0
ARC
8
DEFAULT_255_2_778
10
124.2226412
20
15.7615467
40
0.150954
50
330.0372037
51
0.0029955
0
ARC
8
DEFAULT_255_2_778
10
124.4562347
20
15.2084268
40
0.3277647
50
150.0917049
51
180.012614
0
ARC
8
DEFAULT_255_2_778
10
124.4562347
20
15.2082825
40
0.3277645
50
179.987386
51
209.9082951
0
ARC
8
DEFAULT_255_2_778
10
124.2230618
20
14.6551751
40
0.1505335
50
359.9874423
51
30.0056131
0
ARC
8
DEFAULT_255_2_778
10
124.2089885
20
14.6552329
40
0.1646068
50
359.8420736
51
359.9684146
0
ARC
8
DEFAULT_255_2_778
10
124.2226522
20
14.6551439
40
0.150943
50
330.0360578
51
359.8615498
0
ARC
8
DEFAULT_255_2_778
10
124.2226539
20
14.6552478
40
0.1509935
50
270.1010319
51
330.0015633
0
LINE
8
DEFAULT_255_2_778
10
123.8607202
20
14.5042546
11
123.8602617
21
14.504255
0
ARC
8
DEFAULT_255_2_778
10
123.8604252
20
14.1789405
40
0.3253145
50
90.0288058
51
126.9395695
0
ARC
8
DEFAULT_255_2_778
10
123.8624124
20
14.1769276
40
0.3281179
50
127.0056654
51
150.046745
0
ARC
8
DEFAULT_255_2_778
10
123.2666096
20
15.202766
40
1.1585363
50
270.0005246
51
277.2352692
0
ARC
8
DEFAULT_255_2_778
10
123.2666308
20
15.202766
40
1.1585363
50
262.7647308
51
269.9994754
0
ARC
8
DEFAULT_255_2_778
10
122.6687833
20
14.1754117
40
0.3305599
50
30.0126082
51
52.8694604
0
ARC
8
DEFAULT_255_2_778
10
122.6727177
20
14.1786486
40
0.3256065
50
53.0775935
51
89.971552
0
LINE
8
DEFAULT_255_2_778
10
122.6728793
20
14.504255
11
122.6724202
21
14.5042546
0
ARC
8
DEFAULT_255_2_778
10
122.3105634
20
14.6552076
40
0.1509534
50
209.9895982
51
269.8697273
0
ARC
8
DEFAULT_255_2_778
10
122.3105882
20
14.6551439
40
0.1509431
50
180.1384502
51
209.9639422
0
ARC
8
DEFAULT_255_2_778
10
122.3242519
20
14.6552329
40
0.1646069
50
180.0315854
51
180.1579264
0
ARC
8
DEFAULT_255_2_778
10
122.3101786
20
14.6551751
40
0.1505334
50
149.9943869
51
180.0125577
0
ARC
8
DEFAULT_255_2_778
10
122.0769045
20
15.2082826
40
0.3277658
50
330.0917835
51
0.0125875
0
ARC
8
DEFAULT_255_2_778
10
122.0769072
20
15.2084278
40
0.327763
50
359.9872162
51
29.9082842
0
ARC
8
DEFAULT_255_2_778
10
122.3105992
20
15.7615467
40
0.150954
50
179.9970045
51
209.9627963
0
ARC
8
DEFAULT_255_2_778
10
122.3105992
20
15.7615625
40
0.150954
50
150.0372037
51
180.0029955
0
ARC
8
DEFAULT_255_2_778
10
122.310563
20
15.7615023
40
0.1509528
50
90.1301169
51
150.0105367
0
LINE
8
DEFAULT_255_2_778
10
122.6724202
20
15.9124546
11
122.6728813
21
15.9124543
0
ARC
8
DEFAULT_255_2_778
10
122.6729367
20
16.2374049
40
0.3249506
50
269.9902313
51
306.9609894
0
ARC
8
DEFAULT_255_2_778
10
122.6687822
20
16.2412982
40
0.3305611
50
307.1306306
51
329.9873926
0
ARC
8
DEFAULT_255_2_778
10
123.2666308
20
15.2139433
40
1.1585363
50
90.0005246
51
97.2352692
0
ARC
8
DEFAULT_255_2_778
10
123.2666096
20
15.2139433
40
1.1585363
50
82.7647308
51
89.9994754
0
ARC
8
DEFAULT_255_2_778
10
123.8645232
20
16.2416475
40
0.3308789
50
210.0506953
51
232.8969103
0
LINE
8
DEFAULT_255_2_778
10
122.8680202
20
13.8841546
11
122.8680202
21
13.0927546
0
LINE
8
DEFAULT_255_2_778
10
122.8680202
20
13.0927546
11
123.6649202
21
13.0927546
0
LINE
8
DEFAULT_255_2_778
10
123.6649202
20
13.0927546
11
123.6649202
21
13.8841546
0
LINE
8
DEFAULT_255_2_778
10
123.8607202
20
15.9124546
11
124.2229202
21
15.9124546
0
LINE
8
DEFAULT_255_2_778
10
124.3534202
20
15.6861546
11
124.1721202
21
15.3718546
0
LINE
8
DEFAULT_255_2_778
10
124.1721202
20
15.0448546
11
124.3534202
21
14.7304546
0
LINE
8
DEFAULT_255_2_778
10
124.2229202
20
14.5042546
11
123.8607202
21
14.5042546
0
LINE
8
DEFAULT_255_2_778
10
123.5781202
20
14.3407546
11
123.4125202
21
14.0534546
0
LINE
8
DEFAULT_255_2_778
10
123.1207202
20
14.0534546
11
122.9550202
21
14.3407546
0
LINE
8
DEFAULT_255_2_778
10
122.6724202
20
14.5042546
11
122.3102202
21
14.5042546
0
LINE
8
DEFAULT_255_2_778
10
122.1798202
20
14.7304546
11
122.3610202
21
15.0448546
0
LINE
8
DEFAULT_255_2_778
10
122.3610202
20
15.3718546
11
122.1798202
21
15.6861546
0
LINE
8
DEFAULT_255_2_778
10
122.3102202
20
15.9124546
11
122.6724202
21
15.9124546
0
LINE
8
DEFAULT_255_2_778
10
122.9550202
20
16.0759546
11
123.1207202
21
16.3632546
0
LINE
8
DEFAULT_255_2_778
10
123.4125202
20
16.3632546
11
123.5781202
21
16.0759546
0
LINE
8
DEFAULT_255_2_778
10
123.6649202
20
15.9777546
11
123.6649202
21
15.9777546
0
LINE
8
DEFAULT_255_2_778
10
24.7110291
20
130.3362514
11
22.9767291
21
130.3370514
0
LINE
8
DEFAULT_255_2_778
10
22.9767291
20
130.3370514
11
22.9767291
21
121.3835514
0
LINE
8
DEFAULT_255_2_778
10
22.9767291
20
121.3835514
11
24.7087291
21
121.4044514
0
LINE
8
DEFAULT_255_2_778
10
24.7087291
20
121.4044514
11
24.7087291
21
130.3325514
0
ARC
8
DEFAULT_255_2_778
10
25.3218931
20
121.1689931
40
0.1770583
50
359.9695565
51
0.0913328
0
ARC
8
DEFAULT_255_2_778
10
25.0016039
20
121.1689832
40
0.4973475
50
314.9299019
51
359.990306
0
ARC
8
DEFAULT_255_2_778
10
25.0014643
20
121.1653715
40
0.4948963
50
269.9956308
51
315.2366547
0
LINE
8
DEFAULT_255_2_778
10
25.0014265
20
120.6704752
11
25.0010512
21
120.6704753
0
LINE
8
DEFAULT_255_2_778
10
22.7583512
20
120.6704753
11
22.7579759
21
120.6704752
0
ARC
8
DEFAULT_255_2_778
10
22.7579382
20
121.1653715
40
0.4948963
50
224.7633453
51
270.0043692
0
ARC
8
DEFAULT_255_2_778
10
22.7577985
20
121.1689832
40
0.4973476
50
180.009694
51
225.0700981
0
ARC
8
DEFAULT_255_2_778
10
22.4375093
20
121.1689931
40
0.1770583
50
179.9086672
51
180.0304435
0
LINE
8
DEFAULT_255_2_778
10
25.0010512
20
130.6508753
11
25.0018005
21
130.6508759
0
ARC
8
DEFAULT_255_2_778
10
25.0017753
20
130.1564892
40
0.4943867
50
44.7549872
51
89.9970762
0
ARC
8
DEFAULT_255_2_778
10
25.0016039
20
130.1524675
40
0.4973476
50
0.009694
51
45.0700981
0
ARC
8
DEFAULT_255_2_778
10
25.3218931
20
130.1524576
40
0.1770583
50
359.9086672
51
0.0304435
0
ARC
8
DEFAULT_255_2_778
10
22.4385222
20
130.1524581
40
0.1777712
50
179.9696211
51
180.0911391
0
ARC
8
DEFAULT_255_2_778
10
22.7580013
20
130.1526077
40
0.4972502
50
134.9415383
51
180.00638
0
ARC
8
DEFAULT_255_2_778
10
22.7579954
20
130.156085
40
0.4947909
50
90.0108273
51
135.2254938
0
LINE
8
DEFAULT_255_2_778
10
22.7579019
20
130.6508759
11
22.7586512
21
130.6508753
0
ARC
8
DEFAULT_255_2_778
10
24.9261064
20
130.2578493
40
0.3168269
50
89.9545009
51
90.1365727
0
ARC
8
DEFAULT_255_2_778
10
24.9266754
20
130.0796731
40
0.4950034
50
37.7723464
51
90.036742
0
ARC
8
DEFAULT_255_2_778
10
24.9259095
20
130.0763618
40
0.4976417
50
0.0130712
51
38.0196882
0
ARC
8
DEFAULT_255_2_778
10
22.8943674
20
130.074826
40
0.5553176
50
180.0099496
51
180.1290399
0
ARC
8
DEFAULT_255_2_778
10
22.8363943
20
130.0746457
40
0.4973444
50
121.6597482
51
179.9903349
0
ARC
8
DEFAULT_255_2_778
10
22.8373237
20
130.0766612
40
0.4961201
50
94.7548213
51
121.8732878
0
ARC
8
DEFAULT_255_2_778
10
22.8372714
20
130.0765477
40
0.496229
50
90.1293436
51
94.7477192
0
ARC
8
DEFAULT_255_2_778
10
24.9256062
20
121.0634755
40
0.3167011
50
269.8634092
51
270.0455534
0
ARC
8
DEFAULT_255_2_778
10
24.9261754
20
121.2417776
40
0.4950034
50
269.963258
51
322.2276536
0
ARC
8
DEFAULT_255_2_778
10
24.925622
20
121.2450157
40
0.4974293
50
321.97188
51
359.9953503
0
ARC
8
DEFAULT_255_2_778
10
22.8361458
20
121.2384407
40
0.4898653
50
266.2795233
51
270.0006385
0
ARC
8
DEFAULT_255_2_778
10
22.8368012
20
121.242111
40
0.4935706
50
238.0140373
51
266.231243
0
ARC
8
DEFAULT_255_2_778
10
22.8363943
20
121.246805
40
0.4973444
50
180.0096651
51
238.3402518
0
ARC
8
DEFAULT_255_2_778
10
22.8943674
20
121.2466247
40
0.5553175
50
179.8709601
51
179.9900504
0
LINE
8
DEFAULT_255_2_778
10
22.2612512
20
130.1521753
11
22.3395512
21
130.0735753
0
LINE
8
DEFAULT_255_2_778
10
22.3395512
20
130.0735753
11
22.3395512
21
121.2478753
0
LINE
8
DEFAULT_255_2_778
10
22.3395512
20
121.2478753
11
22.2612512
21
121.1692753
0
LINE
8
DEFAULT_255_2_778
10
22.2612512
20
121.1692753
11
22.2612512
21
130.1521753
0
LINE
8
DEFAULT_255_2_778
10
25.4230512
20
121.2449753
11
25.4981512
21
121.1692753
0
LINE
8
DEFAULT_255_2_778
10
25.4981512
20
121.1692753
11
25.4981512
21
130.1521753
0
LINE
8
DEFAULT_255_2_778
10
25.4981512
20
130.1521753
11
25.4227512
21
130.0764753
0
LINE
8
DEFAULT_255_2_778
10
25.4227512
20
130.0764753
11
25.4227512
21
121.2449753
0
LINE
8
DEFAULT_255_2_778
10
25.0010512
20
130.6503753
11
22.7583512
21
130.6503753
0
LINE
8
DEFAULT_255_2_778
10
22.7583512
20
130.6503753
11
22.8361512
21
130.5722753
0
LINE
8
DEFAULT_255_2_778
10
22.8361512
20
130.5722753
11
24.9248512
21
130.5741753
0
LINE
8
DEFAULT_255_2_778
10
24.9248512
20
130.5741753
11
25.0010512
21
130.6503753
0
LINE
8
DEFAULT_255_2_778
10
22.8361512
20
120.7490753
11
24.9248512
21
120.7472753
0
LINE
8
DEFAULT_255_2_778
10
24.9248512
20
120.7472753
11
25.0007512
21
120.6710753
0
LINE
8
DEFAULT_255_2_778
10
25.0007512
20
120.6710753
11
22.7581512
21
120.6710753
0
LINE
8
DEFAULT_255_2_778
10
22.7581512
20
120.6710753
11
22.8361512
21
120.7490753
0
ARC
8
DEFAULT_255_2_778
10
54.3822089
20
3.5833917
40
0.2484182
50
44.9216924
51
89.9830045
0
LINE
8
DEFAULT_255_2_778
10
54.3822826
20
3.8318099
11
54.381907
21
3.8318097
0
ARC
8
DEFAULT_255_2_778
10
56.2279984
20
1.7327841
40
0.2492086
50
359.9599016
51
45.0352887
0
ARC
8
DEFAULT_255_2_778
10
56.2280562
20
7.7274112
40
0.2491508
50
314.959227
51
0.022639
0
ARC
8
DEFAULT_255_2_778
10
54.3818965
20
5.8772408
40
0.2489311
50
270.0024037
51
315.0617354
0
ARC
8
DEFAULT_255_2_778
10
48.805736
20
4.7386137
40
1.1391972
50
89.915961
51
127.2291292
0
ARC
8
DEFAULT_255_2_778
10
48.8086202
20
4.7312713
40
1.1467902
50
127.1219247
51
175.2853826
0
ARC
8
DEFAULT_255_2_778
10
48.8269432
20
4.7302387
40
1.1651363
50
175.3088309
51
180.0063433
0
ARC
8
DEFAULT_255_2_778
10
48.8056116
20
4.7280848
40
1.1438065
50
179.8985716
51
216.0770186
0
ARC
8
DEFAULT_255_2_778
10
48.8067539
20
4.7262543
40
1.1436537
50
215.9691987
51
265.5998472
0
ARC
8
DEFAULT_255_2_778
10
48.8072965
20
4.7435405
40
1.1609309
50
265.6386001
51
270.0054522
0
ARC
8
DEFAULT_255_2_778
10
48.806597
20
4.7349191
40
0.893391
50
89.9480523
51
138.2290381
0
ARC
8
DEFAULT_255_2_778
10
48.8068643
20
4.7315193
40
0.8958582
50
138.0782574
51
180.0901528
0
ARC
8
DEFAULT_255_2_778
10
48.807049
20
4.7287852
40
0.896043
50
179.9153106
51
225.6993302
0
ARC
8
DEFAULT_255_2_778
10
48.8063334
20
4.7248102
40
0.8927011
50
225.5540152
51
270.0689071
0
ARC
8
DEFAULT_255_2_778
10
55.0725345
20
6.1608446
40
0.2494725
50
315.0223414
51
0.0149451
0
ARC
8
DEFAULT_255_2_778
10
52.977856
20
4.0605966
40
0.2482923
50
292.6833506
51
315.0920271
0
ARC
8
DEFAULT_255_2_778
10
62.2369163
20
5.9422101
40
0.135214
50
115.6400605
51
140.2839126
0
ARC
8
DEFAULT_255_2_778
10
62.2380106
20
5.9373336
40
0.1400884
50
96.6318158
51
115.1805132
0
ARC
8
DEFAULT_255_2_778
10
62.2408601
20
5.9230735
40
0.1545868
50
91.4653254
51
97.0704704
0
ARC
8
DEFAULT_255_2_778
10
62.2401673
20
5.9050732
40
0.1725673
50
89.9931102
51
91.0825596
0
ARC
8
DEFAULT_255_2_778
10
62.2401248
20
5.9012337
40
0.1764067
50
70.2943709
51
89.979445
0
ARC
8
DEFAULT_255_2_778
10
62.2350469
20
5.8879243
40
0.1906492
50
50.3470614
51
70.2064099
0
ARC
8
DEFAULT_255_2_778
10
52.9596186
20
4.061599
40
0.2498502
50
181.0066246
51
247.1773973
0
ARC
8
DEFAULT_255_2_778
10
51.7054618
20
4.6322758
40
0.9940666
50
0.8953763
51
43.8190381
0
ARC
8
DEFAULT_255_2_778
10
51.7033178
20
4.6335792
40
0.994714
50
43.6793634
51
89.0317738
0
ARC
8
DEFAULT_255_2_778
10
51.702112
20
4.6122037
40
1.0161072
50
88.9841582
51
89.915702
0
ARC
8
DEFAULT_255_2_778
10
51.7049038
20
4.6309291
40
1.2481863
50
0.9814836
51
53.1248599
0
ARC
8
DEFAULT_255_2_778
10
55.3008334
20
5.6883696
40
1.5371877
50
15.954782
51
65.5773027
0
ARC
8
DEFAULT_255_2_778
10
55.2991993
20
5.6882966
40
2.036766
50
15.9650104
51
60.323502
0
ARC
8
DEFAULT_255_2_778
10
59.4376956
20
5.8742387
40
2.4909347
50
195.9457947
51
230.5119098
0
ARC
8
DEFAULT_255_2_778
10
59.4379613
20
5.8729423
40
2.4901032
50
230.4882226
51
258.3189609
0
ARC
8
DEFAULT_255_2_778
10
59.4376099
20
5.8743835
40
2.4914433
50
258.3335852
51
263.1709623
0
ARC
8
DEFAULT_255_2_778
10
59.4364945
20
5.8651711
40
2.4821637
50
263.1712388
51
269.9991353
0
ARC
8
DEFAULT_255_2_778
10
59.4355916
20
5.8716396
40
2.4886324
50
270.0199268
51
319.15804
0
ARC
8
DEFAULT_255_2_778
10
59.4240019
20
5.8822074
40
2.5043113
50
319.1485384
51
320.7675315
0
ARC
8
DEFAULT_255_2_778
10
55.0931028
20
2.1403418
40
1.4922802
50
55.3336357
51
89.9998502
0
ARC
8
DEFAULT_255_2_778
10
55.0931051
20
2.1414594
40
1.4911626
50
89.9999382
51
93.3647662
0
ARC
8
DEFAULT_255_2_778
10
55.093175
20
2.140934
40
1.4916912
50
93.3662622
51
103.8573455
0
ARC
8
DEFAULT_255_2_778
10
55.0940997
20
2.1442614
40
1.9871939
50
55.3196896
51
77.1586255
0
ARC
8
DEFAULT_255_2_778
10
55.0930875
20
2.139382
40
1.9921762
50
77.1614317
51
90.0015125
0
ARC
8
DEFAULT_255_2_778
10
55.0930352
20
2.1414019
40
1.9901565
50
90.0000078
51
90.4594975
0
ARC
8
DEFAULT_255_2_778
10
55.0925355
20
2.1442823
40
1.9872723
50
90.4457594
51
116.1662526
0
ARC
8
DEFAULT_255_2_778
10
55.0961457
20
2.1373751
40
1.9950638
50
116.1718318
51
121.3257142
0
ARC
8
DEFAULT_255_2_778
10
48.8917417
20
4.6315387
40
0.9975292
50
137.472725
51
166.6651953
0
ARC
8
DEFAULT_255_2_778
10
48.8910054
20
4.631025
40
0.9976514
50
94.7779314
51
107.2291503
0
ARC
8
DEFAULT_255_2_778
10
50.7111769
20
4.6366345
40
2.00297
50
180.0150137
51
203.7479783
0
ARC
8
DEFAULT_255_2_778
10
45.8130288
20
4.8305962
40
2.3969783
50
359.9883695
51
12.2751507
0
ARC
8
DEFAULT_255_2_778
10
50.7079713
20
4.6354522
40
2.4979644
50
179.9895077
51
194.9364126
0
ARC
8
DEFAULT_255_2_778
10
50.7097578
20
4.6361548
40
2.1711508
50
180.0064687
51
201.6167809
0
ARC
8
DEFAULT_255_2_778
10
45.8134486
20
4.8301624
40
2.7251584
50
359.9925847
51
15.2771457
0
ARC
8
DEFAULT_255_2_778
10
59.4355612
20
5.8725411
40
1.9908019
50
270.0138848
51
320.7856504
0
ARC
8
DEFAULT_255_2_778
10
59.4360668
20
5.8680936
40
1.9863543
50
263.2412945
51
269.9993329
0
ARC
8
DEFAULT_255_2_778
10
59.436907
20
5.875069
40
1.9933801
50
258.3420343
51
263.2409079
0
ARC
8
DEFAULT_255_2_778
10
59.4384368
20
5.8758774
40
1.9944815
50
195.9675521
51
258.3036874
0
ARC
8
DEFAULT_255_2_778
10
55.2987888
20
5.6872606
40
1.8677226
50
15.9723956
51
61.7817453
0
ARC
8
DEFAULT_255_2_778
10
59.4381103
20
5.8748194
40
2.1632563
50
195.9568981
51
257.3182336
0
ARC
8
DEFAULT_255_2_778
10
59.4381052
20
5.8800766
40
2.1683844
50
257.3488623
51
258.3437809
0
ARC
8
DEFAULT_255_2_778
10
59.4371335
20
5.8765064
40
2.1646916
50
258.349877
51
263.1542459
0
ARC
8
DEFAULT_255_2_778
10
59.4361508
20
5.8684172
40
2.156543
50
263.1545512
51
269.9991191
0
ARC
8
DEFAULT_255_2_778
10
59.4358663
20
5.871143
40
2.1592689
50
270.0066692
51
320.7927383
0
ARC
8
DEFAULT_255_2_778
10
62.2916461
20
5.9545132
40
0.1696443
50
95.7305705
51
140.6794714
0
ARC
8
DEFAULT_255_2_778
10
62.2916246
20
5.9552984
40
0.1688609
50
90.0003765
51
95.7499191
0
ARC
8
DEFAULT_255_2_778
10
62.2915558
20
5.9550126
40
0.1691468
50
50.6488941
51
89.9770927
0
ARC
8
DEFAULT_255_2_778
10
59.214606
20
1.5044931
40
0.1693548
50
10.3466032
51
55.4682376
0
ARC
8
DEFAULT_255_2_778
10
59.2130379
20
1.5045367
40
0.1708899
50
4.3213463
51
10.2377975
0
ARC
8
DEFAULT_255_2_778
10
59.2136547
20
1.504592
40
0.1702707
50
0.0000556
51
4.3184343
0
ARC
8
DEFAULT_255_2_778
10
59.2147395
20
1.5045082
40
0.169186
50
325.2240142
51
0.028441
0
ARC
8
DEFAULT_255_2_778
10
55.0930272
20
2.1408059
40
1.820142
50
55.3378877
51
90.0078199
0
ARC
8
DEFAULT_255_2_778
10
55.0927796
20
2.1401366
40
1.8208114
50
90.0000266
51
91.9160179
0
ARC
8
DEFAULT_255_2_778
10
55.0926896
20
2.1417559
40
1.8191901
50
91.9148896
51
111.8540784
0
ARC
8
DEFAULT_255_2_778
10
45.8125705
20
4.8303515
40
2.8953364
50
359.9892775
51
15.5146457
0
ARC
8
DEFAULT_255_2_778
10
127.8037202
20
10.9544289
40
0.2368817
50
244.0615594
51
266.0510981
0
ARC
8
DEFAULT_255_2_778
10
127.8055026
20
10.9572442
40
0.2401932
50
222.0365854
51
243.972963
0
ARC
8
DEFAULT_255_2_778
10
127.8145907
20
10.9660125
40
0.2528147
50
201.0247958
51
222.1333507
0
ARC
8
DEFAULT_255_2_778
10
127.8231528
20
10.9677852
40
0.2614467
50
180.1480544
51
200.714231
0
LINE
8
DEFAULT_255_2_778
10
56.228207
20
0.1393097
11
56.2285826
21
0.1393094
0
ARC
8
DEFAULT_255_2_778
10
56.2285089
20
0.3877276
40
0.2484182
50
270.0169955
51
315.0783076
0
ARC
8
DEFAULT_255_2_778
10
56.2277021
20
0.3887407
40
0.2497049
50
315.0444136
51
0.0158141
0
ARC
8
DEFAULT_255_2_778
10
118.7307655
20
10.9503618
40
0.2329382
50
273.7023327
51
296.0624414
0
ARC
8
DEFAULT_255_2_778
10
118.7263423
20
10.9584655
40
0.2421616
50
296.160164
51
317.9305491
0
ARC
8
DEFAULT_255_2_778
10
118.7190855
20
10.9656432
40
0.2523584
50
317.8247402
51
338.9522289
0
ARC
8
DEFAULT_255_2_778
10
118.7092261
20
10.9676388
40
0.2622822
50
339.3189222
51
359.8188792
0
ARC
8
DEFAULT_255_2_778
10
63.4614113
20
8.9335362
40
0.7857956
50
359.9980619
51
87.30486
0
ARC
8
DEFAULT_255_2_778
10
63.461564
20
8.9208247
40
0.7984863
50
87.3586961
51
89.8964626
0
ARC
8
DEFAULT_255_2_778
10
137.5044538
20
69.9306861
40
0.8654471
50
178.1533534
51
180.0447826
0
ARC
8
DEFAULT_255_2_778
10
137.0796977
20
69.9551086
40
0.4402553
50
158.7031018
51
179.5489073
0
ARC
8
DEFAULT_255_2_778
10
136.8533097
20
70.0487139
40
0.1953934
50
123.4149215
51
160.1661596
0
ARC
8
DEFAULT_255_2_778
10
136.8155619
20
70.0895357
40
0.1408213
50
91.6376934
51
119.7392596
0
ARC
8
DEFAULT_255_2_778
10
136.8170343
20
70.0789633
40
0.1514359
50
90.0028709
51
92.0802214
0
ARC
8
DEFAULT_255_2_778
10
136.8170522
20
70.0811156
40
0.1492836
50
84.9060428
51
90.0097867
0
ARC
8
DEFAULT_255_2_778
10
136.8071882
20
70.0353307
40
0.1958482
50
57.8843679
51
83.2207631
0
ARC
8
DEFAULT_255_2_778
10
138.047147
20
69.6766609
40
0.2497401
50
179.9658598
51
239.8488792
0
ARC
8
DEFAULT_255_2_778
10
137.8742259
20
69.3968025
40
0.0796152
50
0.4640127
51
53.3887689
0
ARC
8
DEFAULT_255_2_778
10
137.7734966
20
69.378525
40
0.1813318
50
0.879913
51
5.9898019
0
ARC
8
DEFAULT_255_2_778
10
137.7638631
20
69.3771548
40
0.190989
50
359.9981974
51
1.2465474
0
ARC
8
DEFAULT_255_2_778
10
137.7220676
20
69.3796367
40
0.2327979
50
345.5951579
51
359.3876695
0
ARC
8
DEFAULT_255_2_778
10
137.5341212
20
69.4213186
40
0.4252529
50
345.7595266
51
346.4553614
0
ARC
8
DEFAULT_255_2_778
10
137.4663282
20
69.4371492
40
0.4948589
50
344.2734973
51
345.9137881
0
ARC
8
DEFAULT_255_2_778
10
137.5282698
20
69.4184295
40
0.4301639
50
336.1520587
51
344.4373194
0
ARC
8
DEFAULT_255_2_778
10
136.9248098
20
69.9890344
40
0.1968656
50
183.2927261
51
197.355456
0
ARC
8
DEFAULT_255_2_778
10
136.856513
20
69.9826642
40
0.1283389
50
180.0122413
51
182.2047111
0
ARC
8
DEFAULT_255_2_778
10
136.8394429
20
69.9829366
40
0.1112692
50
171.1216064
51
180.1543947
0
ARC
8
DEFAULT_255_2_778
10
136.8008095
20
69.9901827
40
0.0719902
50
147.9268703
51
172.0740645
0
ARC
8
DEFAULT_255_2_778
10
136.7992704
20
69.977687
40
0.0798399
50
95.5025516
51
121.7082843
0
ARC
8
DEFAULT_255_2_778
10
136.8055009
20
69.940709
40
0.117275
50
93.1253678
51
96.8002607
0
ARC
8
DEFAULT_255_2_778
10
136.7720899
20
69.6733756
40
0.3880324
50
66.0177567
51
79.4994297
0
ARC
8
DEFAULT_255_2_778
10
137.1679391
20
30.678031
40
0.2580065
50
180.002145
51
185.230668
0
ARC
8
DEFAULT_255_2_778
10
137.1660843
20
30.6780237
40
0.2561519
50
177.3925802
51
180.00052
0
ARC
8
DEFAULT_255_2_778
10
137.1435252
20
30.6805024
40
0.2335079
50
154.5327425
51
177.7483361
0
ARC
8
DEFAULT_255_2_778
10
137.1230315
20
30.6892534
40
0.2112447
50
120.8499863
51
154.2855262
0
ARC
8
DEFAULT_255_2_778
10
137.7959894
20
31.6111794
40
0.2498175
50
300.0818125
51
0.0069421
0
ARC
8
DEFAULT_255_2_778
10
136.7694327
20
31.1909045
40
0.3969355
50
280.6524978
51
293.8304253
0
ARC
8
DEFAULT_255_2_778
10
136.8018795
20
30.8862171
40
0.0883509
50
239.4766261
51
268.2017141
0
ARC
8
DEFAULT_255_2_778
10
136.7999076
20
30.8655902
40
0.0715721
50
187.854184
51
212.1446108
0
ARC
8
DEFAULT_255_2_778
10
136.832465
20
30.8732526
40
0.1049182
50
179.8183178
51
189.5700302
0
ARC
8
DEFAULT_255_2_778
10
136.8508707
20
30.8735485
40
0.1233232
50
177.3327574
51
179.9829181
0
ARC
8
DEFAULT_255_2_778
10
136.9266687
20
30.8659148
40
0.1994365
50
162.5532873
51
176.155326
0
ARC
8
DEFAULT_255_2_778
10
137.481472
20
31.42262
40
0.4786269
50
14.0369326
51
23.1659409
0
ARC
8
DEFAULT_255_2_778
10
137.7121731
20
31.4751068
40
0.2421366
50
0.0457631
51
15.2287625
0
ARC
8
DEFAULT_255_2_778
10
137.706578
20
31.4753002
40
0.2477314
50
359.7477792
51
359.999997
0
ARC
8
DEFAULT_255_2_778
10
137.7674611
20
31.4776822
40
0.1868781
50
354.140264
51
358.9352882
0
ARC
8
DEFAULT_255_2_778
10
137.8734082
20
31.4589039
40
0.0799551
50
306.7140007
51
359.7844432
0
ARC
8
DEFAULT_255_2_778
10
138.0464245
20
31.1786399
40
0.2498175
50
120.0818125
51
180.0069421
0
ARC
8
DEFAULT_255_2_778
10
136.8063934
20
30.8209768
40
0.1965032
50
276.931212
51
302.0972537
0
ARC
8
DEFAULT_255_2_778
10
136.8167885
20
30.770856
40
0.1455569
50
270.0003159
51
275.2498943
0
ARC
8
DEFAULT_255_2_778
10
136.8167579
20
30.7702324
40
0.1449334
50
240.6441783
51
270.0124222
0
ARC
8
DEFAULT_255_2_778
10
136.8525923
20
30.8064406
40
0.1945271
50
199.7490572
51
236.6698515
0
ARC
8
DEFAULT_255_2_778
10
137.0796977
20
30.9006108
40
0.4402553
50
180.4510927
51
201.2968982
0
ARC
8
DEFAULT_255_2_778
10
137.5044538
20
30.9250332
40
0.8654472
50
179.9552174
51
181.8466466
0
ARC
8
DEFAULT_255_2_778
10
137.1679458
20
70.1776881
40
0.2580132
50
174.7694241
51
179.997947
0
ARC
8
DEFAULT_255_2_778
10
137.1661875
20
70.1776962
40
0.2562551
50
179.9997447
51
182.7110004
0
ARC
8
DEFAULT_255_2_778
10
137.1441773
20
70.1752606
40
0.2341585
50
182.3704261
51
205.430378
0
ARC
8
DEFAULT_255_2_778
10
137.1232093
20
70.1667311
40
0.2115634
50
205.7826868
51
239.1455153
0
ARC
8
DEFAULT_255_2_778
10
137.7958682
20
69.24447
40
0.2499388
50
0.0090855
51
59.9021771
0
ARC
8
DEFAULT_255_2_778
10
131.6836504
20
10.9656693
40
0.2485596
50
270.0130394
51
315.0647025
0
ARC
8
DEFAULT_255_2_778
10
131.6830758
20
10.9664689
40
0.2495312
50
315.0279229
51
0.0323245
0
ARC
8
DEFAULT_255_2_778
10
137.7899091
20
80.4618595
40
0.0070487
50
11.8725567
51
75.7947856
0
ARC
8
DEFAULT_255_2_778
10
137.7632905
20
80.4081542
40
0.066847
50
64.9076894
51
65.9742659
0
ARC
8
DEFAULT_255_2_778
10
137.7899672
20
20.3939363
40
0.0073697
50
285.5169063
51
345.649172
0
ARC
8
DEFAULT_255_2_778
10
137.7735221
20
20.4250259
40
0.0423994
50
294.0583087
51
295.7446515
0
ARC
8
DEFAULT_255_2_778
10
54.3822089
20
139.3029917
40
0.2484182
50
44.9216924
51
89.9830045
0
LINE
8
DEFAULT_255_2_778
10
54.3822826
20
139.5514099
11
54.381907
21
139.5514097
0
ARC
8
DEFAULT_255_2_778
10
52.9584999
20
141.1187759
40
0.2490209
50
112.6985584
51
179.1408986
0
ARC
8
DEFAULT_255_2_778
10
51.7031343
20
140.5455469
40
0.9941373
50
270.0099524
51
312.9325138
0
ARC
8
DEFAULT_255_2_778
10
51.7042981
20
140.5478282
40
0.9950178
50
312.7939712
51
358.1376861
0
ARC
8
DEFAULT_255_2_778
10
51.6808072
20
140.5494317
40
1.0185487
50
358.090474
51
359.0199197
0
ARC
8
DEFAULT_255_2_778
10
51.7044038
20
140.5490902
40
1.2481863
50
306.8751401
51
359.0185164
0
ARC
8
DEFAULT_255_2_778
10
52.9769013
20
141.1177908
40
0.2500505
50
45.0669397
51
67.3224253
0
ARC
8
DEFAULT_255_2_778
10
55.0721274
20
139.0191064
40
0.2498796
50
0.000757
51
44.9389957
0
ARC
8
DEFAULT_255_2_778
10
56.2282345
20
143.4470446
40
0.2494725
50
315.0223414
51
0.0149451
0
ARC
8
DEFAULT_255_2_778
10
54.3824965
20
141.5968408
40
0.2489311
50
270.0024037
51
315.0617354
0
ARC
8
DEFAULT_255_2_778
10
55.0936759
20
143.0385172
40
1.494894
50
256.0505017
51
266.591941
0
ARC
8
DEFAULT_255_2_778
10
55.0935787
20
143.0377124
40
1.494085
50
266.5938292
51
269.9999537
0
ARC
8
DEFAULT_255_2_778
10
55.09349
20
143.0393043
40
1.4956768
50
270.0033518
51
304.8053155
0
ARC
8
DEFAULT_255_2_778
10
55.0934105
20
143.0364283
40
1.9919391
50
238.5061308
51
258.0300112
0
ARC
8
DEFAULT_255_2_778
10
55.0933996
20
143.0377686
40
1.993248
50
258.0383081
51
269.5273724
0
ARC
8
DEFAULT_255_2_778
10
55.0935132
20
143.0422504
40
1.9977306
50
269.5251757
51
269.9992986
0
ARC
8
DEFAULT_255_2_778
10
55.0938897
20
143.0360183
40
1.9914983
50
269.9884659
51
299.252628
0
ARC
8
DEFAULT_255_2_778
10
55.0888417
20
143.0446921
40
2.0015328
50
299.2573683
51
304.7987224
0
ARC
8
DEFAULT_255_2_778
10
59.2124151
20
143.6794455
40
0.1689973
50
359.9817779
51
34.8475597
0
ARC
8
DEFAULT_255_2_778
10
59.2118845
20
143.6793896
40
0.1695279
50
355.6498236
51
0.0007002
0
ARC
8
DEFAULT_255_2_778
10
59.2113921
20
143.6794275
40
0.1700218
50
349.7624727
51
355.6496836
0
ARC
8
DEFAULT_255_2_778
10
59.2124529
20
143.678923
40
0.1688884
50
304.6625951
51
349.8669524
0
ARC
8
DEFAULT_255_2_778
10
55.0931032
20
143.0373962
40
1.8230929
50
247.9032392
51
268.078069
0
ARC
8
DEFAULT_255_2_778
10
55.0930827
20
143.0375507
40
1.8232466
50
268.0788782
51
270.0003405
0
ARC
8
DEFAULT_255_2_778
10
55.0931906
20
143.0383587
40
1.8240546
50
269.9969487
51
304.8039627
0
ARC
8
DEFAULT_255_2_778
10
56.2281758
20
137.4523504
40
0.2495312
50
359.9676755
51
44.9720771
0
ARC
8
DEFAULT_255_2_778
10
62.095875
20
139.2720128
40
0.0476484
50
220.4335735
51
251.564718
0
ARC
8
DEFAULT_255_2_778
10
62.1074285
20
139.3140661
40
0.0916279
50
259.039433
51
270.1803562
0
ARC
8
DEFAULT_255_2_778
10
62.1075628
20
139.3323908
40
0.1099524
50
270.0803176
51
276.0078824
0
ARC
8
DEFAULT_255_2_778
10
62.098467
20
139.3920982
40
0.1703067
50
276.9487499
51
292.0152341
0
ARC
8
DEFAULT_255_2_778
10
62.0560517
20
139.5053464
40
0.2912135
50
291.3996152
51
310.1972342
0
ARC
8
DEFAULT_255_2_778
10
59.4353144
20
139.3073906
40
1.9906264
50
39.2105826
51
89.983711
0
ARC
8
DEFAULT_255_2_778
10
59.4359056
20
139.3120942
40
1.9859227
50
90.0007277
51
96.8006455
0
ARC
8
DEFAULT_255_2_778
10
59.4367731
20
139.3048855
40
1.9931834
50
96.8008686
51
101.6640073
0
ARC
8
DEFAULT_255_2_778
10
59.4378798
20
139.3042552
40
1.9940247
50
101.6914886
51
164.0410431
0
ARC
8
DEFAULT_255_2_778
10
55.2990585
20
139.4928139
40
1.5387336
50
294.4446066
51
344.0165867
0
ARC
8
DEFAULT_255_2_778
10
55.2980928
20
139.4922823
40
2.0375031
50
299.6810816
51
344.0245519
0
ARC
8
DEFAULT_255_2_778
10
59.4352901
20
139.3087653
40
2.4880206
50
39.21315
51
66.3232284
0
ARC
8
DEFAULT_255_2_778
10
59.4350155
20
139.3092661
40
2.4876722
50
66.3128032
51
89.9898185
0
ARC
8
DEFAULT_255_2_778
10
59.4354937
20
139.313295
40
2.4836433
50
90.0008341
51
96.8200069
0
ARC
8
DEFAULT_255_2_778
10
59.436629
20
139.3038896
40
2.493117
50
96.8202461
51
101.6542299
0
ARC
8
DEFAULT_255_2_778
10
59.4375303
20
139.3060101
40
2.4912225
50
101.6843834
51
136.2468114
0
ARC
8
DEFAULT_255_2_778
10
59.4356819
20
139.3064488
40
2.4895842
50
136.2246845
51
164.0613176
0
ARC
8
DEFAULT_255_2_778
10
62.0241921
20
139.3133323
40
0.0186033
50
224.4281586
51
272.4858745
0
ARC
8
DEFAULT_255_2_778
10
62.0263521
20
139.3322499
40
0.0375279
50
267.9337919
51
270.0150699
0
ARC
8
DEFAULT_255_2_778
10
62.0262608
20
139.3391183
40
0.0443963
50
270.130573
51
276.5264958
0
ARC
8
DEFAULT_255_2_778
10
62.2944849
20
139.2205529
40
0.1691642
50
269.9441458
51
309.3335696
0
ARC
8
DEFAULT_255_2_778
10
62.2943232
20
139.2219777
40
0.1705889
50
264.3764741
51
269.9989227
0
ARC
8
DEFAULT_255_2_778
10
62.2945456
20
139.2210054
40
0.1696435
50
219.320419
51
264.2695509
0
ARC
8
DEFAULT_255_2_778
10
59.4353456
20
139.3083425
40
2.1590393
50
39.203117
51
89.9925607
0
ARC
8
DEFAULT_255_2_778
10
59.4356585
20
139.3115049
40
2.1558771
50
90.0008663
51
96.8355305
0
ARC
8
DEFAULT_255_2_778
10
59.4366147
20
139.3036351
40
2.1638049
50
96.8358671
51
101.6571589
0
ARC
8
DEFAULT_255_2_778
10
59.4374879
20
139.3045543
40
2.1630813
50
101.6847316
51
163.0475169
0
ARC
8
DEFAULT_255_2_778
10
59.4499596
20
139.2999829
40
2.1763442
50
163.0281322
51
164.0206751
0
ARC
8
DEFAULT_255_2_778
10
55.2980928
20
139.4920713
40
1.8679146
50
298.2219201
51
344.0288899
0
ARC
8
DEFAULT_255_2_778
10
131.6825758
20
134.2122504
40
0.2495312
50
359.9676755
51
44.9720771
0
ARC
8
DEFAULT_255_2_778
10
131.6829827
20
134.2126456
40
0.2489641
50
44.9739335
51
89.9714069
0
ARC
8
DEFAULT_255_2_778
10
56.2275274
20
144.7907064
40
0.2498796
50
0.000757
51
44.9389957
0
ARC
8
DEFAULT_255_2_778
10
56.2283362
20
144.7913747
40
0.248835
50
44.9616039
51
90.0297531
0
ARC
8
DEFAULT_255_2_778
10
63.4624786
20
136.242911
40
0.7830013
50
269.9947616
51
315.0893651
0
ARC
8
DEFAULT_255_2_778
10
63.4604305
20
136.2454954
40
0.7862764
50
315.0613546
51
0.0156152
0
ARC
8
DEFAULT_255_2_778
10
3.0029878
20
98.6369508
40
3.8280288
50
90.8977954
51
93.1737075
0
ARC
8
DEFAULT_255_2_778
10
2.8444763
20
101.383585
40
1.0768493
50
92.843528
51
96.8878679
0
ARC
8
DEFAULT_255_2_778
10
2.7294343
20
102.3317324
40
0.1217493
50
96.6508626
51
104.7563292
0
ARC
8
DEFAULT_255_2_778
10
2.6991529
20
102.4433211
40
0.0061882
50
96.7674131
51
141.1519523
0
ARC
8
DEFAULT_255_2_778
10
2.6950373
20
102.4470081
40
0.0007303
50
164.5462594
51
179.8799596
0
ARC
8
DEFAULT_255_2_778
10
3.0718183
20
102.8111934
40
0.3747288
50
251.127459
51
269.1114158
0
ARC
8
DEFAULT_255_2_778
10
3.6430695
20
87.2686959
40
1.0986797
50
143.2274385
51
149.7483382
0
ARC
8
DEFAULT_255_2_778
10
3.4043226
20
87.4497515
40
0.7990549
50
136.6357654
51
143.3784075
0
ARC
8
DEFAULT_255_2_778
10
3.2063383
20
87.6409777
40
0.5238263
50
126.710849
51
136.9725851
0
ARC
8
DEFAULT_255_2_778
10
3.1071853
20
87.7769944
40
0.3555202
50
111.8780513
51
127.0042209
0
ARC
8
DEFAULT_255_2_778
10
3.0698505
20
87.8648056
40
0.2601282
50
90.7805299
51
111.4541464
0
ARC
8
DEFAULT_255_2_778
10
2.9495718
20
89.7222237
40
7.0050868
50
270.0769948
51
270.9548406
0
ARC
8
DEFAULT_255_2_778
10
2.952022
20
89.0917641
40
6.3746246
50
270.0018285
51
270.062587
0
ARC
8
DEFAULT_255_2_778
10
2.944134
20
87.1599116
40
4.4427793
50
268.268503
51
270.1043506
0
ARC
8
DEFAULT_255_2_778
10
2.846654
20
84.0997981
40
1.3811266
50
265.1246745
51
268.4747641
0
ARC
8
DEFAULT_255_2_778
10
2.73237
20
82.8365698
40
0.1129438
50
251.0192222
51
268.4297549
0
ARC
8
DEFAULT_255_2_778
10
2.6965015
20
82.7318256
40
0.0022335
50
190.7313886
51
247.1696604
0
ARC
8
DEFAULT_255_2_778
10
3.0038515
20
89.5001636
40
3.8385361
50
266.8766796
51
269.0917679
0
ARC
8
DEFAULT_255_2_778
10
2.8544477
20
86.8639543
40
1.1981154
50
263.498135
51
267.141968
0
ARC
8
DEFAULT_255_2_778
10
2.7382226
20
85.8451818
40
0.1727347
50
257.3713581
51
263.5366981
0
ARC
8
DEFAULT_255_2_778
10
2.7022422
20
85.6894298
40
0.0129276
50
233.3727772
51
262.0644555
0
ARC
8
DEFAULT_255_2_778
10
2.6951975
20
85.679645
40
0.0008912
50
182.2699343
51
221.4542386
0
ARC
8
DEFAULT_255_2_778
10
2.6976366
20
82.7363577
40
0.0037169
50
95.9755717
51
153.6118068
0
ARC
8
DEFAULT_255_2_778
10
2.707359
20
82.7109695
40
0.0307919
50
104.7958311
51
109.1663425
0
ARC
8
DEFAULT_255_2_778
10
2.749368
20
82.5139617
40
0.2321977
50
94.6655122
51
102.4028862
0
ARC
8
DEFAULT_255_2_778
10
2.8923525
20
81.043359
40
1.7097111
50
92.4515657
51
95.4327589
0
ARC
8
DEFAULT_255_2_778
10
3.0114565
20
78.6209968
40
4.1349793
50
90.9485052
51
92.6646606
0
ARC
8
DEFAULT_255_2_778
10
5.3421254
20
88.1378695
40
0.0620957
50
302.5191955
51
353.3788855
0
ARC
8
DEFAULT_255_2_778
10
5.0879984
20
88.711192
40
0.6960044
50
277.1565262
51
287.3374503
0
ARC
8
DEFAULT_255_2_778
10
5.0257157
20
89.146324
40
1.1355312
50
270.3123954
51
277.539428
0
ARC
8
DEFAULT_255_2_778
10
5.233768
20
77.9933531
40
4.7597422
50
90.0166468
51
90.8987754
0
ARC
8
DEFAULT_255_2_778
10
5.2407078
20
80.0172626
40
2.7358451
50
87.8488156
51
90.1742978
0
ARC
8
DEFAULT_255_2_778
10
5.3318638
20
82.2815038
40
0.4698175
50
82.2401268
51
88.592779
0
ARC
8
DEFAULT_255_2_778
10
5.3959008
20
82.7357333
40
0.0113019
50
45.6101861
51
93.0507314
0
ARC
8
DEFAULT_255_2_778
10
2.5308857
20
76.0869414
40
0.4988214
50
306.3160167
51
0.0537867
0
ARC
8
DEFAULT_255_2_778
10
1.6940313
20
73.0547797
40
0.0331103
50
86.7280912
51
122.1603333
0
ARC
8
DEFAULT_255_2_778
10
1.8045565
20
72.0558792
40
1.0376594
50
91.8246648
51
96.0094696
0
ARC
8
DEFAULT_255_2_778
10
1.9185457
20
69.2386684
40
3.8571472
50
89.8980801
51
92.1845684
0
ARC
8
DEFAULT_255_2_778
10
2.5606597
20
76.9372956
40
3.8414936
50
269.8858593
51
272.2499119
0
ARC
8
DEFAULT_255_2_778
10
2.6822321
20
74.0207141
40
0.9224143
50
271.8164248
51
276.4285479
0
ARC
8
DEFAULT_255_2_778
10
2.7869952
20
73.1302821
40
0.0262246
50
266.7520667
51
304.6538488
0
ARC
8
DEFAULT_255_2_778
10
1.9259382
20
66.6294504
40
0.2495312
50
135.0279229
51
180.0323245
0
ARC
8
DEFAULT_255_2_778
10
1.925305
20
66.6303917
40
0.2484182
50
90.0169955
51
135.0783076
0
LINE
8
DEFAULT_255_2_778
10
1.9252314
20
66.8788099
11
1.925607
21
66.8788097
0
ARC
8
DEFAULT_255_2_778
10
1.9265865
20
72.118113
40
0.2498796
50
180.000757
51
224.9389957
0
ARC
8
DEFAULT_255_2_778
10
1.9259522
20
72.1178656
40
0.249256
50
225.0017459
51
269.989603
0
ARC
8
DEFAULT_255_2_778
10
12.5941155
20
28.1606841
40
0.2492086
50
134.9647113
51
180.0400984
0
ARC
8
DEFAULT_255_2_778
10
12.593905
20
28.1615917
40
0.2484182
50
90.0169955
51
135.0783076
0
LINE
8
DEFAULT_255_2_778
10
12.5938314
20
28.4100099
11
12.594207
21
28.4100097
0
ARC
8
DEFAULT_255_2_778
10
12.5949123
20
33.6492409
40
0.2497053
50
179.9842186
51
224.955526
0
ARC
8
DEFAULT_255_2_778
10
12.594105
20
33.6482276
40
0.2484182
50
224.9216924
51
269.9830045
0
LINE
8
DEFAULT_255_2_778
10
12.5940314
20
33.3998094
11
12.594407
21
33.3998097
0
ARC
8
DEFAULT_255_2_778
10
3.5103795
20
87.6054557
40
0.6295284
50
151.4002498
51
159.0145091
0
ARC
8
DEFAULT_255_2_778
10
3.3322146
20
87.6980199
40
0.4288117
50
146.2894046
51
150.8637271
0
ARC
8
DEFAULT_255_2_778
10
3.087749
20
87.8821314
40
0.1245036
50
99.8235102
51
154.3581199
0
ARC
8
DEFAULT_255_2_778
10
5.3421438
20
94.7932735
40
0.062396
50
6.7521091
51
57.3497657
0
ARC
8
DEFAULT_255_2_778
10
5.0887911
20
94.223184
40
0.6929101
50
72.6340074
51
82.8524034
0
ARC
8
DEFAULT_255_2_778
10
5.0278747
20
93.8006114
40
1.1198063
50
82.450029
51
89.7834512
0
ARC
8
DEFAULT_255_2_778
10
3.0875018
20
95.0475328
40
0.123619
50
206.5675531
51
260.2217824
0
ARC
8
DEFAULT_255_2_778
10
3.3213828
20
95.2262647
40
0.4164244
50
213.7668969
51
214.192601
0
ARC
8
DEFAULT_255_2_778
10
3.4392979
20
95.2938943
40
0.5521159
50
200.5475948
51
212.7998646
0
ARC
8
DEFAULT_255_2_778
10
1.4266742
20
77.3713416
40
0.2714343
50
359.8032769
51
359.9999578
0
ARC
8
DEFAULT_255_2_778
10
1.4494183
20
77.3712513
40
0.2486904
50
0.0207603
51
89.0810046
0
ARC
8
DEFAULT_255_2_778
10
13.2291443
20
23.3681198
40
3.8443974
50
87.7509523
51
90.1138251
0
ARC
8
DEFAULT_255_2_778
10
13.3507381
20
26.2862293
40
0.9237907
50
83.5760284
51
88.1841267
0
ARC
8
DEFAULT_255_2_778
10
13.4555834
20
27.1779991
40
0.0262628
50
55.372405
51
93.2465593
0
ARC
8
DEFAULT_255_2_778
10
13.7202613
20
27.0277725
40
0.2497543
50
179.9914788
51
219.9173468
0
ARC
8
DEFAULT_255_2_778
10
27.7725301
20
9.0827867
40
0.4997769
50
359.9911722
51
39.9061705
0
ARC
8
DEFAULT_255_2_778
10
3.5422096
20
74.3238159
40
0.2275044
50
179.9880314
51
180.228224
0
ARC
8
DEFAULT_255_2_778
10
3.5633081
20
74.3238263
40
0.2486029
50
92.9054334
51
179.9914588
0
ARC
8
DEFAULT_255_2_778
10
3.0514616
20
47.1572727
40
0.2497547
50
179.9915118
51
219.9173354
0
ARC
8
DEFAULT_255_2_778
10
2.7841094
20
65.620282
40
0.0330942
50
57.8767062
51
93.3197986
0
ARC
8
DEFAULT_255_2_778
10
2.673939
20
64.6176471
40
1.0413157
50
84.032821
51
88.2027525
0
ARC
8
DEFAULT_255_2_778
10
2.5596847
20
61.7571985
40
3.9040174
50
87.8433816
51
90.1024055
0
LINE
8
DEFAULT_255_2_778
10
55.249007
20
5.9845097
11
55.077307
21
6.1609097
0
LINE
8
DEFAULT_255_2_778
10
55.077307
20
6.1609097
11
52.982007
21
4.0617097
0
LINE
8
DEFAULT_255_2_778
10
52.982007
20
4.0617097
11
52.963007
21
4.0617097
0
LINE
8
DEFAULT_255_2_778
10
52.963007
20
4.0617097
11
52.709807
21
4.0575097
0
LINE
8
DEFAULT_255_2_778
10
52.709807
20
4.0575097
11
52.699407
21
4.6480097
0
LINE
8
DEFAULT_255_2_778
10
52.699407
20
4.6480097
11
52.952707
21
4.6523097
0
LINE
8
DEFAULT_255_2_778
10
52.952707
20
4.6523097
11
52.963007
21
4.0617097
0
LINE
8
DEFAULT_255_2_778
10
52.963007
20
4.0617097
11
52.960607
21
3.8395097
0
LINE
8
DEFAULT_255_2_778
10
52.960607
20
3.8395097
11
52.960307
21
3.8315097
0
LINE
8
DEFAULT_255_2_778
10
55.249007
20
5.9845097
11
53.153707
21
3.8853097
0
LINE
8
DEFAULT_255_2_778
10
53.153707
20
3.8853097
11
52.982007
21
4.0617097
0
LINE
8
DEFAULT_255_2_778
10
52.982007
20
4.0617097
11
52.979407
21
3.8315097
0
LINE
8
DEFAULT_255_2_778
10
62.356707
20
6.0347097
11
62.611307
21
5.8262097
0
LINE
8
DEFAULT_255_2_778
10
54.058907
20
3.8416097
11
54.055207
21
3.8395097
0
LINE
8
DEFAULT_255_2_778
10
48.538607
20
4.6359097
11
48.538607
21
4.8298097
0
LINE
8
DEFAULT_255_2_778
10
57.520907
20
5.3272097
11
57.042307
21
5.1897097
0
LINE
8
DEFAULT_255_2_778
10
57.042307
20
5.1897097
11
56.778507
21
6.1104097
0
LINE
8
DEFAULT_255_2_778
10
56.778507
20
6.1104097
11
57.257207
21
6.2480097
0
LINE
8
DEFAULT_255_2_778
10
57.257207
20
6.2480097
11
57.520907
21
5.3272097
0
LINE
8
DEFAULT_255_2_778
10
57.094407
20
6.2012097
11
57.358207
21
5.2801097
0
LINE
8
DEFAULT_255_2_778
10
61.109007
20
4.5062097
11
62.398807
21
6.0861097
0
LINE
8
DEFAULT_255_2_778
10
62.398807
20
6.0861097
11
62.653307
21
5.8776097
0
LINE
8
DEFAULT_255_2_778
10
62.653307
20
5.8776097
11
61.363207
21
4.2977097
0
LINE
8
DEFAULT_255_2_778
10
61.363207
20
4.2977097
11
60.977707
21
4.6137097
0
LINE
8
DEFAULT_255_2_778
10
60.977707
20
4.6137097
11
62.160407
21
6.0620097
0
LINE
8
DEFAULT_255_2_778
10
61.952507
20
5.8069097
11
62.338007
21
5.4910097
0
LINE
8
DEFAULT_255_2_778
10
59.039907
20
1.8310097
11
58.757107
21
1.4204097
0
LINE
8
DEFAULT_255_2_778
10
58.757107
20
1.4204097
11
55.941707
21
3.3669097
0
LINE
8
DEFAULT_255_2_778
10
55.941707
20
3.3669097
11
56.224507
21
3.7776097
0
LINE
8
DEFAULT_255_2_778
10
56.224507
20
3.7776097
11
59.310607
21
1.6440097
0
LINE
8
DEFAULT_255_2_778
10
59.353707
20
1.4080097
11
59.166907
21
1.1370097
0
LINE
8
DEFAULT_255_2_778
10
59.166907
20
1.1370097
11
58.757107
21
1.4204097
0
LINE
8
DEFAULT_255_2_778
10
59.166907
20
1.1370097
11
59.353707
21
1.4080097
0
LINE
8
DEFAULT_255_2_778
10
59.353707
20
1.4080097
11
56.128207
21
3.6379097
0
LINE
8
DEFAULT_255_2_778
10
55.321707
20
6.4657097
11
55.321707
21
6.1599097
0
LINE
8
DEFAULT_255_2_778
10
55.321707
20
6.1599097
11
55.077007
21
6.1599097
0
LINE
8
DEFAULT_255_2_778
10
55.077007
20
6.1599097
11
55.077007
21
6.2205097
0
LINE
8
DEFAULT_255_2_778
10
48.707907
20
4.8298097
11
48.707907
21
4.6359097
0
LINE
8
DEFAULT_255_2_778
10
48.707907
20
4.6359097
11
48.210007
21
4.6359097
0
LINE
8
DEFAULT_255_2_778
10
48.210007
20
4.6359097
11
48.210007
21
4.8298097
0
LINE
8
DEFAULT_255_2_778
10
48.210007
20
4.8298097
11
48.707907
21
4.8298097
0
LINE
8
DEFAULT_255_2_778
10
127.803807
20
10.7176097
11
131.683907
21
10.7176097
0
LINE
8
DEFAULT_255_2_778
10
131.683907
20
10.7176097
11
131.670707
21
10.7308097
0
LINE
8
DEFAULT_255_2_778
10
131.670707
20
10.7308097
11
128.394407
21
10.7308097
0
LINE
8
DEFAULT_255_2_778
10
128.394407
20
10.7308097
11
127.901407
21
10.7242097
0
LINE
8
DEFAULT_255_2_778
10
127.901407
20
10.7242097
11
127.787407
21
10.7181097
0
LINE
8
DEFAULT_255_2_778
10
56.477407
20
10.7176097
11
118.729407
21
10.7176097
0
LINE
8
DEFAULT_255_2_778
10
56.228507
20
10.9801097
11
56.477407
21
10.7306097
0
LINE
8
DEFAULT_255_2_778
10
56.477407
20
10.7306097
11
118.138807
21
10.7306097
0
LINE
8
DEFAULT_255_2_778
10
118.138807
20
10.7306097
11
118.631807
21
10.7240097
0
LINE
8
DEFAULT_255_2_778
10
118.631807
20
10.7240097
11
118.745807
21
10.7179097
0
LINE
8
DEFAULT_255_2_778
10
130.737807
20
10.7173097
11
125.757307
21
5.7276097
0
LINE
8
DEFAULT_255_2_778
10
125.757307
20
5.7276097
11
64.247207
21
5.7276097
0
LINE
8
DEFAULT_255_2_778
10
64.247207
20
5.7276097
11
64.247207
21
8.9335097
0
LINE
8
DEFAULT_255_2_778
10
63.463007
20
9.7193097
11
56.477707
21
9.7193097
0
LINE
8
DEFAULT_255_2_778
10
136.911307
20
70.2012097
11
137.104407
21
70.0869097
0
LINE
8
DEFAULT_255_2_778
10
137.104407
20
70.0869097
11
137.797407
21
69.6768097
0
LINE
8
DEFAULT_255_2_778
10
137.921707
20
69.2445097
11
137.921707
21
31.6109097
0
LINE
8
DEFAULT_255_2_778
10
137.921707
20
31.6109097
11
138.046307
21
31.6109097
0
LINE
8
DEFAULT_255_2_778
10
138.046307
20
31.6109097
11
138.046307
21
69.2450097
0
LINE
8
DEFAULT_255_2_778
10
138.046307
20
69.2450097
11
137.921707
21
69.2450097
0
LINE
8
DEFAULT_255_2_778
10
137.921707
20
69.2450097
11
136.736907
21
69.9303097
0
LINE
8
DEFAULT_255_2_778
10
136.736907
20
69.9303097
11
136.639307
21
69.9303097
0
LINE
8
DEFAULT_255_2_778
10
136.639307
20
69.9303097
11
136.639307
21
30.9259097
0
LINE
8
DEFAULT_255_2_778
10
136.639307
20
30.9259097
11
136.736907
21
30.9259097
0
LINE
8
DEFAULT_255_2_778
10
136.736907
20
30.9259097
11
136.736907
21
69.9303097
0
LINE
8
DEFAULT_255_2_778
10
136.739807
20
70.0284097
11
136.757307
21
70.0456097
0
LINE
8
DEFAULT_255_2_778
10
136.799107
20
70.0578097
11
136.842807
21
70.0549097
0
LINE
8
DEFAULT_255_2_778
10
136.929807
20
70.0279097
11
137.015007
21
69.9851097
0
LINE
8
DEFAULT_255_2_778
10
137.014707
20
30.8706097
11
137.921207
21
31.3950097
0
LINE
8
DEFAULT_255_2_778
10
137.014707
20
30.8706097
11
136.929807
21
30.8278097
0
LINE
8
DEFAULT_255_2_778
10
136.842807
20
30.8008097
11
136.799107
21
30.7979097
0
LINE
8
DEFAULT_255_2_778
10
136.757007
20
30.8101097
11
136.739307
21
30.8275097
0
LINE
8
DEFAULT_255_2_778
10
136.736407
20
30.9257097
11
137.921507
21
31.6109097
0
LINE
8
DEFAULT_255_2_778
10
137.796607
20
31.1786097
11
137.102607
21
30.7680097
0
LINE
8
DEFAULT_255_2_778
10
137.102607
20
30.7680097
11
136.910807
21
30.6545097
0
LINE
8
DEFAULT_255_2_778
10
137.014707
20
69.9851097
11
137.921207
21
69.4607097
0
LINE
8
DEFAULT_255_2_778
10
133.680507
20
126.4281097
11
133.680507
21
135.4599097
0
LINE
8
DEFAULT_255_2_778
10
134.059107
20
126.4286097
11
134.059107
21
135.4599097
0
LINE
8
DEFAULT_255_2_778
10
134.059107
20
135.4599097
11
129.741107
21
135.4599097
0
LINE
8
DEFAULT_255_2_778
10
131.932607
20
126.4286097
11
139.035107
21
126.4286097
0
LINE
8
DEFAULT_255_2_778
10
139.035107
20
126.4286097
11
139.782307
21
125.6801097
0
LINE
8
DEFAULT_255_2_778
10
139.782307
20
125.6801097
11
139.782307
21
85.3634097
0
LINE
8
DEFAULT_255_2_778
10
139.782307
20
85.3634097
11
139.035107
21
84.6149097
0
LINE
8
DEFAULT_255_2_778
10
139.035107
20
84.6149097
11
131.932607
21
84.6149097
0
LINE
8
DEFAULT_255_2_778
10
137.790507
20
80.4692097
11
137.771407
21
80.4753097
0
LINE
8
DEFAULT_255_2_778
10
137.771407
20
80.4753097
11
137.739707
21
80.4816097
0
LINE
8
DEFAULT_255_2_778
10
137.739707
20
80.4816097
11
137.695307
21
80.4882097
0
LINE
8
DEFAULT_255_2_778
10
137.695307
20
80.4882097
11
137.638407
21
80.4948097
0
LINE
8
DEFAULT_255_2_778
10
137.638407
20
80.4948097
11
137.569007
21
80.5017097
0
LINE
8
DEFAULT_255_2_778
10
137.569007
20
80.5017097
11
137.393407
21
80.5157097
0
LINE
8
DEFAULT_255_2_778
10
137.393407
20
80.5157097
11
137.169007
21
80.5303097
0
LINE
8
DEFAULT_255_2_778
10
137.169007
20
80.5303097
11
136.896707
21
80.5454097
0
LINE
8
DEFAULT_255_2_778
10
136.896707
20
80.5454097
11
136.578207
21
80.5610097
0
LINE
8
DEFAULT_255_2_778
10
136.578207
20
80.5610097
11
136.214907
21
80.5769097
0
LINE
8
DEFAULT_255_2_778
10
136.214907
20
80.5769097
11
135.808507
21
80.5930097
0
LINE
8
DEFAULT_255_2_778
10
135.808507
20
80.5930097
11
135.360807
21
80.6094097
0
LINE
8
DEFAULT_255_2_778
10
135.360807
20
80.6094097
11
134.350407
21
80.6425097
0
LINE
8
DEFAULT_255_2_778
10
134.350407
20
80.6425097
11
133.202607
21
80.6753097
0
LINE
8
DEFAULT_255_2_778
10
133.202607
20
80.6753097
11
131.939207
21
80.7073097
0
LINE
8
DEFAULT_255_2_778
10
137.797107
20
31.1749097
11
137.797107
21
20.3921097
0
LINE
8
DEFAULT_255_2_778
10
137.790807
20
20.3863097
11
137.771707
21
20.3802097
0
LINE
8
DEFAULT_255_2_778
10
137.771707
20
20.3802097
11
137.740007
21
20.3738097
0
LINE
8
DEFAULT_255_2_778
10
137.740007
20
20.3738097
11
137.695507
21
20.3672097
0
LINE
8
DEFAULT_255_2_778
10
137.695507
20
20.3672097
11
137.638607
21
20.3606097
0
LINE
8
DEFAULT_255_2_778
10
137.638607
20
20.3606097
11
137.569307
21
20.3537097
0
LINE
8
DEFAULT_255_2_778
10
137.569307
20
20.3537097
11
137.393607
21
20.3397097
0
LINE
8
DEFAULT_255_2_778
10
137.393607
20
20.3397097
11
137.169307
21
20.3251097
0
LINE
8
DEFAULT_255_2_778
10
137.169307
20
20.3251097
11
136.897007
21
20.3101097
0
LINE
8
DEFAULT_255_2_778
10
136.897007
20
20.3101097
11
136.578407
21
20.2945097
0
LINE
8
DEFAULT_255_2_778
10
136.578407
20
20.2945097
11
136.215207
21
20.2786097
0
LINE
8
DEFAULT_255_2_778
10
136.215207
20
20.2786097
11
135.808807
21
20.2624097
0
LINE
8
DEFAULT_255_2_778
10
135.808807
20
20.2624097
11
135.361107
21
20.2460097
0
LINE
8
DEFAULT_255_2_778
10
135.361107
20
20.2460097
11
134.350707
21
20.2130097
0
LINE
8
DEFAULT_255_2_778
10
134.350707
20
20.2130097
11
133.202907
21
20.1802097
0
LINE
8
DEFAULT_255_2_778
10
133.202907
20
20.1802097
11
131.939507
21
20.1481097
0
LINE
8
DEFAULT_255_2_778
10
134.059907
20
81.6278097
11
134.059907
21
84.6147097
0
LINE
8
DEFAULT_255_2_778
10
133.681307
20
81.6410097
11
133.681307
21
84.6147097
0
LINE
8
DEFAULT_255_2_778
10
133.681307
20
9.7193097
11
133.681307
21
19.2147097
0
LINE
8
DEFAULT_255_2_778
10
131.933407
20
81.6937097
11
134.899907
21
81.5960097
0
LINE
8
DEFAULT_255_2_778
10
134.899907
20
81.5960097
11
136.476907
21
81.5135097
0
LINE
8
DEFAULT_255_2_778
10
136.476907
20
81.5135097
11
136.907807
21
81.4669097
0
LINE
8
DEFAULT_255_2_778
10
136.907807
20
81.4669097
11
137.057607
21
81.4330097
0
LINE
8
DEFAULT_255_2_778
10
137.057607
20
81.4330097
11
137.178307
21
81.3905097
0
LINE
8
DEFAULT_255_2_778
10
137.178307
20
81.3905097
11
137.346807
21
81.3002097
0
LINE
8
DEFAULT_255_2_778
10
137.346807
20
81.3002097
11
137.534707
21
81.1399097
0
LINE
8
DEFAULT_255_2_778
10
137.534707
20
81.1399097
11
137.692907
21
80.9089097
0
LINE
8
DEFAULT_255_2_778
10
137.692907
20
80.9089097
11
137.784407
21
80.6250097
0
LINE
8
DEFAULT_255_2_778
10
137.784407
20
80.6250097
11
137.797607
21
80.4628097
0
LINE
8
DEFAULT_255_2_778
10
137.797607
20
80.4628097
11
137.797607
21
69.6803097
0
LINE
8
DEFAULT_255_2_778
10
131.933707
20
19.1615097
11
135.783107
21
19.2994097
0
LINE
8
DEFAULT_255_2_778
10
135.783107
20
19.2994097
11
136.765207
21
19.3684097
0
LINE
8
DEFAULT_255_2_778
10
136.765207
20
19.3684097
11
136.958107
21
19.3978097
0
LINE
8
DEFAULT_255_2_778
10
136.958107
20
19.3978097
11
137.038607
21
19.4168097
0
LINE
8
DEFAULT_255_2_778
10
137.038607
20
19.4168097
11
137.153707
21
19.4547097
0
LINE
8
DEFAULT_255_2_778
10
137.153707
20
19.4547097
11
137.319807
21
19.5375097
0
LINE
8
DEFAULT_255_2_778
10
137.319807
20
19.5375097
11
137.513507
21
19.6925097
0
LINE
8
DEFAULT_255_2_778
10
137.513507
20
19.6925097
11
137.681507
21
19.9232097
0
LINE
8
DEFAULT_255_2_778
10
137.681507
20
19.9232097
11
137.781507
21
20.2119097
0
LINE
8
DEFAULT_255_2_778
10
137.781507
20
20.2119097
11
137.797907
21
20.3924097
0
LINE
8
DEFAULT_255_2_778
10
134.060107
20
19.2277097
11
134.060107
21
9.7193097
0
LINE
8
DEFAULT_255_2_778
10
134.060107
20
9.7193097
11
129.742107
21
9.7193097
0
LINE
8
DEFAULT_255_2_778
10
52.979107
20
141.3485097
11
52.981807
21
141.1183097
0
LINE
8
DEFAULT_255_2_778
10
52.981807
20
141.1183097
11
53.153507
21
141.2948097
0
LINE
8
DEFAULT_255_2_778
10
53.153507
20
141.2948097
11
55.249007
21
139.1956097
0
LINE
8
DEFAULT_255_2_778
10
52.960307
20
141.3485097
11
52.960607
21
141.3405097
0
LINE
8
DEFAULT_255_2_778
10
52.960607
20
141.3405097
11
52.963007
21
141.1183097
0
LINE
8
DEFAULT_255_2_778
10
52.963007
20
141.1183097
11
52.709807
21
141.1225097
0
LINE
8
DEFAULT_255_2_778
10
52.709807
20
141.1225097
11
52.699407
21
140.5320097
0
LINE
8
DEFAULT_255_2_778
10
52.699407
20
140.5320097
11
52.952707
21
140.5277097
0
LINE
8
DEFAULT_255_2_778
10
52.952707
20
140.5277097
11
52.963007
21
141.1183097
0
LINE
8
DEFAULT_255_2_778
10
52.963007
20
141.1183097
11
52.982007
21
141.1183097
0
LINE
8
DEFAULT_255_2_778
10
52.982007
20
141.1183097
11
55.077307
21
139.0191097
0
LINE
8
DEFAULT_255_2_778
10
55.077307
20
139.0191097
11
55.077307
21
138.9585097
0
LINE
8
DEFAULT_255_2_778
10
55.249007
20
139.1956097
11
55.077307
21
139.0191097
0
LINE
8
DEFAULT_255_2_778
10
55.077307
20
139.0191097
11
55.322007
21
139.0191097
0
LINE
8
DEFAULT_255_2_778
10
55.322007
20
139.0191097
11
55.322007
21
138.7132097
0
LINE
8
DEFAULT_255_2_778
10
59.308507
20
143.5400097
11
56.231107
21
141.4014097
0
LINE
8
DEFAULT_255_2_778
10
56.231107
20
141.4014097
11
55.947207
21
141.8112097
0
LINE
8
DEFAULT_255_2_778
10
55.947207
20
141.8112097
11
58.754407
21
143.7623097
0
LINE
8
DEFAULT_255_2_778
10
58.754407
20
143.7623097
11
59.038307
21
143.3524097
0
LINE
8
DEFAULT_255_2_778
10
56.134307
20
141.5406097
11
59.350807
21
143.7760097
0
LINE
8
DEFAULT_255_2_778
10
59.350807
20
143.7760097
11
59.163507
21
144.0467097
0
LINE
8
DEFAULT_255_2_778
10
59.163507
20
144.0467097
11
58.754207
21
143.7623097
0
LINE
8
DEFAULT_255_2_778
10
62.080807
20
139.2268097
11
62.090007
21
139.2241097
0
LINE
8
DEFAULT_255_2_778
10
62.244007
20
139.2829097
11
62.498607
21
139.4914097
0
LINE
8
DEFAULT_255_2_778
10
57.041807
20
139.9901097
11
57.520407
21
139.8525097
0
LINE
8
DEFAULT_255_2_778
10
57.520407
20
139.8525097
11
57.256607
21
138.9318097
0
LINE
8
DEFAULT_255_2_778
10
57.256607
20
138.9318097
11
56.778007
21
139.0693097
0
LINE
8
DEFAULT_255_2_778
10
56.778007
20
139.0693097
11
57.041807
21
139.9901097
0
LINE
8
DEFAULT_255_2_778
10
62.031307
20
139.2950097
11
62.042107
21
139.2969097
0
LINE
8
DEFAULT_255_2_778
10
62.042107
20
139.2969097
11
62.100407
21
139.3228097
0
LINE
8
DEFAULT_255_2_778
10
62.100407
20
139.3228097
11
62.170707
21
139.3726097
0
LINE
8
DEFAULT_255_2_778
10
62.170707
20
139.3726097
11
62.425307
21
139.5811097
0
LINE
8
DEFAULT_255_2_778
10
62.163307
20
139.1135097
11
60.977507
21
140.5656097
0
LINE
8
DEFAULT_255_2_778
10
60.977507
20
140.5656097
11
61.363007
21
140.8815097
0
LINE
8
DEFAULT_255_2_778
10
61.363007
20
140.8815097
11
62.656007
21
139.2979097
0
LINE
8
DEFAULT_255_2_778
10
62.656007
20
139.2979097
11
62.401407
21
139.0895097
0
LINE
8
DEFAULT_255_2_778
10
62.401407
20
139.0895097
11
61.108407
21
140.6730097
0
LINE
8
DEFAULT_255_2_778
10
57.357707
20
139.8991097
11
57.093907
21
138.9781097
0
LINE
8
DEFAULT_255_2_778
10
56.477207
20
135.4599097
11
63.462407
21
135.4599097
0
LINE
8
DEFAULT_255_2_778
10
64.246707
20
136.2457097
11
64.246707
21
139.4517097
0
LINE
8
DEFAULT_255_2_778
10
64.246707
20
139.4517097
11
125.756407
21
139.4517097
0
LINE
8
DEFAULT_255_2_778
10
125.756407
20
139.4517097
11
130.737007
21
134.4619097
0
LINE
8
DEFAULT_255_2_778
10
118.729107
20
134.4619097
11
56.477407
21
134.4619097
0
LINE
8
DEFAULT_255_2_778
10
5.403607
20
102.5076097
11
2.943207
21
102.4645097
0
LINE
8
DEFAULT_255_2_778
10
2.943207
20
102.4645097
11
2.943007
21
102.4645097
0
LINE
8
DEFAULT_255_2_778
10
2.694307
20
105.5194097
11
5.403607
21
105.4694097
0
LINE
8
DEFAULT_255_2_778
10
2.943207
20
101.7313097
11
2.943207
21
101.7173097
0
LINE
8
DEFAULT_255_2_778
10
2.943207
20
101.7173097
11
2.694307
21
101.7173097
0
LINE
8
DEFAULT_255_2_778
10
2.943207
20
105.4696097
11
2.943207
21
101.7348097
0
LINE
8
DEFAULT_255_2_778
10
2.943207
20
101.7348097
11
2.694307
21
101.7348097
0
LINE
8
DEFAULT_255_2_778
10
2.694307
20
101.8449097
11
2.943207
21
101.8449097
0
LINE
8
DEFAULT_255_2_778
10
2.694307
20
102.0883097
11
2.943207
21
102.0883097
0
LINE
8
DEFAULT_255_2_778
10
2.694307
20
102.3272097
11
2.943207
21
102.3272097
0
LINE
8
DEFAULT_255_2_778
10
2.694307
20
102.4373097
11
2.943207
21
102.4373097
0
LINE
8
DEFAULT_255_2_778
10
3.066007
20
102.4666097
11
3.066007
21
94.9260097
0
LINE
8
DEFAULT_255_2_778
10
3.066007
20
94.9260097
11
5.031607
21
94.9207097
0
LINE
8
DEFAULT_255_2_778
10
5.031607
20
94.9207097
11
5.031607
21
102.4021097
0
LINE
8
DEFAULT_255_2_778
10
5.031607
20
102.4021097
11
3.066007
21
102.4365097
0
LINE
8
DEFAULT_255_2_778
10
2.694307
20
82.7314097
11
2.694307
21
82.7314097
0
LINE
8
DEFAULT_255_2_778
10
2.943207
20
85.6621097
11
2.943007
21
85.6621097
0
LINE
8
DEFAULT_255_2_778
10
2.943007
20
82.7554097
11
2.943207
21
82.7554097
0
LINE
8
DEFAULT_255_2_778
10
5.031607
20
85.6254097
11
5.031607
21
88.0106097
0
LINE
8
DEFAULT_255_2_778
10
5.031607
20
88.0106097
11
3.066007
21
88.0053097
0
LINE
8
DEFAULT_255_2_778
10
3.066007
20
88.0053097
11
3.066007
21
85.6600097
0
LINE
8
DEFAULT_255_2_778
10
5.403607
20
82.6573097
11
2.694307
21
82.6073097
0
LINE
8
DEFAULT_255_2_778
10
5.031907
20
88.0108097
11
5.031907
21
88.1307097
0
LINE
8
DEFAULT_255_2_778
10
5.031907
20
88.1307097
11
5.403807
21
88.1307097
0
LINE
8
DEFAULT_255_2_778
10
5.375507
20
88.0855097
11
5.341407
21
88.0648097
0
LINE
8
DEFAULT_255_2_778
10
5.341407
20
88.0648097
11
5.295407
21
88.0468097
0
LINE
8
DEFAULT_255_2_778
10
5.031907
20
88.0108097
11
5.031907
21
88.0108097
0
LINE
8
DEFAULT_255_2_778
10
5.031907
20
82.7507097
11
5.031907
21
82.7920097
0
LINE
8
DEFAULT_255_2_778
10
3.066307
20
82.7576097
11
3.066307
21
82.7179097
0
LINE
8
DEFAULT_255_2_778
10
3.066307
20
82.7179097
11
5.159107
21
82.7525097
0
LINE
8
DEFAULT_255_2_778
10
5.403807
20
82.7438097
11
5.403807
21
82.7438097
0
LINE
8
DEFAULT_255_2_778
10
5.403807
20
85.6187097
11
2.943507
21
85.6619097
0
LINE
8
DEFAULT_255_2_778
10
2.943507
20
85.6619097
11
2.943507
21
82.7552097
0
LINE
8
DEFAULT_255_2_778
10
2.943507
20
82.7552097
11
5.403807
21
82.7983097
0
LINE
8
DEFAULT_255_2_778
10
3.029707
20
77.3349097
11
3.029707
21
76.0874097
0
LINE
8
DEFAULT_255_2_778
10
3.029707
20
76.0874097
11
2.802507
21
76.0874097
0
LINE
8
DEFAULT_255_2_778
10
2.802507
20
75.7183097
11
2.826307
21
75.6850097
0
LINE
8
DEFAULT_255_2_778
10
28.812107
20
110.4957097
11
28.088707
21
110.4957097
0
LINE
8
DEFAULT_255_2_778
10
1.676407
20
73.0828097
11
1.676407
21
73.0828097
0
LINE
8
DEFAULT_255_2_778
10
1.925407
20
73.0958097
11
2.553007
21
73.0958097
0
LINE
8
DEFAULT_255_2_778
10
2.801907
20
73.1087097
11
2.801907
21
73.1087097
0
LINE
8
DEFAULT_255_2_778
10
2.801907
20
73.1087097
11
2.801907
21
77.3349097
0
LINE
8
DEFAULT_255_2_778
10
1.676407
20
73.1582097
11
2.801907
21
73.1582097
0
LINE
8
DEFAULT_255_2_778
10
1.925607
20
66.8788097
11
3.315207
21
66.8788097
0
LINE
8
DEFAULT_255_2_778
10
1.925907
20
71.8686097
11
3.315507
21
71.8686097
0
LINE
8
DEFAULT_255_2_778
10
12.594207
20
28.4100097
11
13.983807
21
28.4100097
0
LINE
8
DEFAULT_255_2_778
10
12.594407
20
33.3998097
11
13.984007
21
33.3998097
0
LINE
8
DEFAULT_255_2_778
10
5.403607
20
77.6447097
11
2.694307
21
77.5974097
0
LINE
8
DEFAULT_255_2_778
10
2.694307
20
77.5974097
11
2.694307
21
110.4922097
0
LINE
8
DEFAULT_255_2_778
10
2.694307
20
86.2180097
11
2.712007
21
86.6829097
0
LINE
8
DEFAULT_255_2_778
10
2.712007
20
86.6829097
11
2.733107
21
86.9152097
0
LINE
8
DEFAULT_255_2_778
10
2.733107
20
86.9152097
11
2.762507
21
87.1470097
0
LINE
8
DEFAULT_255_2_778
10
2.762507
20
87.1470097
11
2.800907
21
87.3780097
0
LINE
8
DEFAULT_255_2_778
10
2.800907
20
87.3780097
11
2.851407
21
87.6071097
0
LINE
8
DEFAULT_255_2_778
10
2.851407
20
87.6071097
11
2.883407
21
87.7201097
0
LINE
8
DEFAULT_255_2_778
10
2.883407
20
87.7201097
11
2.922607
21
87.8309097
0
LINE
8
DEFAULT_255_2_778
10
3.066507
20
88.0048097
11
3.066507
21
88.1244097
0
LINE
8
DEFAULT_255_2_778
10
3.066507
20
88.1244097
11
5.032107
21
88.1299097
0
LINE
8
DEFAULT_255_2_778
10
5.032107
20
88.1299097
11
5.032107
21
94.8006097
0
LINE
8
DEFAULT_255_2_778
10
5.032107
20
94.8006097
11
5.404107
21
94.8006097
0
LINE
8
DEFAULT_255_2_778
10
5.375807
20
94.8458097
11
5.341707
21
94.8665097
0
LINE
8
DEFAULT_255_2_778
10
5.341707
20
94.8665097
11
5.295607
21
94.8845097
0
LINE
8
DEFAULT_255_2_778
10
5.032107
20
94.9204097
11
5.032107
21
94.8006097
0
LINE
8
DEFAULT_255_2_778
10
5.032107
20
94.8006097
11
3.066507
21
94.8061097
0
LINE
8
DEFAULT_255_2_778
10
3.066507
20
94.8061097
11
3.066507
21
94.9257097
0
LINE
8
DEFAULT_255_2_778
10
2.922307
20
95.1001097
11
2.883207
21
95.2110097
0
LINE
8
DEFAULT_255_2_778
10
2.883207
20
95.2110097
11
2.851407
21
95.3239097
0
LINE
8
DEFAULT_255_2_778
10
2.851407
20
95.3239097
11
2.800907
21
95.5531097
0
LINE
8
DEFAULT_255_2_778
10
2.800907
20
95.5531097
11
2.762507
21
95.7840097
0
LINE
8
DEFAULT_255_2_778
10
2.762507
20
95.7840097
11
2.733407
21
96.0158097
0
LINE
8
DEFAULT_255_2_778
10
2.733407
20
96.0158097
11
2.712207
21
96.2481097
0
LINE
8
DEFAULT_255_2_778
10
2.712207
20
96.2481097
11
2.694507
21
96.7130097
0
LINE
8
DEFAULT_255_2_778
10
28.272807
20
2.8335097
11
28.785907
21
2.8335097
0
LINE
8
DEFAULT_255_2_778
10
28.785907
20
3.5016097
11
28.272807
21
3.5267097
0
LINE
8
DEFAULT_255_2_778
10
28.785907
20
3.7514097
11
28.272807
21
3.7765097
0
LINE
8
DEFAULT_255_2_778
10
2.801907
20
73.6609097
11
3.315007
21
73.6609097
0
LINE
8
DEFAULT_255_2_778
10
3.315007
20
61.8843097
11
2.801907
21
61.8843097
0
LINE
8
DEFAULT_255_2_778
10
1.906107
20
66.8786097
11
1.906107
21
65.6607097
0
LINE
8
DEFAULT_255_2_778
10
1.906107
20
73.0955097
11
1.906107
21
71.8681097
0
LINE
8
DEFAULT_255_2_778
10
1.804707
20
71.8996097
11
1.804707
21
73.0936097
0
LINE
8
DEFAULT_255_2_778
10
1.804707
20
65.6160097
11
1.804707
21
66.8468097
0
LINE
8
DEFAULT_255_2_778
10
13.983507
20
34.0446097
11
13.215707
21
33.3990097
0
LINE
8
DEFAULT_255_2_778
10
12.828307
20
33.3990097
11
13.983507
21
34.3703097
0
LINE
8
DEFAULT_255_2_778
10
4.057707
20
45.5675097
11
4.505907
21
45.9442097
0
LINE
8
DEFAULT_255_2_778
10
4.345807
20
46.1352097
11
3.897607
21
45.7585097
0
LINE
8
DEFAULT_255_2_778
10
1.698107
20
77.3352097
11
1.698107
21
77.3696097
0
LINE
8
DEFAULT_255_2_778
10
3.315207
20
77.3614097
11
2.694307
21
77.3479097
0
LINE
8
DEFAULT_255_2_778
10
0.701907
20
110.4946097
11
0.701907
21
107.5146097
0
LINE
8
DEFAULT_255_2_778
10
0.701907
20
107.5146097
11
1.100407
21
107.5077097
0
LINE
8
DEFAULT_255_2_778
10
1.100407
20
107.5077097
11
1.100407
21
107.1085097
0
LINE
8
DEFAULT_255_2_778
10
1.100407
20
107.1085097
11
0.701907
21
107.1016097
0
LINE
8
DEFAULT_255_2_778
10
0.701907
20
107.1016097
11
0.701907
21
99.5313097
0
LINE
8
DEFAULT_255_2_778
10
0.701907
20
99.5313097
11
1.100407
21
99.5245097
0
LINE
8
DEFAULT_255_2_778
10
1.100407
20
99.5245097
11
1.100407
21
99.1252097
0
LINE
8
DEFAULT_255_2_778
10
1.100407
20
99.1252097
11
0.701907
21
99.1183097
0
LINE
8
DEFAULT_255_2_778
10
0.701907
20
99.1183097
11
0.701907
21
91.5481097
0
LINE
8
DEFAULT_255_2_778
10
0.701907
20
91.5481097
11
1.100407
21
91.5412097
0
LINE
8
DEFAULT_255_2_778
10
1.100407
20
91.5412097
11
1.100407
21
91.1419097
0
LINE
8
DEFAULT_255_2_778
10
1.100407
20
91.1419097
11
0.701907
21
91.1351097
0
LINE
8
DEFAULT_255_2_778
10
0.701907
20
91.1351097
11
0.701907
21
83.5648097
0
LINE
8
DEFAULT_255_2_778
10
0.701907
20
83.5648097
11
1.100407
21
83.5579097
0
LINE
8
DEFAULT_255_2_778
10
1.100407
20
83.5579097
11
1.100407
21
83.1587097
0
LINE
8
DEFAULT_255_2_778
10
1.100407
20
83.1587097
11
0.701907
21
83.1518097
0
LINE
8
DEFAULT_255_2_778
10
0.701907
20
83.1518097
11
0.701907
21
77.6331097
0
LINE
8
DEFAULT_255_2_778
10
0.701907
20
77.6331097
11
2.694307
21
77.5982097
0
LINE
8
DEFAULT_255_2_778
10
2.694307
20
77.5982097
11
2.694307
21
77.3487097
0
LINE
8
DEFAULT_255_2_778
10
2.694307
20
77.3487097
11
1.698107
21
77.3704097
0
LINE
8
DEFAULT_255_2_778
10
26.051107
20
8.4551097
11
27.146807
21
8.8547097
0
LINE
8
DEFAULT_255_2_778
10
5.403307
20
110.4827097
11
4.822607
21
110.4928097
0
LINE
8
DEFAULT_255_2_778
10
28.785307
20
110.5227097
11
28.088207
21
110.5229097
0
LINE
8
DEFAULT_255_2_778
10
11.249307
20
26.1269097
11
12.344907
21
26.5265097
0
LINE
8
DEFAULT_255_2_778
10
3.551007
20
74.5721097
11
3.549607
21
74.5732097
0
LINE
8
DEFAULT_255_2_778
10
3.549607
20
74.5732097
11
3.548607
21
74.5766097
0
LINE
8
DEFAULT_255_2_778
10
3.548607
20
74.5766097
11
3.547807
21
74.5825097
0
LINE
8
DEFAULT_255_2_778
10
3.547807
20
74.5825097
11
3.547007
21
74.5907097
0
LINE
8
DEFAULT_255_2_778
10
3.547007
20
74.5907097
11
3.546007
21
74.6137097
0
LINE
8
DEFAULT_255_2_778
10
3.546007
20
74.6137097
11
3.545707
21
74.6446097
0
LINE
8
DEFAULT_255_2_778
10
3.545707
20
74.6446097
11
3.546007
21
74.6825097
0
LINE
8
DEFAULT_255_2_778
10
3.546007
20
74.6825097
11
3.547007
21
74.7256097
0
LINE
8
DEFAULT_255_2_778
10
3.547007
20
74.7256097
11
3.548607
21
74.7724097
0
LINE
8
DEFAULT_255_2_778
10
3.548607
20
74.7724097
11
3.551007
21
74.8211097
0
LINE
8
DEFAULT_255_2_778
10
3.551007
20
74.8211097
11
3.315007
21
74.8211097
0
LINE
8
DEFAULT_255_2_778
10
1.676407
20
46.6559097
11
0.580807
21
46.2564097
0
LINE
8
DEFAULT_255_2_778
10
1.676407
20
65.5943097
11
2.801907
21
65.5943097
0
LINE
8
DEFAULT_255_2_778
10
12.593907
20
27.2125097
11
13.221507
21
27.2125097
0
LINE
8
DEFAULT_255_2_778
10
13.470507
20
27.1996097
11
13.470507
21
27.0278097
0
LINE
8
DEFAULT_255_2_778
10
13.528707
20
26.8675097
11
28.155907
21
9.4034097
0
LINE
8
DEFAULT_255_2_778
10
12.344707
20
27.1342097
11
13.470207
21
27.1342097
0
LINE
8
DEFAULT_255_2_778
10
28.027607
20
10.4683097
11
28.027607
21
9.5566097
0
LINE
8
DEFAULT_255_2_778
10
12.589407
20
28.4103097
11
12.589407
21
27.2128097
0
LINE
8
DEFAULT_255_2_778
10
4.969407
20
77.6373097
11
4.969407
21
77.6270097
0
LINE
8
DEFAULT_255_2_778
10
4.720707
20
77.6328097
11
4.720707
21
77.6225097
0
LINE
8
DEFAULT_255_2_778
10
4.660907
20
77.6215097
11
4.660907
21
77.6318097
0
LINE
8
DEFAULT_255_2_778
10
3.550707
20
74.5721097
11
3.812707
21
74.5859097
0
LINE
8
DEFAULT_255_2_778
10
3.812707
20
74.5859097
11
3.812707
21
77.6069097
0
LINE
8
DEFAULT_255_2_778
10
12.344707
20
34.6740097
11
12.835507
21
35.0868097
0
LINE
8
DEFAULT_255_2_778
10
12.835507
20
35.0868097
11
2.859907
21
46.9970097
0
LINE
8
DEFAULT_255_2_778
10
2.801707
20
47.1573097
11
2.801707
21
65.6483097
0
LINE
8
DEFAULT_255_2_778
10
2.552707
20
65.6612097
11
1.925407
21
65.6612097
0
LINE
8
DEFAULT_255_2_778
10
3.812907
20
74.8351097
11
3.551007
21
74.8214097
0
LINE
8
DEFAULT_255_2_778
10
3.551007
20
74.8214097
11
3.551007
21
77.6024097
0
LINE
8
DEFAULT_255_2_778
10
2.801907
20
75.6858097
11
2.825807
21
75.6858097
0
LINE
8
DEFAULT_255_2_778
10
2.825807
20
75.6858097
11
2.825807
21
73.6614097
0
LINE
8
DEFAULT_255_2_778
10
2.187007
20
77.6066097
11
2.187007
21
110.4922097
0
LINE
8
DEFAULT_255_2_778
10
11.249007
20
33.5189097
11
12.344907
21
33.9184097
0
LINE
8
DEFAULT_255_2_778
10
12.344907
20
33.9184097
11
1.676407
21
46.6559097
0
LINE
8
DEFAULT_255_2_778
10
1.676407
20
46.6559097
11
1.676407
21
77.3352097
0
LINE
8
DEFAULT_255_2_778
10
3.315007
20
77.3352097
11
0.182307
21
77.3352097
0
LINE
8
DEFAULT_255_2_778
10
0.182307
20
77.3352097
11
0.182307
21
75.5355097
0
LINE
8
DEFAULT_255_2_778
10
0.182307
20
75.5355097
11
0.580807
21
75.5286097
0
LINE
8
DEFAULT_255_2_778
10
0.580807
20
75.5286097
11
0.580807
21
75.1293097
0
LINE
8
DEFAULT_255_2_778
10
0.580807
20
75.1293097
11
0.182307
21
75.1222097
0
LINE
8
DEFAULT_255_2_778
10
0.182307
20
75.1222097
11
0.182307
21
67.5519097
0
LINE
8
DEFAULT_255_2_778
10
0.182307
20
67.5519097
11
0.580807
21
67.5451097
0
LINE
8
DEFAULT_255_2_778
10
0.580807
20
67.5451097
11
0.580807
21
67.1458097
0
LINE
8
DEFAULT_255_2_778
10
0.580807
20
67.1458097
11
0.182307
21
67.1387097
0
LINE
8
DEFAULT_255_2_778
10
0.182307
20
67.1387097
11
0.182307
21
59.5684097
0
LINE
8
DEFAULT_255_2_778
10
0.182307
20
59.5684097
11
0.580807
21
59.5615097
0
LINE
8
DEFAULT_255_2_778
10
0.580807
20
59.5615097
11
0.580807
21
59.1623097
0
LINE
8
DEFAULT_255_2_778
10
0.580807
20
59.1623097
11
0.182307
21
59.1551097
0
LINE
8
DEFAULT_255_2_778
10
0.182307
20
59.1551097
11
0.182307
21
51.5849097
0
LINE
8
DEFAULT_255_2_778
10
0.182307
20
51.5849097
11
0.580807
21
51.5780097
0
LINE
8
DEFAULT_255_2_778
10
0.580807
20
51.5780097
11
0.580807
21
51.1787097
0
LINE
8
DEFAULT_255_2_778
10
0.580807
20
51.1787097
11
0.182307
21
51.1716097
0
LINE
8
DEFAULT_255_2_778
10
0.182307
20
51.1716097
11
0.182307
21
46.3175097
0
LINE
8
DEFAULT_255_2_778
10
0.182307
20
46.3175097
11
0.580807
21
46.3107097
0
LINE
8
DEFAULT_255_2_778
10
0.580807
20
46.3107097
11
0.580807
21
46.1059097
0
LINE
8
DEFAULT_255_2_778
10
0.580807
20
46.1059097
11
0.349507
21
45.9114097
0
LINE
8
DEFAULT_255_2_778
10
0.349507
20
45.9114097
11
5.341907
21
39.9509097
0
LINE
8
DEFAULT_255_2_778
10
5.341907
20
39.9509097
11
5.869807
21
39.9416097
0
LINE
8
DEFAULT_255_2_778
10
5.869807
20
39.9416097
11
6.204207
21
39.5424097
0
LINE
8
DEFAULT_255_2_778
10
6.204207
20
39.5424097
11
5.691507
21
39.5334097
0
LINE
8
DEFAULT_255_2_778
10
5.691507
20
39.5334097
11
10.675407
21
33.5829097
0
LINE
8
DEFAULT_255_2_778
10
10.675407
20
33.5829097
11
11.249307
21
33.5728097
0
LINE
8
DEFAULT_255_2_778
10
11.249307
20
33.5728097
11
11.249307
21
33.1736097
0
LINE
8
DEFAULT_255_2_778
10
11.249307
20
33.1736097
11
10.850807
21
33.1667097
0
LINE
8
DEFAULT_255_2_778
10
10.850807
20
33.1667097
11
10.850807
21
26.1881097
0
LINE
8
DEFAULT_255_2_778
10
10.850807
20
26.1881097
11
11.249307
21
26.1812097
0
LINE
8
DEFAULT_255_2_778
10
11.249307
20
26.1812097
11
11.249307
21
25.9764097
0
LINE
8
DEFAULT_255_2_778
10
11.249307
20
25.9764097
11
11.018007
21
25.7819097
0
LINE
8
DEFAULT_255_2_778
10
11.018007
20
25.7819097
11
15.617607
21
20.2902097
0
LINE
8
DEFAULT_255_2_778
10
15.617607
20
20.2902097
11
16.145407
21
20.2810097
0
LINE
8
DEFAULT_255_2_778
10
16.145407
20
20.2810097
11
16.464507
21
19.9000097
0
LINE
8
DEFAULT_255_2_778
10
16.464507
20
19.9000097
11
15.952007
21
19.8910097
0
LINE
8
DEFAULT_255_2_778
10
15.952007
20
19.8910097
11
20.551807
21
14.3993097
0
LINE
8
DEFAULT_255_2_778
10
20.551807
20
14.3993097
11
21.079607
21
14.3900097
0
LINE
8
DEFAULT_255_2_778
10
21.079607
20
14.3900097
11
21.398707
21
14.0090097
0
LINE
8
DEFAULT_255_2_778
10
21.398707
20
14.0090097
11
20.885907
21
14.0000097
0
LINE
8
DEFAULT_255_2_778
10
20.885907
20
14.0000097
11
25.477307
21
8.5184097
0
LINE
8
DEFAULT_255_2_778
10
25.477307
20
8.5184097
11
26.051407
21
8.5083097
0
LINE
8
DEFAULT_255_2_778
10
26.051407
20
8.5083097
11
26.051407
21
8.1091097
0
LINE
8
DEFAULT_255_2_778
10
26.051407
20
8.1091097
11
25.652907
21
8.1022097
0
LINE
8
DEFAULT_255_2_778
10
25.652907
20
8.1022097
11
25.652907
21
1.3368097
0
LINE
8
DEFAULT_255_2_778
10
25.652907
20
1.3368097
11
27.147007
21
-0.1601903
0
LINE
8
DEFAULT_255_2_778
10
27.147007
20
-0.1601903
11
28.272607
21
-0.1601903
0
LINE
8
DEFAULT_255_2_778
10
28.272607
20
-0.1601903
11
28.272607
21
10.1755097
0
LINE
8
DEFAULT_255_2_778
10
12.785707
20
35.1460097
11
12.345207
21
34.7756097
0
LINE
8
DEFAULT_255_2_778
10
12.345207
20
34.7756097
11
12.345207
21
26.5259097
0
LINE
8
DEFAULT_255_2_778
10
12.345207
20
26.5259097
11
27.147007
21
8.8533097
0
LINE
8
DEFAULT_255_2_778
10
27.147007
20
8.8533097
11
27.147007
21
-0.1601903
0
ARC
8
DEFAULT_255_2_778
10
53.7849238
20
120.9904797
40
2.5004243
50
359.984153
51
44.9495153
0
ARC
8
DEFAULT_255_2_778
10
53.7902375
20
120.997105
40
2.4919832
50
44.9280198
51
89.9905615
0
ARC
8
DEFAULT_255_2_778
10
53.7935865
20
121.0050161
40
2.4798738
50
68.8194604
51
90.0678939
0
ARC
8
DEFAULT_255_2_778
10
53.7834612
20
120.9894998
40
2.4980032
50
11.1896987
51
68.7314951
0
ARC
8
DEFAULT_255_2_778
10
53.769544
20
120.9913315
40
2.5113043
50
359.9716324
51
11.0870849
0
ARC
8
DEFAULT_255_2_778
10
53.7876896
20
24.1868928
40
2.4931602
50
339.247959
51
0.0688366
0
ARC
8
DEFAULT_255_2_778
10
53.7866852
20
24.1890971
40
2.4948812
50
279.936402
51
339.2087949
0
ARC
8
DEFAULT_255_2_778
10
53.7916567
20
24.1972405
40
2.5020525
50
269.9769009
51
279.7920859
0
ARC
8
DEFAULT_255_2_778
10
36.8538154
20
121.0049115
40
2.4799784
50
89.9322483
51
111.1800868
0
ARC
8
DEFAULT_255_2_778
10
36.8639042
20
120.9894045
40
2.4980858
50
111.2673486
51
168.8084485
0
ARC
8
DEFAULT_255_2_778
10
36.8775413
20
120.9913315
40
2.5110937
50
168.9119741
51
180.0283708
0
ARC
8
DEFAULT_255_2_778
10
36.8594433
20
24.1868972
40
2.4929972
50
179.9312611
51
200.7535703
0
ARC
8
DEFAULT_255_2_778
10
36.8607207
20
24.1892372
40
2.4950214
50
200.7934243
51
260.0638591
0
ARC
8
DEFAULT_255_2_778
10
36.8557407
20
24.1972927
40
2.5021047
50
260.2080146
51
270.0230658
0
LINE
8
DEFAULT_255_2_778
10
53.790648
20
123.4890881
11
36.856748
21
123.4890881
0
LINE
8
DEFAULT_255_2_778
10
36.856748
20
123.4890881
11
36.856748
21
123.4848881
0
LINE
8
DEFAULT_255_2_778
10
36.856748
20
123.4848881
11
53.790648
21
123.4848881
0
LINE
8
DEFAULT_255_2_778
10
53.790648
20
123.4848881
11
53.790648
21
123.4890881
0
LINE
8
DEFAULT_255_2_778
10
56.280848
20
120.9900881
11
56.285048
21
120.9900881
0
LINE
8
DEFAULT_255_2_778
10
56.285048
20
120.9900881
11
56.285048
21
24.1901881
0
LINE
8
DEFAULT_255_2_778
10
56.285048
20
24.1901881
11
56.280848
21
24.1901881
0
LINE
8
DEFAULT_255_2_778
10
56.280848
20
24.1901881
11
56.280848
21
120.9897881
0
LINE
8
DEFAULT_255_2_778
10
53.790648
20
21.6951881
11
53.790648
21
21.6908881
0
LINE
8
DEFAULT_255_2_778
10
53.790648
20
21.6908881
11
36.856748
21
21.6908881
0
LINE
8
DEFAULT_255_2_778
10
36.856748
20
21.6908881
11
36.856748
21
21.6951881
0
LINE
8
DEFAULT_255_2_778
10
36.856748
20
21.6951881
11
53.790648
21
21.6951881
0
LINE
8
DEFAULT_255_2_778
10
34.366448
20
120.9900881
11
34.362248
21
120.9900881
0
LINE
8
DEFAULT_255_2_778
10
34.362248
20
120.9900881
11
34.362248
21
24.1901881
0
LINE
8
DEFAULT_255_2_778
10
34.362248
20
24.1901881
11
34.366448
21
24.1901881
0
LINE
8
DEFAULT_255_2_778
10
34.366448
20
24.1901881
11
34.366448
21
120.9897881
0
ARC
8
DEFAULT_255_2_778
10
62.7434842
20
22.9916614
40
2.5000167
50
179.9825739
51
224.9533782
0
ARC
8
DEFAULT_255_2_778
10
62.7386017
20
22.9852617
40
2.49204
50
224.9285642
51
269.9923207
0
ARC
8
DEFAULT_255_2_778
10
62.741066
20
22.9894367
40
2.4931001
50
179.931398
51
200.7531383
0
ARC
8
DEFAULT_255_2_778
10
62.7423325
20
22.9917384
40
2.4951008
50
200.7922592
51
260.0620296
0
ARC
8
DEFAULT_255_2_778
10
62.7372638
20
22.999536
40
2.5019147
50
260.2071844
51
270.0229895
0
ARC
8
DEFAULT_255_2_778
10
89.6327567
20
22.9854059
40
2.4919842
50
270.009448
51
315.0719695
0
ARC
8
DEFAULT_255_2_778
10
89.6261788
20
22.9925531
40
2.5016888
50
315.0624709
51
0.0038627
0
ARC
8
DEFAULT_255_2_778
10
62.7355291
20
122.2022497
40
2.4798738
50
89.9321061
51
111.1805396
0
ARC
8
DEFAULT_255_2_778
10
62.7456544
20
122.1867334
40
2.4980032
50
111.2685049
51
168.8103013
0
ARC
8
DEFAULT_255_2_778
10
62.7595716
20
122.1885651
40
2.5113043
50
168.9129151
51
180.0283676
0
ARC
8
DEFAULT_255_2_778
10
62.7388739
20
122.1944079
40
2.4922139
50
90.0093384
51
135.0697775
0
ARC
8
DEFAULT_255_2_778
10
62.7457823
20
122.1874556
40
2.5020148
50
135.0687947
51
180.0030665
0
ARC
8
DEFAULT_255_2_778
10
89.6305693
20
22.9894367
40
2.4931001
50
339.2468617
51
0.068602
0
ARC
8
DEFAULT_255_2_778
10
89.6293028
20
22.9917384
40
2.4951008
50
279.9379704
51
339.2077408
0
ARC
8
DEFAULT_255_2_778
10
89.6343715
20
22.999536
40
2.5019147
50
269.9770105
51
279.7928156
0
LINE
8
DEFAULT_255_2_778
10
92.1278677
20
22.9927217
11
92.1278677
21
120.6922217
0
LINE
8
DEFAULT_255_2_778
10
92.1278677
20
120.6922217
11
92.1236677
21
120.6903217
0
LINE
8
DEFAULT_255_2_778
10
92.1236677
20
120.6903217
11
92.1236677
21
22.9921217
0
LINE
8
DEFAULT_255_2_778
10
92.1236677
20
22.9921217
11
92.1278677
21
22.9921217
0
LINE
8
DEFAULT_255_2_778
10
92.1236677
20
120.6903217
11
88.1392677
21
124.6821217
0
LINE
8
DEFAULT_255_2_778
10
60.2482677
20
122.1873217
11
60.2439677
21
122.1873217
0
LINE
8
DEFAULT_255_2_778
10
60.2439677
20
122.1873217
11
60.2439677
21
22.9924217
0
LINE
8
DEFAULT_255_2_778
10
60.2439677
20
22.9924217
11
60.2482677
21
22.9924217
0
LINE
8
DEFAULT_255_2_778
10
60.2482677
20
22.9924217
11
60.2482677
21
122.1873217
0
LINE
8
DEFAULT_255_2_778
10
92.1281677
20
120.6922217
11
88.1411677
21
124.6866217
0
LINE
8
DEFAULT_255_2_778
10
88.1411677
20
124.6866217
11
62.7384677
21
124.6866217
0
LINE
8
DEFAULT_255_2_778
10
62.7384677
20
124.6866217
11
62.7384677
21
124.6824217
0
LINE
8
DEFAULT_255_2_778
10
62.7384677
20
124.6824217
11
88.1392677
21
124.6824217
0
LINE
8
DEFAULT_255_2_778
10
88.1392677
20
124.6824217
11
88.1411677
21
124.6866217
0
LINE
8
DEFAULT_255_2_778
10
89.6333677
20
20.4976217
11
89.6333677
21
20.4934217
0
LINE
8
DEFAULT_255_2_778
10
89.6333677
20
20.4934217
11
62.7384677
21
20.4934217
0
LINE
8
DEFAULT_255_2_778
10
62.7384677
20
20.4934217
11
62.7384677
21
20.4976217
0
LINE
8
DEFAULT_255_2_778
10
62.7384677
20
20.4976217
11
89.6333677
21
20.4976217
0
ARC
8
DEFAULT_255_2_778
10
98.5858761
20
22.9916614
40
2.5000167
50
179.9825739
51
224.9533782
0
ARC
8
DEFAULT_255_2_778
10
98.5809936
20
22.9852617
40
2.49204
50
224.9285642
51
269.9923207
0
ARC
8
DEFAULT_255_2_778
10
98.5834579
20
22.9894367
40
2.4931001
50
179.931398
51
200.7531383
0
ARC
8
DEFAULT_255_2_778
10
98.5847245
20
22.9917384
40
2.4951008
50
200.7922592
51
260.0620296
0
ARC
8
DEFAULT_255_2_778
10
98.5796557
20
22.999536
40
2.5019147
50
260.2071844
51
270.0229895
0
ARC
8
DEFAULT_255_2_778
10
125.4751487
20
22.9854059
40
2.4919842
50
270.009448
51
315.0719695
0
ARC
8
DEFAULT_255_2_778
10
125.4685708
20
22.9925531
40
2.5016888
50
315.0624709
51
0.0038627
0
ARC
8
DEFAULT_255_2_778
10
98.577921
20
122.2022497
40
2.4798738
50
89.9321061
51
111.1805396
0
ARC
8
DEFAULT_255_2_778
10
98.5880463
20
122.1867334
40
2.4980032
50
111.2685049
51
168.8103013
0
ARC
8
DEFAULT_255_2_778
10
98.6019635
20
122.1885651
40
2.5113043
50
168.9129151
51
180.0283676
0
ARC
8
DEFAULT_255_2_778
10
98.5812696
20
122.1946397
40
2.4919821
50
90.0094267
51
135.0719892
0
ARC
8
DEFAULT_255_2_778
10
98.5878484
20
122.1874904
40
2.5016888
50
135.0624709
51
180.0038627
0
ARC
8
DEFAULT_255_2_778
10
125.4729613
20
22.9894367
40
2.4931001
50
339.2468617
51
0.068602
0
ARC
8
DEFAULT_255_2_778
10
125.4716947
20
22.9917384
40
2.4951008
50
279.9379704
51
339.2077408
0
ARC
8
DEFAULT_255_2_778
10
125.4767635
20
22.999536
40
2.5019147
50
269.9770105
51
279.7928156
0
LINE
8
DEFAULT_255_2_778
10
127.9702596
20
22.9927217
11
127.9702596
21
120.6922217
0
LINE
8
DEFAULT_255_2_778
10
127.9702596
20
120.6922217
11
127.9660596
21
120.6903217
0
LINE
8
DEFAULT_255_2_778
10
127.9660596
20
120.6903217
11
127.9660596
21
22.9921217
0
LINE
8
DEFAULT_255_2_778
10
127.9660596
20
22.9921217
11
127.9702596
21
22.9921217
0
LINE
8
DEFAULT_255_2_778
10
127.9660596
20
120.6903217
11
123.9816596
21
124.6821217
0
LINE
8
DEFAULT_255_2_778
10
96.0906596
20
122.1873217
11
96.0863596
21
122.1873217
0
LINE
8
DEFAULT_255_2_778
10
96.0863596
20
122.1873217
11
96.0863596
21
22.9924217
0
LINE
8
DEFAULT_255_2_778
10
96.0863596
20
22.9924217
11
96.0906596
21
22.9924217
0
LINE
8
DEFAULT_255_2_778
10
96.0906596
20
22.9924217
11
96.0906596
21
122.1873217
0
LINE
8
DEFAULT_255_2_778
10
127.9705596
20
120.6922217
11
123.9835596
21
124.6866217
0
LINE
8
DEFAULT_255_2_778
10
123.9835596
20
124.6866217
11
98.5808596
21
124.6866217
0
LINE
8
DEFAULT_255_2_778
10
98.5808596
20
124.6866217
11
98.5808596
21
124.6824217
0
LINE
8
DEFAULT_255_2_778
10
98.5808596
20
124.6824217
11
123.9816596
21
124.6824217
0
LINE
8
DEFAULT_255_2_778
10
123.9816596
20
124.6824217
11
123.9835596
21
124.6866217
0
LINE
8
DEFAULT_255_2_778
10
125.4757596
20
20.4976217
11
125.4757596
21
20.4934217
0
LINE
8
DEFAULT_255_2_778
10
125.4757596
20
20.4934217
11
98.5808596
21
20.4934217
0
LINE
8
DEFAULT_255_2_778
10
98.5808596
20
20.4934217
11
98.5808596
21
20.4976217
0
LINE
8
DEFAULT_255_2_778
10
98.5808596
20
20.4976217
11
125.4757596
21
20.4976217
0
ENDSEC
0
EOF