0
SECTION
2
HEADER
9
$MEASUREMENT
70
1
0
ENDSEC
0
SECTION
2
TABLES
0
TABLE
2
LTYPE
0
LTYPE
72
65
70
64
2
CONTINUOUS
3
______
73
0
40
0
0
ENDTAB
0
TABLE
2
LAYER
0
LAYER
2
DEFAULT_255_2_778
70
0
62
255
6
CONTINUOUS
0
LAYER
2
DEFAULT_255_1_388
70
0
62
255
6
CONTINUOUS
0
ENDTAB
0
ENDSEC
0
SECTION
2
ENTITIES
0
ARC
8
DEFAULT_255_2_778
10
3.5700693
20
28.1802037
40
0.7914215
50
129.1312896
51
180.1450914
0
ARC
8
DEFAULT_255_2_778
10
3.5703345
20
28.1806908
40
0.7912112
50
89.854026
51
129.1684493
0
ARC
8
DEFAULT_255_2_778
10
25.7993937
20
28.1803773
40
0.7915249
50
39.4792447
51
90.147911
0
ARC
8
DEFAULT_255_2_778
10
25.7999935
20
28.180224
40
0.7911595
50
359.8533901
51
39.5154338
0
ARC
8
DEFAULT_255_2_778
10
25.7996693
20
-1.9863486
40
0.7914836
50
309.4761667
51
0.1482649
0
ARC
8
DEFAULT_255_2_778
10
25.799398
20
-1.9867797
40
0.7913235
50
269.8517415
51
309.511178
0
ARC
8
DEFAULT_255_2_778
10
3.570342
20
-1.9867215
40
0.7913815
50
219.1282118
51
270.1454017
0
ARC
8
DEFAULT_255_2_778
10
3.5700247
20
-1.986339
40
0.7913769
50
179.8524075
51
219.1641908
0
LINE
8
DEFAULT_255_2_778
10
3.5723503
20
28.9718996
11
25.7973503
21
28.9718996
0
LINE
8
DEFAULT_255_2_778
10
26.5911503
20
28.1781996
11
26.5911503
21
-1.9843004
0
LINE
8
DEFAULT_255_2_778
10
25.7973503
20
-2.7781004
11
3.5723503
21
-2.7781004
0
LINE
8
DEFAULT_255_2_778
10
2.7786503
20
-1.9843004
11
2.7786503
21
28.1781996
0
LINE
8
DEFAULT_255_1_388
10
9.2891985
20
0.6821148
11
9.2891985
21
-0.6398
0
LINE
8
DEFAULT_255_1_388
10
9.2891985
20
-0.6398
11
9.1211355
21
-0.6398
0
LINE
8
DEFAULT_255_1_388
10
9.1211355
20
-0.6398
11
9.1211355
21
0.474295
0
LINE
8
DEFAULT_255_1_388
10
9.1211355
20
0.474295
11
8.784106
21
0.3505066
0
LINE
8
DEFAULT_255_1_388
10
8.784106
20
0.3505066
11
8.784106
21
0.5023055
0
LINE
8
DEFAULT_255_1_388
10
8.784106
20
0.5023055
11
9.2629951
21
0.6821148
0
LINE
8
DEFAULT_255_1_388
10
9.2629951
20
0.6821148
11
9.2891985
21
0.6821148
0
LINE
8
DEFAULT_255_1_388
10
10.628281
20
0.6757898
11
10.628281
21
0.5818191
0
LINE
8
DEFAULT_255_1_388
10
10.628281
20
0.5818191
11
10.0834316
21
-0.6398
0
LINE
8
DEFAULT_255_1_388
10
10.0834316
20
-0.6398
11
9.9081401
21
-0.6398
0
LINE
8
DEFAULT_255_1_388
10
9.9081401
20
-0.6398
11
10.4511824
21
0.538448
0
LINE
8
DEFAULT_255_1_388
10
10.4511824
20
0.538448
11
9.7391736
21
0.538448
0
LINE
8
DEFAULT_255_1_388
10
9.7391736
20
0.538448
11
9.7391736
21
0.6757898
0
LINE
8
DEFAULT_255_1_388
10
9.7391736
20
0.6757898
11
10.628281
21
0.6757898
0
LINE
8
DEFAULT_255_1_388
10
11.0285601
20
-0.0145334
11
10.8948325
21
0.0198021
0
LINE
8
DEFAULT_255_1_388
10
10.8948325
20
0.0198021
11
10.9616963
21
0.6757898
0
LINE
8
DEFAULT_255_1_388
10
10.9616963
20
0.6757898
11
11.6357554
21
0.6757898
0
LINE
8
DEFAULT_255_1_388
10
11.6357554
20
0.6757898
11
11.6357554
21
0.5212803
0
LINE
8
DEFAULT_255_1_388
10
11.6357554
20
0.5212803
11
11.1035559
21
0.5212803
0
LINE
8
DEFAULT_255_1_388
10
11.1035559
20
0.5212803
11
11.0637991
21
0.1625652
0
LINE
8
DEFAULT_255_1_388
10
10.8478472
20
-0.2937348
11
11.0059709
21
-0.2937348
0
LINE
8
DEFAULT_255_1_388
10
11.0728347
20
0.0216092
11
11.0285601
21
-0.0145334
0
ARC
8
DEFAULT_255_1_388
10
11.2724604
20
-0.1951759
40
0.4141476
50
93.7181681
51
120.253934
0
ARC
8
DEFAULT_255_1_388
10
11.2830656
20
-0.2860716
40
0.5055616
50
89.9660471
51
94.2495185
0
ARC
8
DEFAULT_255_1_388
10
11.2876478
20
-0.2197846
40
0.4392953
50
73.8045384
51
90.5585736
0
ARC
8
DEFAULT_255_1_388
10
11.3140736
20
-0.123248
40
0.3392225
50
41.3071072
51
73.543002
0
ARC
8
DEFAULT_255_1_388
10
11.2672556
20
-0.1635539
40
0.4009977
50
13.5075837
51
41.2174839
0
ARC
8
DEFAULT_255_1_388
10
11.0825653
20
-0.2119093
40
0.5918864
50
1.1330171
51
13.8830737
0
ARC
8
DEFAULT_255_1_388
10
10.9229299
20
-0.2204478
40
0.7516787
50
359.9925091
51
1.5431298
0
ARC
8
DEFAULT_255_1_388
10
11.0673914
20
-0.2250973
40
0.6072343
50
347.8572712
51
0.4294349
0
ARC
8
DEFAULT_255_1_388
10
11.2643049
20
-0.2697102
40
0.4053482
50
323.6727442
51
348.1674594
0
ARC
8
DEFAULT_255_1_388
10
11.2974013
20
-0.2898825
40
0.3667495
50
316.8171818
51
323.1486802
0
ARC
8
DEFAULT_255_1_388
10
11.3043137
20
-0.2940388
40
0.358869
50
281.839603
51
316.5458142
0
ARC
8
DEFAULT_255_1_388
10
11.2620425
20
-0.1190637
40
0.5388223
50
269.5770964
51
282.4214641
0
ARC
8
DEFAULT_255_1_388
10
11.2540345
20
-0.143107
40
0.5147801
50
256.2425863
51
270.4486481
0
ARC
8
DEFAULT_255_1_388
10
11.2203873
20
-0.2780876
40
0.3756708
50
228.9024379
51
256.33135
0
ARC
8
DEFAULT_255_1_388
10
11.2120853
20
-0.2911946
40
0.360344
50
193.7536029
51
228.5272638
0
ARC
8
DEFAULT_255_1_388
10
11.3513418
20
-0.2503537
40
0.5053599
50
184.9244437
51
194.4976052
0
ARC
8
DEFAULT_255_1_388
10
11.373006
20
-0.2463278
40
0.3700839
50
187.3596909
51
198.6733728
0
ARC
8
DEFAULT_255_1_388
10
11.2549303
20
-0.2872627
40
0.2451195
50
198.4453795
51
217.7945479
0
ARC
8
DEFAULT_255_1_388
10
11.2216476
20
-0.3108437
40
0.2043754
50
218.2887146
51
228.5613203
0
ARC
8
DEFAULT_255_1_388
10
11.2326482
20
-0.2960098
40
0.2227819
50
228.9652423
51
258.1237049
0
ARC
8
DEFAULT_255_1_388
10
11.255792
20
-0.1969036
40
0.3245374
50
257.7260585
51
270.4013717
0
ARC
8
DEFAULT_255_1_388
10
11.2608418
20
-0.2469745
40
0.2744726
50
269.4204315
51
286.420998
0
ARC
8
DEFAULT_255_1_388
10
11.2775474
20
-0.3076295
40
0.2115721
50
286.7250065
51
320.6004665
0
ARC
8
DEFAULT_255_1_388
10
11.2344389
20
-0.2726473
40
0.2670878
50
320.6712228
51
344.5440474
0
ARC
8
DEFAULT_255_1_388
10
11.1043103
20
-0.2344606
40
0.4026927
50
344.241448
51
356.735803
0
ARC
8
DEFAULT_255_1_388
10
10.963941
20
-0.2228344
40
0.5435085
50
356.3547471
51
0.0507222
0
ARC
8
DEFAULT_255_1_388
10
11.1141675
20
-0.2193188
40
0.3932934
50
359.5579289
51
12.9534322
0
ARC
8
DEFAULT_255_1_388
10
11.2328515
20
-0.1905414
40
0.2711827
50
12.6489751
51
41.608121
0
ARC
8
DEFAULT_255_1_388
10
11.2587675
20
-0.1685054
40
0.2371737
50
41.7851122
51
85.9892156
0
ARC
8
DEFAULT_255_1_388
10
11.2448985
20
-0.2600262
40
0.3295244
50
84.6965848
51
90.0672125
0
ARC
8
DEFAULT_255_1_388
10
11.2422553
20
-0.3351882
40
0.4046926
50
89.6804991
51
99.161352
0
ARC
8
DEFAULT_255_1_388
10
11.2191562
20
-0.1971152
40
0.2647044
50
98.9836248
51
113.8905702
0
ARC
8
DEFAULT_255_1_388
10
11.1933237
20
-0.1361882
40
0.1985386
50
114.195234
51
127.3641866
0
LINE
8
DEFAULT_255_1_388
10
12.4832988
20
0.6766934
11
12.5131165
21
0.6766934
0
LINE
8
DEFAULT_255_1_388
10
12.5131165
20
0.6766934
11
12.5131165
21
0.5348338
0
LINE
8
DEFAULT_255_1_388
10
12.5131165
20
0.5348338
11
12.4823953
21
0.5348338
0
LINE
8
DEFAULT_255_1_388
10
11.8670679
20
-0.1392253
11
11.8670679
21
-0.0750722
0
LINE
8
DEFAULT_255_1_388
10
12.0351309
20
-0.0967578
11
12.0351309
21
-0.1582001
0
ARC
8
DEFAULT_255_1_388
10
12.4882844
20
-0.0274174
40
0.562282
50
90.6001079
51
104.5146616
0
ARC
8
DEFAULT_255_1_388
10
12.4445804
20
0.13511
40
0.3939917
50
104.2855758
51
133.8630124
0
ARC
8
DEFAULT_255_1_388
10
12.4630056
20
0.1229243
40
0.4155734
50
134.5304124
51
161.6210222
0
ARC
8
DEFAULT_255_1_388
10
12.6489989
20
0.0573421
40
0.6127682
50
161.2850533
51
174.2074364
0
ARC
8
DEFAULT_255_1_388
10
12.8079555
20
0.0354437
40
0.7731446
50
173.7817938
51
174.9251711
0
ARC
8
DEFAULT_255_1_388
10
12.2953749
20
-0.120073
40
0.3412588
50
95.8332067
51
138.995412
0
ARC
8
DEFAULT_255_1_388
10
12.3205029
20
-0.2639305
40
0.4870358
50
89.8755506
51
97.0540979
0
ARC
8
DEFAULT_255_1_388
10
12.3258418
20
-0.1699159
40
0.3930432
50
71.6407016
51
90.6240821
0
ARC
8
DEFAULT_255_1_388
10
12.3427812
20
-0.1075567
40
0.3285421
50
39.6368051
51
71.0190743
0
ARC
8
DEFAULT_255_1_388
10
12.2711719
20
-0.1694414
40
0.4231706
50
10.6588054
51
39.9044509
0
ARC
8
DEFAULT_255_1_388
10
12.0970265
20
-0.2072777
40
0.60133
50
359.6827842
51
11.1326896
0
ARC
8
DEFAULT_255_1_388
10
12.0925601
20
-0.2152285
40
0.6058047
50
347.2485908
51
0.4371098
0
ARC
8
DEFAULT_255_1_388
10
12.2801386
20
-0.2603621
40
0.4128987
50
318.1408565
51
347.6118497
0
ARC
8
DEFAULT_255_1_388
10
12.3166983
20
-0.2904097
40
0.3656244
50
275.6342406
51
317.824739
0
ARC
8
DEFAULT_255_1_388
10
12.2918504
20
-0.1442173
40
0.513655
50
269.8872513
51
276.7916069
0
ARC
8
DEFAULT_255_1_388
10
12.2856697
20
-0.2595819
40
0.398323
50
246.9139443
51
270.7436787
0
ARC
8
DEFAULT_255_1_388
10
12.2863893
20
-0.2755956
40
0.3839368
50
218.1665534
51
245.8780431
0
ARC
8
DEFAULT_255_1_388
10
12.3853265
20
-0.1928097
40
0.5128958
50
191.4115343
51
218.6077624
0
ARC
8
DEFAULT_255_1_388
10
12.6033581
20
-0.1439223
40
0.7363054
50
179.6344971
51
191.7836758
0
ARC
8
DEFAULT_255_1_388
10
13.2313455
20
-0.0675505
40
1.3642984
50
171.4523743
51
180.3158856
0
ARC
8
DEFAULT_255_1_388
10
12.7369182
20
0.0093895
40
0.8639311
50
157.9802296
51
171.6246761
0
ARC
8
DEFAULT_255_1_388
10
12.4878533
20
0.1087038
40
0.5958004
50
141.4299236
51
157.8541251
0
ARC
8
DEFAULT_255_1_388
10
12.4156616
20
0.1597746
40
0.5075416
50
102.871586
51
140.8564533
0
ARC
8
DEFAULT_255_1_388
10
12.4885169
20
-0.1147057
40
0.7914163
50
90.377773
51
103.5868422
0
ARC
8
DEFAULT_255_1_388
10
12.292969
20
-0.1827457
40
0.2667015
50
89.8751238
51
126.2072139
0
ARC
8
DEFAULT_255_1_388
10
12.2981161
20
-0.2001153
40
0.2838229
50
124.9742447
51
144.8960197
0
ARC
8
DEFAULT_255_1_388
10
12.2783406
20
-0.1840019
40
0.2583845
50
145.2974778
51
160.2660922
0
ARC
8
DEFAULT_255_1_388
10
12.6239895
20
-0.1617849
40
0.5888695
50
179.6512124
51
190.285571
0
ARC
8
DEFAULT_255_1_388
10
12.4334374
20
-0.1977032
40
0.3949683
50
190.0944895
51
207.5099647
0
ARC
8
DEFAULT_255_1_388
10
12.3697956
20
-0.2279823
40
0.3245464
50
207.9585471
51
216.325377
0
ARC
8
DEFAULT_255_1_388
10
12.3315593
20
-0.2594288
40
0.2751259
50
215.7661336
51
232.5457193
0
ARC
8
DEFAULT_255_1_388
10
12.2884709
20
-0.3141727
40
0.2054668
50
232.8005815
51
270.6605497
0
ARC
8
DEFAULT_255_1_388
10
12.2936133
20
-0.2732147
40
0.2464268
50
269.3550767
51
288.474612
0
ARC
8
DEFAULT_255_1_388
10
12.304064
20
-0.3125279
40
0.2058436
50
289.1831976
51
322.9685307
0
ARC
8
DEFAULT_255_1_388
10
12.2352742
20
-0.2582721
40
0.2934408
50
322.6007085
51
346.5183319
0
ARC
8
DEFAULT_255_1_388
10
12.1050498
20
-0.2250566
40
0.4278249
50
346.2584622
51
358.7739592
0
ARC
8
DEFAULT_255_1_388
10
11.9899073
20
-0.2188171
40
0.5430876
50
358.3757628
51
0.0082477
0
ARC
8
DEFAULT_255_1_388
10
12.0755892
20
-0.2157144
40
0.4574157
50
359.6211417
51
11.28403
0
ARC
8
DEFAULT_255_1_388
10
12.2192498
20
-0.1857465
40
0.3106708
50
11.0483152
51
31.8145585
0
ARC
8
DEFAULT_255_1_388
10
12.2540203
20
-0.1668955
40
0.2711963
50
32.3028554
51
38.0820598
0
ARC
8
DEFAULT_255_1_388
10
12.3013436
20
-0.1240283
40
0.2075566
50
36.8249851
51
85.741667
0
ARC
8
DEFAULT_255_1_388
10
12.2937849
20
-0.1803935
40
0.2643487
50
85.0150021
51
90.050843
0
LINE
8
DEFAULT_255_1_388
10
13.2612678
20
-0.0127263
11
13.2612678
21
-0.1491645
0
LINE
8
DEFAULT_255_1_388
10
13.2612678
20
-0.1491645
11
12.8203284
21
-0.1491645
0
LINE
8
DEFAULT_255_1_388
10
12.8203284
20
-0.1491645
11
12.8203284
21
-0.0127263
0
LINE
8
DEFAULT_255_1_388
10
12.8203284
20
-0.0127263
11
13.2612678
21
-0.0127263
0
LINE
8
DEFAULT_255_1_388
10
13.6245007
20
0.6757898
11
13.6245007
21
-0.4979404
0
LINE
8
DEFAULT_255_1_388
10
13.6245007
20
-0.4979404
11
14.2479602
21
-0.4979404
0
LINE
8
DEFAULT_255_1_388
10
14.2479602
20
-0.4979404
11
14.2479602
21
-0.6398
0
LINE
8
DEFAULT_255_1_388
10
14.2479602
20
-0.6398
11
13.4501128
21
-0.6398
0
LINE
8
DEFAULT_255_1_388
10
13.4501128
20
-0.6398
11
13.4501128
21
0.6757898
0
LINE
8
DEFAULT_255_1_388
10
13.4501128
20
0.6757898
11
13.6245007
21
0.6757898
0
ARC
8
DEFAULT_255_1_388
10
14.8828202
20
0.329572
40
0.3175098
50
338.8762533
51
0.5167111
0
ARC
8
DEFAULT_255_1_388
10
14.9017796
20
0.32446
40
0.2979894
50
325.8415285
51
338.4793574
0
ARC
8
DEFAULT_255_1_388
10
14.857843
20
0.3549242
40
0.351452
50
296.7587686
51
325.7536481
0
ARC
8
DEFAULT_255_1_388
10
14.8250058
20
0.4103363
40
0.4157374
50
296.0927901
51
297.3613472
0
ARC
8
DEFAULT_255_1_388
10
14.8544253
20
-0.3279407
40
0.395855
50
47.9007294
51
67.1948823
0
ARC
8
DEFAULT_255_1_388
10
14.8764895
20
-0.3002401
40
0.360516
50
35.2363914
51
47.551141
0
ARC
8
DEFAULT_255_1_388
10
14.9059299
20
-0.2805907
40
0.3251343
50
359.2759765
51
35.4014143
0
ARC
8
DEFAULT_255_1_388
10
14.8221226
20
-0.2888213
40
0.4089365
50
343.1293083
51
0.5775513
0
ARC
8
DEFAULT_255_1_388
10
14.9036339
20
-0.3112664
40
0.3244269
50
310.8496669
51
342.7449331
0
ARC
8
DEFAULT_255_1_388
10
14.8566214
20
-0.2576087
40
0.3957651
50
281.5472888
51
310.9170406
0
ARC
8
DEFAULT_255_1_388
10
14.8165088
20
-0.0829186
40
0.5749654
50
269.619248
51
281.9789564
0
ARC
8
DEFAULT_255_1_388
10
14.8083866
20
-0.0828224
40
0.5750649
50
257.4585678
51
270.4285689
0
ARC
8
DEFAULT_255_1_388
10
14.7655386
20
-0.2632259
40
0.389671
50
228.7554326
51
257.8484789
0
ARC
8
DEFAULT_255_1_388
10
14.7306871
20
-0.3051772
40
0.335154
50
184.0104975
51
228.5071184
0
ARC
8
DEFAULT_255_1_388
10
14.8615264
20
-0.285257
40
0.4671891
50
179.9315832
51
185.3253753
0
ARC
8
DEFAULT_255_1_388
10
14.7291777
20
-0.2810408
40
0.33486
50
145.6796023
51
180.6259786
0
ARC
8
DEFAULT_255_1_388
10
14.7475542
20
-0.2938729
40
0.3572723
50
115.5537685
51
145.6415986
0
ARC
8
DEFAULT_255_1_388
10
14.7858586
20
-0.3624913
40
0.4357296
50
113.243307
51
116.2057839
0
ARC
8
DEFAULT_255_1_388
10
14.7687238
20
0.3572379
40
0.3549126
50
222.9549744
51
244.1370481
0
ARC
8
DEFAULT_255_1_388
10
14.7549881
20
0.3418378
40
0.3343711
50
213.3436887
51
222.6274467
0
ARC
8
DEFAULT_255_1_388
10
14.7333951
20
0.3271653
40
0.3082678
50
180.431584
51
213.271499
0
ARC
8
DEFAULT_255_1_388
10
14.796895
20
0.3324296
40
0.3718363
50
179.9991191
51
181.1690594
0
ARC
8
DEFAULT_255_1_388
10
14.8441406
20
0.3363072
40
0.4190996
50
164.6186169
51
180.529336
0
ARC
8
DEFAULT_255_1_388
10
14.7431054
20
0.363478
40
0.3144772
50
132.2455553
51
164.5090724
0
ARC
8
DEFAULT_255_1_388
10
14.7754033
20
0.326907
40
0.3632644
50
100.7053914
51
132.1386381
0
ARC
8
DEFAULT_255_1_388
10
14.8097094
20
0.1719118
40
0.5219578
50
89.6730358
51
101.2451698
0
ARC
8
DEFAULT_255_1_388
10
14.8167085
20
0.1915648
40
0.5023124
50
76.287748
51
90.4586006
0
ARC
8
DEFAULT_255_1_388
10
14.8511587
20
0.3290671
40
0.3605639
50
47.8240511
51
76.4266241
0
ARC
8
DEFAULT_255_1_388
10
14.8761971
20
0.3583599
40
0.3220463
50
6.9168387
51
47.6262497
0
ARC
8
DEFAULT_255_1_388
10
14.7427424
20
0.3337004
40
0.4575765
50
359.8415968
51
7.9697453
0
ARC
8
DEFAULT_255_1_388
10
14.7811694
20
-0.2783481
40
0.2827228
50
359.445363
51
16.9256873
0
ARC
8
DEFAULT_255_1_388
10
14.8339128
20
-0.2638219
40
0.2280396
50
17.2920767
51
45.4630727
0
ARC
8
DEFAULT_255_1_388
10
14.8278263
20
-0.2690676
40
0.2360485
50
45.30305
51
83.1920945
0
ARC
8
DEFAULT_255_1_388
10
14.8117008
20
-0.3592527
40
0.3275527
50
82.2612665
51
90.1434275
0
ARC
8
DEFAULT_255_1_388
10
14.8082284
20
-0.3330131
40
0.3013237
50
89.4956434
51
104.8580688
0
ARC
8
DEFAULT_255_1_388
10
14.7883474
20
-0.2576545
40
0.2233867
50
104.8856641
51
135.244616
0
ARC
8
DEFAULT_255_1_388
10
14.7939463
20
-0.2626648
40
0.2308906
50
135.3399546
51
172.1044062
0
ARC
8
DEFAULT_255_1_388
10
14.8846988
20
-0.2800333
40
0.3232034
50
171.2645637
51
180.186429
0
ARC
8
DEFAULT_255_1_388
10
14.8656992
20
-0.2836574
40
0.304213
50
179.5154935
51
193.6464289
0
ARC
8
DEFAULT_255_1_388
10
14.7738668
20
-0.3070527
40
0.209456
50
193.3540274
51
225.8258581
0
ARC
8
DEFAULT_255_1_388
10
14.778454
20
-0.2990924
40
0.2183738
50
226.4180634
51
255.8552336
0
ARC
8
DEFAULT_255_1_388
10
14.8073007
20
-0.1937479
40
0.3275812
50
255.4654104
51
268.7987425
0
ARC
8
DEFAULT_255_1_388
10
14.8126183
20
-0.0995455
40
0.4218877
50
268.3449238
51
270.0094605
0
ARC
8
DEFAULT_255_1_388
10
14.8152417
20
-0.1763906
40
0.3450519
50
269.5759586
51
282.0820163
0
ARC
8
DEFAULT_255_1_388
10
14.8405453
20
-0.2882637
40
0.2303642
50
281.752014
51
306.6056188
0
ARC
8
DEFAULT_255_1_388
10
14.8516261
20
-0.3064198
40
0.2091906
50
307.1346085
51
314.027845
0
ARC
8
DEFAULT_255_1_388
10
14.8475773
20
-0.3034541
40
0.2141385
50
314.2552483
51
350.1694025
0
ARC
8
DEFAULT_255_1_388
10
14.751801
20
-0.2826825
40
0.312082
50
349.4140529
51
0.2933014
0
ARC
8
DEFAULT_255_1_388
10
14.8103287
20
0.2976924
40
0.2588377
50
89.477747
51
105.729729
0
ARC
8
DEFAULT_255_1_388
10
14.7950207
20
0.3545367
40
0.1999733
50
105.9233417
51
135.1660906
0
ARC
8
DEFAULT_255_1_388
10
14.7973238
20
0.3529412
40
0.2027322
50
135.3052302
51
168.9883645
0
ARC
8
DEFAULT_255_1_388
10
14.8904254
20
0.3315996
40
0.2982129
50
168.3801673
51
180.3602268
0
ARC
8
DEFAULT_255_1_388
10
14.8647371
20
0.3273622
40
0.2725291
50
179.5033122
51
194.9125571
0
ARC
8
DEFAULT_255_1_388
10
14.7988778
20
0.3100427
40
0.204431
50
194.9720816
51
224.194444
0
ARC
8
DEFAULT_255_1_388
10
14.7957143
20
0.3074635
40
0.2003651
50
224.2962453
51
262.015664
0
ARC
8
DEFAULT_255_1_388
10
14.8117147
20
0.3897315
40
0.2840925
50
261.1245923
51
270.1962896
0
ARC
8
DEFAULT_255_1_388
10
14.8150629
20
0.3686859
40
0.2630559
50
269.4827276
51
285.0987215
0
ARC
8
DEFAULT_255_1_388
10
14.8324065
20
0.3036175
40
0.1957162
50
285.1585357
51
315.9484501
0
ARC
8
DEFAULT_255_1_388
10
14.8223938
20
0.3128315
40
0.2093195
50
316.0413965
51
351.916092
0
ARC
8
DEFAULT_255_1_388
10
14.7399313
20
0.3287323
40
0.2932279
50
351.105835
51
0.1939062
0
ARC
8
DEFAULT_255_1_388
10
14.7694947
20
0.3321224
40
0.2636739
50
359.4789618
51
16.0678224
0
ARC
8
DEFAULT_255_1_388
10
14.8230418
20
0.3465721
40
0.2082215
50
16.3252067
51
44.7913869
0
ARC
8
DEFAULT_255_1_388
10
14.8210481
20
0.346632
40
0.2095992
50
44.3957814
51
88.2499162
0
ARC
8
DEFAULT_255_1_388
10
14.8127815
20
0.2778006
40
0.2787189
50
86.9833854
51
90.0192215
0
LINE
8
DEFAULT_255_1_388
10
15.990936
20
0.6821148
11
15.990936
21
-0.6398
0
LINE
8
DEFAULT_255_1_388
10
15.990936
20
-0.6398
11
15.822873
21
-0.6398
0
LINE
8
DEFAULT_255_1_388
10
15.822873
20
-0.6398
11
15.822873
21
0.474295
0
LINE
8
DEFAULT_255_1_388
10
15.822873
20
0.474295
11
15.4858435
21
0.3505066
0
LINE
8
DEFAULT_255_1_388
10
15.4858435
20
0.3505066
11
15.4858435
21
0.5023055
0
LINE
8
DEFAULT_255_1_388
10
15.4858435
20
0.5023055
11
15.9647327
21
0.6821148
0
LINE
8
DEFAULT_255_1_388
10
15.9647327
20
0.6821148
11
15.990936
21
0.6821148
0
LINE
8
DEFAULT_255_1_388
10
17.2676726
20
0.1101585
11
17.2676726
21
-0.0317011
0
LINE
8
DEFAULT_255_1_388
10
17.2676726
20
-0.0317011
11
16.6975234
21
-0.0317011
0
LINE
8
DEFAULT_255_1_388
10
16.6975234
20
-0.0317011
11
16.6975234
21
-0.4979404
0
LINE
8
DEFAULT_255_1_388
10
16.6975234
20
-0.4979404
11
17.3598362
21
-0.4979404
0
LINE
8
DEFAULT_255_1_388
10
17.3598362
20
-0.4979404
11
17.3598362
21
-0.6398
0
LINE
8
DEFAULT_255_1_388
10
17.3598362
20
-0.6398
11
16.5240391
21
-0.6398
0
LINE
8
DEFAULT_255_1_388
10
16.5240391
20
-0.6398
11
16.5240391
21
0.6757898
0
LINE
8
DEFAULT_255_1_388
10
16.5240391
20
0.6757898
11
17.3508005
21
0.6757898
0
LINE
8
DEFAULT_255_1_388
10
17.3508005
20
0.6757898
11
17.3508005
21
0.5330267
0
LINE
8
DEFAULT_255_1_388
10
17.3508005
20
0.5330267
11
16.6975234
21
0.5330267
0
LINE
8
DEFAULT_255_1_388
10
16.6975234
20
0.5330267
11
16.6975234
21
0.1101585
0
LINE
8
DEFAULT_255_1_388
10
16.6975234
20
0.1101585
11
17.2676726
21
0.1101585
0
LINE
8
DEFAULT_255_1_388
10
18.4486313
20
0.2953892
11
18.2742434
21
0.2953892
0
LINE
8
DEFAULT_255_1_388
10
17.4953708
20
-0.2584958
11
17.6697588
21
-0.2584958
0
ARC
8
DEFAULT_255_1_388
10
18.3483161
20
1.3017821
40
1.4087688
50
248.9196578
51
254.1442424
0
ARC
8
DEFAULT_255_1_388
10
18.1593041
20
0.8151805
40
0.8867498
50
241.6337352
51
249.0064643
0
ARC
8
DEFAULT_255_1_388
10
17.9873354
20
0.5000764
40
0.5277799
50
230.4982261
51
241.8087583
0
ARC
8
DEFAULT_255_1_388
10
17.8991126
20
0.3876686
40
0.3849419
50
227.4062979
51
229.9877433
0
ARC
8
DEFAULT_255_1_388
10
17.8442472
20
0.3341155
40
0.3084129
50
200.6782127
51
228.1765252
0
ARC
8
DEFAULT_255_1_388
10
17.8523841
20
0.3324277
40
0.315461
50
179.506278
51
199.8695278
0
ARC
8
DEFAULT_255_1_388
10
17.851343
20
0.3407671
40
0.3144584
50
132.4834401
51
181.0242352
0
ARC
8
DEFAULT_255_1_388
10
17.9182634
20
0.2775788
40
0.4063094
50
129.2526113
51
133.4249077
0
ARC
8
DEFAULT_255_1_388
10
17.9348227
20
0.2527619
40
0.436014
50
101.9878945
51
128.8741833
0
ARC
8
DEFAULT_255_1_388
10
17.9796642
20
0.059136
40
0.6347415
50
89.5906376
51
102.3170567
0
ARC
8
DEFAULT_255_1_388
10
17.9875953
20
0.0949586
40
0.5989122
50
77.2359491
51
90.3248968
0
ARC
8
DEFAULT_255_1_388
10
18.0108884
20
0.2037554
40
0.4876594
50
63.8379856
51
77.0808925
0
ARC
8
DEFAULT_255_1_388
10
18.0421418
20
0.2619882
40
0.4216191
50
45.9863127
51
64.1608798
0
ARC
8
DEFAULT_255_1_388
10
18.0714812
20
0.295499
40
0.3771394
50
32.2747934
51
45.6544796
0
ARC
8
DEFAULT_255_1_388
10
18.0789618
20
0.2976426
40
0.3696765
50
359.6507495
51
32.6129943
0
ARC
8
DEFAULT_255_1_388
10
17.9728801
20
0.2981788
40
0.3013762
50
359.469654
51
14.983205
0
ARC
8
DEFAULT_255_1_388
10
18.0522053
20
0.3194288
40
0.2192542
50
14.9781954
51
48.2004799
0
ARC
8
DEFAULT_255_1_388
10
18.0337164
20
0.2961937
40
0.2489048
50
48.5926661
51
74.1242559
0
ARC
8
DEFAULT_255_1_388
10
17.9961966
20
0.1723607
40
0.3782845
50
73.7889321
51
86.6653996
0
ARC
8
DEFAULT_255_1_388
10
17.9846781
20
0.0365955
40
0.5145025
50
86.2642725
51
90.0533288
0
ARC
8
DEFAULT_255_1_388
10
17.9814874
20
0.0810376
40
0.4700681
50
89.669455
51
99.2313411
0
ARC
8
DEFAULT_255_1_388
10
17.9542033
20
0.2435401
40
0.3052945
50
99.0695987
51
113.7659242
0
ARC
8
DEFAULT_255_1_388
10
17.9234028
20
0.3161772
40
0.226407
50
114.0402885
51
127.9848946
0
ARC
8
DEFAULT_255_1_388
10
17.8963504
20
0.3494884
40
0.1835045
50
127.7287217
51
176.7106493
0
ARC
8
DEFAULT_255_1_388
10
17.9727169
20
0.338121
40
0.2604907
50
175.1780759
51
180.0581213
0
ARC
8
DEFAULT_255_1_388
10
17.8778513
20
0.3367411
40
0.1656287
50
179.6140658
51
228.124674
0
ARC
8
DEFAULT_255_1_388
10
17.927587
20
0.382794
40
0.2332038
50
226.5785315
51
230.8792476
0
ARC
8
DEFAULT_255_1_388
10
17.9805357
20
0.4530908
40
0.3211664
50
231.4636401
51
241.9261664
0
ARC
8
DEFAULT_255_1_388
10
18.115214
20
0.7009349
40
0.6032345
50
241.7177136
51
248.3259138
0
ARC
8
DEFAULT_255_1_388
10
18.2710735
20
1.0870771
40
1.0196417
50
248.2007377
51
252.4527713
0
ARC
8
DEFAULT_255_1_388
10
18.4064261
20
1.5055092
40
1.4594143
50
252.3388938
51
254.347037
0
ARC
8
DEFAULT_255_1_388
10
17.5579562
20
-1.5292905
40
1.6917621
50
71.0197462
51
74.4085467
0
ARC
8
DEFAULT_255_1_388
10
17.748665
20
-0.9787856
40
1.1091618
50
66.1845203
51
71.086519
0
ARC
8
DEFAULT_255_1_388
10
17.9237199
20
-0.5846561
40
0.6779073
50
59.3537334
51
66.269255
0
ARC
8
DEFAULT_255_1_388
10
18.0236925
20
-0.4155223
40
0.4814366
50
49.1021732
51
59.3294421
0
ARC
8
DEFAULT_255_1_388
10
18.1157913
20
-0.3105425
40
0.3417875
50
32.7924183
51
49.2503526
0
ARC
8
DEFAULT_255_1_388
10
18.1507527
20
-0.2855689
40
0.2988789
50
31.121225
51
32.3977355
0
ARC
8
DEFAULT_255_1_388
10
18.1419705
20
-0.2888272
40
0.3080861
50
8.1116803
51
30.7958224
0
ARC
8
DEFAULT_255_1_388
10
18.0508051
20
-0.3043563
40
0.4005385
50
359.8390945
51
8.4707348
0
ARC
8
DEFAULT_255_1_388
10
18.1212099
20
-0.3098249
40
0.3301608
50
337.4732479
51
0.7538283
0
ARC
8
DEFAULT_255_1_388
10
18.1413124
20
-0.3120446
40
0.3107929
50
307.5917028
51
336.4313755
0
ARC
8
DEFAULT_255_1_388
10
18.0902181
20
-0.2552491
40
0.3870096
50
307.6560665
51
308.4561779
0
ARC
8
DEFAULT_255_1_388
10
18.0636398
20
-0.2144168
40
0.435591
50
284.3733666
51
307.1426212
0
ARC
8
DEFAULT_255_1_388
10
18.0079292
20
-0.0094609
40
0.6479685
50
272.4384566
51
284.6464689
0
ARC
8
DEFAULT_255_1_388
10
17.9936677
20
0.1929434
40
0.8508149
50
269.9708517
51
272.8180721
0
ARC
8
DEFAULT_255_1_388
10
17.988836
20
-0.0362717
40
0.6216151
50
248.2707343
51
270.4054609
0
ARC
8
DEFAULT_255_1_388
10
17.9827231
20
-0.0577327
40
0.5994203
50
246.1380358
51
248.054058
0
ARC
8
DEFAULT_255_1_388
10
17.9356374
20
-0.1566295
40
0.4899388
50
233.1671897
51
246.4951656
0
ARC
8
DEFAULT_255_1_388
10
17.8733009
20
-0.2407863
40
0.3852115
50
215.3403381
51
233.084328
0
ARC
8
DEFAULT_255_1_388
10
17.8426373
20
-0.2630907
40
0.3472969
50
179.2419235
51
215.2648426
0
ARC
8
DEFAULT_255_1_388
10
17.9289924
20
-0.2615021
40
0.259251
50
179.3355796
51
199.1045873
0
ARC
8
DEFAULT_255_1_388
10
17.8916066
20
-0.2712777
40
0.2207454
50
199.8830064
51
232.7061328
0
ARC
8
DEFAULT_255_1_388
10
17.944734
20
-0.2044544
40
0.306101
50
232.3736206
51
255.5136621
0
ARC
8
DEFAULT_255_1_388
10
17.9830846
20
-0.0644823
40
0.4512213
50
255.2447928
51
267.5318292
0
ARC
8
DEFAULT_255_1_388
10
17.9929313
20
0.0741709
40
0.5901825
50
267.1564563
51
270.0294721
0
ARC
8
DEFAULT_255_1_388
10
17.9960638
20
0.0242623
40
0.5402814
50
269.6999944
51
278.1662446
0
ARC
8
DEFAULT_255_1_388
10
18.0248666
20
-0.1704026
40
0.3435003
50
278.0229022
51
290.6255326
0
ARC
8
DEFAULT_255_1_388
10
18.0639832
20
-0.2747453
40
0.2320666
50
290.6616368
51
307.0374127
0
ARC
8
DEFAULT_255_1_388
10
18.0977732
20
-0.316196
40
0.1786372
50
306.3942078
51
355.303191
0
ARC
8
DEFAULT_255_1_388
10
18.0402025
20
-0.3075814
40
0.2367516
50
354.3662092
51
0.0709489
0
ARC
8
DEFAULT_255_1_388
10
18.0561894
20
-0.3050439
40
0.2207761
50
359.4175379
51
16.1975911
0
ARC
8
DEFAULT_255_1_388
10
18.1074012
20
-0.2910046
40
0.1676828
50
16.4721294
51
52.6261798
0
ARC
8
DEFAULT_255_1_388
10
18.0150519
20
-0.4129394
40
0.3206412
50
52.7381828
51
62.4979144
0
ARC
8
DEFAULT_255_1_388
10
17.8592272
20
-0.7061764
40
0.6527035
50
62.2517425
51
68.1219454
0
ARC
8
DEFAULT_255_1_388
10
17.665776
20
-1.1816049
40
1.1659797
50
68.006043
51
71.8055127
0
ARC
8
DEFAULT_255_1_388
10
17.4637668
20
-1.7874277
40
1.8045908
50
71.718361
51
73.9260743
0
LINE
8
DEFAULT_255_1_388
10
19.474177
20
-0.6398
11
19.0079377
21
-0.0280869
0
LINE
8
DEFAULT_255_1_388
10
19.0079377
20
-0.0280869
11
18.8471033
21
-0.1952463
0
LINE
8
DEFAULT_255_1_388
10
18.8471033
20
-0.1952463
11
18.8471033
21
-0.6398
0
LINE
8
DEFAULT_255_1_388
10
18.8471033
20
-0.6398
11
18.6736189
21
-0.6398
0
LINE
8
DEFAULT_255_1_388
10
18.6736189
20
-0.6398
11
18.6736189
21
0.6757898
0
LINE
8
DEFAULT_255_1_388
10
18.6736189
20
0.6757898
11
18.8471033
21
0.6757898
0
LINE
8
DEFAULT_255_1_388
10
18.8471033
20
0.6757898
11
18.8471033
21
0.0252234
0
LINE
8
DEFAULT_255_1_388
10
18.8471033
20
0.0252234
11
19.4317095
21
0.6757898
0
LINE
8
DEFAULT_255_1_388
10
19.4317095
20
0.6757898
11
19.6413364
21
0.6757898
0
LINE
8
DEFAULT_255_1_388
10
19.6413364
20
0.6757898
11
19.123594
21
0.0947979
0
LINE
8
DEFAULT_255_1_388
10
19.123594
20
0.0947979
11
19.6819968
21
-0.6398
0
LINE
8
DEFAULT_255_1_388
10
19.6819968
20
-0.6398
11
19.474177
21
-0.6398
0
LINE
8
DEFAULT_255_1_388
10
8.2752342
20
23.1663842
11
8.2752342
21
22.6838808
0
LINE
8
DEFAULT_255_1_388
10
7.2614349
20
23.1058454
11
7.2614349
21
23.2205981
0
LINE
8
DEFAULT_255_1_388
10
8.2752342
20
23.4410678
11
8.1017498
21
23.4410678
0
LINE
8
DEFAULT_255_1_388
10
7.4358228
20
23.2251159
11
7.4358228
21
23.1175917
0
LINE
8
DEFAULT_255_1_388
10
8.1026534
20
22.7299626
11
8.1026534
21
23.0254282
0
LINE
8
DEFAULT_255_1_388
10
8.1026534
20
23.0254282
11
7.7981521
21
23.0254282
0
LINE
8
DEFAULT_255_1_388
10
7.7981521
20
23.0254282
11
7.7981521
21
23.1663842
0
LINE
8
DEFAULT_255_1_388
10
7.7981521
20
23.1663842
11
8.2752342
21
23.1663842
0
ARC
8
DEFAULT_255_1_388
10
7.9566942
20
22.9081284
40
0.3895571
50
295.8437277
51
324.8549962
0
ARC
8
DEFAULT_255_1_388
10
7.9099325
20
22.9927619
40
0.4861381
50
291.5691164
51
296.4556269
0
ARC
8
DEFAULT_255_1_388
10
7.8524327
20
23.1463801
40
0.6501442
50
278.6622213
51
291.3047061
0
ARC
8
DEFAULT_255_1_388
10
7.8142359
20
23.3880557
40
0.8948168
50
270.0200506
51
278.7494673
0
ARC
8
DEFAULT_255_1_388
10
7.8098563
20
23.5726453
40
1.0794166
50
270.0022372
51
270.2490917
0
ARC
8
DEFAULT_255_1_388
10
7.8056456
20
23.0767827
40
0.5835695
50
253.5785313
51
270.4175629
0
ARC
8
DEFAULT_255_1_388
10
7.7861452
20
23.0012625
40
0.5056241
50
238.8203954
51
253.2788387
0
ARC
8
DEFAULT_255_1_388
10
7.7839367
20
22.9955224
40
0.4995712
50
206.7883476
51
238.696262
0
ARC
8
DEFAULT_255_1_388
10
7.8714763
20
23.0479847
40
0.6014056
50
206.1137778
51
207.4912776
0
ARC
8
DEFAULT_255_1_388
10
7.9381599
20
23.0763284
40
0.6737692
50
188.6922336
51
205.782076
0
ARC
8
DEFAULT_255_1_388
10
8.1469958
20
23.1118455
40
0.8855812
50
180.3881972
51
188.9218085
0
ARC
8
DEFAULT_255_1_388
10
8.2851116
20
23.2269622
40
1.0236965
50
170.2024645
51
180.3561986
0
ARC
8
DEFAULT_255_1_388
10
7.9292266
20
23.2906101
40
0.6621746
50
154.2856519
51
170.3893388
0
ARC
8
DEFAULT_255_1_388
10
7.785023
20
23.3566192
40
0.5036209
50
139.8400879
51
153.9334639
0
ARC
8
DEFAULT_255_1_388
10
7.7446133
20
23.3889716
40
0.4518751
50
98.4190017
51
139.6707015
0
ARC
8
DEFAULT_255_1_388
10
7.7873101
20
23.1813755
40
0.6635912
50
89.7660128
51
99.4415389
0
ARC
8
DEFAULT_255_1_388
10
7.7946497
20
23.1887517
40
0.6562258
50
78.0552044
51
90.4042252
0
ARC
8
DEFAULT_255_1_388
10
7.8401561
20
23.3933661
40
0.4466287
50
54.6380186
51
78.3338577
0
ARC
8
DEFAULT_255_1_388
10
7.8615859
20
23.4294444
40
0.4048184
50
50.0313964
51
54.1562739
0
ARC
8
DEFAULT_255_1_388
10
7.8494753
20
23.4185798
40
0.4209308
50
18.1092229
51
49.7179911
0
ARC
8
DEFAULT_255_1_388
10
7.6855833
20
23.3585399
40
0.5953982
50
7.967396
51
18.698492
0
ARC
8
DEFAULT_255_1_388
10
7.7025094
20
23.3724236
40
0.4050986
50
9.7558763
51
27.3214087
0
ARC
8
DEFAULT_255_1_388
10
7.8293559
20
23.4358087
40
0.2633168
50
27.736147
51
84.5257861
0
ARC
8
DEFAULT_255_1_388
10
7.7924968
20
23.2508988
40
0.4513019
50
82.1064239
51
90.1997295
0
ARC
8
DEFAULT_255_1_388
10
7.7868985
20
23.3080501
40
0.3941684
50
89.4148952
51
105.5824837
0
ARC
8
DEFAULT_255_1_388
10
7.7579865
20
23.4133043
40
0.2850167
50
105.6678541
51
144.2649156
0
ARC
8
DEFAULT_255_1_388
10
7.8584758
20
23.3418024
40
0.4083468
50
144.3560675
51
162.8564185
0
ARC
8
DEFAULT_255_1_388
10
8.09292
20
23.2665083
40
0.6545749
50
162.6076338
51
173.6779811
0
ARC
8
DEFAULT_255_1_388
10
8.4373315
20
23.2246422
40
1.0015089
50
173.4670996
51
179.9729015
0
ARC
8
DEFAULT_255_1_388
10
8.2226186
20
23.1128636
40
0.78681
50
179.6556955
51
190.007958
0
ARC
8
DEFAULT_255_1_388
10
7.9620468
20
23.065066
40
0.5218997
50
189.8117884
51
206.6795375
0
ARC
8
DEFAULT_255_1_388
10
7.8669914
20
23.0207514
40
0.4170788
50
207.1031171
51
217.7074698
0
ARC
8
DEFAULT_255_1_388
10
7.7956344
20
22.9586596
40
0.3226945
50
216.7345117
51
265.6812141
0
ARC
8
DEFAULT_255_1_388
10
7.8103486
20
23.060403
40
0.4253149
50
264.7367524
51
270.0610826
0
ARC
8
DEFAULT_255_1_388
10
7.8129672
20
23.3799173
40
0.7448321
50
269.8334494
51
276.0538364
0
ARC
8
DEFAULT_255_1_388
10
7.8362534
20
23.1659924
40
0.5296446
50
275.9894423
51
284.4615914
0
ARC
8
DEFAULT_255_1_388
10
7.8584047
20
23.072757
40
0.4338353
50
284.7038488
51
286.4938196
0
ARC
8
DEFAULT_255_1_388
10
7.9043196
20
22.9248371
40
0.2789738
50
286.0770429
51
304.2629628
0
ARC
8
DEFAULT_255_1_388
10
7.9193354
20
22.900268
40
0.2502188
50
304.5886247
51
317.1074126
0
LINE
8
DEFAULT_255_1_388
10
9.1453667
20
22.5113
11
9.1417525
21
22.6079814
0
LINE
8
DEFAULT_255_1_388
10
8.5345572
20
22.8528474
11
8.5345572
21
23.4889567
0
LINE
8
DEFAULT_255_1_388
10
8.5345572
20
23.4889567
11
8.7017166
21
23.4889567
0
LINE
8
DEFAULT_255_1_388
10
8.7017166
20
23.4889567
11
8.7017166
21
22.8573652
0
LINE
8
DEFAULT_255_1_388
10
9.1372347
20
22.7778515
11
9.1372347
21
23.4889567
0
LINE
8
DEFAULT_255_1_388
10
9.1372347
20
23.4889567
11
9.3043941
21
23.4889567
0
LINE
8
DEFAULT_255_1_388
10
9.3043941
20
23.4889567
11
9.3043941
21
22.5113
0
LINE
8
DEFAULT_255_1_388
10
9.3043941
20
22.5113
11
9.1453667
21
22.5113
0
ARC
8
DEFAULT_255_1_388
10
8.9037564
20
22.8124675
40
0.3137782
50
282.5436457
51
319.3308483
0
ARC
8
DEFAULT_255_1_388
10
8.8601989
20
22.9819138
40
0.4886732
50
269.8919644
51
283.213949
0
ARC
8
DEFAULT_255_1_388
10
8.8552958
20
23.1223412
40
0.6291125
50
270.0024363
51
270.3626317
0
ARC
8
DEFAULT_255_1_388
10
8.8518937
20
22.9222026
40
0.4289875
50
257.7354503
51
270.4579702
0
ARC
8
DEFAULT_255_1_388
10
8.8184474
20
22.7760679
40
0.2790881
50
233.3385202
51
258.072161
0
ARC
8
DEFAULT_255_1_388
10
8.803334
20
22.7513828
40
0.250276
50
221.9625878
51
232.7397557
0
ARC
8
DEFAULT_255_1_388
10
8.8348302
20
22.7755961
40
0.2899023
50
197.9449652
51
221.3587453
0
ARC
8
DEFAULT_255_1_388
10
8.9917807
20
22.8292197
40
0.4557469
50
185.8086112
51
198.2791204
0
ARC
8
DEFAULT_255_1_388
10
9.2046555
20
22.8545327
40
0.6701004
50
180.1441004
51
186.1197471
0
ARC
8
DEFAULT_255_1_388
10
9.1032233
20
22.8533589
40
0.4015267
50
179.428312
51
191.0738067
0
ARC
8
DEFAULT_255_1_388
10
8.9138415
20
22.814262
40
0.2081712
50
190.5250706
51
212.6989599
0
ARC
8
DEFAULT_255_1_388
10
8.8616183
20
22.7854416
40
0.1487075
50
214.2246262
51
264.4398306
0
ARC
8
DEFAULT_255_1_388
10
8.8815696
20
22.8877845
40
0.2526976
50
262.1851951
51
270.1949702
0
ARC
8
DEFAULT_255_1_388
10
8.88628
20
23.031346
40
0.3962764
50
269.4432626
51
282.9581304
0
ARC
8
DEFAULT_255_1_388
10
8.92416
20
22.8772077
40
0.2375807
50
282.3910141
51
311.9723859
0
ARC
8
DEFAULT_255_1_388
10
8.9250133
20
22.8690255
40
0.2309774
50
313.1724921
51
336.7508062
0
LINE
8
DEFAULT_255_1_388
10
10.3371683
20
22.5113
11
10.1618768
21
22.5113
0
LINE
8
DEFAULT_255_1_388
10
9.9730318
20
23.1040383
11
10.1356734
21
23.1040383
0
LINE
8
DEFAULT_255_1_388
10
10.1356734
20
23.1040383
11
10.1356734
21
23.1808413
0
LINE
8
DEFAULT_255_1_388
10
9.7182266
20
23.2178874
11
9.5501636
21
23.2178874
0
LINE
8
DEFAULT_255_1_388
10
10.3028328
20
23.1898769
11
10.3028328
21
22.7399018
0
LINE
8
DEFAULT_255_1_388
10
10.3371683
20
22.525757
11
10.3371683
21
22.5113
0
LINE
8
DEFAULT_255_1_388
10
10.1356734
20
22.78508
11
10.1356734
21
22.9856713
0
LINE
8
DEFAULT_255_1_388
10
10.1356734
20
22.9856713
11
10.0046565
21
22.9856713
0
ARC
8
DEFAULT_255_1_388
10
10.2787917
20
22.56801
40
0.1299428
50
197.0784902
51
205.8758668
0
ARC
8
DEFAULT_255_1_388
10
10.4182503
20
22.6121959
40
0.2762313
50
192.2927663
51
197.3441989
0
ARC
8
DEFAULT_255_1_388
10
10.6378009
20
22.660976
40
0.5011345
50
189.1573793
51
192.3977084
0
ARC
8
DEFAULT_255_1_388
10
10.9542855
20
22.7125878
40
0.8217995
50
186.8686098
51
189.1982636
0
ARC
8
DEFAULT_255_1_388
10
9.8487946
20
22.886626
40
0.3975173
50
294.0079259
51
316.7603918
0
ARC
8
DEFAULT_255_1_388
10
9.8633129
20
22.8661902
40
0.3729755
50
269.5043226
51
293.2478373
0
ARC
8
DEFAULT_255_1_388
10
9.8566181
20
22.9112915
40
0.4180772
50
255.4034155
51
270.4753052
0
ARC
8
DEFAULT_255_1_388
10
9.8307394
20
22.8108652
40
0.3143705
50
228.6141063
51
255.3550831
0
ARC
8
DEFAULT_255_1_388
10
9.7933376
20
22.775054
40
0.2628114
50
181.8954381
51
229.5703134
0
ARC
8
DEFAULT_255_1_388
10
9.8598312
20
22.7822824
40
0.329546
50
179.9848815
51
182.7691528
0
ARC
8
DEFAULT_255_1_388
10
9.8505378
20
22.7861827
40
0.3202753
50
161.0342928
51
180.6822077
0
ARC
8
DEFAULT_255_1_388
10
9.8010993
20
22.7990422
40
0.2693695
50
125.0525065
51
160.2034058
0
ARC
8
DEFAULT_255_1_388
10
9.8755715
20
22.6974275
40
0.3953338
50
106.2670809
51
125.4300189
0
ARC
8
DEFAULT_255_1_388
10
9.9399756
20
22.4869795
40
0.6154041
50
95.4857579
51
106.5348562
0
ARC
8
DEFAULT_255_1_388
10
9.9707043
20
22.2057993
40
0.8982419
50
89.8515405
51
95.7222579
0
ARC
8
DEFAULT_255_1_388
10
9.8987624
20
23.1828925
40
0.2369198
50
359.5039339
51
14.3181205
0
ARC
8
DEFAULT_255_1_388
10
9.9633629
20
23.1996862
40
0.170173
50
14.2184556
51
45.2028524
0
ARC
8
DEFAULT_255_1_388
10
9.9674325
20
23.2012862
40
0.1661795
50
45.8098216
51
73.0032926
0
ARC
8
DEFAULT_255_1_388
10
9.9394152
20
23.115626
40
0.2562942
50
72.6112517
51
85.7231489
0
ARC
8
DEFAULT_255_1_388
10
9.9292936
20
23.0129339
40
0.3594635
50
85.335019
51
90.0855069
0
ARC
8
DEFAULT_255_1_388
10
9.9266369
20
23.0793472
40
0.2930574
50
89.5854741
51
103.459124
0
ARC
8
DEFAULT_255_1_388
10
9.9094908
20
23.1508134
40
0.2195632
50
103.448332
51
126.5403399
0
ARC
8
DEFAULT_255_1_388
10
9.8825884
20
23.1852224
40
0.1759039
50
126.1730306
51
141.5008224
0
ARC
8
DEFAULT_255_1_388
10
9.84002
20
23.2186266
40
0.1217955
50
141.3332087
51
180.3477313
0
ARC
8
DEFAULT_255_1_388
10
9.7641623
20
23.2166904
40
0.214002
50
151.6373605
51
179.6795088
0
ARC
8
DEFAULT_255_1_388
10
9.8318859
20
23.1829768
40
0.2896224
50
142.4981529
51
152.1330509
0
ARC
8
DEFAULT_255_1_388
10
9.8676863
20
23.1548781
40
0.3351307
50
120.8284906
51
142.4132156
0
ARC
8
DEFAULT_255_1_388
10
9.9144839
20
23.0816185
40
0.4220297
50
113.9634885
51
121.1871733
0
ARC
8
DEFAULT_255_1_388
10
9.9298147
20
23.0442705
40
0.4623867
50
93.3784336
51
113.8197902
0
ARC
8
DEFAULT_255_1_388
10
9.938453
20
22.9581549
40
0.5488732
50
89.9745993
51
93.7488475
0
ARC
8
DEFAULT_255_1_388
10
9.9423776
20
22.9622587
40
0.5447818
50
79.1327128
51
90.3871707
0
ARC
8
DEFAULT_255_1_388
10
9.978954
20
23.1450597
40
0.3583662
50
60.1434453
51
79.365517
0
ARC
8
DEFAULT_255_1_388
10
10.0078306
20
23.2005195
40
0.2959028
50
48.6191018
51
59.6466565
0
ARC
8
DEFAULT_255_1_388
10
10.0132018
20
23.2076356
40
0.2870136
50
9.0349502
51
48.4845487
0
ARC
8
DEFAULT_255_1_388
10
9.8921316
20
23.1812084
40
0.4107927
50
1.2091359
51
10.0234369
0
ARC
8
DEFAULT_255_1_388
10
11.1618764
20
22.7371422
40
0.8590481
50
179.8159449
51
185.3205667
0
ARC
8
DEFAULT_255_1_388
10
10.858661
20
22.7081945
40
0.5544553
50
185.2475628
51
192.7952551
0
ARC
8
DEFAULT_255_1_388
10
10.6604434
20
22.6627024
40
0.3510853
50
192.7195981
51
202.9584216
0
ARC
8
DEFAULT_255_1_388
10
9.884447
20
22.9324895
40
0.2937869
50
270.006916
51
300.503478
0
ARC
8
DEFAULT_255_1_388
10
9.8982405
20
22.9180888
40
0.2744162
50
299.5482616
51
315.609538
0
ARC
8
DEFAULT_255_1_388
10
9.9308701
20
22.8847072
40
0.2277499
50
315.8682065
51
334.0592465
0
ARC
8
DEFAULT_255_1_388
10
9.9997675
20
22.20109
40
0.7845965
50
89.64297
51
97.2867877
0
ARC
8
DEFAULT_255_1_388
10
9.9501272
20
22.5727936
40
0.4096042
50
96.9938706
51
109.7783917
0
ARC
8
DEFAULT_255_1_388
10
9.8752735
20
22.7731851
40
0.1957225
50
109.0087985
51
135.3265591
0
ARC
8
DEFAULT_255_1_388
10
9.8445154
20
22.8112764
40
0.1471704
50
137.4537784
51
182.1083946
0
ARC
8
DEFAULT_255_1_388
10
9.8865853
20
22.8040101
40
0.1891498
50
179.4390335
51
195.7201623
0
ARC
8
DEFAULT_255_1_388
10
9.8402889
20
22.7913585
40
0.1411576
50
195.8683556
51
230.157074
0
ARC
8
DEFAULT_255_1_388
10
9.8675612
20
22.8240228
40
0.1837102
50
230.1532486
51
259.7486257
0
ARC
8
DEFAULT_255_1_388
10
9.8831654
20
22.8975472
40
0.258848
50
259.2461118
51
270.2915316
0
LINE
8
DEFAULT_255_1_388
10
11.0374307
20
23.4943781
11
11.0374307
21
23.338965
0
LINE
8
DEFAULT_255_1_388
10
10.7320259
20
23.2052375
11
10.7320259
21
22.5113
0
LINE
8
DEFAULT_255_1_388
10
10.7320259
20
22.5113
11
10.5648665
21
22.5113
0
LINE
8
DEFAULT_255_1_388
10
10.5648665
20
22.5113
11
10.5648665
21
23.4889567
0
LINE
8
DEFAULT_255_1_388
10
10.5648665
20
23.4889567
11
10.7275081
21
23.4889567
0
LINE
8
DEFAULT_255_1_388
10
10.7275081
20
23.4889567
11
10.7302188
21
23.3760112
0
ARC
8
DEFAULT_255_1_388
10
10.9624467
20
22.8823068
40
0.4627735
50
80.6751522
51
86.893806
0
ARC
8
DEFAULT_255_1_388
10
10.9556297
20
22.7731103
40
0.5721798
50
86.8046851
51
90.0423898
0
ARC
8
DEFAULT_255_1_388
10
10.9514716
20
23.0498197
40
0.2954939
50
89.2758283
51
106.6212906
0
ARC
8
DEFAULT_255_1_388
10
10.9284741
20
23.1334009
40
0.2088351
50
107.1347109
51
157.6456887
0
ARC
8
DEFAULT_255_1_388
10
11.0052803
20
23.0906908
40
0.296292
50
155.6557383
51
157.256838
0
ARC
8
DEFAULT_255_1_388
10
10.9832417
20
23.2217472
40
0.296341
50
127.8167201
51
148.6300223
0
ARC
8
DEFAULT_255_1_388
10
10.9547165
20
23.2510066
40
0.2557782
50
91.3329934
51
126.7875218
0
ARC
8
DEFAULT_255_1_388
10
10.9632552
20
23.1706718
40
0.3363561
50
89.9858247
51
92.4688453
0
ARC
8
DEFAULT_255_1_388
10
10.9642045
20
23.2015114
40
0.3055179
50
85.3587643
51
90.1624243
0
ARC
8
DEFAULT_255_1_388
10
10.973711
20
23.3144458
40
0.1921848
50
78.4019195
51
85.4592653
0
ARC
8
DEFAULT_255_1_388
10
10.9900171
20
23.3922142
40
0.1127267
50
67.7849217
51
78.573798
0
ARC
8
DEFAULT_255_1_388
10
11.0021805
20
23.4237374
40
0.0789473
50
63.4805074
51
67.3074739
0
LINE
8
DEFAULT_255_1_388
10
11.1332085
20
22.9956105
11
11.1332085
21
23.0082604
0
LINE
8
DEFAULT_255_1_388
10
11.7910035
20
23.3895646
11
11.7910035
21
23.899175
0
LINE
8
DEFAULT_255_1_388
10
11.7910035
20
23.899175
11
11.9581629
21
23.899175
0
LINE
8
DEFAULT_255_1_388
10
11.9581629
20
23.899175
11
11.9581629
21
22.5113
0
LINE
8
DEFAULT_255_1_388
10
11.9581629
20
22.5113
11
11.8045569
21
22.5113
0
LINE
8
DEFAULT_255_1_388
10
11.8045569
20
22.5113
11
11.7964249
21
22.6161135
0
LINE
8
DEFAULT_255_1_388
10
11.7910035
20
22.7778515
11
11.7910035
21
23.226923
0
ARC
8
DEFAULT_255_1_388
10
11.9066779
20
23.0132084
40
0.7734851
50
169.1662656
51
180.3665225
0
ARC
8
DEFAULT_255_1_388
10
11.6595688
20
23.0624773
40
0.5215235
50
150.2837807
51
169.3798657
0
ARC
8
DEFAULT_255_1_388
10
11.5883139
20
23.0989124
40
0.4415937
50
142.1063912
51
149.8065902
0
ARC
8
DEFAULT_255_1_388
10
11.5239351
20
23.1549913
40
0.3563766
50
118.4282495
51
142.8642233
0
ARC
8
DEFAULT_255_1_388
10
11.5128363
20
23.1620109
40
0.3449797
50
89.9199141
51
117.3621403
0
ARC
8
DEFAULT_255_1_388
10
11.5190215
20
23.0745171
40
0.4325108
50
89.9988001
51
90.7555106
0
ARC
8
DEFAULT_255_1_388
10
11.5232293
20
23.1032362
40
0.4038136
50
72.8979482
51
90.595751
0
ARC
8
DEFAULT_255_1_388
10
11.5454972
20
23.1836099
40
0.3204539
50
39.9932308
51
72.4773248
0
ARC
8
DEFAULT_255_1_388
10
11.5422064
20
22.8222007
40
0.3272598
50
275.0849466
51
320.9693562
0
ARC
8
DEFAULT_255_1_388
10
11.518098
20
22.9647895
40
0.4715615
50
269.8937433
51
276.4672347
0
ARC
8
DEFAULT_255_1_388
10
11.510452
20
22.822215
40
0.3290559
50
222.0839188
51
271.1791339
0
ARC
8
DEFAULT_255_1_388
10
11.5792029
20
22.8925998
40
0.4272982
50
217.5168262
51
222.9097935
0
ARC
8
DEFAULT_255_1_388
10
11.6346902
20
22.9307851
40
0.4945763
50
193.0962732
51
217.1109075
0
ARC
8
DEFAULT_255_1_388
10
11.8548631
20
22.9857252
40
0.7214806
50
181.1071959
51
193.3839643
0
ARC
8
DEFAULT_255_1_388
10
12.0433008
20
22.9954904
40
0.9100921
50
179.9924355
51
181.4926257
0
ARC
8
DEFAULT_255_1_388
10
11.9504365
20
22.9857904
40
0.650078
50
179.6919448
51
188.655086
0
ARC
8
DEFAULT_255_1_388
10
11.7232422
20
22.9500086
40
0.420088
50
188.4934981
51
202.2188222
0
ARC
8
DEFAULT_255_1_388
10
11.6144229
20
22.9068888
40
0.3030458
50
202.4516374
51
215.9308342
0
ARC
8
DEFAULT_255_1_388
10
11.5477653
20
22.853769
40
0.2179351
50
214.9061987
51
264.2076983
0
ARC
8
DEFAULT_255_1_388
10
11.5583191
20
22.9209867
40
0.2858989
50
263.4629438
51
270.0938577
0
ARC
8
DEFAULT_255_1_388
10
11.5628125
20
22.910673
40
0.2756141
50
269.1632216
51
291.0932257
0
ARC
8
DEFAULT_255_1_388
10
11.572003
20
22.8733218
40
0.2375078
50
292.2675188
51
328.1937653
0
ARC
8
DEFAULT_255_1_388
10
11.4942688
20
22.9294245
40
0.3332054
50
327.040169
51
332.941918
0
ARC
8
DEFAULT_255_1_388
10
11.5406901
20
23.0956122
40
0.2826647
50
27.6808655
51
48.7895461
0
ARC
8
DEFAULT_255_1_388
10
11.5725537
20
23.1249738
40
0.2396281
50
49.8958562
51
87.0102063
0
ARC
8
DEFAULT_255_1_388
10
11.5608381
20
23.0363941
40
0.3287745
50
85.7763593
51
90.0424518
0
ARC
8
DEFAULT_255_1_388
10
11.5575448
20
23.1105766
40
0.25461
50
89.3136862
51
109.426258
0
ARC
8
DEFAULT_255_1_388
10
11.549187
20
23.144891
40
0.2194978
50
110.3479382
51
145.1577921
0
ARC
8
DEFAULT_255_1_388
10
11.622735
20
23.091319
40
0.3104736
50
144.7981654
51
162.8715843
0
ARC
8
DEFAULT_255_1_388
10
11.8133949
20
23.0300138
40
0.5107383
50
162.598526
51
173.3417416
0
ARC
8
DEFAULT_255_1_388
10
12.1135323
20
22.9927767
40
0.8131718
50
173.1877249
51
180.2459848
0
LINE
8
DEFAULT_255_1_388
10
12.4180772
20
23.8268898
11
12.4180772
21
22.6531596
0
LINE
8
DEFAULT_255_1_388
10
12.4180772
20
22.6531596
11
13.0415367
21
22.6531596
0
LINE
8
DEFAULT_255_1_388
10
13.0415367
20
22.6531596
11
13.0415367
21
22.5113
0
LINE
8
DEFAULT_255_1_388
10
13.0415367
20
22.5113
11
12.2436893
21
22.5113
0
LINE
8
DEFAULT_255_1_388
10
12.2436893
20
22.5113
11
12.2436893
21
23.8268898
0
LINE
8
DEFAULT_255_1_388
10
12.2436893
20
23.8268898
11
12.4180772
21
23.8268898
0
LINE
8
DEFAULT_255_1_388
10
13.1689393
20
22.9974177
11
13.1689393
21
23.009164
0
LINE
8
DEFAULT_255_1_388
10
14.0589502
20
23.0010319
11
14.0589502
21
22.9892856
0
ARC
8
DEFAULT_255_1_388
10
13.7973837
20
23.012804
40
0.628455
50
166.3005265
51
180.3318609
0
ARC
8
DEFAULT_255_1_388
10
13.7003187
20
23.0345267
40
0.52901
50
153.8608648
51
166.0965672
0
ARC
8
DEFAULT_255_1_388
10
13.6254353
20
23.0746652
40
0.4441126
50
135.1317053
51
154.2534962
0
ARC
8
DEFAULT_255_1_388
10
13.5941003
20
23.1023431
40
0.4023863
50
121.7042632
51
134.7771455
0
ARC
8
DEFAULT_255_1_388
10
13.6016435
20
23.0878469
40
0.4186852
50
93.4001111
51
121.5399523
0
ARC
8
DEFAULT_255_1_388
10
13.612327
20
22.9948759
40
0.5121521
50
89.9706387
51
93.9763381
0
ARC
8
DEFAULT_255_1_388
10
13.6176254
20
23.0388563
40
0.4681988
50
71.3321659
51
90.6162917
0
ARC
8
DEFAULT_255_1_388
10
13.6359288
20
23.1066003
40
0.3981841
50
41.1813875
51
70.7072086
0
ARC
8
DEFAULT_255_1_388
10
13.5822004
20
23.057813
40
0.4707474
50
12.1971434
51
41.3446641
0
ARC
8
DEFAULT_255_1_388
10
13.3655268
20
23.0062328
40
0.6934429
50
359.5702713
51
12.5803533
0
ARC
8
DEFAULT_255_1_388
10
13.4187584
20
22.9857207
40
0.6402018
50
347.0196754
51
0.3190452
0
ARC
8
DEFAULT_255_1_388
10
13.5265637
20
22.9625189
40
0.5299421
50
334.350439
51
346.8460534
0
ARC
8
DEFAULT_255_1_388
10
13.6216883
20
22.9131244
40
0.4228234
50
310.4228125
51
334.8045131
0
ARC
8
DEFAULT_255_1_388
10
13.6308862
20
22.9059301
40
0.4113892
50
301.8488154
51
310.0972985
0
ARC
8
DEFAULT_255_1_388
10
13.6272602
20
22.9144573
40
0.4205483
50
274.3078723
51
301.6554173
0
ARC
8
DEFAULT_255_1_388
10
13.6148058
20
23.0131943
40
0.5199658
50
269.954904
51
274.859116
0
ARC
8
DEFAULT_255_1_388
10
13.6092882
20
22.9568239
40
0.4636233
50
250.8887647
51
270.6313164
0
ARC
8
DEFAULT_255_1_388
10
13.5924042
20
22.8939405
40
0.398705
50
221.1701369
51
250.2227012
0
ARC
8
DEFAULT_255_1_388
10
13.6468708
20
22.9435716
40
0.4723796
50
191.6263861
51
221.3526879
0
ARC
8
DEFAULT_255_1_388
10
13.8592553
20
22.9927203
40
0.6903321
50
179.6101251
51
192.0694841
0
ARC
8
DEFAULT_255_1_388
10
13.9068901
20
22.9856681
40
0.5698993
50
179.636304
51
190.6161344
0
ARC
8
DEFAULT_255_1_388
10
13.7221233
20
22.9496635
40
0.3816643
50
190.4136062
51
208.7168709
0
ARC
8
DEFAULT_255_1_388
10
13.6647267
20
22.9211905
40
0.3176572
50
209.187109
51
217.4221816
0
ARC
8
DEFAULT_255_1_388
10
13.6051737
20
22.8687729
40
0.2385702
50
216.1156863
51
265.2575395
0
ARC
8
DEFAULT_255_1_388
10
13.6140774
20
22.9332608
40
0.3035941
50
264.5891546
51
270.0602378
0
ARC
8
DEFAULT_255_1_388
10
13.617797
20
22.8905539
40
0.2609091
50
269.2532353
51
291.8793864
0
ARC
8
DEFAULT_255_1_388
10
13.6210849
20
22.8705359
40
0.241148
50
292.9269367
51
323.1777736
0
ARC
8
DEFAULT_255_1_388
10
13.5740134
20
22.9118762
40
0.3036446
50
322.25666
51
323.087958
0
ARC
8
DEFAULT_255_1_388
10
13.5437392
20
22.9301332
40
0.3388345
50
323.6941379
51
343.8493587
0
ARC
8
DEFAULT_255_1_388
10
13.3661828
20
22.9841698
40
0.5244204
50
343.5746655
51
355.008149
0
ARC
8
DEFAULT_255_1_388
10
13.140352
20
23.0075797
40
0.7514406
50
354.728272
51
0.1208026
0
ARC
8
DEFAULT_255_1_388
10
13.3392546
20
23.0127947
40
0.5525482
50
359.6235211
51
11.2016685
0
ARC
8
DEFAULT_255_1_388
10
13.5118373
20
23.0483284
40
0.3763527
50
10.9991302
51
30.8317616
0
ARC
8
DEFAULT_255_1_388
10
13.5563676
20
23.0717988
40
0.3260975
50
31.3007463
51
37.395541
0
ARC
8
DEFAULT_255_1_388
10
13.6122396
20
23.1189773
40
0.253082
50
36.5918894
51
62.2439906
0
ARC
8
DEFAULT_255_1_388
10
13.6174687
20
23.1186378
40
0.2509927
50
63.3364883
51
89.7193846
0
ARC
8
DEFAULT_255_1_388
10
13.6126141
20
23.0538375
40
0.3158485
50
88.8962924
51
90.004475
0
ARC
8
DEFAULT_255_1_388
10
13.6090568
20
23.1191071
40
0.250604
50
89.1923115
51
114.7099029
0
ARC
8
DEFAULT_255_1_388
10
13.612291
20
23.1233675
40
0.2481307
50
115.7996284
51
142.2901353
0
ARC
8
DEFAULT_255_1_388
10
13.6591181
20
23.0814752
40
0.310833
50
141.4607507
51
142.383894
0
ARC
8
DEFAULT_255_1_388
10
13.6739032
20
23.0746449
40
0.3267335
50
143.0176473
51
163.2340089
0
ARC
8
DEFAULT_255_1_388
10
13.8514321
20
23.0184553
40
0.5129308
50
162.9446504
51
174.3733893
0
ARC
8
DEFAULT_255_1_388
10
14.0928294
20
22.9913483
40
0.75583
50
174.1225809
51
180.1563667
0
LINE
8
DEFAULT_255_1_388
10
14.8938438
20
23.380529
11
14.9019759
21
23.4889567
0
LINE
8
DEFAULT_255_1_388
10
14.9019759
20
23.4889567
11
15.0546783
21
23.4889567
0
LINE
8
DEFAULT_255_1_388
10
15.0546783
20
23.4889567
11
15.0546783
21
22.5347927
0
LINE
8
DEFAULT_255_1_388
10
14.2785164
20
22.2953481
11
14.3652586
21
22.3956437
0
LINE
8
DEFAULT_255_1_388
10
14.8866153
20
22.5248535
11
14.8866153
21
22.608885
0
LINE
8
DEFAULT_255_1_388
10
14.8866153
20
22.7787551
11
14.8866153
21
23.2251159
0
ARC
8
DEFAULT_255_1_388
10
15.0327131
20
23.013122
40
0.8039074
50
169.8802333
51
180.3464902
0
ARC
8
DEFAULT_255_1_388
10
14.7679937
20
23.062287
40
0.5346711
50
152.8534324
51
170.0824729
0
ARC
8
DEFAULT_255_1_388
10
14.6742331
20
23.1066868
40
0.4309932
50
142.0147746
51
152.418569
0
ARC
8
DEFAULT_255_1_388
10
14.602578
20
23.1719169
40
0.3344504
50
94.3317494
51
143.2674518
0
ARC
8
DEFAULT_255_1_388
10
14.6142639
20
23.0838903
40
0.423138
50
89.9487512
51
95.0093077
0
ARC
8
DEFAULT_255_1_388
10
14.6189437
20
23.1018021
40
0.4052487
50
72.9496911
51
90.6081488
0
ARC
8
DEFAULT_255_1_388
10
14.642016
20
23.1853718
40
0.3185963
50
37.7743532
51
72.5099202
0
ARC
8
DEFAULT_255_1_388
10
14.5385026
20
22.5304774
40
0.5161937
50
346.3655403
51
0.4789834
0
ARC
8
DEFAULT_255_1_388
10
14.692386
20
22.4913644
40
0.3574311
50
314.3365584
51
346.6438898
0
ARC
8
DEFAULT_255_1_388
10
14.6809004
20
22.50749
40
0.3770042
50
280.7144
51
313.872307
0
ARC
8
DEFAULT_255_1_388
10
14.6431739
20
22.6756099
40
0.5492378
50
269.6628653
51
281.3208129
0
ARC
8
DEFAULT_255_1_388
10
14.6413399
20
22.6292105
40
0.5028309
50
245.5258654
51
269.8407328
0
ARC
8
DEFAULT_255_1_388
10
14.5984245
20
22.5487065
40
0.4118207
50
232.6664457
51
246.3200328
0
ARC
8
DEFAULT_255_1_388
10
14.5439489
20
22.4764386
40
0.3213227
50
214.3036526
51
232.5750527
0
ARC
8
DEFAULT_255_1_388
10
14.6697521
20
22.6368259
40
0.3884393
50
218.381912
51
236.3657409
0
ARC
8
DEFAULT_255_1_388
10
14.6247291
20
22.5740326
40
0.3112322
50
236.8637655
51
270.6382272
0
ARC
8
DEFAULT_255_1_388
10
14.6308974
20
22.6112587
40
0.3484494
50
269.5557858
51
282.3972101
0
ARC
8
DEFAULT_255_1_388
10
14.6574559
20
22.4970767
40
0.2312324
50
282.043923
51
308.3079272
0
ARC
8
DEFAULT_255_1_388
10
14.6670673
20
22.481747
40
0.2132542
50
308.8347234
51
315.2037678
0
ARC
8
DEFAULT_255_1_388
10
14.6582383
20
22.4882123
40
0.2240808
50
315.6213011
51
345.6795376
0
ARC
8
DEFAULT_255_1_388
10
14.5480808
20
22.5188736
40
0.3384084
50
345.2627538
51
358.6311244
0
ARC
8
DEFAULT_255_1_388
10
14.4482314
20
22.5247581
40
0.4383839
50
358.1739988
51
0.0124651
0
ARC
8
DEFAULT_255_1_388
10
14.6376489
20
22.8241381
40
0.3291173
50
275.6950404
51
319.1537182
0
ARC
8
DEFAULT_255_1_388
10
14.613812
20
22.9619049
40
0.4686772
50
269.8805882
51
276.9235205
0
ARC
8
DEFAULT_255_1_388
10
14.6078421
20
22.83699
40
0.3437976
50
244.0748846
51
270.8321697
0
ARC
8
DEFAULT_255_1_388
10
14.6162929
20
22.8392423
40
0.3495805
50
217.781776
51
242.9905232
0
ARC
8
DEFAULT_255_1_388
10
14.683836
20
22.8993567
40
0.4398355
50
217.5209891
51
218.58043
0
ARC
8
DEFAULT_255_1_388
10
14.7154199
20
22.917913
40
0.4762087
50
195.3497149
51
216.9773048
0
ARC
8
DEFAULT_255_1_388
10
14.9430088
20
22.9840667
40
0.7131994
50
183.9387193
51
195.6348167
0
ARC
8
DEFAULT_255_1_388
10
15.1990282
20
23.0070646
40
0.9702086
50
179.929381
51
184.2551265
0
ARC
8
DEFAULT_255_1_388
10
15.0503949
20
22.9858515
40
0.6535206
50
179.6989243
51
188.5749266
0
ARC
8
DEFAULT_255_1_388
10
14.8239139
20
22.9504789
40
0.4242988
50
188.4117627
51
202.0559679
0
ARC
8
DEFAULT_255_1_388
10
14.71494
20
22.9076952
40
0.3072368
50
202.2924994
51
215.4475859
0
ARC
8
DEFAULT_255_1_388
10
14.642447
20
22.8515576
40
0.2156547
50
214.4673097
51
264.3362727
0
ARC
8
DEFAULT_255_1_388
10
14.6539139
20
22.9231673
40
0.2880794
50
263.4723224
51
270.0965288
0
ARC
8
DEFAULT_255_1_388
10
14.6584374
20
22.9063896
40
0.2713313
50
269.1472473
51
291.7978484
0
ARC
8
DEFAULT_255_1_388
10
14.6654634
20
22.8750081
40
0.2396396
50
293.0243185
51
327.6232391
0
ARC
8
DEFAULT_255_1_388
10
14.5858068
20
22.9332435
40
0.3381603
50
326.5171836
51
332.8160011
0
ARC
8
DEFAULT_255_1_388
10
14.6253249
20
23.0862272
40
0.29591
50
27.9928465
51
47.6314088
0
ARC
8
DEFAULT_255_1_388
10
14.6659954
20
23.1249256
40
0.2399437
50
48.5793547
51
88.6245273
0
ARC
8
DEFAULT_255_1_388
10
14.6563073
20
23.0409448
40
0.3242237
50
87.2690754
51
90.0178312
0
ARC
8
DEFAULT_255_1_388
10
14.6530772
20
23.1147957
40
0.2503923
50
89.2839515
51
110.1847982
0
ARC
8
DEFAULT_255_1_388
10
14.6461572
20
23.1447002
40
0.2199699
50
111.180781
51
145.0423499
0
ARC
8
DEFAULT_255_1_388
10
14.6822434
20
23.1134759
40
0.2674811
50
143.9895932
51
144.106678
0
ARC
8
DEFAULT_255_1_388
10
14.7192504
20
23.091319
40
0.3104736
50
144.7981654
51
162.8715843
0
ARC
8
DEFAULT_255_1_388
10
14.9099103
20
23.0300138
40
0.5107383
50
162.598526
51
173.3417416
0
ARC
8
DEFAULT_255_1_388
10
15.2100477
20
22.9927767
40
0.8131718
50
173.1877249
51
180.2459848
0
LINE
8
DEFAULT_255_1_388
10
15.4883892
20
23.4889567
11
15.4883892
21
22.5113
0
LINE
8
DEFAULT_255_1_388
10
15.4883892
20
22.5113
11
15.3212298
21
22.5113
0
LINE
8
DEFAULT_255_1_388
10
15.3212298
20
22.5113
11
15.3212298
21
23.4889567
0
LINE
8
DEFAULT_255_1_388
10
15.3212298
20
23.4889567
11
15.4883892
21
23.4889567
0
ARC
8
DEFAULT_255_1_388
10
15.417766
20
23.7493428
40
0.1100948
50
161.4148232
51
180.5532607
0
ARC
8
DEFAULT_255_1_388
10
15.403797
20
23.7531875
40
0.0956324
50
138.1830164
51
160.9307633
0
ARC
8
DEFAULT_255_1_388
10
15.3914157
20
23.7639313
40
0.0792417
50
104.6371663
51
138.0036136
0
ARC
8
DEFAULT_255_1_388
10
15.4034696
20
23.7226963
40
0.1221906
50
92.0601206
51
105.2198859
0
ARC
8
DEFAULT_255_1_388
10
15.406106
20
23.6838583
40
0.161103
50
89.9790681
51
92.5006086
0
ARC
8
DEFAULT_255_1_388
10
15.4072236
20
23.7094998
40
0.1354654
50
78.0234649
51
90.4478111
0
ARC
8
DEFAULT_255_1_388
10
15.417582
20
23.7560203
40
0.0878096
50
55.0521508
51
78.336297
0
ARC
8
DEFAULT_255_1_388
10
15.4232355
20
23.7655168
40
0.0767913
50
42.0506198
51
54.4508489
0
ARC
8
DEFAULT_255_1_388
10
15.4080388
20
23.7515821
40
0.0974091
50
1.7493657
51
42.1498724
0
ARC
8
DEFAULT_255_1_388
10
15.3794293
20
23.7483166
40
0.1261276
50
359.9832635
51
2.8353994
0
ARC
8
DEFAULT_255_1_388
10
15.3980703
20
23.7472412
40
0.1074916
50
342.1062453
51
0.5535864
0
ARC
8
DEFAULT_255_1_388
10
15.4141127
20
23.7428197
40
0.0908695
50
316.7110111
51
341.6513114
0
ARC
8
DEFAULT_255_1_388
10
15.4216559
20
23.7360607
40
0.0807447
50
285.4398289
51
316.5320129
0
ARC
8
DEFAULT_255_1_388
10
15.409273
20
23.7772023
40
0.1237022
50
272.3543902
51
285.8951677
0
ARC
8
DEFAULT_255_1_388
10
15.406244
20
23.8187742
40
0.1653687
50
269.9725761
51
272.8112722
0
ARC
8
DEFAULT_255_1_388
10
15.4051492
20
23.7936727
40
0.1402709
50
258.8433431
51
270.4148607
0
ARC
8
DEFAULT_255_1_388
10
15.3950272
20
23.7446739
40
0.0902407
50
238.54281
51
259.1289544
0
ARC
8
DEFAULT_255_1_388
10
15.3873593
20
23.7307694
40
0.0743817
50
222.5056676
51
237.9918132
0
ARC
8
DEFAULT_255_1_388
10
15.4017187
20
23.7438295
40
0.0937918
50
184.1070774
51
222.4604165
0
ARC
8
DEFAULT_255_1_388
10
15.43196
20
23.7481538
40
0.1242838
50
179.9419581
51
185.0970785
0
LINE
8
DEFAULT_255_1_388
10
15.8696934
20
23.4889567
11
16.0838382
21
23.1320488
0
LINE
8
DEFAULT_255_1_388
10
16.0838382
20
23.1320488
11
16.3006937
21
23.4889567
0
LINE
8
DEFAULT_255_1_388
10
16.3006937
20
23.4889567
11
16.4958636
21
23.4889567
0
LINE
8
DEFAULT_255_1_388
10
16.4958636
20
23.4889567
11
16.1760018
21
23.0055498
0
LINE
8
DEFAULT_255_1_388
10
16.1760018
20
23.0055498
11
16.5058028
21
22.5113
0
LINE
8
DEFAULT_255_1_388
10
16.5058028
20
22.5113
11
16.31244
21
22.5113
0
LINE
8
DEFAULT_255_1_388
10
16.31244
20
22.5113
11
16.0865489
21
22.8772436
0
LINE
8
DEFAULT_255_1_388
10
16.0865489
20
22.8772436
11
15.8606578
21
22.5113
0
LINE
8
DEFAULT_255_1_388
10
15.8606578
20
22.5113
11
15.6663914
21
22.5113
0
LINE
8
DEFAULT_255_1_388
10
15.6663914
20
22.5113
11
15.9961924
21
23.0055498
0
LINE
8
DEFAULT_255_1_388
10
15.9961924
20
23.0055498
11
15.6763306
21
23.4889567
0
LINE
8
DEFAULT_255_1_388
10
15.6763306
20
23.4889567
11
15.8696934
21
23.4889567
0
LINE
8
DEFAULT_255_1_388
10
17.3244322
20
23.1365666
11
17.1907046
21
23.1709021
0
LINE
8
DEFAULT_255_1_388
10
17.1907046
20
23.1709021
11
17.2575684
21
23.8268898
0
LINE
8
DEFAULT_255_1_388
10
17.2575684
20
23.8268898
11
17.9316275
21
23.8268898
0
LINE
8
DEFAULT_255_1_388
10
17.9316275
20
23.8268898
11
17.9316275
21
23.6723803
0
LINE
8
DEFAULT_255_1_388
10
17.9316275
20
23.6723803
11
17.399428
21
23.6723803
0
LINE
8
DEFAULT_255_1_388
10
17.399428
20
23.6723803
11
17.3596712
21
23.3136652
0
LINE
8
DEFAULT_255_1_388
10
17.1437193
20
22.8573652
11
17.3018431
21
22.8573652
0
LINE
8
DEFAULT_255_1_388
10
17.3687068
20
23.1727092
11
17.3244322
21
23.1365666
0
ARC
8
DEFAULT_255_1_388
10
17.5683325
20
22.9559241
40
0.4141476
50
93.7181681
51
120.253934
0
ARC
8
DEFAULT_255_1_388
10
17.5789378
20
22.8650284
40
0.5055616
50
89.9660471
51
94.2495185
0
ARC
8
DEFAULT_255_1_388
10
17.58352
20
22.9313154
40
0.4392953
50
73.8045384
51
90.5585736
0
ARC
8
DEFAULT_255_1_388
10
17.6099457
20
23.027852
40
0.3392225
50
41.3071072
51
73.543002
0
ARC
8
DEFAULT_255_1_388
10
17.5631277
20
22.9875461
40
0.4009977
50
13.5075837
51
41.2174839
0
ARC
8
DEFAULT_255_1_388
10
17.3784375
20
22.9391907
40
0.5918864
50
1.1330171
51
13.8830737
0
ARC
8
DEFAULT_255_1_388
10
17.218802
20
22.9306522
40
0.7516787
50
359.9925091
51
1.5431298
0
ARC
8
DEFAULT_255_1_388
10
17.3632635
20
22.9260027
40
0.6072343
50
347.8572712
51
0.4294349
0
ARC
8
DEFAULT_255_1_388
10
17.560177
20
22.8813898
40
0.4053482
50
323.6727442
51
348.1674594
0
ARC
8
DEFAULT_255_1_388
10
17.5932735
20
22.8612175
40
0.3667495
50
316.8171818
51
323.1486802
0
ARC
8
DEFAULT_255_1_388
10
17.6001858
20
22.8570612
40
0.358869
50
281.839603
51
316.5458142
0
ARC
8
DEFAULT_255_1_388
10
17.5579146
20
23.0320363
40
0.5388223
50
269.5770964
51
282.4214641
0
ARC
8
DEFAULT_255_1_388
10
17.5499067
20
23.007993
40
0.5147801
50
256.2425863
51
270.4486481
0
ARC
8
DEFAULT_255_1_388
10
17.5162594
20
22.8730124
40
0.3756708
50
228.9024379
51
256.33135
0
ARC
8
DEFAULT_255_1_388
10
17.5079575
20
22.8599054
40
0.360344
50
193.7536029
51
228.5272638
0
ARC
8
DEFAULT_255_1_388
10
17.647214
20
22.9007463
40
0.5053599
50
184.9244437
51
194.4976052
0
ARC
8
DEFAULT_255_1_388
10
17.6688781
20
22.9047722
40
0.3700839
50
187.3596909
51
198.6733728
0
ARC
8
DEFAULT_255_1_388
10
17.5508024
20
22.8638373
40
0.2451195
50
198.4453795
51
217.7945479
0
ARC
8
DEFAULT_255_1_388
10
17.5175197
20
22.8402563
40
0.2043754
50
218.2887146
51
228.5613203
0
ARC
8
DEFAULT_255_1_388
10
17.5285204
20
22.8550902
40
0.2227819
50
228.9652423
51
258.1237049
0
ARC
8
DEFAULT_255_1_388
10
17.5516641
20
22.9541964
40
0.3245374
50
257.7260585
51
270.4013717
0
ARC
8
DEFAULT_255_1_388
10
17.5567139
20
22.9041255
40
0.2744726
50
269.4204315
51
286.420998
0
ARC
8
DEFAULT_255_1_388
10
17.5734195
20
22.8434705
40
0.2115721
50
286.7250065
51
320.6004665
0
ARC
8
DEFAULT_255_1_388
10
17.530311
20
22.8784527
40
0.2670878
50
320.6712228
51
344.5440474
0
ARC
8
DEFAULT_255_1_388
10
17.4001824
20
22.9166394
40
0.4026927
50
344.241448
51
356.735803
0
ARC
8
DEFAULT_255_1_388
10
17.2598131
20
22.9282656
40
0.5435085
50
356.3547471
51
0.0507222
0
ARC
8
DEFAULT_255_1_388
10
17.4100396
20
22.9317812
40
0.3932934
50
359.5579289
51
12.9534322
0
ARC
8
DEFAULT_255_1_388
10
17.5287236
20
22.9605586
40
0.2711827
50
12.6489751
51
41.608121
0
ARC
8
DEFAULT_255_1_388
10
17.5546396
20
22.9825946
40
0.2371737
50
41.7851122
51
85.9892156
0
ARC
8
DEFAULT_255_1_388
10
17.5407706
20
22.8910738
40
0.3295244
50
84.6965848
51
90.0672125
0
ARC
8
DEFAULT_255_1_388
10
17.5381274
20
22.8159118
40
0.4046926
50
89.6804991
51
99.161352
0
ARC
8
DEFAULT_255_1_388
10
17.5150283
20
22.9539848
40
0.2647044
50
98.9836248
51
113.8905702
0
ARC
8
DEFAULT_255_1_388
10
17.4891958
20
23.0149118
40
0.1985386
50
114.195234
51
127.3641866
0
LINE
8
DEFAULT_255_1_388
10
18.3635313
20
23.1365666
11
18.2298038
21
23.1709021
0
LINE
8
DEFAULT_255_1_388
10
18.2298038
20
23.1709021
11
18.2966675
21
23.8268898
0
LINE
8
DEFAULT_255_1_388
10
18.2966675
20
23.8268898
11
18.9707266
21
23.8268898
0
LINE
8
DEFAULT_255_1_388
10
18.9707266
20
23.8268898
11
18.9707266
21
23.6723803
0
LINE
8
DEFAULT_255_1_388
10
18.9707266
20
23.6723803
11
18.4385271
21
23.6723803
0
LINE
8
DEFAULT_255_1_388
10
18.4385271
20
23.6723803
11
18.3987703
21
23.3136652
0
LINE
8
DEFAULT_255_1_388
10
18.1828184
20
22.8573652
11
18.3409422
21
22.8573652
0
LINE
8
DEFAULT_255_1_388
10
18.407806
20
23.1727092
11
18.3635313
21
23.1365666
0
ARC
8
DEFAULT_255_1_388
10
18.6074317
20
22.9559241
40
0.4141476
50
93.7181681
51
120.253934
0
ARC
8
DEFAULT_255_1_388
10
18.6180369
20
22.8650284
40
0.5055616
50
89.9660471
51
94.2495185
0
ARC
8
DEFAULT_255_1_388
10
18.6226191
20
22.9313154
40
0.4392953
50
73.8045384
51
90.5585736
0
ARC
8
DEFAULT_255_1_388
10
18.6490448
20
23.027852
40
0.3392225
50
41.3071072
51
73.543002
0
ARC
8
DEFAULT_255_1_388
10
18.6022268
20
22.9875461
40
0.4009977
50
13.5075837
51
41.2174839
0
ARC
8
DEFAULT_255_1_388
10
18.4175366
20
22.9391907
40
0.5918864
50
1.1330171
51
13.8830737
0
ARC
8
DEFAULT_255_1_388
10
18.2579012
20
22.9306522
40
0.7516787
50
359.9925091
51
1.5431298
0
ARC
8
DEFAULT_255_1_388
10
18.4023626
20
22.9260027
40
0.6072343
50
347.8572712
51
0.4294349
0
ARC
8
DEFAULT_255_1_388
10
18.5992761
20
22.8813898
40
0.4053482
50
323.6727442
51
348.1674594
0
ARC
8
DEFAULT_255_1_388
10
18.6323726
20
22.8612175
40
0.3667495
50
316.8171818
51
323.1486802
0
ARC
8
DEFAULT_255_1_388
10
18.6392849
20
22.8570612
40
0.358869
50
281.839603
51
316.5458142
0
ARC
8
DEFAULT_255_1_388
10
18.5970137
20
23.0320363
40
0.5388223
50
269.5770964
51
282.4214641
0
ARC
8
DEFAULT_255_1_388
10
18.5890058
20
23.007993
40
0.5147801
50
256.2425863
51
270.4486481
0
ARC
8
DEFAULT_255_1_388
10
18.5553585
20
22.8730124
40
0.3756708
50
228.9024379
51
256.33135
0
ARC
8
DEFAULT_255_1_388
10
18.5470566
20
22.8599054
40
0.360344
50
193.7536029
51
228.5272638
0
ARC
8
DEFAULT_255_1_388
10
18.6863131
20
22.9007463
40
0.5053599
50
184.9244437
51
194.4976052
0
ARC
8
DEFAULT_255_1_388
10
18.7079772
20
22.9047722
40
0.3700839
50
187.3596909
51
198.6733728
0
ARC
8
DEFAULT_255_1_388
10
18.5899015
20
22.8638373
40
0.2451195
50
198.4453795
51
217.7945479
0
ARC
8
DEFAULT_255_1_388
10
18.5566188
20
22.8402563
40
0.2043754
50
218.2887146
51
228.5613203
0
ARC
8
DEFAULT_255_1_388
10
18.5676195
20
22.8550902
40
0.2227819
50
228.9652423
51
258.1237049
0
ARC
8
DEFAULT_255_1_388
10
18.5907632
20
22.9541964
40
0.3245374
50
257.7260585
51
270.4013717
0
ARC
8
DEFAULT_255_1_388
10
18.595813
20
22.9041255
40
0.2744726
50
269.4204315
51
286.420998
0
ARC
8
DEFAULT_255_1_388
10
18.6125186
20
22.8434705
40
0.2115721
50
286.7250065
51
320.6004665
0
ARC
8
DEFAULT_255_1_388
10
18.5694101
20
22.8784527
40
0.2670878
50
320.6712228
51
344.5440474
0
ARC
8
DEFAULT_255_1_388
10
18.4392815
20
22.9166394
40
0.4026927
50
344.241448
51
356.735803
0
ARC
8
DEFAULT_255_1_388
10
18.2989122
20
22.9282656
40
0.5435085
50
356.3547471
51
0.0507222
0
ARC
8
DEFAULT_255_1_388
10
18.4491388
20
22.9317812
40
0.3932934
50
359.5579289
51
12.9534322
0
ARC
8
DEFAULT_255_1_388
10
18.5678227
20
22.9605586
40
0.2711827
50
12.6489751
51
41.608121
0
ARC
8
DEFAULT_255_1_388
10
18.5937387
20
22.9825946
40
0.2371737
50
41.7851122
51
85.9892156
0
ARC
8
DEFAULT_255_1_388
10
18.5798698
20
22.8910738
40
0.3295244
50
84.6965848
51
90.0672125
0
ARC
8
DEFAULT_255_1_388
10
18.5772265
20
22.8159118
40
0.4046926
50
89.6804991
51
99.161352
0
ARC
8
DEFAULT_255_1_388
10
18.5541274
20
22.9539848
40
0.2647044
50
98.9836248
51
113.8905702
0
ARC
8
DEFAULT_255_1_388
10
18.5282949
20
23.0149118
40
0.1985386
50
114.195234
51
127.3641866
0
ARC
8
DEFAULT_255_1_388
10
19.6724504
20
23.480672
40
0.3175098
50
338.8762533
51
0.5167111
0
ARC
8
DEFAULT_255_1_388
10
19.6914098
20
23.47556
40
0.2979894
50
325.8415285
51
338.4793574
0
ARC
8
DEFAULT_255_1_388
10
19.6474732
20
23.5060242
40
0.351452
50
296.7587686
51
325.7536481
0
ARC
8
DEFAULT_255_1_388
10
19.614636
20
23.5614363
40
0.4157374
50
296.0927901
51
297.3613472
0
ARC
8
DEFAULT_255_1_388
10
19.6440555
20
22.8231593
40
0.395855
50
47.9007294
51
67.1948823
0
ARC
8
DEFAULT_255_1_388
10
19.6661197
20
22.8508599
40
0.360516
50
35.2363914
51
47.551141
0
ARC
8
DEFAULT_255_1_388
10
19.6955601
20
22.8705093
40
0.3251343
50
359.2759765
51
35.4014143
0
ARC
8
DEFAULT_255_1_388
10
19.6117527
20
22.8622787
40
0.4089365
50
343.1293083
51
0.5775513
0
ARC
8
DEFAULT_255_1_388
10
19.6932641
20
22.8398336
40
0.3244269
50
310.8496669
51
342.7449331
0
ARC
8
DEFAULT_255_1_388
10
19.6462515
20
22.8934913
40
0.3957651
50
281.5472888
51
310.9170406
0
ARC
8
DEFAULT_255_1_388
10
19.606139
20
23.0681814
40
0.5749654
50
269.619248
51
281.9789564
0
ARC
8
DEFAULT_255_1_388
10
19.5980168
20
23.0682776
40
0.5750649
50
257.4585678
51
270.4285689
0
ARC
8
DEFAULT_255_1_388
10
19.5551688
20
22.8878741
40
0.389671
50
228.7554326
51
257.8484789
0
ARC
8
DEFAULT_255_1_388
10
19.5203173
20
22.8459228
40
0.335154
50
184.0104975
51
228.5071184
0
ARC
8
DEFAULT_255_1_388
10
19.6511566
20
22.865843
40
0.4671891
50
179.9315832
51
185.3253753
0
ARC
8
DEFAULT_255_1_388
10
19.5188078
20
22.8700592
40
0.33486
50
145.6796023
51
180.6259786
0
ARC
8
DEFAULT_255_1_388
10
19.5371844
20
22.8572271
40
0.3572723
50
115.5537685
51
145.6415986
0
ARC
8
DEFAULT_255_1_388
10
19.5754888
20
22.7886087
40
0.4357296
50
113.243307
51
116.2057839
0
ARC
8
DEFAULT_255_1_388
10
19.558354
20
23.5083379
40
0.3549126
50
222.9549744
51
244.1370481
0
ARC
8
DEFAULT_255_1_388
10
19.5446183
20
23.4929378
40
0.3343711
50
213.3436887
51
222.6274467
0
ARC
8
DEFAULT_255_1_388
10
19.5230252
20
23.4782653
40
0.3082678
50
180.431584
51
213.271499
0
ARC
8
DEFAULT_255_1_388
10
19.5865251
20
23.4835296
40
0.3718363
50
179.9991191
51
181.1690594
0
ARC
8
DEFAULT_255_1_388
10
19.6337707
20
23.4874072
40
0.4190996
50
164.6186169
51
180.529336
0
ARC
8
DEFAULT_255_1_388
10
19.5327356
20
23.514578
40
0.3144772
50
132.2455553
51
164.5090724
0
ARC
8
DEFAULT_255_1_388
10
19.5650335
20
23.478007
40
0.3632644
50
100.7053914
51
132.1386381
0
ARC
8
DEFAULT_255_1_388
10
19.5993396
20
23.3230118
40
0.5219578
50
89.6730358
51
101.2451698
0
ARC
8
DEFAULT_255_1_388
10
19.6063387
20
23.3426648
40
0.5023124
50
76.287748
51
90.4586006
0
ARC
8
DEFAULT_255_1_388
10
19.6407889
20
23.4801671
40
0.3605639
50
47.8240511
51
76.4266241
0
ARC
8
DEFAULT_255_1_388
10
19.6658273
20
23.5094599
40
0.3220463
50
6.9168387
51
47.6262497
0
ARC
8
DEFAULT_255_1_388
10
19.5323726
20
23.4848004
40
0.4575765
50
359.8415968
51
7.9697453
0
ARC
8
DEFAULT_255_1_388
10
19.5707996
20
22.8727519
40
0.2827228
50
359.445363
51
16.9256873
0
ARC
8
DEFAULT_255_1_388
10
19.623543
20
22.8872781
40
0.2280396
50
17.2920767
51
45.4630727
0
ARC
8
DEFAULT_255_1_388
10
19.6174565
20
22.8820324
40
0.2360485
50
45.30305
51
83.1920945
0
ARC
8
DEFAULT_255_1_388
10
19.601331
20
22.7918473
40
0.3275527
50
82.2612665
51
90.1434275
0
ARC
8
DEFAULT_255_1_388
10
19.5978586
20
22.8180869
40
0.3013237
50
89.4956434
51
104.8580688
0
ARC
8
DEFAULT_255_1_388
10
19.5779776
20
22.8934455
40
0.2233867
50
104.8856641
51
135.244616
0
ARC
8
DEFAULT_255_1_388
10
19.5835765
20
22.8884352
40
0.2308906
50
135.3399546
51
172.1044062
0
ARC
8
DEFAULT_255_1_388
10
19.6743289
20
22.8710667
40
0.3232034
50
171.2645637
51
180.186429
0
ARC
8
DEFAULT_255_1_388
10
19.6553294
20
22.8674426
40
0.304213
50
179.5154935
51
193.6464289
0
ARC
8
DEFAULT_255_1_388
10
19.563497
20
22.8440473
40
0.209456
50
193.3540274
51
225.8258581
0
ARC
8
DEFAULT_255_1_388
10
19.5680842
20
22.8520076
40
0.2183738
50
226.4180634
51
255.8552336
0
ARC
8
DEFAULT_255_1_388
10
19.5969309
20
22.9573521
40
0.3275812
50
255.4654104
51
268.7987425
0
ARC
8
DEFAULT_255_1_388
10
19.6022485
20
23.0515545
40
0.4218877
50
268.3449238
51
270.0094605
0
ARC
8
DEFAULT_255_1_388
10
19.6048718
20
22.9747094
40
0.3450519
50
269.5759586
51
282.0820163
0
ARC
8
DEFAULT_255_1_388
10
19.6301755
20
22.8628363
40
0.2303642
50
281.752014
51
306.6056188
0
ARC
8
DEFAULT_255_1_388
10
19.6412563
20
22.8446802
40
0.2091906
50
307.1346085
51
314.027845
0
ARC
8
DEFAULT_255_1_388
10
19.6372075
20
22.8476459
40
0.2141385
50
314.2552483
51
350.1694025
0
ARC
8
DEFAULT_255_1_388
10
19.5414312
20
22.8684175
40
0.312082
50
349.4140529
51
0.2933014
0
ARC
8
DEFAULT_255_1_388
10
19.5999589
20
23.4487924
40
0.2588377
50
89.477747
51
105.729729
0
ARC
8
DEFAULT_255_1_388
10
19.5846509
20
23.5056367
40
0.1999733
50
105.9233417
51
135.1660906
0
ARC
8
DEFAULT_255_1_388
10
19.586954
20
23.5040412
40
0.2027322
50
135.3052302
51
168.9883645
0
ARC
8
DEFAULT_255_1_388
10
19.6800556
20
23.4826996
40
0.2982129
50
168.3801673
51
180.3602268
0
ARC
8
DEFAULT_255_1_388
10
19.6543673
20
23.4784622
40
0.2725291
50
179.5033122
51
194.9125571
0
ARC
8
DEFAULT_255_1_388
10
19.588508
20
23.4611427
40
0.204431
50
194.9720816
51
224.194444
0
ARC
8
DEFAULT_255_1_388
10
19.5853445
20
23.4585635
40
0.2003651
50
224.2962453
51
262.015664
0
ARC
8
DEFAULT_255_1_388
10
19.6013449
20
23.5408315
40
0.2840925
50
261.1245923
51
270.1962896
0
ARC
8
DEFAULT_255_1_388
10
19.604693
20
23.5197859
40
0.2630559
50
269.4827276
51
285.0987215
0
ARC
8
DEFAULT_255_1_388
10
19.6220366
20
23.4547175
40
0.1957162
50
285.1585357
51
315.9484501
0
ARC
8
DEFAULT_255_1_388
10
19.612024
20
23.4639315
40
0.2093195
50
316.0413965
51
351.916092
0
ARC
8
DEFAULT_255_1_388
10
19.5295614
20
23.4798323
40
0.2932279
50
351.105835
51
0.1939062
0
ARC
8
DEFAULT_255_1_388
10
19.5591248
20
23.4832224
40
0.2636739
50
359.4789618
51
16.0678224
0
ARC
8
DEFAULT_255_1_388
10
19.612672
20
23.4976721
40
0.2082215
50
16.3252067
51
44.7913869
0
ARC
8
DEFAULT_255_1_388
10
19.6106782
20
23.497732
40
0.2095992
50
44.3957814
51
88.2499162
0
ARC
8
DEFAULT_255_1_388
10
19.6024117
20
23.4289006
40
0.2787189
50
86.9833854
51
90.0192215
0
LINE
8
DEFAULT_255_1_388
10
21.0561534
20
23.289269
11
21.0561534
21
23.0724135
0
LINE
8
DEFAULT_255_1_388
10
20.2257776
20
23.0498244
11
20.2257776
21
23.2730048
0
LINE
8
DEFAULT_255_1_388
10
20.8889939
20
23.0272353
11
20.8889939
21
23.3010153
0
LINE
8
DEFAULT_255_1_388
10
20.3929371
20
23.3136652
11
20.3929371
21
23.0462102
0
ARC
8
DEFAULT_255_1_388
10
19.6783868
20
23.0669118
40
1.3777776
50
353.8440855
51
0.2287917
0
ARC
8
DEFAULT_255_1_388
10
20.2002885
20
23.0086414
40
0.852639
50
344.4934746
51
353.9763743
0
ARC
8
DEFAULT_255_1_388
10
20.5369692
20
22.9129191
40
0.5026273
50
329.2803599
51
344.7473406
0
ARC
8
DEFAULT_255_1_388
10
20.6485188
20
22.8517038
40
0.3754848
50
324.9361395
51
328.6153007
0
ARC
8
DEFAULT_255_1_388
10
20.6910838
20
22.8219586
40
0.3235566
50
280.5801797
51
324.9173226
0
ARC
8
DEFAULT_255_1_388
10
20.6459466
20
23.0099236
40
0.5167077
50
269.5979457
51
281.6732777
0
ARC
8
DEFAULT_255_1_388
10
20.637837
20
22.9964113
40
0.5032026
50
256.6228565
51
270.5105488
0
ARC
8
DEFAULT_255_1_388
10
20.5926113
20
22.8222345
40
0.3233092
50
215.8618351
51
257.2787793
0
ARC
8
DEFAULT_255_1_388
10
20.707482
20
22.8993106
40
0.4615831
50
197.9695203
51
215.2622745
0
ARC
8
DEFAULT_255_1_388
10
20.9870495
20
22.9936641
40
0.7566307
50
187.8816486
51
198.2346584
0
ARC
8
DEFAULT_255_1_388
10
21.4323734
20
23.0579453
40
1.2065653
50
180.8977266
51
188.0054894
0
ARC
8
DEFAULT_255_1_388
10
21.7373947
20
23.06944
40
1.5117443
50
180.7434591
51
181.152202
0
ARC
8
DEFAULT_255_1_388
10
21.5698943
20
23.2784371
40
1.3441277
50
173.7674302
51
180.2315596
0
ARC
8
DEFAULT_255_1_388
10
21.0616812
20
23.3358779
40
0.8326847
50
164.3058537
51
173.9000553
0
ARC
8
DEFAULT_255_1_388
10
20.7340812
20
23.4302652
40
0.4917711
50
148.7922028
51
164.5682288
0
ARC
8
DEFAULT_255_1_388
10
20.627155
20
23.4899457
40
0.3694204
50
144.5883979
51
148.1161588
0
ARC
8
DEFAULT_255_1_388
10
20.5884295
20
23.5169667
40
0.322202
50
101.6440149
51
144.5142619
0
ARC
8
DEFAULT_255_1_388
10
20.6362487
20
23.3269337
40
0.5180451
50
89.528284
51
102.5820197
0
ARC
8
DEFAULT_255_1_388
10
20.6451479
20
23.3225376
40
0.5224441
50
77.0437914
51
90.508231
0
ARC
8
DEFAULT_255_1_388
10
20.6903733
20
23.5073272
40
0.3322297
50
48.2777708
51
77.4996087
0
ARC
8
DEFAULT_255_1_388
10
20.6985473
20
23.5218557
40
0.315966
50
36.3141586
51
47.6307332
0
ARC
8
DEFAULT_255_1_388
10
20.6008195
20
23.4560159
40
0.4337313
50
18.2931065
51
35.6770203
0
ARC
8
DEFAULT_255_1_388
10
20.3147036
20
23.3578107
40
0.7362203
50
8.0246996
51
18.5605636
0
ARC
8
DEFAULT_255_1_388
10
19.8463391
20
23.2886432
40
1.2096583
50
1.127539
51
8.1718423
0
ARC
8
DEFAULT_255_1_388
10
19.4814525
20
23.2743374
40
1.5747719
50
0.5432713
51
1.38669
0
ARC
8
DEFAULT_255_1_388
10
19.6871903
20
23.3050163
40
1.2018103
50
359.8092569
51
4.9408001
0
ARC
8
DEFAULT_255_1_388
10
20.1608485
20
23.34729
40
0.7262727
50
4.8364937
51
12.2906017
0
ARC
8
DEFAULT_255_1_388
10
20.4707949
20
23.4163485
40
0.4087324
50
12.0806994
51
23.8171225
0
ARC
8
DEFAULT_255_1_388
10
20.6028345
20
23.4722508
40
0.2653719
50
24.2874621
51
31.3934353
0
ARC
8
DEFAULT_255_1_388
10
20.6618781
20
23.5108822
40
0.1948607
50
30.7407708
51
82.4658033
0
ARC
8
DEFAULT_255_1_388
10
20.6416442
20
23.4115017
40
0.2961198
50
81.1057101
51
90.2187368
0
ARC
8
DEFAULT_255_1_388
10
20.6376254
20
23.4405421
40
0.2670929
50
89.380395
51
105.6763916
0
ARC
8
DEFAULT_255_1_388
10
20.6169976
20
23.515532
40
0.1893189
50
105.7980655
51
149.7387869
0
ARC
8
DEFAULT_255_1_388
10
20.7367116
20
23.4435719
40
0.3289892
50
149.4208441
51
163.628295
0
ARC
8
DEFAULT_255_1_388
10
20.9719346
20
23.3718345
40
0.5749004
50
163.3764549
51
172.141138
0
ARC
8
DEFAULT_255_1_388
10
21.3432067
20
23.3186582
40
0.9499585
50
172.0258462
51
178.0705453
0
ARC
8
DEFAULT_255_1_388
10
21.685362
20
23.3024682
40
1.2924734
50
177.8639301
51
179.5036263
0
ARC
8
DEFAULT_255_1_388
10
21.5634639
20
23.0421151
40
1.170534
50
179.7995545
51
185.246089
0
ARC
8
DEFAULT_255_1_388
10
21.1086232
20
22.9990404
40
0.7136613
50
185.1411911
51
193.0082205
0
ARC
8
DEFAULT_255_1_388
10
20.8112492
20
22.9287441
40
0.4080987
50
192.7897338
51
205.2507384
0
ARC
8
DEFAULT_255_1_388
10
20.6934702
20
22.8761538
40
0.2791522
50
205.8001921
51
211.2545876
0
ARC
8
DEFAULT_255_1_388
10
20.6346241
20
22.8367132
40
0.2084074
50
210.3789935
51
238.4007996
0
ARC
8
DEFAULT_255_1_388
10
20.6324327
20
22.8419786
40
0.2117943
50
239.6521916
51
265.9793852
0
ARC
8
DEFAULT_255_1_388
10
20.6420176
20
22.9176358
40
0.2879689
50
265.1324455
51
270.0603288
0
ARC
8
DEFAULT_255_1_388
10
20.6452553
20
22.8811418
40
0.2514919
50
269.3314378
51
287.2180039
0
ARC
8
DEFAULT_255_1_388
10
20.6607636
20
22.8245291
40
0.1928357
50
287.7957942
51
329.0808983
0
ARC
8
DEFAULT_255_1_388
10
20.5530393
20
22.8917651
40
0.319808
50
328.6635261
51
343.3325043
0
ARC
8
DEFAULT_255_1_388
10
20.3085851
20
22.9679195
40
0.5758408
50
343.0498092
51
351.9392499
0
ARC
8
DEFAULT_255_1_388
10
19.9185173
20
23.0254205
40
0.9701202
50
351.8071632
51
357.7957897
0
ARC
8
DEFAULT_255_1_388
10
19.555065
20
23.0442724
40
1.3340376
50
357.5870923
51
359.2682493
0
LINE
8
DEFAULT_255_2_778
10
11.0359959
20
25.4981531
11
10.9838959
21
25.8354531
0
LINE
8
DEFAULT_255_2_778
10
10.9838959
20
25.8354531
11
10.4068959
21
25.8354531
0
LINE
8
DEFAULT_255_2_778
10
10.4068959
20
25.8354531
11
10.2364959
21
25.4981531
0
LINE
8
DEFAULT_255_2_778
10
10.2364959
20
25.4981531
11
9.8694959
21
25.4981531
0
LINE
8
DEFAULT_255_2_778
10
9.8694959
20
25.4981531
11
10.7531959
21
27.1356531
0
LINE
8
DEFAULT_255_2_778
10
10.7531959
20
27.1356531
11
11.0608959
21
27.1356531
0
LINE
8
DEFAULT_255_2_778
10
11.0608959
20
27.1356531
11
11.3754959
21
25.4981531
0
LINE
8
DEFAULT_255_2_778
10
11.3754959
20
25.4981531
11
11.0357959
21
25.4981531
0
LINE
8
DEFAULT_255_2_778
10
11.0357959
20
25.4981531
11
11.0359959
21
25.4981531
0
LINE
8
DEFAULT_255_2_778
10
10.8486959
20
26.7184531
11
10.5430959
21
26.1088531
0
LINE
8
DEFAULT_255_2_778
10
10.5430959
20
26.1088531
11
10.9418959
21
26.1088531
0
LINE
8
DEFAULT_255_2_778
10
10.9418959
20
26.1088531
11
10.8486959
21
26.7184531
0
LINE
8
DEFAULT_255_2_778
10
10.8486959
20
26.7184531
11
10.8486959
21
26.7184531
0
LINE
8
DEFAULT_255_2_778
10
12.1615594
20
27.2256646
11
11.8593594
21
25.4979646
0
LINE
8
DEFAULT_255_2_778
10
11.8593594
20
25.4979646
11
11.5368594
21
25.4979646
0
LINE
8
DEFAULT_255_2_778
10
11.5368594
20
25.4979646
11
11.8400594
21
27.2256646
0
LINE
8
DEFAULT_255_2_778
10
11.8400594
20
27.2256646
11
12.1615594
21
27.2256646
0
LINE
8
DEFAULT_255_2_778
10
12.1615594
20
27.2256646
11
12.1615594
21
27.2256646
0
LINE
8
DEFAULT_255_2_778
10
12.7717594
20
27.2256646
11
12.4695594
21
25.4979646
0
LINE
8
DEFAULT_255_2_778
10
12.4695594
20
25.4979646
11
12.1470594
21
25.4979646
0
LINE
8
DEFAULT_255_2_778
10
12.1470594
20
25.4979646
11
12.4502594
21
27.2256646
0
LINE
8
DEFAULT_255_2_778
10
12.4502594
20
27.2256646
11
12.7717594
21
27.2256646
0
LINE
8
DEFAULT_255_2_778
10
12.7717594
20
27.2256646
11
12.7717594
21
27.2256646
0
ARC
8
DEFAULT_255_2_778
10
13.3179403
20
26.0132551
40
0.5378315
50
238.7482666
51
270.7109536
0
ARC
8
DEFAULT_255_2_778
10
13.2871171
20
25.9589616
40
0.4754286
50
204.0953248
51
238.5293175
0
ARC
8
DEFAULT_255_2_778
10
13.369978
20
25.9979489
40
0.5669891
50
179.4893674
51
204.2733579
0
ARC
8
DEFAULT_255_2_778
10
13.494221
20
26.0024975
40
0.6912099
50
175.122749
51
179.9581802
0
ARC
8
DEFAULT_255_2_778
10
13.585056
20
26.0375152
40
0.7790728
50
149.5392097
51
174.9446897
0
ARC
8
DEFAULT_255_2_778
10
13.4591921
20
26.1210212
40
0.628301
50
120.7003982
51
150.2846053
0
ARC
8
DEFAULT_255_2_778
10
13.4196932
20
26.1807024
40
0.556829
50
89.4236852
51
120.3409826
0
ARC
8
DEFAULT_255_2_778
10
13.4252434
20
26.0819671
40
0.6555361
50
88.4553682
51
89.9955718
0
ARC
8
DEFAULT_255_2_778
10
13.4483922
20
26.2676667
40
0.4696303
50
58.00918
51
90.668398
0
ARC
8
DEFAULT_255_2_778
10
13.4737568
20
26.3287652
40
0.4045188
50
35.6383534
51
56.4712999
0
ARC
8
DEFAULT_255_2_778
10
13.3641964
20
26.2557058
40
0.5361477
50
0.6851965
51
35.1616077
0
ARC
8
DEFAULT_255_2_778
10
13.1616394
20
26.2353229
40
0.7391521
50
359.9888194
51
2.0774415
0
ARC
8
DEFAULT_255_2_778
10
13.0480107
20
26.2370249
40
0.852783
50
353.383538
51
359.8759623
0
ARC
8
DEFAULT_255_2_778
10
13.5342292
20
25.9846119
40
0.4107176
50
177.8018731
51
179.9839782
0
ARC
8
DEFAULT_255_2_778
10
13.3756299
20
25.973124
40
0.2523852
50
177.3650374
51
219.8309448
0
ARC
8
DEFAULT_255_2_778
10
13.3461625
20
25.9597258
40
0.2213408
50
222.0539722
51
271.540726
0
ARC
8
DEFAULT_255_2_778
10
13.3631084
20
26.1646328
40
0.4263095
50
268.5221589
51
269.9980703
0
ARC
8
DEFAULT_255_2_778
10
13.3614702
20
26.1353275
40
0.3970076
50
270.2343536
51
318.5005279
0
ARC
8
DEFAULT_255_2_778
10
13.4310137
20
25.9517979
40
0.4555006
50
292.4982989
51
325.2807674
0
ARC
8
DEFAULT_255_2_778
10
13.3411048
20
26.1308078
40
0.6554523
50
269.6237067
51
293.7717535
0
ARC
8
DEFAULT_255_2_778
10
13.3368029
20
26.2162465
40
0.740877
50
269.0805119
51
269.999781
0
ARC
8
DEFAULT_255_2_778
10
13.420533
20
26.2101924
40
0.2651471
50
88.6426469
51
89.9972013
0
ARC
8
DEFAULT_255_2_778
10
13.4187474
20
26.2451021
40
0.2302444
50
89.5524386
51
130.4678957
0
ARC
8
DEFAULT_255_2_778
10
13.517348
20
26.1453327
40
0.370282
50
132.0556576
51
154.4346079
0
ARC
8
DEFAULT_255_2_778
10
13.918637
20
25.9277869
40
0.8264843
50
152.8348001
51
159.2008974
0
ARC
8
DEFAULT_255_2_778
10
13.2837231
20
26.2987268
40
0.3137404
50
351.1327381
51
359.8552777
0
ARC
8
DEFAULT_255_2_778
10
13.3301825
20
26.2983274
40
0.2672803
50
359.9157472
51
8.073482
0
ARC
8
DEFAULT_255_2_778
10
13.4328807
20
26.3136276
40
0.1634528
50
7.8192239
51
49.4174523
0
ARC
8
DEFAULT_255_2_778
10
13.4309417
20
26.3004377
40
0.174876
50
51.746929
51
91.3525911
0
LINE
8
DEFAULT_255_2_778
10
12.8055138
20
26.061265
11
12.8090138
21
26.106165
0
LINE
8
DEFAULT_255_2_778
10
13.8951138
20
26.138765
11
13.8768138
21
26.000365
0
LINE
8
DEFAULT_255_2_778
10
13.8768138
20
26.000365
11
13.1238138
21
26.000365
0
LINE
8
DEFAULT_255_2_778
10
13.6588138
20
25.872265
11
13.8054138
21
25.692365
0
LINE
8
DEFAULT_255_2_778
10
13.3249138
20
25.475465
11
13.3246138
21
25.475465
0
LINE
8
DEFAULT_255_2_778
10
13.1460138
20
26.221265
11
13.5868138
21
26.221265
0
LINE
8
DEFAULT_255_2_778
10
13.5868138
20
26.221265
11
13.5937138
21
26.250365
0
LINE
8
DEFAULT_255_2_778
10
13.4268138
20
26.475265
11
13.4268138
21
26.475265
0
ARC
8
DEFAULT_255_2_778
10
14.7973588
20
26.2938783
40
0.4439397
50
89.8554796
51
141.1589213
0
ARC
8
DEFAULT_255_2_778
10
14.7984572
20
26.232943
40
0.5048737
50
88.7717605
51
89.9975792
0
ARC
8
DEFAULT_255_2_778
10
14.8178417
20
26.4218406
40
0.315976
50
50.4893295
51
91.5528058
0
ARC
8
DEFAULT_255_2_778
10
14.8339359
20
26.4562178
40
0.2793745
50
33.8414583
51
48.5499238
0
ARC
8
DEFAULT_255_2_778
10
14.731985
20
26.3973286
40
0.3969262
50
4.3932888
51
32.7062485
0
ARC
8
DEFAULT_255_2_778
10
14.4819065
20
26.3619301
40
0.6491822
50
359.8769204
51
5.8177478
0
ARC
8
DEFAULT_255_2_778
10
14.2701804
20
26.3628881
40
0.8609097
50
353.9399056
51
359.8434284
0
ARC
8
DEFAULT_255_2_778
10
14.4164047
20
26.3285967
40
0.3954956
50
352.2407688
51
359.7520116
0
ARC
8
DEFAULT_255_2_778
10
14.5201997
20
26.3274041
40
0.2916973
50
359.8980094
51
5.448398
0
ARC
8
DEFAULT_255_2_778
10
14.6814536
20
26.3445865
40
0.129553
50
4.6550554
51
97.2610773
0
ARC
8
DEFAULT_255_2_778
10
14.655996
20
26.2188531
40
0.2544097
50
87.9539208
51
89.9945997
0
ARC
8
DEFAULT_255_2_778
10
14.6629447
20
26.2032668
40
0.2700847
50
91.4691634
51
141.078713
0
ARC
8
DEFAULT_255_2_778
10
14.7966376
20
26.0614301
40
0.4639576
50
137.8219849
51
140.394746
0
ARC
8
DEFAULT_255_2_778
10
16.9661161
20
26.108211
40
1.026426
50
77.5141066
51
90.4821212
0
ARC
8
DEFAULT_255_2_778
10
17.0845798
20
26.6174611
40
0.5036389
50
52.814306
51
78.1469212
0
ARC
8
DEFAULT_255_2_778
10
17.1732245
20
26.7457438
40
0.3479303
50
357.5432245
51
51.6759047
0
ARC
8
DEFAULT_255_2_778
10
16.9814613
20
26.7311938
40
0.5393738
50
356.248244
51
359.9613012
0
ARC
8
DEFAULT_255_2_778
10
17.128092
20
26.7185882
40
0.3922439
50
295.0867564
51
356.6841236
0
ARC
8
DEFAULT_255_2_778
10
16.9599154
20
26.9813279
40
0.7026958
50
292.6018649
51
298.4245718
0
ARC
8
DEFAULT_255_2_778
10
17.1412835
20
26.068675
40
0.2784307
50
29.5992916
51
71.4243751
0
ARC
8
DEFAULT_255_2_778
10
17.0686219
20
26.0264727
40
0.3624559
50
358.8250622
51
29.7265593
0
ARC
8
DEFAULT_255_2_778
10
16.932071
20
26.0193262
40
0.4989307
50
356.3312443
51
359.9671937
0
ARC
8
DEFAULT_255_2_778
10
16.9581925
20
26.0005387
40
0.4719696
50
307.6792206
51
358.4048608
0
ARC
8
DEFAULT_255_2_778
10
16.8807048
20
26.1213643
40
0.6150877
50
279.1080464
51
306.5123219
0
ARC
8
DEFAULT_255_2_778
10
16.7961448
20
26.5434116
40
1.0453321
50
269.63465
51
280.0226117
0
ARC
8
DEFAULT_255_2_778
10
16.8094212
20
26.1085308
40
0.3407431
50
267.9747348
51
304.6141501
0
ARC
8
DEFAULT_255_2_778
10
16.8661516
20
26.0223067
40
0.2375665
50
305.166569
51
352.3059676
0
ARC
8
DEFAULT_255_2_778
10
16.775822
20
26.0433166
40
0.3300111
50
350.7906063
51
359.6837465
0
ARC
8
DEFAULT_255_2_778
10
16.9356152
20
26.0489465
40
0.170376
50
357.4933304
51
35.754963
0
ARC
8
DEFAULT_255_2_778
10
16.9423472
20
26.0346963
40
0.1739313
50
40.8670445
51
88.9145542
0
ARC
8
DEFAULT_255_2_778
10
16.9113357
20
25.8494792
40
0.360752
50
84.5431107
51
87.5464559
0
ARC
8
DEFAULT_255_2_778
10
16.8864523
20
26.8215688
40
0.3741259
50
268.9933192
51
299.9063201
0
ARC
8
DEFAULT_255_2_778
10
16.9296435
20
26.7287438
40
0.2722705
50
301.7671328
51
305.0688299
0
ARC
8
DEFAULT_255_2_778
10
16.9572403
20
26.6926463
40
0.2268776
50
304.6024496
51
352.3134516
0
ARC
8
DEFAULT_255_2_778
10
16.9035208
20
26.7033322
40
0.2815642
50
351.6205962
51
359.745937
0
ARC
8
DEFAULT_255_2_778
10
17.0391775
20
26.7094083
40
0.1460884
50
357.1260689
51
87.9509322
0
ARC
8
DEFAULT_255_2_778
10
16.9733166
20
26.4300677
40
0.4312349
50
80.5121161
51
90.1776895
0
ARC
8
DEFAULT_255_2_778
10
18.304359
20
25.7582308
40
0.6634375
50
79.3314563
51
88.7113465
0
ARC
8
DEFAULT_255_2_778
10
18.3079683
20
25.9916839
40
0.4299655
50
88.4925657
51
89.9946723
0
ARC
8
DEFAULT_255_2_778
10
18.2982438
20
26.1117608
40
0.3100425
50
88.1952228
51
143.885382
0
ARC
8
DEFAULT_255_2_778
10
18.4077805
20
26.3567129
40
0.3980768
50
117.0828142
51
147.9763761
0
ARC
8
DEFAULT_255_2_778
10
18.3544747
20
26.4400295
40
0.2997784
50
89.5977622
51
115.2613452
0
ARC
8
DEFAULT_255_2_778
10
18.3464621
20
26.2678482
40
0.4720608
50
75.0830674
51
88.7719532
0
ARC
8
DEFAULT_255_2_778
10
19.3883565
20
25.5850588
40
0.303463
50
178.9513385
51
196.6911244
0
ARC
8
DEFAULT_255_2_778
10
19.5567182
20
25.5904238
40
0.4717738
50
177.8405456
51
179.9770623
0
ARC
8
DEFAULT_255_2_778
10
18.7787325
20
25.8950947
40
0.4198561
50
270.5473861
51
316.8967404
0
ARC
8
DEFAULT_255_2_778
10
18.7827705
20
25.9054581
40
0.4302003
50
268.5226571
51
269.9964175
0
ARC
8
DEFAULT_255_2_778
10
18.7647216
20
25.8535252
40
0.3781887
50
226.455184
51
271.0541416
0
ARC
8
DEFAULT_255_2_778
10
18.7161161
20
25.8081869
40
0.311866
50
179.0506747
51
227.1894377
0
ARC
8
DEFAULT_255_2_778
10
18.7977006
20
25.8132683
40
0.3934079
50
177.4603384
51
179.9875271
0
ARC
8
DEFAULT_255_2_778
10
18.7677222
20
25.8292892
40
0.3630457
50
122.3464314
51
179.7772632
0
ARC
8
DEFAULT_255_2_778
10
18.9127921
20
25.6021577
40
0.6325515
50
98.6956815
51
122.4402135
0
ARC
8
DEFAULT_255_2_778
10
18.9977072
20
25.1471789
40
1.0952432
50
89.6404969
51
99.4883828
0
ARC
8
DEFAULT_255_2_778
10
18.91142
20
26.362456
40
0.2635833
50
349.2520325
51
359.7979352
0
ARC
8
DEFAULT_255_2_778
10
18.9485896
20
26.3616836
40
0.2264121
50
359.9602232
51
5.7075699
0
ARC
8
DEFAULT_255_2_778
10
19.0517084
20
26.3758244
40
0.1224577
50
3.9221136
51
47.9806675
0
ARC
8
DEFAULT_255_2_778
10
19.0461009
20
26.3584028
40
0.1393558
50
51.0640414
51
91.6537281
0
ARC
8
DEFAULT_255_2_778
10
19.0343864
20
26.2242856
40
0.2735232
50
88.3883484
51
89.9950272
0
ARC
8
DEFAULT_255_2_778
10
19.0289472
20
26.3021996
40
0.1956856
50
88.4002709
51
125.6558116
0
ARC
8
DEFAULT_255_2_778
10
19.0229477
20
26.3204867
40
0.1774238
50
127.5242925
51
170.6536699
0
ARC
8
DEFAULT_255_2_778
10
18.8789596
20
26.3342573
40
0.3527561
50
122.7014157
51
177.7346919
0
ARC
8
DEFAULT_255_2_778
10
19.030198
20
26.1292043
40
0.6072396
50
91.7146868
51
124.2570002
0
ARC
8
DEFAULT_255_2_778
10
19.05893
20
25.8723064
40
0.865138
50
89.9735854
51
93.1077226
0
ARC
8
DEFAULT_255_2_778
10
19.0592938
20
25.815756
40
0.9216883
50
89.4414218
51
89.9978259
0
ARC
8
DEFAULT_255_2_778
10
19.0704714
20
26.2172068
40
0.5201984
50
63.6868659
51
90.2414521
0
ARC
8
DEFAULT_255_2_778
10
19.1244671
20
26.3451249
40
0.3816898
50
44.805062
51
62.4405121
0
ARC
8
DEFAULT_255_2_778
10
19.1511934
20
26.3693957
40
0.3456276
50
358.4368244
51
45.0725574
0
ARC
8
DEFAULT_255_2_778
10
18.9988451
20
26.3607092
40
0.4978477
50
354.0151208
51
359.9146153
0
ARC
8
DEFAULT_255_2_778
10
19.916384
20
25.6384006
40
0.5223437
50
178.2666392
51
179.9853875
0
ARC
8
DEFAULT_255_2_778
10
19.7189724
20
25.6305635
40
0.3250299
50
178.5948625
51
200.018038
0
ARC
8
DEFAULT_255_2_778
10
18.8607749
20
26.0194835
40
0.2979407
50
268.1351457
51
269.9967975
0
ARC
8
DEFAULT_255_2_778
10
18.8555143
20
26.0169809
40
0.2954847
50
271.0168715
51
323.4470831
0
ARC
8
DEFAULT_255_2_778
10
19.0185177
20
25.6574003
40
0.3950093
50
89.6139406
51
115.9632081
0
ARC
8
DEFAULT_255_2_778
10
18.9568146
20
25.7985476
40
0.2411766
50
117.4642621
51
142.4598629
0
ARC
8
DEFAULT_255_2_778
10
18.9147894
20
25.8354762
40
0.1853888
50
143.595728
51
174.110017
0
ARC
8
DEFAULT_255_2_778
10
18.8922711
20
25.8299244
40
0.1637466
50
171.368069
51
179.7835889
0
ARC
8
DEFAULT_255_2_778
10
18.8267207
20
25.8268088
40
0.098266
50
177.8221965
51
224.0379617
0
ARC
8
DEFAULT_255_2_778
10
18.8464576
20
25.8518517
40
0.1299333
50
225.9269812
51
272.0384171
0
ARC
8
DEFAULT_255_2_778
10
20.216987
20
26.3869976
40
0.3515032
50
37.8132465
51
89.9360651
0
ARC
8
DEFAULT_255_2_778
10
20.0346749
20
25.8967418
40
0.4267183
50
285.291584
51
321.0175046
0
ARC
8
DEFAULT_255_2_778
10
20.0570669
20
25.8505225
40
0.3763475
50
269.8450062
51
283.8588709
0
ARC
8
DEFAULT_255_2_778
10
20.0560587
20
25.8832286
40
0.4090522
50
268.5880369
51
269.9986183
0
ARC
8
DEFAULT_255_2_778
10
20.0420305
20
25.8300487
40
0.3557701
50
236.3475668
51
270.6359501
0
ARC
8
DEFAULT_255_2_778
10
20.0598141
20
25.8415321
40
0.3752788
50
201.8435891
51
235.058908
0
ARC
8
DEFAULT_255_2_778
10
20.3322211
20
25.9605871
40
0.6724873
50
181.1917384
51
202.6233367
0
ARC
8
DEFAULT_255_2_778
10
20.6351677
20
25.9936339
40
0.9764219
50
180.0156472
51
182.7609519
0
ARC
8
DEFAULT_255_2_778
10
20.5470549
20
25.9942658
40
0.8883095
50
174.2087211
51
180.0579587
0
ARC
8
DEFAULT_255_2_778
10
20.6346038
20
26.0071468
40
0.9727968
50
152.6606942
51
172.4775279
0
ARC
8
DEFAULT_255_2_778
10
20.4685375
20
26.0816269
40
0.7911386
50
151.1967159
51
151.9287309
0
ARC
8
DEFAULT_255_2_778
10
20.2724416
20
26.2056657
40
0.559722
50
125.8155177
51
152.6517649
0
ARC
8
DEFAULT_255_2_778
10
20.1926864
20
26.3001789
40
0.4365104
50
121.2895022
51
124.5859333
0
ARC
8
DEFAULT_255_2_778
10
20.2005174
20
26.2858255
40
0.4528439
50
89.3885498
51
121.1930117
0
ARC
8
DEFAULT_255_2_778
10
20.205315
20
26.2040492
40
0.5345942
50
88.6747242
51
89.9962477
0
ARC
8
DEFAULT_255_2_778
10
21.0229427
20
25.9666181
40
1.044966
50
173.5557888
51
179.5636493
0
ARC
8
DEFAULT_255_2_778
10
20.5582157
20
25.973589
40
0.5802095
50
179.9025124
51
183.3187157
0
ARC
8
DEFAULT_255_2_778
10
20.270534
20
25.944649
40
0.2915917
50
180.9134286
51
207.6247443
0
ARC
8
DEFAULT_255_2_778
10
20.135005
20
25.8802881
40
0.1417894
50
209.9763709
51
272.172214
0
ARC
8
DEFAULT_255_2_778
10
20.1512082
20
26.0040383
40
0.2656585
50
267.6638236
51
269.9934853
0
ARC
8
DEFAULT_255_2_778
10
20.1452669
20
26.0078962
40
0.2695812
50
271.2564257
51
323.4819236
0
ARC
8
DEFAULT_255_2_778
10
20.0042443
20
26.1467425
40
0.4663623
50
320.0808185
51
322.7722781
0
ARC
8
DEFAULT_255_2_778
10
20.2905955
20
26.2930938
40
0.1811681
50
17.7085133
51
91.4917236
0
ARC
8
DEFAULT_255_2_778
10
20.2776466
20
26.1923302
40
0.2819906
50
88.3270304
51
89.9962875
0
ARC
8
DEFAULT_255_2_778
10
20.2751839
20
26.2404886
40
0.2338453
50
89.3920923
51
141.8934507
0
ARC
8
DEFAULT_255_2_778
10
20.4150372
20
26.1308724
40
0.411538
50
141.9009784
51
164.0634131
0
ARC
8
DEFAULT_255_2_778
10
20.9401614
20
25.9631385
40
0.9626867
50
163.0454941
51
172.7936709
0
LINE
8
DEFAULT_255_2_778
10
14.1790793
20
26.7152006
11
14.4788793
21
26.7163006
0
LINE
8
DEFAULT_255_2_778
10
14.4788793
20
26.7163006
11
14.4515793
21
26.5723006
0
LINE
8
DEFAULT_255_2_778
10
15.1262793
20
26.2720006
11
14.9968793
21
25.4981006
0
LINE
8
DEFAULT_255_2_778
10
14.9968793
20
25.4981006
11
14.6764793
21
25.4981006
0
LINE
8
DEFAULT_255_2_778
10
14.6764793
20
25.4981006
11
14.8082793
21
26.2752006
0
LINE
8
DEFAULT_255_2_778
10
14.4391793
20
26.3572006
11
14.2856793
21
25.4979006
0
LINE
8
DEFAULT_255_2_778
10
14.2856793
20
25.4979006
11
13.9652793
21
25.4979006
0
LINE
8
DEFAULT_255_2_778
10
13.9652793
20
25.4979006
11
14.1787793
21
26.7150006
0
LINE
8
DEFAULT_255_2_778
10
14.1787793
20
26.7150006
11
14.1790793
21
26.7152006
0
LINE
8
DEFAULT_255_2_778
10
16.0157793
20
26.3303006
11
15.9692793
21
26.0683006
0
LINE
8
DEFAULT_255_2_778
10
15.9692793
20
26.0683006
11
15.3466793
21
26.0683006
0
LINE
8
DEFAULT_255_2_778
10
15.3466793
20
26.0683006
11
15.3921793
21
26.3303006
0
LINE
8
DEFAULT_255_2_778
10
15.3921793
20
26.3303006
11
16.0157793
21
26.3303006
0
LINE
8
DEFAULT_255_2_778
10
16.0157793
20
26.3303006
11
16.0157793
21
26.3303006
0
LINE
8
DEFAULT_255_2_778
10
16.7894793
20
25.4981006
11
16.1544793
21
25.4981006
0
LINE
8
DEFAULT_255_2_778
10
16.1544793
20
25.4981006
11
16.4417793
21
27.1356006
0
LINE
8
DEFAULT_255_2_778
10
16.4417793
20
27.1356006
11
16.9574793
21
27.1346006
0
LINE
8
DEFAULT_255_2_778
10
16.7894793
20
25.4981006
11
16.7894793
21
25.4981006
0
LINE
8
DEFAULT_255_2_778
10
16.9267793
20
26.2101006
11
16.6131793
21
26.2112006
0
LINE
8
DEFAULT_255_2_778
10
16.6131793
20
26.2112006
11
16.5348793
21
25.7691006
0
LINE
8
DEFAULT_255_2_778
10
16.5348793
20
25.7691006
11
16.7973793
21
25.7680006
0
LINE
8
DEFAULT_255_2_778
10
16.9267793
20
26.2099006
11
16.9267793
21
26.2101006
0
LINE
8
DEFAULT_255_2_778
10
16.7267793
20
26.8626006
11
16.6539793
21
26.4498006
0
LINE
8
DEFAULT_255_2_778
10
16.6539793
20
26.4498006
11
16.8798793
21
26.4475006
0
LINE
8
DEFAULT_255_2_778
10
16.9719793
20
26.8613006
11
16.7267793
21
26.8623006
0
LINE
8
DEFAULT_255_2_778
10
16.7267793
20
26.8623006
11
16.7267793
21
26.8626006
0
LINE
8
DEFAULT_255_2_778
10
18.4681793
20
26.7240006
11
18.4271793
21
26.4102006
0
LINE
8
DEFAULT_255_2_778
10
18.0477793
20
26.2945006
11
17.9056793
21
25.4981006
0
LINE
8
DEFAULT_255_2_778
10
17.9056793
20
25.4981006
11
17.5852793
21
25.4981006
0
LINE
8
DEFAULT_255_2_778
10
17.5852793
20
25.4981006
11
17.7987793
21
26.7152006
0
LINE
8
DEFAULT_255_2_778
10
17.7987793
20
26.7152006
11
18.0998793
21
26.7163006
0
LINE
8
DEFAULT_255_2_778
10
18.0998793
20
26.7163006
11
18.0702793
21
26.5678006
0
LINE
8
DEFAULT_255_2_778
10
18.4679793
20
26.7240006
11
18.4681793
21
26.7240006
0
LINE
8
DEFAULT_255_2_778
10
19.4122793
20
25.4979006
11
19.0976793
21
25.4979006
0
LINE
8
DEFAULT_255_2_778
10
19.0045793
20
26.2424006
11
19.1545793
21
26.2403006
0
LINE
8
DEFAULT_255_2_778
10
19.1545793
20
26.2403006
11
19.1703793
21
26.3133006
0
LINE
8
DEFAULT_255_2_778
10
18.8478793
20
26.3493006
11
18.5264793
21
26.3482006
0
LINE
8
DEFAULT_255_2_778
10
19.4939793
20
26.3088006
11
19.3997793
21
25.7262006
0
LINE
8
DEFAULT_255_2_778
10
19.3997793
20
25.7262006
11
19.3942793
21
25.6542006
0
LINE
8
DEFAULT_255_2_778
10
19.4135793
20
25.5193006
11
19.4124793
21
25.4979006
0
LINE
8
DEFAULT_255_2_778
10
19.4124793
20
25.4979006
11
19.4122793
21
25.4979006
0
LINE
8
DEFAULT_255_2_778
10
19.0928793
20
25.8410006
11
19.1325793
21
26.0514006
0
LINE
8
DEFAULT_255_2_778
10
19.1325793
20
26.0514006
11
19.0211793
21
26.0524006
0
LINE
8
DEFAULT_255_2_778
10
18.8510793
20
25.7220006
11
18.8510793
21
25.7217006
0
LINE
8
DEFAULT_255_2_778
10
20.4946793
20
26.6025006
11
20.6150793
21
27.2256006
0
LINE
8
DEFAULT_255_2_778
10
20.6150793
20
27.2256006
11
20.9364793
21
27.2256006
0
LINE
8
DEFAULT_255_2_778
10
20.9364793
20
27.2256006
11
20.6343793
21
25.4979006
0
LINE
8
DEFAULT_255_2_778
10
20.6343793
20
25.4979006
11
20.3480793
21
25.4979006
0
LINE
8
DEFAULT_255_2_778
10
20.3480793
20
25.4979006
11
20.3663793
21
25.6283006
0
LINE
8
DEFAULT_255_2_778
10
19.6632793
20
26.0839006
11
19.6701793
21
26.1345006
0
LINE
8
DEFAULT_255_2_778
10
20.2176793
20
26.7385006
11
20.2173793
21
26.7385006
0
LINE
8
DEFAULT_255_2_778
10
20.3755793
20
25.8646006
11
20.4631793
21
26.3482006
0
LINE
8
DEFAULT_255_2_778
10
19.9850793
20
26.0839006
11
19.9845793
21
26.0839006
0
LINE
8
DEFAULT_255_2_778
10
21.5304594
20
27.2256646
11
21.2282594
21
25.4979646
0
LINE
8
DEFAULT_255_2_778
10
21.2282594
20
25.4979646
11
20.9057594
21
25.4979646
0
LINE
8
DEFAULT_255_2_778
10
20.9057594
20
25.4979646
11
21.2089594
21
27.2256646
0
LINE
8
DEFAULT_255_2_778
10
21.2089594
20
27.2256646
11
21.5304594
21
27.2256646
0
LINE
8
DEFAULT_255_2_778
10
21.5304594
20
27.2256646
11
21.5304594
21
27.2256646
0
ARC
8
DEFAULT_255_2_778
10
22.0768767
20
26.0137764
40
0.5383522
50
238.763891
51
270.7055166
0
ARC
8
DEFAULT_255_2_778
10
22.0455625
20
25.958452
40
0.4748131
50
204.061185
51
238.5328679
0
ARC
8
DEFAULT_255_2_778
10
22.1281681
20
25.9980331
40
0.5663841
50
179.4896096
51
204.3103027
0
ARC
8
DEFAULT_255_2_778
10
22.2521843
20
26.0025727
40
0.6903781
50
175.123126
51
179.9580366
0
ARC
8
DEFAULT_255_2_778
10
22.3438479
20
26.0375152
40
0.7790728
50
149.5392097
51
174.9446897
0
ARC
8
DEFAULT_255_2_778
10
22.217984
20
26.1210212
40
0.628301
50
120.7003982
51
150.2846053
0
ARC
8
DEFAULT_255_2_778
10
22.1784851
20
26.1807024
40
0.556829
50
89.4236852
51
120.3409826
0
ARC
8
DEFAULT_255_2_778
10
22.1840352
20
26.0819671
40
0.6555361
50
88.4553682
51
89.9955718
0
ARC
8
DEFAULT_255_2_778
10
22.2069363
20
26.2661369
40
0.4711572
50
58.4514404
51
90.636095
0
ARC
8
DEFAULT_255_2_778
10
22.2332403
20
26.3295423
40
0.403504
50
35.6058989
51
56.9235594
0
ARC
8
DEFAULT_255_2_778
10
22.1229882
20
26.2557058
40
0.5361477
50
0.6851965
51
35.1616077
0
ARC
8
DEFAULT_255_2_778
10
21.9204313
20
26.2353229
40
0.7391521
50
359.9888194
51
2.0774415
0
ARC
8
DEFAULT_255_2_778
10
21.8068025
20
26.2370249
40
0.852783
50
353.383538
51
359.8759623
0
ARC
8
DEFAULT_255_2_778
10
22.293021
20
25.9846119
40
0.4107176
50
177.8018731
51
179.9839782
0
ARC
8
DEFAULT_255_2_778
10
22.1344217
20
25.973124
40
0.2523852
50
177.3650374
51
219.8309448
0
ARC
8
DEFAULT_255_2_778
10
22.1050068
20
25.9598401
40
0.2214564
50
222.0668323
51
271.55222
0
ARC
8
DEFAULT_255_2_778
10
22.1220002
20
26.1646289
40
0.4263057
50
268.5221572
51
269.9980687
0
ARC
8
DEFAULT_255_2_778
10
22.1204001
20
26.1350217
40
0.3967017
50
270.2290309
51
318.5203973
0
ARC
8
DEFAULT_255_2_778
10
22.1898056
20
25.9517979
40
0.4555006
50
292.4982989
51
325.2807674
0
ARC
8
DEFAULT_255_2_778
10
22.0999907
20
26.1303545
40
0.6549996
50
269.6158853
51
293.7802026
0
ARC
8
DEFAULT_255_2_778
10
22.0956026
20
26.217233
40
0.7418635
50
269.0811303
51
269.9997673
0
ARC
8
DEFAULT_255_2_778
10
22.1793249
20
26.2101977
40
0.2651417
50
88.6426435
51
89.9971979
0
ARC
8
DEFAULT_255_2_778
10
22.1775009
20
26.2454788
40
0.2298681
50
89.5421073
51
130.5025885
0
ARC
8
DEFAULT_255_2_778
10
22.2762398
20
26.1453327
40
0.370282
50
132.0556576
51
154.4346079
0
ARC
8
DEFAULT_255_2_778
10
22.6775288
20
25.9277869
40
0.8264843
50
152.8348001
51
159.2008974
0
ARC
8
DEFAULT_255_2_778
10
22.042515
20
26.2987268
40
0.3137404
50
351.1327381
51
359.8552777
0
ARC
8
DEFAULT_255_2_778
10
22.0889744
20
26.2983274
40
0.2672803
50
359.9157472
51
8.073482
0
ARC
8
DEFAULT_255_2_778
10
22.1916726
20
26.3136276
40
0.1634528
50
7.8192239
51
49.4174523
0
ARC
8
DEFAULT_255_2_778
10
22.1897336
20
26.3004377
40
0.174876
50
51.746929
51
91.3525911
0
LINE
8
DEFAULT_255_2_778
10
21.5643056
20
26.061265
11
21.5678056
21
26.106165
0
LINE
8
DEFAULT_255_2_778
10
22.6539056
20
26.138765
11
22.6356056
21
26.000365
0
LINE
8
DEFAULT_255_2_778
10
22.6356056
20
26.000365
11
21.8826056
21
26.000365
0
LINE
8
DEFAULT_255_2_778
10
22.4176056
20
25.872265
11
22.5642056
21
25.692365
0
LINE
8
DEFAULT_255_2_778
10
22.0837056
20
25.475465
11
22.0835056
21
25.475465
0
LINE
8
DEFAULT_255_2_778
10
21.9049056
20
26.221265
11
22.3456056
21
26.221265
0
LINE
8
DEFAULT_255_2_778
10
22.3456056
20
26.221265
11
22.3525056
21
26.250365
0
LINE
8
DEFAULT_255_2_778
10
22.1856056
20
26.475265
11
22.1856056
21
26.475265
0
ARC
8
DEFAULT_255_2_778
10
22.5732251
20
25.6143848
40
0.7187609
50
318.1171527
51
335.3457065
0
ARC
8
DEFAULT_255_2_778
10
22.7861338
20
25.4322586
40
0.4387075
50
306.2044829
51
317.2623563
0
ARC
8
DEFAULT_255_2_778
10
22.8118587
20
25.4015063
40
0.3987066
50
269.0092455
51
305.8318035
0
ARC
8
DEFAULT_255_2_778
10
22.8209703
20
25.5661254
40
0.5634934
50
257.9736769
51
268.3723286
0
ARC
8
DEFAULT_255_2_778
10
22.976467
20
26.4203273
40
1.431581
50
256.8370098
51
259.0102636
0
ARC
8
DEFAULT_255_2_778
10
22.7299218
20
25.668381
40
0.396887
50
268.3457775
51
269.9906226
0
ARC
8
DEFAULT_255_2_778
10
22.744688
20
25.5089479
40
0.2379166
50
266.425992
51
328.6474802
0
LINE
8
DEFAULT_255_2_778
10
23.1491646
20
26.7149594
11
23.2378646
21
25.9614594
0
LINE
8
DEFAULT_255_2_778
10
23.2378646
20
25.9614594
11
23.5889646
21
26.7149594
0
LINE
8
DEFAULT_255_2_778
10
23.5889646
20
26.7149594
11
23.9453646
21
26.7149594
0
LINE
8
DEFAULT_255_2_778
10
23.9453646
20
26.7149594
11
23.2264646
21
25.3145594
0
LINE
8
DEFAULT_255_2_778
10
22.6504646
20
25.0263594
11
22.6742646
21
25.2737594
0
LINE
8
DEFAULT_255_2_778
10
22.6742646
20
25.2737594
11
22.7184646
21
25.2716594
0
LINE
8
DEFAULT_255_2_778
10
22.9478646
20
25.3851594
11
23.0182646
21
25.5145594
0
LINE
8
DEFAULT_255_2_778
10
23.0182646
20
25.5145594
11
22.8171646
21
26.7146594
0
LINE
8
DEFAULT_255_2_778
10
22.8171646
20
26.7146594
11
23.1489646
21
26.7146594
0
LINE
8
DEFAULT_255_2_778
10
23.1489646
20
26.7146594
11
23.1491646
21
26.7149594
0
LINE
8
DEFAULT_255_2_778
10
5.4244542
20
27.1144666
11
5.4244542
21
25.9291666
0
LINE
8
DEFAULT_255_2_778
10
5.4244542
20
25.9291666
11
8.3507542
21
25.8921666
0
LINE
8
DEFAULT_255_2_778
10
8.3507542
20
25.8921666
11
8.3507542
21
27.1144666
0
LINE
8
DEFAULT_255_2_778
10
8.3507542
20
27.1144666
11
7.4246542
21
27.9664666
0
LINE
8
DEFAULT_255_2_778
10
7.4246542
20
27.9664666
11
6.2764542
21
27.9664666
0
LINE
8
DEFAULT_255_2_778
10
6.2764542
20
27.9664666
11
5.4244542
21
27.1144666
0
LINE
8
DEFAULT_255_2_778
10
5.5726542
20
25.7069666
11
8.2025542
21
25.7069666
0
LINE
8
DEFAULT_255_2_778
10
8.2025542
20
25.7069666
11
7.4617542
21
25.0031666
0
LINE
8
DEFAULT_255_2_778
10
7.4617542
20
25.0031666
11
6.3504542
21
25.0031666
0
LINE
8
DEFAULT_255_2_778
10
6.3504542
20
25.0031666
11
5.5726542
21
25.7069666
0
ARC
8
DEFAULT_255_2_778
10
7.8458226
20
26.2560768
40
0.1423419
50
264.5115721
51
318.4176283
0
ARC
8
DEFAULT_255_2_778
10
7.8189879
20
26.2531225
40
0.1616977
50
325.5297452
51
3.3557414
0
ARC
8
DEFAULT_255_2_778
10
7.8389795
20
26.6096157
40
0.142084
50
354.4959081
51
48.5537602
0
ARC
8
DEFAULT_255_2_778
10
7.8416444
20
26.5824068
40
0.1619557
50
55.6500697
51
93.3401169
0
ARC
8
DEFAULT_255_2_778
10
7.8414709
20
26.808925
40
0.0654958
50
261.8698976
51
8.1301024
0
ARC
8
DEFAULT_255_2_778
10
7.7988672
20
27.1916455
40
0.1074847
50
358.3696885
51
95.9524071
0
ARC
8
DEFAULT_255_2_778
10
7.7588839
20
26.9632916
40
0.3364968
50
85.0838783
51
90.1320543
0
LINE
8
DEFAULT_255_2_778
10
5.6838084
20
26.1143875
11
6.1283084
21
27.3367875
0
LINE
8
DEFAULT_255_2_778
10
6.1283084
20
27.3367875
11
6.3876084
21
27.3367875
0
LINE
8
DEFAULT_255_2_778
10
6.3876084
20
27.3367875
11
6.8691084
21
26.1514875
0
LINE
8
DEFAULT_255_2_778
10
6.8691084
20
26.1514875
11
6.5358084
21
26.1514875
0
LINE
8
DEFAULT_255_2_778
10
6.5358084
20
26.1514875
11
6.4246084
21
26.4107875
0
LINE
8
DEFAULT_255_2_778
10
6.4246084
20
26.4107875
11
6.0913084
21
26.4107875
0
LINE
8
DEFAULT_255_2_778
10
6.0913084
20
26.4107875
11
6.0913084
21
26.5588875
0
LINE
8
DEFAULT_255_2_778
10
6.0913084
20
26.5588875
11
6.3876084
21
26.5588875
0
LINE
8
DEFAULT_255_2_778
10
6.3876084
20
26.5588875
11
6.2024084
21
27.0033875
0
LINE
8
DEFAULT_255_2_778
10
6.2024084
20
27.0033875
11
5.8690084
21
26.1143875
0
LINE
8
DEFAULT_255_2_778
10
5.8690084
20
26.1143875
11
5.6838084
21
26.1143875
0
LINE
8
DEFAULT_255_2_778
10
5.6838084
20
26.1143875
11
5.6838084
21
26.1143875
0
LINE
8
DEFAULT_255_2_778
10
6.7580084
20
26.7811875
11
6.9062084
21
26.7811875
0
LINE
8
DEFAULT_255_2_778
10
6.9062084
20
26.7811875
11
6.9062084
21
26.6329875
0
LINE
8
DEFAULT_255_2_778
10
6.9062084
20
26.6329875
11
6.7580084
21
26.6329875
0
LINE
8
DEFAULT_255_2_778
10
6.7580084
20
26.6329875
11
6.7580084
21
26.7811875
0
LINE
8
DEFAULT_255_2_778
10
7.2766084
20
27.1145875
11
7.6100084
21
27.1145875
0
LINE
8
DEFAULT_255_2_778
10
7.6100084
20
27.1145875
11
7.6100084
21
26.7440875
0
LINE
8
DEFAULT_255_2_778
10
7.6100084
20
26.7440875
11
7.3507084
21
26.7440875
0
LINE
8
DEFAULT_255_2_778
10
7.3507084
20
26.7440875
11
7.3507084
21
26.5959875
0
LINE
8
DEFAULT_255_2_778
10
7.3507084
20
26.5959875
11
7.6840084
21
26.5959875
0
LINE
8
DEFAULT_255_2_778
10
7.6840084
20
26.5959875
11
7.6840084
21
26.2625875
0
LINE
8
DEFAULT_255_2_778
10
7.6840084
20
26.2625875
11
7.2766084
21
26.2625875
0
LINE
8
DEFAULT_255_2_778
10
7.2766084
20
26.2625875
11
7.2766084
21
27.1145875
0
LINE
8
DEFAULT_255_2_778
10
7.2766084
20
27.1145875
11
7.2766084
21
27.1145875
0
LINE
8
DEFAULT_255_2_778
10
6.9803084
20
27.2997875
11
6.9803084
21
26.1143875
0
LINE
8
DEFAULT_255_2_778
10
6.9803084
20
26.1143875
11
7.8322084
21
26.1143875
0
LINE
8
DEFAULT_255_2_778
10
7.9804084
20
26.2625875
11
7.9804084
21
26.5959875
0
LINE
8
DEFAULT_255_2_778
10
7.9063084
20
26.8181875
11
7.9063084
21
27.1885875
0
LINE
8
DEFAULT_255_2_778
10
7.7581084
20
27.2997875
11
6.9803084
21
27.2997875
0
LINE
8
DEFAULT_255_2_778
10
6.9803084
20
27.2997875
11
6.9803084
21
27.2997875
0
LINE
8
DEFAULT_255_2_778
10
6.3394427
20
25.3240198
11
6.3367427
21
25.3240198
0
ARC
8
DEFAULT_255_2_778
10
6.3340483
20
25.4490854
40
0.1250946
50
247.1356448
51
271.2341787
0
ARC
8
DEFAULT_255_2_778
10
6.3160916
20
25.4067164
40
0.0790776
50
215.0349981
51
247.1960091
0
ARC
8
DEFAULT_255_2_778
10
6.3109464
20
25.4013964
40
0.0718243
50
178.625123
51
213.9163394
0
ARC
8
DEFAULT_255_2_778
10
6.3131693
20
25.5184391
40
0.0740421
50
147.0420611
51
181.175799
0
ARC
8
DEFAULT_255_2_778
10
6.3147919
20
25.5145628
40
0.0775487
50
112.4780918
51
145.2909011
0
ARC
8
DEFAULT_255_2_778
10
6.333917
20
25.4701534
40
0.1258981
50
88.7138988
51
112.7934617
0
ARC
8
DEFAULT_255_2_778
10
6.339481
20
25.4706878
40
0.1253619
50
67.159311
51
91.2516049
0
ARC
8
DEFAULT_255_2_778
10
6.3569794
20
25.5126852
40
0.0798654
50
35.1978461
51
67.0331611
0
ARC
8
DEFAULT_255_2_778
10
6.3626391
20
25.5186431
40
0.0718243
50
358.625123
51
33.9163394
0
ARC
8
DEFAULT_255_2_778
10
6.3604162
20
25.4016004
40
0.0740421
50
327.0420611
51
1.175799
0
ARC
8
DEFAULT_255_2_778
10
6.361381
20
25.4028218
40
0.0739133
50
291.6436853
51
325.8406333
0
ARC
8
DEFAULT_255_2_778
10
6.3401809
20
25.411874
40
0.0482768
50
265.9160158
51
308.3617549
0
ARC
8
DEFAULT_255_2_778
10
6.3451719
20
25.4008207
40
0.036631
50
312.9754563
51
3.2850623
0
ARC
8
DEFAULT_255_2_778
10
6.3448152
20
25.518502
40
0.0369754
50
357.082104
51
47.4006092
0
ARC
8
DEFAULT_255_2_778
10
6.339634
20
25.5083686
40
0.0480383
50
51.0349629
51
93.4505724
0
ARC
8
DEFAULT_255_2_778
10
6.3340455
20
25.508049
40
0.0483461
50
86.8017862
51
128.8135095
0
ARC
8
DEFAULT_255_2_778
10
6.3287702
20
25.518502
40
0.0369754
50
132.5993908
51
182.917896
0
ARC
8
DEFAULT_255_2_778
10
6.3284135
20
25.4008207
40
0.036631
50
176.7149377
51
227.0245437
0
ARC
8
DEFAULT_255_2_778
10
6.3334908
20
25.412186
40
0.0485752
50
231.7867693
51
273.8385805
0
ARC
8
DEFAULT_255_2_778
10
6.5570034
20
25.4005567
40
0.0766655
50
226.2029837
51
273.3195937
0
ARC
8
DEFAULT_255_2_778
10
6.5622798
20
25.3985746
40
0.0790566
50
176.8492311
51
222.4458356
0
ARC
8
DEFAULT_255_2_778
10
6.5699928
20
25.4004647
40
0.043631
50
176.5112098
51
217.639275
0
ARC
8
DEFAULT_255_2_778
10
6.5593879
20
25.3953664
40
0.0322122
50
221.9818643
51
273.6574471
0
ARC
8
DEFAULT_255_2_778
10
6.5632217
20
25.3958151
40
0.0326438
50
266.8760675
51
317.6392064
0
ARC
8
DEFAULT_255_2_778
10
6.5527926
20
25.4004647
40
0.043631
50
322.360725
51
3.4887902
0
ARC
8
DEFAULT_255_2_778
10
6.5605056
20
25.3985746
40
0.0790566
50
317.5541644
51
3.1507689
0
ARC
8
DEFAULT_255_2_778
10
6.5656687
20
25.4008223
40
0.0769357
50
266.6274163
51
313.7210327
0
LINE
8
DEFAULT_255_2_778
10
6.4394427
20
25.2624198
11
6.3828427
21
25.2624198
0
LINE
8
DEFAULT_255_2_778
10
6.3828427
20
25.2624198
11
6.3394427
21
25.3240198
0
LINE
8
DEFAULT_255_2_778
10
6.2391427
20
25.4031198
11
6.2391427
21
25.5169198
0
LINE
8
DEFAULT_255_2_778
10
6.4344427
20
25.5169198
11
6.4344427
21
25.4031198
0
LINE
8
DEFAULT_255_2_778
10
6.3886427
20
25.3341198
11
6.4394427
21
25.2626198
0
LINE
8
DEFAULT_255_2_778
10
6.4394427
20
25.2626198
11
6.4394427
21
25.2624198
0
LINE
8
DEFAULT_255_2_778
10
6.3817427
20
25.4029198
11
6.3817427
21
25.5166198
0
LINE
8
DEFAULT_255_2_778
10
6.2918427
20
25.5166198
11
6.2918427
21
25.4029198
0
LINE
8
DEFAULT_255_2_778
10
6.3367427
20
25.3637198
11
6.3367427
21
25.3637198
0
LINE
8
DEFAULT_255_2_778
10
6.4833427
20
25.4029198
11
6.4833427
21
25.5920198
0
LINE
8
DEFAULT_255_2_778
10
6.4833427
20
25.5920198
11
6.5264427
21
25.5920198
0
LINE
8
DEFAULT_255_2_778
10
6.5264427
20
25.5920198
11
6.5264427
21
25.4031198
0
LINE
8
DEFAULT_255_2_778
10
6.5963427
20
25.4031198
11
6.5963427
21
25.5920198
0
LINE
8
DEFAULT_255_2_778
10
6.5963427
20
25.5920198
11
6.6394427
21
25.5920198
0
LINE
8
DEFAULT_255_2_778
10
6.6394427
20
25.5920198
11
6.6394427
21
25.4029198
0
LINE
8
DEFAULT_255_2_778
10
6.5611427
20
25.3240198
11
6.5614427
21
25.3240198
0
ARC
8
DEFAULT_255_2_778
10
12.1641553
20
26.6271635
40
5.5033955
50
191.4837585
51
191.8239227
0
ARC
8
DEFAULT_255_2_778
10
8.3589245
20
25.8233972
40
1.6145995
50
189.6626565
51
190.4158531
0
ARC
8
DEFAULT_255_2_778
10
6.1197449
20
25.6562409
40
0.6557616
50
349.0334606
51
350.8880298
0
ARC
8
DEFAULT_255_2_778
10
6.0674183
20
25.6598866
40
0.7078549
50
346.9283592
51
349.5494987
0
ARC
8
DEFAULT_255_2_778
10
7.2958769
20
25.4290243
40
0.1856762
50
15.5793022
51
22.5708948
0
ARC
8
DEFAULT_255_2_778
10
7.3328007
20
25.4338058
40
0.1489195
50
11.1061152
51
17.6230497
0
ARC
8
DEFAULT_255_2_778
10
8.063214
20
25.3180593
40
0.6018696
50
164.5010167
51
166.1150622
0
ARC
8
DEFAULT_255_2_778
10
7.6620856
20
25.4290243
40
0.1856762
50
157.4291052
51
164.4206978
0
LINE
8
DEFAULT_255_2_778
10
6.7201313
20
25.3274917
11
6.6762313
21
25.3274917
0
LINE
8
DEFAULT_255_2_778
10
6.6762313
20
25.3274917
11
6.7392313
21
25.5920917
0
LINE
8
DEFAULT_255_2_778
10
6.7392313
20
25.5920917
11
6.7942313
21
25.5920917
0
LINE
8
DEFAULT_255_2_778
10
6.7942313
20
25.5920917
11
6.8577313
21
25.3274917
0
LINE
8
DEFAULT_255_2_778
10
6.8577313
20
25.3274917
11
6.8138313
21
25.3274917
0
LINE
8
DEFAULT_255_2_778
10
6.8138313
20
25.3274917
11
6.8000313
21
25.3914917
0
LINE
8
DEFAULT_255_2_778
10
6.8000313
20
25.3914917
11
6.7336313
21
25.3914917
0
LINE
8
DEFAULT_255_2_778
10
6.7336313
20
25.3914917
11
6.7199313
21
25.3274917
0
LINE
8
DEFAULT_255_2_778
10
6.7199313
20
25.3274917
11
6.7201313
21
25.3274917
0
LINE
8
DEFAULT_255_2_778
10
6.7569313
20
25.4999917
11
6.7418313
21
25.4285917
0
LINE
8
DEFAULT_255_2_778
10
6.7418313
20
25.4285917
11
6.7926313
21
25.4285917
0
LINE
8
DEFAULT_255_2_778
10
6.7926313
20
25.4285917
11
6.7775313
21
25.4994917
0
LINE
8
DEFAULT_255_2_778
10
6.7569313
20
25.4997917
11
6.7569313
21
25.4999917
0
LINE
8
DEFAULT_255_2_778
10
7.0231313
20
25.3274917
11
6.8741313
21
25.3274917
0
LINE
8
DEFAULT_255_2_778
10
6.8741313
20
25.3274917
11
6.8741313
21
25.5920917
0
LINE
8
DEFAULT_255_2_778
10
6.8741313
20
25.5920917
11
6.9170313
21
25.5920917
0
LINE
8
DEFAULT_255_2_778
10
6.9170313
20
25.5920917
11
6.9170313
21
25.3684917
0
LINE
8
DEFAULT_255_2_778
10
6.9170313
20
25.3684917
11
7.0231313
21
25.3684917
0
LINE
8
DEFAULT_255_2_778
10
7.0231313
20
25.3684917
11
7.0231313
21
25.3274917
0
LINE
8
DEFAULT_255_2_778
10
7.0231313
20
25.3274917
11
7.0231313
21
25.3274917
0
LINE
8
DEFAULT_255_2_778
10
7.1760313
20
25.3274917
11
7.0321313
21
25.3274917
0
LINE
8
DEFAULT_255_2_778
10
7.0321313
20
25.3274917
11
7.0321313
21
25.3684917
0
LINE
8
DEFAULT_255_2_778
10
7.0321313
20
25.3684917
11
7.0823313
21
25.3684917
0
LINE
8
DEFAULT_255_2_778
10
7.0823313
20
25.3684917
11
7.0823313
21
25.5510917
0
LINE
8
DEFAULT_255_2_778
10
7.0823313
20
25.5510917
11
7.0321313
21
25.5510917
0
LINE
8
DEFAULT_255_2_778
10
7.0321313
20
25.5510917
11
7.0321313
21
25.5920917
0
LINE
8
DEFAULT_255_2_778
10
7.0321313
20
25.5920917
11
7.1760313
21
25.5920917
0
LINE
8
DEFAULT_255_2_778
10
7.1760313
20
25.5920917
11
7.1760313
21
25.5510917
0
LINE
8
DEFAULT_255_2_778
10
7.1760313
20
25.5510917
11
7.1257313
21
25.5510917
0
LINE
8
DEFAULT_255_2_778
10
7.1257313
20
25.5510917
11
7.1257313
21
25.3684917
0
LINE
8
DEFAULT_255_2_778
10
7.1257313
20
25.3684917
11
7.1760313
21
25.3684917
0
LINE
8
DEFAULT_255_2_778
10
7.1760313
20
25.3684917
11
7.1760313
21
25.3274917
0
LINE
8
DEFAULT_255_2_778
10
7.1760313
20
25.3274917
11
7.1760313
21
25.3274917
0
LINE
8
DEFAULT_255_2_778
10
7.2940313
20
25.3274917
11
7.2509313
21
25.3274917
0
LINE
8
DEFAULT_255_2_778
10
7.2509313
20
25.3274917
11
7.2509313
21
25.5510917
0
LINE
8
DEFAULT_255_2_778
10
7.2509313
20
25.5510917
11
7.1855313
21
25.5510917
0
LINE
8
DEFAULT_255_2_778
10
7.1855313
20
25.5510917
11
7.1855313
21
25.5920917
0
LINE
8
DEFAULT_255_2_778
10
7.1855313
20
25.5920917
11
7.3596313
21
25.5920917
0
LINE
8
DEFAULT_255_2_778
10
7.3596313
20
25.5920917
11
7.3596313
21
25.5510917
0
LINE
8
DEFAULT_255_2_778
10
7.3596313
20
25.5510917
11
7.2943313
21
25.5510917
0
LINE
8
DEFAULT_255_2_778
10
7.2943313
20
25.5510917
11
7.2943313
21
25.3274917
0
LINE
8
DEFAULT_255_2_778
10
7.2943313
20
25.3274917
11
7.2940313
21
25.3274917
0
LINE
8
DEFAULT_255_2_778
10
7.4996313
20
25.3274917
11
7.4565313
21
25.3274917
0
LINE
8
DEFAULT_255_2_778
10
7.4565313
20
25.3274917
11
7.4565313
21
25.4235917
0
LINE
8
DEFAULT_255_2_778
10
7.4565313
20
25.4235917
11
7.3832313
21
25.5920917
0
LINE
8
DEFAULT_255_2_778
10
7.3832313
20
25.5920917
11
7.4281313
21
25.5920917
0
LINE
8
DEFAULT_255_2_778
10
7.4281313
20
25.5920917
11
7.4673313
21
25.5002917
0
LINE
8
DEFAULT_255_2_778
10
7.4906313
20
25.5002917
11
7.5287313
21
25.5920917
0
LINE
8
DEFAULT_255_2_778
10
7.5287313
20
25.5920917
11
7.5731313
21
25.5920917
0
LINE
8
DEFAULT_255_2_778
10
7.5731313
20
25.5920917
11
7.4998313
21
25.4235917
0
LINE
8
DEFAULT_255_2_778
10
7.4998313
20
25.4235917
11
7.4998313
21
25.3274917
0
LINE
8
DEFAULT_255_2_778
10
7.4998313
20
25.3274917
11
7.4996313
21
25.3274917
0
LINE
8
DEFAULT_255_1_388
10
4.8805318
20
20.6633382
11
4.8805318
21
20.5269
0
LINE
8
DEFAULT_255_1_388
10
4.8805318
20
20.5269
11
4.0185313
21
20.5269
0
LINE
8
DEFAULT_255_1_388
10
4.0185313
20
20.5269
11
4.0185313
21
20.6470741
0
LINE
8
DEFAULT_255_1_388
10
4.0185313
20
20.6470741
11
4.4739278
21
21.1530702
0
LINE
8
DEFAULT_255_1_388
10
4.1603909
20
21.4548607
11
3.9932315
21
21.4548607
0
LINE
8
DEFAULT_255_1_388
10
4.5724163
20
21.045546
11
4.2200262
21
20.6633382
0
LINE
8
DEFAULT_255_1_388
10
4.2200262
20
20.6633382
11
4.8805318
21
20.6633382
0
ARC
8
DEFAULT_255_1_388
10
2.9563337
20
22.4950983
40
2.0258655
50
318.5132526
51
320.7829045
0
ARC
8
DEFAULT_255_1_388
10
3.5511294
20
22.0109929
40
1.2589638
50
320.7372878
51
323.9739031
0
ARC
8
DEFAULT_255_1_388
10
3.9920226
20
21.6915554
40
0.7145141
50
323.8962701
51
328.64194
0
ARC
8
DEFAULT_255_1_388
10
4.2222484
20
21.5495545
40
0.4440242
50
328.8294576
51
331.7891185
0
ARC
8
DEFAULT_255_1_388
10
4.3344804
20
21.4916374
40
0.3177517
50
331.4254512
51
352.9365785
0
ARC
8
DEFAULT_255_1_388
10
4.3497804
20
21.488205
40
0.3021496
50
353.2257659
51
0.0166158
0
ARC
8
DEFAULT_255_1_388
10
4.3734564
20
21.4907894
40
0.2784847
50
359.486299
51
15.9343185
0
ARC
8
DEFAULT_255_1_388
10
4.4304831
20
21.5061269
40
0.2194403
50
16.1712913
51
43.5286088
0
ARC
8
DEFAULT_255_1_388
10
4.4391776
20
21.5148191
40
0.2071504
50
43.4417391
51
83.1661095
0
ARC
8
DEFAULT_255_1_388
10
4.4240937
20
21.4319316
40
0.2912888
50
82.160179
51
90.1505708
0
ARC
8
DEFAULT_255_1_388
10
4.4205418
20
21.3715279
40
0.3517025
50
89.5460741
51
102.5418361
0
ARC
8
DEFAULT_255_1_388
10
4.3932138
20
21.4874933
40
0.2325748
50
102.1738499
51
129.206123
0
ARC
8
DEFAULT_255_1_388
10
4.3843592
20
21.5014664
40
0.2161591
50
129.72865
51
135.753947
0
ARC
8
DEFAULT_255_1_388
10
4.3980074
20
21.4905728
40
0.2335433
50
136.1757367
51
166.3673339
0
ARC
8
DEFAULT_255_1_388
10
4.5112762
20
21.4602148
40
0.3507873
50
165.9090694
51
178.8684636
0
ARC
8
DEFAULT_255_1_388
10
4.6088534
20
21.4549263
40
0.4484624
50
178.4391136
51
180.0083808
0
ARC
8
DEFAULT_255_1_388
10
4.4509235
20
21.4593197
40
0.4577138
50
163.2878482
51
180.5581842
0
ARC
8
DEFAULT_255_1_388
10
4.3607276
20
21.4841393
40
0.3641968
50
133.4540601
51
162.947111
0
ARC
8
DEFAULT_255_1_388
10
4.3808158
20
21.4627789
40
0.3935189
50
100.7869829
51
133.4382499
0
ARC
8
DEFAULT_255_1_388
10
4.4199403
20
21.2885399
40
0.5720313
50
89.660664
51
101.3702276
0
ARC
8
DEFAULT_255_1_388
10
4.4274012
20
21.2954263
40
0.5651495
50
78.2172678
51
90.412935
0
ARC
8
DEFAULT_255_1_388
10
4.4673478
20
21.4781511
40
0.378122
50
55.9269121
51
78.4888449
0
ARC
8
DEFAULT_255_1_388
10
4.4894193
20
21.5162187
40
0.3342379
50
47.929771
51
55.4049217
0
ARC
8
DEFAULT_255_1_388
10
4.5008723
20
21.5278618
40
0.3179217
50
4.334829
51
48.0560205
0
ARC
8
DEFAULT_255_1_388
10
4.3776525
20
21.5087487
40
0.442341
50
359.9251713
51
5.5971671
0
ARC
8
DEFAULT_255_1_388
10
4.425868
20
21.5150728
40
0.3941854
50
337.8914027
51
358.9967534
0
ARC
8
DEFAULT_255_1_388
10
4.120625
20
21.6328295
40
0.7213271
50
326.9132501
51
338.3508308
0
ARC
8
DEFAULT_255_1_388
10
3.6722362
20
21.9202105
40
1.2538973
50
319.6471833
51
327.0959558
0
ARC
8
DEFAULT_255_1_388
10
3.240902
20
22.276005
40
1.8129975
50
317.2588228
51
319.9045804
0
LINE
8
DEFAULT_255_1_388
10
5.7633143
20
21.8424898
11
5.7633143
21
20.968743
0
LINE
8
DEFAULT_255_1_388
10
5.7633143
20
20.968743
11
5.9458343
21
20.968743
0
LINE
8
DEFAULT_255_1_388
10
5.9458343
20
20.968743
11
5.9458343
21
20.8323048
0
LINE
8
DEFAULT_255_1_388
10
5.9458343
20
20.8323048
11
5.7633143
21
20.8323048
0
LINE
8
DEFAULT_255_1_388
10
5.7633143
20
20.8323048
11
5.7633143
21
20.5269
0
LINE
8
DEFAULT_255_1_388
10
5.7633143
20
20.5269
11
5.5952513
21
20.5269
0
LINE
8
DEFAULT_255_1_388
10
5.5952513
20
20.5269
11
5.5952513
21
20.8323048
0
LINE
8
DEFAULT_255_1_388
10
5.5952513
20
20.8323048
11
4.996188
21
20.8323048
0
LINE
8
DEFAULT_255_1_388
10
4.996188
20
20.8323048
11
4.996188
21
20.9307933
0
LINE
8
DEFAULT_255_1_388
10
4.996188
20
20.9307933
11
5.5853121
21
21.8424898
0
LINE
8
DEFAULT_255_1_388
10
5.5853121
20
21.8424898
11
5.7633143
21
21.8424898
0
LINE
8
DEFAULT_255_1_388
10
5.5753729
20
21.5777455
11
5.1859366
21
20.968743
0
LINE
8
DEFAULT_255_1_388
10
5.1859366
20
20.968743
11
5.5952513
21
20.968743
0
LINE
8
DEFAULT_255_1_388
10
5.5952513
20
20.968743
11
5.5952513
21
21.613888
0
LINE
8
DEFAULT_255_1_388
10
5.5952513
20
21.613888
11
5.5753729
21
21.5777455
0
LINE
8
DEFAULT_255_1_388
10
6.201543
20
21.8424898
11
6.5756187
21
20.7573089
0
LINE
8
DEFAULT_255_1_388
10
6.5756187
20
20.7573089
11
6.9515015
21
21.8424898
0
LINE
8
DEFAULT_255_1_388
10
6.9515015
20
21.8424898
11
7.14125
21
21.8424898
0
LINE
8
DEFAULT_255_1_388
10
7.14125
20
21.8424898
11
6.6533252
21
20.5269
0
LINE
8
DEFAULT_255_1_388
10
6.6533252
20
20.5269
11
6.4997193
21
20.5269
0
LINE
8
DEFAULT_255_1_388
10
6.4997193
20
20.5269
11
6.012698
21
21.8424898
0
LINE
8
DEFAULT_255_1_388
10
6.012698
20
21.8424898
11
6.201543
21
21.8424898
0
LINE
8
DEFAULT_255_1_388
10
4.826368
20
5.9674898
11
5.000756
21
5.9674898
0
LINE
8
DEFAULT_255_1_388
10
5.000756
20
5.9674898
11
5.000756
21
5.072961
0
LINE
8
DEFAULT_255_1_388
10
4.5688521
20
4.6356358
11
4.5227704
21
4.6338287
0
LINE
8
DEFAULT_255_1_388
10
4.048399
20
5.0711539
11
4.048399
21
5.9674898
0
LINE
8
DEFAULT_255_1_388
10
4.048399
20
5.9674898
11
4.2200763
21
5.9674898
0
LINE
8
DEFAULT_255_1_388
10
4.2200763
20
5.9674898
11
4.2200763
21
5.0765753
0
LINE
8
DEFAULT_255_1_388
10
4.826368
20
5.0756717
11
4.826368
21
5.9674898
0
ARC
8
DEFAULT_255_1_388
10
4.5110358
20
5.070727
40
0.4897252
50
343.0897723
51
0.2613727
0
ARC
8
DEFAULT_255_1_388
10
4.6042329
20
5.044727
40
0.3930016
50
315.3344451
51
342.7642569
0
ARC
8
DEFAULT_255_1_388
10
4.5790825
20
5.0708085
40
0.4292244
50
284.6605441
51
315.2183439
0
ARC
8
DEFAULT_255_1_388
10
4.5278605
20
5.2447508
40
0.6104926
50
273.8500371
51
285.1796441
0
ARC
8
DEFAULT_255_1_388
10
4.5179669
20
5.2831762
40
0.6493653
50
257.6315393
51
270.4238259
0
ARC
8
DEFAULT_255_1_388
10
4.4701753
20
5.0782915
40
0.4390079
50
230.6086859
51
257.9965362
0
ARC
8
DEFAULT_255_1_388
10
4.4555811
20
5.0553643
40
0.4120404
50
227.745033
51
230.1538266
0
ARC
8
DEFAULT_255_1_388
10
4.440234
20
5.0369253
40
0.3880742
50
189.2524335
51
227.5915299
0
ARC
8
DEFAULT_255_1_388
10
4.6114211
20
5.0737735
40
0.5630282
50
180.2665782
51
190.1525221
0
ARC
8
DEFAULT_255_1_388
10
4.6363939
20
5.0734254
40
0.4163296
50
179.566507
51
191.9954402
0
ARC
8
DEFAULT_255_1_388
10
4.4982628
20
5.0426151
40
0.274815
50
191.6974619
51
215.1403758
0
ARC
8
DEFAULT_255_1_388
10
4.471502
20
5.0266689
40
0.2437647
50
215.6958251
51
224.8509274
0
ARC
8
DEFAULT_255_1_388
10
4.4777496
20
5.0356016
40
0.2545012
50
225.2846515
51
255.0110023
0
ARC
8
DEFAULT_255_1_388
10
4.5141943
20
5.1609017
40
0.384974
50
254.5945979
51
267.9129427
0
ARC
8
DEFAULT_255_1_388
10
4.5225636
20
5.2826444
40
0.506956
50
267.4687563
51
270.0233681
0
ARC
8
DEFAULT_255_1_388
10
4.5259631
20
5.2166288
40
0.440952
50
269.5851384
51
281.1845308
0
ARC
8
DEFAULT_255_1_388
10
4.5573235
20
5.0644469
40
0.2855802
50
280.9345159
51
300.9740496
0
ARC
8
DEFAULT_255_1_388
10
4.5812415
20
5.0204128
40
0.2355257
50
301.4982546
51
315.1468616
0
ARC
8
DEFAULT_255_1_388
10
4.5649912
20
5.0337488
40
0.2564594
50
315.5952932
51
345.6679188
0
ARC
8
DEFAULT_255_1_388
10
4.4390469
20
5.0688235
40
0.3871766
50
345.2525685
51
358.6303941
0
ARC
8
DEFAULT_255_1_388
10
4.3246859
20
5.0755695
40
0.5016822
50
358.1723541
51
0.0116795
0
LINE
8
DEFAULT_255_1_388
10
6.1473792
20
5.5870892
11
5.9729913
21
5.5870892
0
LINE
8
DEFAULT_255_1_388
10
5.1941188
20
5.0332042
11
5.3685067
21
5.0332042
0
ARC
8
DEFAULT_255_1_388
10
6.047064
20
6.5934821
40
1.4087688
50
248.9196578
51
254.1442424
0
ARC
8
DEFAULT_255_1_388
10
5.858052
20
6.1068805
40
0.8867498
50
241.6337352
51
249.0064643
0
ARC
8
DEFAULT_255_1_388
10
5.6860833
20
5.7917764
40
0.5277799
50
230.4982261
51
241.8087583
0
ARC
8
DEFAULT_255_1_388
10
5.5978605
20
5.6793686
40
0.3849419
50
227.4062979
51
229.9877433
0
ARC
8
DEFAULT_255_1_388
10
5.5429951
20
5.6258155
40
0.3084129
50
200.6782127
51
228.1765252
0
ARC
8
DEFAULT_255_1_388
10
5.551132
20
5.6241277
40
0.315461
50
179.506278
51
199.8695278
0
ARC
8
DEFAULT_255_1_388
10
5.5500909
20
5.6324671
40
0.3144584
50
132.4834401
51
181.0242352
0
ARC
8
DEFAULT_255_1_388
10
5.6170113
20
5.5692788
40
0.4063094
50
129.2526113
51
133.4249077
0
ARC
8
DEFAULT_255_1_388
10
5.6335706
20
5.5444619
40
0.436014
50
101.9878945
51
128.8741833
0
ARC
8
DEFAULT_255_1_388
10
5.6784121
20
5.350836
40
0.6347415
50
89.5906376
51
102.3170567
0
ARC
8
DEFAULT_255_1_388
10
5.6863432
20
5.3866586
40
0.5989122
50
77.2359491
51
90.3248968
0
ARC
8
DEFAULT_255_1_388
10
5.7096363
20
5.4954554
40
0.4876594
50
63.8379856
51
77.0808925
0
ARC
8
DEFAULT_255_1_388
10
5.7408897
20
5.5536882
40
0.4216191
50
45.9863127
51
64.1608798
0
ARC
8
DEFAULT_255_1_388
10
5.7702291
20
5.587199
40
0.3771394
50
32.2747934
51
45.6544796
0
ARC
8
DEFAULT_255_1_388
10
5.7777097
20
5.5893426
40
0.3696765
50
359.6507495
51
32.6129943
0
ARC
8
DEFAULT_255_1_388
10
5.671628
20
5.5898788
40
0.3013762
50
359.469654
51
14.983205
0
ARC
8
DEFAULT_255_1_388
10
5.7509532
20
5.6111288
40
0.2192542
50
14.9781954
51
48.2004799
0
ARC
8
DEFAULT_255_1_388
10
5.7324643
20
5.5878937
40
0.2489048
50
48.5926661
51
74.1242559
0
ARC
8
DEFAULT_255_1_388
10
5.6949445
20
5.4640607
40
0.3782845
50
73.7889321
51
86.6653996
0
ARC
8
DEFAULT_255_1_388
10
5.683426
20
5.3282955
40
0.5145025
50
86.2642725
51
90.0533288
0
ARC
8
DEFAULT_255_1_388
10
5.6802353
20
5.3727376
40
0.4700681
50
89.669455
51
99.2313411
0
ARC
8
DEFAULT_255_1_388
10
5.6529512
20
5.5352401
40
0.3052945
50
99.0695987
51
113.7659242
0
ARC
8
DEFAULT_255_1_388
10
5.6221507
20
5.6078772
40
0.226407
50
114.0402885
51
127.9848946
0
ARC
8
DEFAULT_255_1_388
10
5.5950983
20
5.6411884
40
0.1835045
50
127.7287217
51
176.7106493
0
ARC
8
DEFAULT_255_1_388
10
5.6714648
20
5.629821
40
0.2604907
50
175.1780759
51
180.0581213
0
ARC
8
DEFAULT_255_1_388
10
5.5765992
20
5.6284411
40
0.1656287
50
179.6140658
51
228.124674
0
ARC
8
DEFAULT_255_1_388
10
5.6263349
20
5.674494
40
0.2332038
50
226.5785315
51
230.8792476
0
ARC
8
DEFAULT_255_1_388
10
5.6792836
20
5.7447908
40
0.3211664
50
231.4636401
51
241.9261664
0
ARC
8
DEFAULT_255_1_388
10
5.8139619
20
5.9926349
40
0.6032345
50
241.7177136
51
248.3259138
0
ARC
8
DEFAULT_255_1_388
10
5.9698214
20
6.3787771
40
1.0196417
50
248.2007377
51
252.4527713
0
ARC
8
DEFAULT_255_1_388
10
6.105174
20
6.7972092
40
1.4594143
50
252.3388938
51
254.347037
0
ARC
8
DEFAULT_255_1_388
10
5.2567041
20
3.7624095
40
1.6917621
50
71.0197462
51
74.4085467
0
ARC
8
DEFAULT_255_1_388
10
5.4474129
20
4.3129144
40
1.1091618
50
66.1845203
51
71.086519
0
ARC
8
DEFAULT_255_1_388
10
5.6224678
20
4.7070439
40
0.6779073
50
59.3537334
51
66.269255
0
ARC
8
DEFAULT_255_1_388
10
5.7224404
20
4.8761777
40
0.4814366
50
49.1021732
51
59.3294421
0
ARC
8
DEFAULT_255_1_388
10
5.8145392
20
4.9811575
40
0.3417875
50
32.7924183
51
49.2503526
0
ARC
8
DEFAULT_255_1_388
10
5.8495006
20
5.0061311
40
0.2988789
50
31.121225
51
32.3977355
0
ARC
8
DEFAULT_255_1_388
10
5.8407184
20
5.0028728
40
0.3080861
50
8.1116803
51
30.7958224
0
ARC
8
DEFAULT_255_1_388
10
5.749553
20
4.9873437
40
0.4005385
50
359.8390945
51
8.4707348
0
ARC
8
DEFAULT_255_1_388
10
5.8199578
20
4.9818751
40
0.3301608
50
337.4732479
51
0.7538283
0
ARC
8
DEFAULT_255_1_388
10
5.8400603
20
4.9796554
40
0.3107929
50
307.5917028
51
336.4313755
0
ARC
8
DEFAULT_255_1_388
10
5.788966
20
5.0364509
40
0.3870096
50
307.6560665
51
308.4561779
0
ARC
8
DEFAULT_255_1_388
10
5.7623877
20
5.0772832
40
0.435591
50
284.3733666
51
307.1426212
0
ARC
8
DEFAULT_255_1_388
10
5.7066771
20
5.2822391
40
0.6479685
50
272.4384566
51
284.6464689
0
ARC
8
DEFAULT_255_1_388
10
5.6924156
20
5.4846434
40
0.8508149
50
269.9708517
51
272.8180721
0
ARC
8
DEFAULT_255_1_388
10
5.6875839
20
5.2554283
40
0.6216151
50
248.2707343
51
270.4054609
0
ARC
8
DEFAULT_255_1_388
10
5.681471
20
5.2339673
40
0.5994203
50
246.1380358
51
248.054058
0
ARC
8
DEFAULT_255_1_388
10
5.6343853
20
5.1350705
40
0.4899388
50
233.1671897
51
246.4951656
0
ARC
8
DEFAULT_255_1_388
10
5.5720488
20
5.0509137
40
0.3852115
50
215.3403381
51
233.084328
0
ARC
8
DEFAULT_255_1_388
10
5.5413852
20
5.0286093
40
0.3472969
50
179.2419235
51
215.2648426
0
ARC
8
DEFAULT_255_1_388
10
5.6277403
20
5.0301979
40
0.259251
50
179.3355796
51
199.1045873
0
ARC
8
DEFAULT_255_1_388
10
5.5903545
20
5.0204223
40
0.2207454
50
199.8830064
51
232.7061328
0
ARC
8
DEFAULT_255_1_388
10
5.6434819
20
5.0872456
40
0.306101
50
232.3736206
51
255.5136621
0
ARC
8
DEFAULT_255_1_388
10
5.6818325
20
5.2272177
40
0.4512213
50
255.2447928
51
267.5318292
0
ARC
8
DEFAULT_255_1_388
10
5.6916792
20
5.3658709
40
0.5901825
50
267.1564563
51
270.0294721
0
ARC
8
DEFAULT_255_1_388
10
5.6948117
20
5.3159623
40
0.5402814
50
269.6999944
51
278.1662446
0
ARC
8
DEFAULT_255_1_388
10
5.7236145
20
5.1212974
40
0.3435003
50
278.0229022
51
290.6255326
0
ARC
8
DEFAULT_255_1_388
10
5.7627311
20
5.0169547
40
0.2320666
50
290.6616368
51
307.0374127
0
ARC
8
DEFAULT_255_1_388
10
5.7965211
20
4.975504
40
0.1786372
50
306.3942078
51
355.303191
0
ARC
8
DEFAULT_255_1_388
10
5.7389504
20
4.9841186
40
0.2367516
50
354.3662092
51
0.0709489
0
ARC
8
DEFAULT_255_1_388
10
5.7549373
20
4.9866561
40
0.2207761
50
359.4175379
51
16.1975911
0
ARC
8
DEFAULT_255_1_388
10
5.8061491
20
5.0006954
40
0.1676828
50
16.4721294
51
52.6261798
0
ARC
8
DEFAULT_255_1_388
10
5.7137998
20
4.8787606
40
0.3206412
50
52.7381828
51
62.4979144
0
ARC
8
DEFAULT_255_1_388
10
5.5579751
20
4.5855236
40
0.6527035
50
62.2517425
51
68.1219454
0
ARC
8
DEFAULT_255_1_388
10
5.3645239
20
4.1100951
40
1.1659797
50
68.006043
51
71.8055127
0
ARC
8
DEFAULT_255_1_388
10
5.1625147
20
3.5042723
40
1.8045908
50
71.718361
51
73.9260743
0
LINE
8
DEFAULT_255_1_388
10
6.8286668
20
4.6519
11
6.3723668
21
4.6519
0
LINE
8
DEFAULT_255_1_388
10
6.3723668
20
4.6519
11
6.3723668
21
5.9674898
0
LINE
8
DEFAULT_255_1_388
10
6.3723668
20
5.9674898
11
6.8024635
21
5.9674898
0
LINE
8
DEFAULT_255_1_388
10
6.8349918
20
5.2672274
11
6.5458512
21
5.2672274
0
LINE
8
DEFAULT_255_1_388
10
6.5458512
20
5.2672274
11
6.5458512
21
4.7937596
0
LINE
8
DEFAULT_255_1_388
10
6.5458512
20
4.7937596
11
6.8322811
21
4.7937596
0
LINE
8
DEFAULT_255_1_388
10
6.5458512
20
5.8247267
11
6.5458512
21
5.4063763
0
LINE
8
DEFAULT_255_1_388
10
6.5458512
20
5.4063763
11
6.8078849
21
5.4063763
0
LINE
8
DEFAULT_255_1_388
10
6.8024635
20
5.8247267
11
6.5458512
21
5.8247267
0
ARC
8
DEFAULT_255_1_388
10
6.8067055
20
5.1386824
40
0.8288183
50
82.1256322
51
90.2932506
0
ARC
8
DEFAULT_255_1_388
10
6.850463
20
5.444459
40
0.5199321
50
69.9044202
51
82.2857574
0
ARC
8
DEFAULT_255_1_388
10
6.9146623
20
5.6179993
40
0.3348993
50
51.1840204
51
70.018125
0
ARC
8
DEFAULT_255_1_388
10
6.9433455
20
5.6596945
40
0.2844579
50
12.1018086
51
50.421322
0
ARC
8
DEFAULT_255_1_388
10
6.7876326
20
5.6205937
40
0.4449429
50
359.5252354
51
12.8212369
0
ARC
8
DEFAULT_255_1_388
10
6.9653756
20
5.6127943
40
0.2672162
50
323.4907456
51
0.8818258
0
ARC
8
DEFAULT_255_1_388
10
6.9183169
20
5.6491523
40
0.3266736
50
298.6824053
51
323.2758285
0
ARC
8
DEFAULT_255_1_388
10
6.8776461
20
5.7167509
40
0.4055105
50
293.1994739
51
299.139634
0
ARC
8
DEFAULT_255_1_388
10
6.953341
20
5.0321651
40
0.3229926
50
54.0009997
51
74.9168635
0
ARC
8
DEFAULT_255_1_388
10
6.9664337
20
5.0543511
40
0.2973581
50
36.3578854
51
53.5293172
0
ARC
8
DEFAULT_255_1_388
10
6.9521705
20
5.044185
40
0.3148715
50
4.8189348
51
36.3090187
0
ARC
8
DEFAULT_255_1_388
10
6.8644729
20
5.0318383
40
0.4033265
50
359.9373213
51
5.5201284
0
ARC
8
DEFAULT_255_1_388
10
6.8280059
20
5.0272733
40
0.4398126
50
344.7479357
51
0.5372278
0
ARC
8
DEFAULT_255_1_388
10
6.9394958
20
4.9972205
40
0.3243441
50
311.1785587
51
344.6887681
0
ARC
8
DEFAULT_255_1_388
10
6.9066501
20
5.0381084
40
0.3767511
50
286.0417804
51
310.8440924
0
ARC
8
DEFAULT_255_1_388
10
6.849591
20
5.2233885
40
0.5705957
50
274.1044074
51
286.4070149
0
ARC
8
DEFAULT_255_1_388
10
6.8297126
20
5.4351901
40
0.7832907
50
269.9235077
51
274.4458593
0
ARC
8
DEFAULT_255_1_388
10
6.8348844
20
5.1720462
40
0.3782955
50
269.6057074
51
281.3740795
0
ARC
8
DEFAULT_255_1_388
10
6.8608342
20
5.0490569
40
0.2526069
50
281.105298
51
302.5134029
0
ARC
8
DEFAULT_255_1_388
10
6.877373
20
5.0193944
40
0.2187131
50
303.0365425
51
311.8818034
0
ARC
8
DEFAULT_255_1_388
10
6.8853907
20
5.0098602
40
0.2062624
50
311.9916937
51
351.7143773
0
ARC
8
DEFAULT_255_1_388
10
6.7934932
20
5.0284271
40
0.2999202
50
350.7343295
51
0.2221526
0
ARC
8
DEFAULT_255_1_388
10
6.781402
20
5.034787
40
0.3120525
50
359.045729
51
17.2295312
0
ARC
8
DEFAULT_255_1_388
10
6.898305
20
5.0695155
40
0.1901144
50
17.6685208
51
78.9940245
0
ARC
8
DEFAULT_255_1_388
10
6.8401411
20
4.8607011
40
0.4065575
50
76.565218
51
90.7103392
0
LINE
8
DEFAULT_255_1_388
10
6.8351008
20
5.2672274
11
6.8349918
21
5.2672274
0
ARC
8
DEFAULT_255_1_388
10
6.8104237
20
5.7759949
40
0.3696273
50
269.6064514
51
281.4533785
0
ARC
8
DEFAULT_255_1_388
10
6.8354878
20
5.6577283
40
0.2487412
50
281.2044438
51
302.5143998
0
ARC
8
DEFAULT_255_1_388
10
6.8509132
20
5.6299576
40
0.2170405
50
303.0211308
51
309.8378766
0
ARC
8
DEFAULT_255_1_388
10
6.8715249
20
5.6068486
40
0.1860946
50
309.5229446
51
356.9509628
0
ARC
8
DEFAULT_255_1_388
10
6.7969375
20
5.6175831
40
0.2612347
50
355.4699226
51
0.0498632
0
ARC
8
DEFAULT_255_1_388
10
6.7655049
20
5.6200789
40
0.2926762
50
359.5558955
51
11.2092924
0
ARC
8
DEFAULT_255_1_388
10
6.8732016
20
5.6423667
40
0.1827036
50
10.9185717
51
31.322519
0
ARC
8
DEFAULT_255_1_388
10
6.9053564
20
5.6602571
40
0.1459418
50
31.8850633
51
52.1415586
0
ARC
8
DEFAULT_255_1_388
10
6.8744993
20
5.6166674
40
0.1993088
50
52.8283418
51
71.9850132
0
ARC
8
DEFAULT_255_1_388
10
6.8322154
20
5.4922158
40
0.3307407
50
71.686634
51
82.8453416
0
ARC
8
DEFAULT_255_1_388
10
6.8052801
20
5.2886892
40
0.536039
50
82.6981895
51
90.1730083
0
ARC
8
DEFAULT_255_1_388
10
6.8027633
20
5.3765836
40
0.4481429
50
89.8851568
51
90.0383283
0
LINE
8
DEFAULT_255_1_388
10
4.7349359
20
13.3393585
11
4.7349359
21
13.1974989
0
LINE
8
DEFAULT_255_1_388
10
4.7349359
20
13.1974989
11
4.1647868
21
13.1974989
0
LINE
8
DEFAULT_255_1_388
10
4.1647868
20
13.1974989
11
4.1647868
21
12.7312596
0
LINE
8
DEFAULT_255_1_388
10
4.1647868
20
12.7312596
11
4.8270995
21
12.7312596
0
LINE
8
DEFAULT_255_1_388
10
4.8270995
20
12.7312596
11
4.8270995
21
12.5894
0
LINE
8
DEFAULT_255_1_388
10
4.8270995
20
12.5894
11
3.9913024
21
12.5894
0
LINE
8
DEFAULT_255_1_388
10
3.9913024
20
12.5894
11
3.9913024
21
13.9049898
0
LINE
8
DEFAULT_255_1_388
10
3.9913024
20
13.9049898
11
4.8180639
21
13.9049898
0
LINE
8
DEFAULT_255_1_388
10
4.8180639
20
13.9049898
11
4.8180639
21
13.7622267
0
LINE
8
DEFAULT_255_1_388
10
4.8180639
20
13.7622267
11
4.1647868
21
13.7622267
0
LINE
8
DEFAULT_255_1_388
10
4.1647868
20
13.7622267
11
4.1647868
21
13.3393585
0
LINE
8
DEFAULT_255_1_388
10
4.1647868
20
13.3393585
11
4.7349359
21
13.3393585
0
LINE
8
DEFAULT_255_1_388
10
5.9701085
20
13.9049898
11
5.9701085
21
13.7622267
0
LINE
8
DEFAULT_255_1_388
10
5.9701085
20
13.7622267
11
5.5472404
21
13.7622267
0
LINE
8
DEFAULT_255_1_388
10
5.5472404
20
13.7622267
11
5.5472404
21
12.5894
0
LINE
8
DEFAULT_255_1_388
10
5.5472404
20
12.5894
11
5.3746596
21
12.5894
0
LINE
8
DEFAULT_255_1_388
10
5.3746596
20
12.5894
11
5.3746596
21
13.7622267
0
LINE
8
DEFAULT_255_1_388
10
5.3746596
20
13.7622267
11
4.952695
21
13.7622267
0
LINE
8
DEFAULT_255_1_388
10
4.952695
20
13.7622267
11
4.952695
21
13.9049898
0
LINE
8
DEFAULT_255_1_388
10
4.952695
20
13.9049898
11
5.9701085
21
13.9049898
0
LINE
8
DEFAULT_255_1_388
10
7.1763671
20
13.9049898
11
7.1763671
21
12.5894
0
LINE
8
DEFAULT_255_1_388
10
7.1763671
20
12.5894
11
7.0019792
21
12.5894
0
LINE
8
DEFAULT_255_1_388
10
7.0019792
20
12.5894
11
7.0019792
21
13.1974989
0
LINE
8
DEFAULT_255_1_388
10
7.0019792
20
13.1974989
11
6.3387628
21
13.1974989
0
LINE
8
DEFAULT_255_1_388
10
6.3387628
20
13.1974989
11
6.3387628
21
12.5894
0
LINE
8
DEFAULT_255_1_388
10
6.3387628
20
12.5894
11
6.1652785
21
12.5894
0
LINE
8
DEFAULT_255_1_388
10
6.1652785
20
12.5894
11
6.1652785
21
13.9049898
0
LINE
8
DEFAULT_255_1_388
10
6.1652785
20
13.9049898
11
6.3387628
21
13.9049898
0
LINE
8
DEFAULT_255_1_388
10
6.3387628
20
13.9049898
11
6.3387628
21
13.3393585
0
LINE
8
DEFAULT_255_1_388
10
6.3387628
20
13.3393585
11
7.0019792
21
13.3393585
0
LINE
8
DEFAULT_255_1_388
10
7.0019792
20
13.3393585
11
7.0019792
21
13.9049898
0
LINE
8
DEFAULT_255_1_388
10
7.0019792
20
13.9049898
11
7.1763671
21
13.9049898
0
LINE
8
DEFAULT_255_1_388
10
23.1196856
20
21.304869
11
23.1196856
21
21.0880135
0
LINE
8
DEFAULT_255_1_388
10
22.2893099
20
21.0654244
11
22.2893099
21
21.2886048
0
LINE
8
DEFAULT_255_1_388
10
22.9525262
20
21.0428353
11
22.9525262
21
21.3166153
0
LINE
8
DEFAULT_255_1_388
10
22.4564693
20
21.3292652
11
22.4564693
21
21.0618102
0
ARC
8
DEFAULT_255_1_388
10
21.741919
20
21.0825118
40
1.3777776
50
353.8440855
51
0.2287917
0
ARC
8
DEFAULT_255_1_388
10
22.2638208
20
21.0242414
40
0.852639
50
344.4934746
51
353.9763743
0
ARC
8
DEFAULT_255_1_388
10
22.6005015
20
20.9285191
40
0.5026273
50
329.2803599
51
344.7473406
0
ARC
8
DEFAULT_255_1_388
10
22.7120511
20
20.8673038
40
0.3754848
50
324.9361395
51
328.6153007
0
ARC
8
DEFAULT_255_1_388
10
22.7546161
20
20.8375586
40
0.3235566
50
280.5801797
51
324.9173226
0
ARC
8
DEFAULT_255_1_388
10
22.7094789
20
21.0255236
40
0.5167077
50
269.5979457
51
281.6732777
0
ARC
8
DEFAULT_255_1_388
10
22.7013693
20
21.0120113
40
0.5032026
50
256.6228565
51
270.5105488
0
ARC
8
DEFAULT_255_1_388
10
22.6561435
20
20.8378345
40
0.3233092
50
215.8618351
51
257.2787793
0
ARC
8
DEFAULT_255_1_388
10
22.7710142
20
20.9149106
40
0.4615831
50
197.9695203
51
215.2622745
0
ARC
8
DEFAULT_255_1_388
10
23.0505818
20
21.0092641
40
0.7566307
50
187.8816486
51
198.2346584
0
ARC
8
DEFAULT_255_1_388
10
23.4959056
20
21.0735453
40
1.2065653
50
180.8977266
51
188.0054894
0
ARC
8
DEFAULT_255_1_388
10
23.800927
20
21.08504
40
1.5117443
50
180.7434591
51
181.152202
0
ARC
8
DEFAULT_255_1_388
10
23.6334266
20
21.2940371
40
1.3441277
50
173.7674302
51
180.2315596
0
ARC
8
DEFAULT_255_1_388
10
23.1252135
20
21.3514779
40
0.8326847
50
164.3058537
51
173.9000553
0
ARC
8
DEFAULT_255_1_388
10
22.7976135
20
21.4458652
40
0.4917711
50
148.7922028
51
164.5682288
0
ARC
8
DEFAULT_255_1_388
10
22.6906872
20
21.5055457
40
0.3694204
50
144.5883979
51
148.1161588
0
ARC
8
DEFAULT_255_1_388
10
22.6519618
20
21.5325667
40
0.322202
50
101.6440149
51
144.5142619
0
ARC
8
DEFAULT_255_1_388
10
22.699781
20
21.3425337
40
0.5180451
50
89.528284
51
102.5820197
0
ARC
8
DEFAULT_255_1_388
10
22.7086802
20
21.3381376
40
0.5224441
50
77.0437914
51
90.508231
0
ARC
8
DEFAULT_255_1_388
10
22.7539055
20
21.5229272
40
0.3322297
50
48.2777708
51
77.4996087
0
ARC
8
DEFAULT_255_1_388
10
22.7620795
20
21.5374557
40
0.315966
50
36.3141586
51
47.6307332
0
ARC
8
DEFAULT_255_1_388
10
22.6643518
20
21.4716159
40
0.4337313
50
18.2931065
51
35.6770203
0
ARC
8
DEFAULT_255_1_388
10
22.3782358
20
21.3734107
40
0.7362203
50
8.0246996
51
18.5605636
0
ARC
8
DEFAULT_255_1_388
10
21.9098714
20
21.3042432
40
1.2096583
50
1.127539
51
8.1718423
0
ARC
8
DEFAULT_255_1_388
10
21.5449847
20
21.2899374
40
1.5747719
50
0.5432713
51
1.38669
0
ARC
8
DEFAULT_255_1_388
10
21.7507226
20
21.3206163
40
1.2018103
50
359.8092569
51
4.9408001
0
ARC
8
DEFAULT_255_1_388
10
22.2243807
20
21.36289
40
0.7262727
50
4.8364937
51
12.2906017
0
ARC
8
DEFAULT_255_1_388
10
22.5343272
20
21.4319485
40
0.4087324
50
12.0806994
51
23.8171225
0
ARC
8
DEFAULT_255_1_388
10
22.6663668
20
21.4878508
40
0.2653719
50
24.2874621
51
31.3934353
0
ARC
8
DEFAULT_255_1_388
10
22.7254104
20
21.5264822
40
0.1948607
50
30.7407708
51
82.4658033
0
ARC
8
DEFAULT_255_1_388
10
22.7051765
20
21.4271017
40
0.2961198
50
81.1057101
51
90.2187368
0
ARC
8
DEFAULT_255_1_388
10
22.7011577
20
21.4561421
40
0.2670929
50
89.380395
51
105.6763916
0
ARC
8
DEFAULT_255_1_388
10
22.6805299
20
21.531132
40
0.1893189
50
105.7980655
51
149.7387869
0
ARC
8
DEFAULT_255_1_388
10
22.8002439
20
21.4591719
40
0.3289892
50
149.4208441
51
163.628295
0
ARC
8
DEFAULT_255_1_388
10
23.0354668
20
21.3874345
40
0.5749004
50
163.3764549
51
172.141138
0
ARC
8
DEFAULT_255_1_388
10
23.406739
20
21.3342582
40
0.9499585
50
172.0258462
51
178.0705453
0
ARC
8
DEFAULT_255_1_388
10
23.7488943
20
21.3180682
40
1.2924734
50
177.8639301
51
179.5036263
0
ARC
8
DEFAULT_255_1_388
10
23.6269961
20
21.0577151
40
1.170534
50
179.7995545
51
185.246089
0
ARC
8
DEFAULT_255_1_388
10
23.1721554
20
21.0146404
40
0.7136613
50
185.1411911
51
193.0082205
0
ARC
8
DEFAULT_255_1_388
10
22.8747815
20
20.9443441
40
0.4080987
50
192.7897338
51
205.2507384
0
ARC
8
DEFAULT_255_1_388
10
22.7570025
20
20.8917538
40
0.2791522
50
205.8001921
51
211.2545876
0
ARC
8
DEFAULT_255_1_388
10
22.6981564
20
20.8523132
40
0.2084074
50
210.3789935
51
238.4007996
0
ARC
8
DEFAULT_255_1_388
10
22.695965
20
20.8575786
40
0.2117943
50
239.6521916
51
265.9793852
0
ARC
8
DEFAULT_255_1_388
10
22.7055499
20
20.9332358
40
0.2879689
50
265.1324455
51
270.0603288
0
ARC
8
DEFAULT_255_1_388
10
22.7087876
20
20.8967418
40
0.2514919
50
269.3314378
51
287.2180039
0
ARC
8
DEFAULT_255_1_388
10
22.7242958
20
20.8401291
40
0.1928357
50
287.7957942
51
329.0808983
0
ARC
8
DEFAULT_255_1_388
10
22.6165715
20
20.9073651
40
0.319808
50
328.6635261
51
343.3325043
0
ARC
8
DEFAULT_255_1_388
10
22.3721174
20
20.9835195
40
0.5758408
50
343.0498092
51
351.9392499
0
ARC
8
DEFAULT_255_1_388
10
21.9820496
20
21.0410205
40
0.9701202
50
351.8071632
51
357.7957897
0
ARC
8
DEFAULT_255_1_388
10
21.6185973
20
21.0598724
40
1.3340376
50
357.5870923
51
359.2682493
0
LINE
8
DEFAULT_255_1_388
10
23.4386439
20
21.8424898
11
23.8127196
21
20.7573089
0
LINE
8
DEFAULT_255_1_388
10
23.8127196
20
20.7573089
11
24.1886024
21
21.8424898
0
LINE
8
DEFAULT_255_1_388
10
24.1886024
20
21.8424898
11
24.3783509
21
21.8424898
0
LINE
8
DEFAULT_255_1_388
10
24.3783509
20
21.8424898
11
23.8904261
21
20.5269
0
LINE
8
DEFAULT_255_1_388
10
23.8904261
20
20.5269
11
23.7368202
21
20.5269
0
LINE
8
DEFAULT_255_1_388
10
23.7368202
20
20.5269
11
23.2497989
21
21.8424898
0
LINE
8
DEFAULT_255_1_388
10
23.2497989
20
21.8424898
11
23.4386439
21
21.8424898
0
ENDSEC
0
EOF