0
SECTION
2
HEADER
9
$MEASUREMENT
70
1
0
ENDSEC
0
SECTION
2
TABLES
0
TABLE
2
LTYPE
0
LTYPE
72
65
70
64
2
CONTINUOUS
3
______
73
0
40
0
0
ENDTAB
0
TABLE
2
LAYER
0
LAYER
2
DEFAULT_255_2_778
70
0
62
255
6
CONTINUOUS
0
ENDTAB
0
ENDSEC
0
SECTION
2
ENTITIES
0
ARC
8
DEFAULT_255_2_778
10
5.8805578
20
8.2255284
40
8.48993
50
230.5086352
51
269.9680855
0
ARC
8
DEFAULT_255_2_778
10
5.8858524
20
8.233539
40
8.4994792
50
230.2024172
51
230.5154337
0
ARC
8
DEFAULT_255_2_778
10
0.8744135
20
2.2099408
40
0.6637977
50
193.6020409
51
229.7512354
0
ARC
8
DEFAULT_255_2_778
10
0.8808442
20
2.2118428
40
0.6704955
50
179.9999396
51
193.6307773
0
ARC
8
DEFAULT_255_2_778
10
0.8802816
20
2.2118421
40
0.6699329
50
178.7635051
51
179.9998802
0
ARC
8
DEFAULT_255_2_778
10
0.8742953
20
2.2124967
40
0.6639341
50
144.6756962
51
178.8088304
0
ARC
8
DEFAULT_255_2_778
10
0.8845907
20
2.2055221
40
0.6763669
50
140.7350499
51
144.6979157
0
ARC
8
DEFAULT_255_2_778
10
0.8595398
20
2.225834
40
0.6441162
50
103.813016
51
140.7235925
0
ARC
8
DEFAULT_255_2_778
10
0.8654014
20
2.2059953
40
0.6647813
50
89.982643
51
103.8953686
0
ARC
8
DEFAULT_255_2_778
10
0.8655923
20
2.200561
40
0.6702157
50
88.1992092
51
89.9991017
0
ARC
8
DEFAULT_255_2_778
10
0.8656733
20
2.2008569
40
0.6699174
50
54.3865825
51
88.2053457
0
ARC
8
DEFAULT_255_2_778
10
0.8600045
20
2.1924461
40
0.6800562
50
50.6466584
51
54.4109428
0
ARC
8
DEFAULT_255_2_778
10
5.8779338
20
8.2112113
40
7.1561121
50
230.1373582
51
269.9791433
0
ARC
8
DEFAULT_255_2_778
10
5.8786783
20
8.2067162
40
7.1516173
50
269.9731649
51
281.4910493
0
ARC
8
DEFAULT_255_2_778
10
5.8872166
20
8.150479
40
7.094807
50
281.5139533
51
297.0155032
0
ARC
8
DEFAULT_255_2_778
10
5.8417876
20
8.2370754
40
7.1925897
50
297.024562
51
340.4925342
0
ARC
8
DEFAULT_255_2_778
10
5.9323541
20
8.1928129
40
7.0924507
50
340.5852654
51
353.8835759
0
ARC
8
DEFAULT_255_2_778
10
5.8320556
20
8.2040289
40
7.1933733
50
353.879869
51
0.0093254
0
ARC
8
DEFAULT_255_2_778
10
5.8733752
20
8.2085375
40
7.1520544
50
359.97326
51
11.4890324
0
ARC
8
DEFAULT_255_2_778
10
5.9293213
20
8.2170265
40
7.095539
50
11.5118398
51
27.0106495
0
ARC
8
DEFAULT_255_2_778
10
5.8437504
20
8.1722499
40
7.1921117
50
27.0188544
51
70.365331
0
ARC
8
DEFAULT_255_2_778
10
5.8883884
20
8.2632589
40
7.0914044
50
70.4579359
51
83.843212
0
ARC
8
DEFAULT_255_2_778
10
5.877024
20
8.1622815
40
7.1930182
50
83.8394754
51
90.0095201
0
ARC
8
DEFAULT_255_2_778
10
5.8788357
20
8.1980802
40
7.1572201
50
90.0240711
51
129.8594275
0
ARC
8
DEFAULT_255_2_778
10
0.8650435
20
14.2100925
40
0.6711013
50
281.4596674
51
309.4792413
0
ARC
8
DEFAULT_255_2_778
10
0.8675357
20
14.2016961
40
0.6623775
50
271.4298033
51
281.3926915
0
ARC
8
DEFAULT_255_2_778
10
0.8675756
20
14.2011731
40
0.6618538
50
270.0008518
51
271.4274781
0
ARC
8
DEFAULT_255_2_778
10
0.8670726
20
14.1955119
40
0.6561927
50
227.081475
51
270.0447796
0
ARC
8
DEFAULT_255_2_778
10
0.8841103
20
14.2150031
40
0.682069
50
219.9756509
51
227.1483088
0
ARC
8
DEFAULT_255_2_778
10
0.8671737
20
14.1979734
40
0.6581529
50
190.5612006
51
219.7868202
0
ARC
8
DEFAULT_255_2_778
10
0.8719036
20
14.1987884
40
0.662952
50
181.1706432
51
190.5555248
0
ARC
8
DEFAULT_255_2_778
10
0.8745099
20
14.1988948
40
0.6655598
50
180.0000847
51
181.1752144
0
ARC
8
DEFAULT_255_2_778
10
0.8701088
20
14.199767
40
0.6611594
50
134.0024135
51
180.0756689
0
ARC
8
DEFAULT_255_2_778
10
0.8771193
20
14.1921883
40
0.6714808
50
129.9299632
51
133.9834574
0
ARC
8
DEFAULT_255_2_778
10
5.8794048
20
8.1654798
40
8.5037214
50
91.2718147
51
129.712019
0
ARC
8
DEFAULT_255_2_778
10
5.8794221
20
8.159957
40
8.5092432
50
90.020155
51
91.2711062
0
ARC
8
DEFAULT_255_2_778
10
5.8797347
20
8.1878097
40
8.4813906
50
79.8569059
51
90.022333
0
ARC
8
DEFAULT_255_2_778
10
5.8930911
20
8.2749227
40
8.3932874
50
66.5311975
51
79.8419318
0
ARC
8
DEFAULT_255_2_778
10
5.8347657
20
8.1609504
40
8.5210634
50
24.3252816
51
66.4766579
0
ARC
8
DEFAULT_255_2_778
10
5.9460115
20
8.2181892
40
8.3961185
50
10.74773
51
24.2820633
0
ARC
8
DEFAULT_255_2_778
10
5.8714966
20
8.2064718
40
8.4715117
50
0.315472
51
10.7316058
0
ARC
8
DEFAULT_255_2_778
10
5.7628566
20
8.2025504
40
8.5801722
50
359.9996612
51
0.3376631
0
ARC
8
DEFAULT_255_2_778
10
5.8584873
20
8.1992259
40
8.4845421
50
349.8656704
51
0.0221075
0
ARC
8
DEFAULT_255_2_778
10
5.9450203
20
8.1859681
40
8.3970267
50
336.2375234
51
349.8508291
0
ARC
8
DEFAULT_255_2_778
10
5.8375639
20
8.240903
40
8.517512
50
294.0955557
51
336.1905796
0
ARC
8
DEFAULT_255_2_778
10
5.894074
20
8.132009
40
8.3950385
50
280.6374798
51
294.0468997
0
ARC
8
DEFAULT_255_2_778
10
5.8805171
20
8.2165595
40
8.4806389
50
270.3112779
51
280.6220512
0
ARC
8
DEFAULT_255_2_778
10
5.8764113
20
8.3473483
40
8.6114487
50
270.0001163
51
270.3338677
0
LINE
8
DEFAULT_255_2_778
10
5.8764288
20
-0.2641003
11
5.8758288
21
-0.2644003
0
ARC
8
DEFAULT_255_2_778
10
8.4470566
20
5.8037845
40
0.6381866
50
269.5177961
51
270.0021202
0
ARC
8
DEFAULT_255_2_778
10
8.4480465
20
5.8280598
40
0.6624698
50
211.5631573
51
269.4498473
0
ARC
8
DEFAULT_255_2_778
10
2.6298204
20
5.8316208
40
0.6643349
50
285.9690091
51
328.1748574
0
ARC
8
DEFAULT_255_2_778
10
2.6276135
20
5.836494
40
0.6696278
50
270.0107636
51
286.035841
0
ARC
8
DEFAULT_255_2_778
10
2.6277246
20
5.8324179
40
0.6655517
50
266.4354327
51
270.0012589
0
ARC
8
DEFAULT_255_2_778
10
2.6275779
20
5.8299921
40
0.6631214
50
241.6851393
51
266.4350587
0
ARC
8
DEFAULT_255_2_778
10
2.6338107
20
5.8427383
40
0.6772991
50
239.1286391
51
241.7323982
0
ARC
8
DEFAULT_255_2_778
10
2.636603
20
5.8258577
40
0.6643349
50
195.9690091
51
238.1748574
0
ARC
8
DEFAULT_255_2_778
10
2.6414763
20
5.8280646
40
0.6696278
50
180.0107636
51
196.035841
0
ARC
8
DEFAULT_255_2_778
10
2.6374002
20
5.8279534
40
0.6655517
50
176.4354327
51
180.0012589
0
ARC
8
DEFAULT_255_2_778
10
2.6349744
20
5.8281002
40
0.6631214
50
151.6851393
51
176.4350587
0
ARC
8
DEFAULT_255_2_778
10
2.6477205
20
5.8218674
40
0.6772991
50
149.1286391
51
151.7323982
0
ARC
8
DEFAULT_255_2_778
10
5.536202
20
10.5843278
40
0.6534841
50
90.0080186
51
148.8770844
0
ARC
8
DEFAULT_255_2_778
10
5.5361402
20
10.5865075
40
0.6513044
50
89.6270076
51
90.0026098
0
ARC
8
DEFAULT_255_2_778
10
5.5401035
20
10.5763736
40
0.6614244
50
31.5133157
51
89.9760319
0
ARC
8
DEFAULT_255_2_778
10
8.470969
20
5.8320156
40
0.6390966
50
8.01942
51
31.8429076
0
ARC
8
DEFAULT_255_2_778
10
8.4634443
20
5.8309149
40
0.6467013
50
2.7419577
51
8.0229754
0
ARC
8
DEFAULT_255_2_778
10
8.4578081
20
5.8306086
40
0.6523458
50
359.9986078
51
2.7451485
0
ARC
8
DEFAULT_255_2_778
10
8.436211
20
5.8325357
40
0.6739458
50
303.5104142
51
359.8348207
0
ARC
8
DEFAULT_255_2_778
10
8.4361236
20
5.8337489
40
0.6750058
50
302.0458493
51
303.4597454
0
ARC
8
DEFAULT_255_2_778
10
8.4504512
20
5.8293198
40
0.6637217
50
269.9852388
51
301.2003246
0
LINE
8
DEFAULT_255_2_778
10
7.8835802
20
5.4812979
11
5.5377802
21
9.3134979
0
LINE
8
DEFAULT_255_2_778
10
5.5377802
20
9.3134979
11
3.1942802
21
5.4812979
0
LINE
8
DEFAULT_255_2_778
10
2.0663802
20
6.1693979
11
4.9767802
21
10.9220979
0
LINE
8
DEFAULT_255_2_778
10
6.1039802
20
10.9220979
11
9.0138802
21
6.1691979
0
LINE
8
DEFAULT_255_2_778
10
8.4502802
20
5.1655979
11
8.4470802
21
5.1655979
0
ENDSEC
0
EOF