0
SECTION
2
HEADER
9
$MEASUREMENT
70
1
0
ENDSEC
0
SECTION
2
TABLES
0
TABLE
2
LTYPE
0
LTYPE
72
65
70
64
2
CONTINUOUS
3
______
73
0
40
0
0
ENDTAB
0
TABLE
2
LAYER
0
LAYER
2
DEFAULT_255_2_778
70
0
62
255
6
CONTINUOUS
0
ENDTAB
0
ENDSEC
0
SECTION
2
ENTITIES
0
ARC
8
DEFAULT_255_2_778
10
13.3191388
20
3.8318031
40
0.5095411
50
90.0043992
51
90.3003615
0
ARC
8
DEFAULT_255_2_778
10
13.3190758
20
3.8331848
40
0.5081592
50
45.1164463
51
89.9973089
0
ARC
8
DEFAULT_255_2_778
10
13.3193396
20
3.8335289
40
0.5077293
50
0.015114
51
45.1101402
0
ARC
8
DEFAULT_255_2_778
10
13.2991443
20
3.8337566
40
0.5279245
50
359.8676521
51
359.9898177
0
ARC
8
DEFAULT_255_2_778
10
13.3195387
20
3.8373801
40
0.507552
50
269.6533168
51
359.4532964
0
ARC
8
DEFAULT_255_2_778
10
13.3162545
20
3.8310263
40
0.5011892
50
179.8272772
51
270.0243598
0
ARC
8
DEFAULT_255_2_778
10
13.3182854
20
3.838092
40
0.5032484
50
90.2069594
51
180.6324387
0
LINE
8
DEFAULT_255_2_778
10
2.0459676
20
3.0380372
11
1.4361676
21
1.0501372
0
LINE
8
DEFAULT_255_2_778
10
1.4361676
20
1.0501372
11
2.6479676
21
1.0501372
0
LINE
8
DEFAULT_255_2_778
10
2.6479676
20
1.0501372
11
2.0459676
21
3.0380372
0
LINE
8
DEFAULT_255_2_778
10
3.0567676
20
-0.1547628
11
2.8701676
21
0.4046372
0
LINE
8
DEFAULT_255_2_778
10
2.8701676
20
0.4046372
11
1.2133676
21
0.4046372
0
LINE
8
DEFAULT_255_2_778
10
1.2133676
20
0.4046372
11
1.0281676
21
-0.1547628
0
LINE
8
DEFAULT_255_2_778
10
1.0281676
20
-0.1547628
11
0.2645676
21
-0.1547628
0
LINE
8
DEFAULT_255_2_778
10
0.2645676
20
-0.1547628
11
1.7864676
21
4.2352372
0
LINE
8
DEFAULT_255_2_778
10
1.7864676
20
4.2352372
11
2.2978676
21
4.2352372
0
LINE
8
DEFAULT_255_2_778
10
2.2978676
20
4.2352372
11
3.8184676
21
-0.1547628
0
LINE
8
DEFAULT_255_2_778
10
3.8184676
20
-0.1547628
11
3.0567676
21
-0.1547628
0
LINE
8
DEFAULT_255_2_778
10
12.9724676
20
-0.1547628
11
13.6604676
21
-0.1547628
0
LINE
8
DEFAULT_255_2_778
10
13.6604676
20
-0.1547628
11
13.6604676
21
2.7697372
0
LINE
8
DEFAULT_255_2_778
10
13.6604676
20
2.7697372
11
12.9724676
21
2.7697372
0
LINE
8
DEFAULT_255_2_778
10
12.9724676
20
2.7697372
11
12.9724676
21
-0.1547628
0
LINE
8
DEFAULT_255_2_778
10
13.3164676
20
4.3413372
11
13.3164676
21
4.3413372
0
LINE
8
DEFAULT_255_2_778
10
16.6660676
20
4.2355372
11
16.6660676
21
1.4764372
0
LINE
8
DEFAULT_255_2_778
10
16.6660676
20
1.4764372
11
17.7402676
21
2.7728372
0
LINE
8
DEFAULT_255_2_778
10
17.7402676
20
2.7728372
11
18.5962676
21
2.7728372
0
LINE
8
DEFAULT_255_2_778
10
18.5962676
20
2.7728372
11
17.3775676
21
1.3097372
0
LINE
8
DEFAULT_255_2_778
10
17.3775676
20
1.3097372
11
18.5962676
21
-0.1512628
0
LINE
8
DEFAULT_255_2_778
10
18.5962676
20
-0.1512628
11
17.7376676
21
-0.1512628
0
LINE
8
DEFAULT_255_2_778
10
17.7376676
20
-0.1512628
11
16.6634676
21
1.1338372
0
LINE
8
DEFAULT_255_2_778
10
16.6634676
20
1.1338372
11
16.6634676
21
-0.1512628
0
LINE
8
DEFAULT_255_2_778
10
16.6634676
20
-0.1512628
11
15.9768676
21
-0.1512628
0
LINE
8
DEFAULT_255_2_778
10
15.9768676
20
-0.1512628
11
15.9768676
21
4.2408372
0
LINE
8
DEFAULT_255_2_778
10
15.9768676
20
4.2408372
11
16.6660676
21
4.2355372
0
ARC
8
DEFAULT_255_2_778
10
21.7576217
20
1.3043198
40
1.4787481
50
278.3928061
51
279.4151247
0
ARC
8
DEFAULT_255_2_778
10
21.5817771
20
2.562606
40
2.7492421
50
275.0911515
51
278.1907231
0
ARC
8
DEFAULT_255_2_778
10
21.4781005
20
3.626901
40
3.8185487
50
270.9917087
51
275.2235148
0
ARC
8
DEFAULT_255_2_778
10
21.4907818
20
3.0943084
40
3.2858181
50
270.1859011
51
270.9313507
0
ARC
8
DEFAULT_255_2_778
10
21.4914609
20
2.9615459
40
3.153054
50
270.0011598
51
270.1813891
0
ARC
8
DEFAULT_255_2_778
10
21.4852672
20
2.1020864
40
2.293603
50
267.4985482
51
270.1563168
0
ARC
8
DEFAULT_255_2_778
10
21.4429819
20
1.1844828
40
1.3750301
50
260.888113
51
267.5900751
0
ARC
8
DEFAULT_255_2_778
10
21.3884752
20
0.829915
40
1.0163074
50
254.5420313
51
260.7566675
0
ARC
8
DEFAULT_255_2_778
10
21.3056068
20
0.5624294
40
0.7364607
50
229.8782686
51
255.2093631
0
ARC
8
DEFAULT_255_2_778
10
21.28802
20
0.5270872
40
0.6981646
50
210.1780607
51
229.1128305
0
ARC
8
DEFAULT_255_2_778
10
21.4666796
20
0.6308005
40
0.9047457
50
197.2096775
51
210.1683429
0
ARC
8
DEFAULT_255_2_778
10
21.8232162
20
0.7429015
40
1.2784878
50
187.8599589
51
197.2811045
0
ARC
8
DEFAULT_255_2_778
10
22.3703776
20
0.8207289
40
1.8311533
50
180.9496238
51
187.9310068
0
ARC
8
DEFAULT_255_2_778
10
22.7985277
20
0.8355342
40
2.259503
50
179.9934657
51
181.145066
0
ARC
8
DEFAULT_255_2_778
10
22.9337231
20
0.9834241
40
1.7099316
50
179.6425455
51
185.9855245
0
ARC
8
DEFAULT_255_2_778
10
22.0005777
20
0.8797117
40
0.7710808
50
185.5514845
51
198.0213549
0
ARC
8
DEFAULT_255_2_778
10
21.5734904
20
0.7346152
40
0.3201104
50
196.974285
51
226.7282693
0
ARC
8
DEFAULT_255_2_778
10
21.5732202
20
0.7789622
40
0.3535411
50
231.6927484
51
270.3543147
0
ARC
8
DEFAULT_255_2_778
10
21.6499805
20
1.6101847
40
1.1871015
50
266.3982893
51
270.2193269
0
ARC
8
DEFAULT_255_2_778
10
21.6481524
20
3.0543004
40
2.6312162
50
270.1387608
51
272.4064872
0
ARC
8
DEFAULT_255_2_778
10
21.6312645
20
3.5609165
40
3.1380978
50
272.3261663
51
273.0137317
0
ARC
8
DEFAULT_255_2_778
10
21.6923953
20
2.5812677
40
2.156611
50
272.7602494
51
276.6824592
0
ARC
8
DEFAULT_255_2_778
10
21.8754991
20
1.0239527
40
0.5885692
50
276.6201366
51
282.114994
0
ARC
8
DEFAULT_255_2_778
10
25.0301852
20
1.3162097
40
1.0055915
50
359.4178114
51
32.2565283
0
ARC
8
DEFAULT_255_2_778
10
25.1867727
20
1.4120452
40
0.8220261
50
32.4326932
51
79.6305543
0
ARC
8
DEFAULT_255_2_778
10
25.1645403
20
1.3029454
40
0.9333484
50
79.4935485
51
90.1175953
0
ARC
8
DEFAULT_255_2_778
10
25.1554864
20
1.4158553
40
0.8204677
50
89.5015004
51
119.5444902
0
ARC
8
DEFAULT_255_2_778
10
25.2101578
20
1.3631469
40
0.8935415
50
120.9278799
51
168.74739
0
ARC
8
DEFAULT_255_2_778
10
25.3830227
20
1.3072452
40
1.0741988
50
167.6221458
51
180.0668479
0
ARC
8
DEFAULT_255_2_778
10
25.3210708
20
1.2971206
40
1.0122849
50
179.4978753
51
211.1360777
0
ARC
8
DEFAULT_255_2_778
10
25.1510336
20
1.1913589
40
0.8120608
50
210.9523218
51
263.7260772
0
ARC
8
DEFAULT_255_2_778
10
25.1620171
20
1.2741465
40
0.8955549
50
263.6064072
51
270.0388755
0
ARC
8
DEFAULT_255_2_778
10
25.1704827
20
1.2493264
40
0.8707699
50
269.4829472
51
295.9352541
0
ARC
8
DEFAULT_255_2_778
10
25.1447066
20
1.2522323
40
0.8849279
50
297.3539389
51
351.5041053
0
ARC
8
DEFAULT_255_2_778
10
24.9620669
20
1.3050182
40
1.0736583
50
350.1579172
51
0.0519624
0
ARC
8
DEFAULT_255_2_778
10
25.2079928
20
1.3139036
40
1.5836879
50
149.8595041
51
180.2862356
0
ARC
8
DEFAULT_255_2_778
10
25.099019
20
1.3734374
40
1.4595581
50
111.2005011
51
149.7325686
0
ARC
8
DEFAULT_255_2_778
10
25.1484679
20
1.2365198
40
1.6050952
50
92.6257459
51
111.0787166
0
ARC
8
DEFAULT_255_2_778
10
25.1649398
20
1.0506096
40
1.7915824
50
89.9908884
51
92.8796004
0
ARC
8
DEFAULT_255_2_778
10
25.1731078
20
1.1349132
40
1.7072969
50
73.7720276
51
90.2645507
0
ARC
8
DEFAULT_255_2_778
10
25.235383
20
1.3496775
40
1.483686
50
48.0506191
51
73.7633774
0
ARC
8
DEFAULT_255_2_778
10
25.1982105
20
1.3296729
40
1.5234799
50
3.4304217
51
47.5137898
0
ARC
8
DEFAULT_255_2_778
10
25.0624193
20
1.3061642
40
1.6605054
50
359.9940543
51
3.95978
0
ARC
8
DEFAULT_255_2_778
10
25.1542959
20
1.2973336
40
1.5686527
50
328.2916069
51
0.3162495
0
ARC
8
DEFAULT_255_2_778
10
25.2471314
20
1.2467362
40
1.4630919
50
292.2263856
51
328.066469
0
ARC
8
DEFAULT_255_2_778
10
25.1879391
20
1.3972421
40
1.6248065
50
273.9424131
51
292.1510178
0
ARC
8
DEFAULT_255_2_778
10
25.1658829
20
1.6039511
40
1.8325593
50
269.9794215
51
274.1860339
0
ARC
8
DEFAULT_255_2_778
10
25.1577073
20
1.4210202
40
1.6496454
50
252.7973571
51
270.2610956
0
ARC
8
DEFAULT_255_2_778
10
25.1048274
20
1.2464307
40
1.4672272
50
223.2336371
51
252.7535874
0
ARC
8
DEFAULT_255_2_778
10
25.1643286
20
1.2879714
40
1.5390679
50
183.5603362
51
222.8430541
0
ARC
8
DEFAULT_255_2_778
10
25.2737128
20
1.3058468
40
1.6493881
50
179.9949578
51
183.944126
0
LINE
8
DEFAULT_255_2_778
10
20.5390247
20
0.8357919
11
20.5390247
21
2.1983919
0
LINE
8
DEFAULT_255_2_778
10
20.5390247
20
2.1983919
11
20.0429247
21
2.1983919
0
LINE
8
DEFAULT_255_2_778
10
20.0429247
20
2.1983919
11
20.0429247
21
2.7698919
0
LINE
8
DEFAULT_255_2_778
10
20.0429247
20
2.7698919
11
20.5390247
21
2.7698919
0
LINE
8
DEFAULT_255_2_778
10
20.5390247
20
2.7698919
11
20.5390247
21
3.6509919
0
LINE
8
DEFAULT_255_2_778
10
20.5390247
20
3.6509919
11
21.2238247
21
3.6509919
0
LINE
8
DEFAULT_255_2_778
10
21.2238247
20
3.6509919
11
21.2238247
21
2.7698919
0
LINE
8
DEFAULT_255_2_778
10
21.2238247
20
2.7698919
11
21.8984247
21
2.7698919
0
LINE
8
DEFAULT_255_2_778
10
21.8984247
20
2.7698919
11
21.8984247
21
2.1983919
0
LINE
8
DEFAULT_255_2_778
10
21.8984247
20
2.1983919
11
21.2238247
21
2.1983919
0
LINE
8
DEFAULT_255_2_778
10
21.2238247
20
2.1983919
11
21.2238247
21
0.9940919
0
LINE
8
DEFAULT_255_2_778
10
21.9990247
20
0.4484919
11
21.9995247
21
-0.1545081
0
LINE
8
DEFAULT_255_2_778
10
7.4204247
20
2.1256919
11
7.4204247
21
2.7696919
0
LINE
8
DEFAULT_255_2_778
10
7.4204247
20
2.7696919
11
5.5583247
21
2.7696919
0
LINE
8
DEFAULT_255_2_778
10
5.5583247
20
2.7696919
11
5.5583247
21
-0.1545081
0
LINE
8
DEFAULT_255_2_778
10
5.5583247
20
-0.1545081
11
6.2454247
21
-0.1545081
0
LINE
8
DEFAULT_255_2_778
10
6.2454247
20
-0.1545081
11
6.2454247
21
2.1256919
0
LINE
8
DEFAULT_255_2_778
10
6.2454247
20
2.1256919
11
7.4204247
21
2.1256919
0
LINE
8
DEFAULT_255_2_778
10
11.0596075
20
2.1256877
11
11.0596075
21
2.7696877
0
LINE
8
DEFAULT_255_2_778
10
11.0596075
20
2.7696877
11
9.1956075
21
2.7696877
0
LINE
8
DEFAULT_255_2_778
10
9.1956075
20
2.7696877
11
9.1956075
21
-0.1545123
0
LINE
8
DEFAULT_255_2_778
10
9.1956075
20
-0.1545123
11
9.8848075
21
-0.1545123
0
LINE
8
DEFAULT_255_2_778
10
9.8848075
20
-0.1545123
11
9.8848075
21
2.1256877
0
LINE
8
DEFAULT_255_2_778
10
9.8848075
20
2.1256877
11
11.0596075
21
2.1256877
0
ENDSEC
0
EOF