0
SECTION
2
HEADER
9
$MEASUREMENT
70
1
0
ENDSEC
0
SECTION
2
TABLES
0
TABLE
2
LTYPE
0
LTYPE
72
65
70
64
2
CONTINUOUS
3
______
73
0
40
0
0
ENDTAB
0
TABLE
2
LAYER
0
LAYER
2
DEFAULT_255_2_778
70
0
62
255
6
CONTINUOUS
0
ENDTAB
0
ENDSEC
0
SECTION
2
ENTITIES
0
ARC
8
DEFAULT_255_2_778
10
12.5179267
20
3.4818823
40
1.4944568
50
347.9212443
51
0.4684757
0
ARC
8
DEFAULT_255_2_778
10
13.044071
20
3.364503
40
0.9554101
50
325.9853049
51
348.2020075
0
ARC
8
DEFAULT_255_2_778
10
13.126463
20
3.3311328
40
0.8686439
50
289.762685
51
324.7695603
0
ARC
8
DEFAULT_255_2_778
10
12.9243908
20
3.8417504
40
1.4176207
50
276.6135411
51
290.470717
0
ARC
8
DEFAULT_255_2_778
10
12.8411723
20
4.4182868
40
1.9999712
50
272.7989433
51
277.0794804
0
ARC
8
DEFAULT_255_2_778
10
4.4758417
20
4.0554595
40
1.634812
50
258.6153066
51
270.4658511
0
ARC
8
DEFAULT_255_2_778
10
4.3432471
20
3.4275152
40
0.9930679
50
237.70294
51
258.9633444
0
ARC
8
DEFAULT_255_2_778
10
4.255305
20
3.2620832
40
0.8063642
50
199.0942926
51
236.7042008
0
ARC
8
DEFAULT_255_2_778
10
4.6825607
20
3.423789
40
1.2630782
50
185.3555501
51
199.6859801
0
ARC
8
DEFAULT_255_2_778
10
5.248461
20
3.4899735
40
1.832732
50
179.8709481
51
185.7643665
0
ARC
8
DEFAULT_255_2_778
10
4.9102549
20
3.5063187
40
1.4945712
50
167.9218198
51
180.468364
0
ARC
8
DEFAULT_255_2_778
10
4.38416
20
3.6236849
40
0.9555756
50
145.9888482
51
168.2027155
0
ARC
8
DEFAULT_255_2_778
10
4.3015578
20
3.65722
40
0.8685412
50
109.764674
51
144.7745715
0
ARC
8
DEFAULT_255_2_778
10
4.5033728
20
3.1472521
40
1.4168197
50
96.6081704
51
110.4714305
0
ARC
8
DEFAULT_255_2_778
10
4.5864604
20
2.5712476
40
1.9986251
50
92.7912317
51
97.0740166
0
ARC
8
DEFAULT_255_2_778
10
12.901752
20
2.8650019
40
1.7039912
50
76.5019357
51
87.6024978
0
ARC
8
DEFAULT_255_2_778
10
13.0645287
20
3.5197525
40
1.0293467
50
57.3773527
51
76.8054882
0
ARC
8
DEFAULT_255_2_778
10
13.1693252
20
3.7080113
40
0.814399
50
16.0723542
51
56.446726
0
ARC
8
DEFAULT_255_2_778
10
12.6647032
20
3.5425761
40
1.3452354
50
3.1272799
51
16.8928521
0
ARC
8
DEFAULT_255_2_778
10
12.1129507
20
3.4959081
40
1.8987838
50
359.9454861
51
3.6251169
0
ARC
8
DEFAULT_255_2_778
10
4.4758393
20
0.2661892
40
1.6351663
50
89.534166
51
101.3821079
0
ARC
8
DEFAULT_255_2_778
10
4.3431984
20
0.8944865
40
0.9930674
50
101.0337961
51
122.2937554
0
ARC
8
DEFAULT_255_2_778
10
4.2552143
20
1.0600102
40
0.8062629
50
123.2928174
51
160.9067945
0
ARC
8
DEFAULT_255_2_778
10
4.6826425
20
0.8982466
40
1.2631587
50
160.314829
51
174.6452524
0
ARC
8
DEFAULT_255_2_778
10
5.2488663
20
0.8320316
40
1.8331374
50
174.2362737
51
180.1290886
0
ARC
8
DEFAULT_255_2_778
10
4.9101585
20
0.8156814
40
1.4944749
50
179.5314967
51
192.0785738
0
ARC
8
DEFAULT_255_2_778
10
4.3840416
20
0.6983089
40
0.9554564
50
191.7977745
51
214.0132503
0
ARC
8
DEFAULT_255_2_778
10
4.3015901
20
0.6648912
40
0.8686135
50
215.2284904
51
250.2347776
0
ARC
8
DEFAULT_255_2_778
10
4.50359
20
1.1752771
40
1.4173485
50
249.5271778
51
263.3854673
0
ARC
8
DEFAULT_255_2_778
10
4.586784
20
1.7515694
40
1.9994539
50
262.9195865
51
267.2006424
0
ARC
8
DEFAULT_255_2_778
10
12.9863255
20
1.3892595
40
1.634812
50
269.5341489
51
281.3846934
0
ARC
8
DEFAULT_255_2_778
10
13.11892
20
0.7613152
40
0.9930679
50
281.0366556
51
302.29706
0
ARC
8
DEFAULT_255_2_778
10
13.2068622
20
0.5958832
40
0.8063642
50
303.2957992
51
340.9057074
0
ARC
8
DEFAULT_255_2_778
10
12.7796064
20
0.757589
40
1.2630782
50
340.3140199
51
354.6444499
0
ARC
8
DEFAULT_255_2_778
10
12.2137062
20
0.8237735
40
1.832732
50
354.2356335
51
0.1290519
0
ARC
8
DEFAULT_255_2_778
10
12.172981
20
0.7523474
40
1.8749754
50
2.3094185
51
12.2956809
0
ARC
8
DEFAULT_255_2_778
10
12.900478
20
0.9160617
40
1.129313
50
12.0403003
51
28.8013417
0
ARC
8
DEFAULT_255_2_778
10
13.1786283
20
1.060124
40
0.8162026
50
29.3464037
51
76.6259416
0
ARC
8
DEFAULT_255_2_778
10
13.0078942
20
0.4787432
40
1.4216607
50
75.3512345
51
88.1399155
0
ARC
8
DEFAULT_255_2_778
10
12.973857
20
-0.0513598
40
1.9526615
50
87.6465855
51
90.0241615
0
ARC
8
DEFAULT_255_2_778
10
15.5924447
20
6.1050586
40
1.6488933
50
89.5521312
51
101.3004664
0
ARC
8
DEFAULT_255_2_778
10
15.4630424
20
6.7244188
40
1.0161987
50
100.9888185
51
121.2984831
0
ARC
8
DEFAULT_255_2_778
10
15.3633706
20
6.9118835
40
0.804329
50
122.1690341
51
162.8336265
0
ARC
8
DEFAULT_255_2_778
10
15.802984
20
6.7600124
40
1.2692756
50
162.1404851
51
176.6250949
0
ARC
8
DEFAULT_255_2_778
10
16.2810152
20
6.7168509
40
1.7490823
50
176.1355157
51
180.0540313
0
ARC
8
DEFAULT_255_2_778
10
16.0264549
20
0.8503843
40
1.4945712
50
179.531636
51
192.0781802
0
ARC
8
DEFAULT_255_2_778
10
15.50036
20
0.7330181
40
0.9555756
50
191.7972845
51
214.0111518
0
ARC
8
DEFAULT_255_2_778
10
15.4177578
20
0.699483
40
0.8685412
50
215.2254285
51
250.235326
0
ARC
8
DEFAULT_255_2_778
10
15.6195728
20
1.2094509
40
1.4168197
50
249.5285695
51
263.3918296
0
ARC
8
DEFAULT_255_2_778
10
15.7026604
20
1.7854554
40
1.9986251
50
262.9259834
51
267.2087683
0
ARC
8
DEFAULT_255_2_778
10
15.5750744
20
1.097642
40
1.3087903
50
271.3247946
51
296.1993232
0
ARC
8
DEFAULT_255_2_778
10
15.5624338
20
1.0774335
40
1.296397
50
297.0949469
51
321.2919598
0
ARC
8
DEFAULT_255_2_778
10
15.1305295
20
1.4343001
40
1.8566165
50
321.0331659
51
333.4826893
0
ARC
8
DEFAULT_255_2_778
10
14.3597442
20
1.8247641
40
2.7206497
50
333.3720015
51
341.9428992
0
ARC
8
DEFAULT_255_2_778
10
13.2211283
20
2.2016222
40
3.920003
50
341.8644622
51
348.0239897
0
ARC
8
DEFAULT_255_2_778
10
11.7074305
20
2.5273246
40
5.4683404
50
347.9766537
51
352.617794
0
ARC
8
DEFAULT_255_2_778
10
9.791542
20
2.779125
40
7.4007024
50
352.5903463
51
356.2538986
0
ARC
8
DEFAULT_255_2_778
10
7.4458564
20
2.9359541
40
9.7516229
50
356.2348727
51
359.1842687
0
ARC
8
DEFAULT_255_2_778
10
5.61502
20
2.9734672
40
11.5828137
50
359.1276585
51
0.0061054
0
ARC
8
DEFAULT_255_2_778
10
12.5600208
20
5.618274
40
4.6378275
50
359.8557974
51
5.2971065
0
ARC
8
DEFAULT_255_2_778
10
13.9007762
20
5.7460343
40
3.2910049
50
5.2372903
51
12.6010861
0
ARC
8
DEFAULT_255_2_778
10
14.8826704
20
5.9691546
40
2.2840883
50
12.512433
51
22.8861775
0
ARC
8
DEFAULT_255_2_778
10
15.5194327
20
6.2425324
40
1.591141
50
22.7342419
51
39.2163385
0
ARC
8
DEFAULT_255_2_778
10
15.7186653
20
6.3872781
40
1.3453381
50
39.8049664
51
77.2081172
0
ARC
8
DEFAULT_255_2_778
10
15.5510756
20
5.7609825
40
1.9933494
50
76.4963536
51
88.4488703
0
ARC
8
DEFAULT_255_2_778
10
1.9110808
20
5.775624
40
1.9789994
50
91.547586
51
104.1527374
0
ARC
8
DEFAULT_255_2_778
10
1.7399373
20
6.3913753
40
1.3401803
50
103.4946389
51
148.4140265
0
ARC
8
DEFAULT_255_2_778
10
2.149967
20
6.1338561
40
1.8243548
50
148.2694091
51
161.6976362
0
ARC
8
DEFAULT_255_2_778
10
2.9148758
20
5.8747926
40
2.6319293
50
161.5724045
51
170.5208596
0
ARC
8
DEFAULT_255_2_778
10
4.0212477
20
5.6851076
40
3.7544366
50
170.446261
51
176.9261632
0
ARC
8
DEFAULT_255_2_778
10
5.1977698
20
5.6112417
40
4.9332384
50
176.8022267
51
180.053893
0
ARC
8
DEFAULT_255_2_778
10
10.8294039
20
2.9627378
40
10.5648771
50
179.9351184
51
182.8830503
0
ARC
8
DEFAULT_255_2_778
10
8.2141483
20
2.8283878
40
7.9461748
50
182.8640203
51
186.5180739
0
ARC
8
DEFAULT_255_2_778
10
6.0968048
20
2.5835345
40
5.8147233
50
186.489332
51
191.137365
0
ARC
8
DEFAULT_255_2_778
10
4.457852
20
2.2580684
40
4.1437702
50
191.0992941
51
197.0783126
0
ARC
8
DEFAULT_255_2_778
10
3.2496256
20
1.8832912
40
2.8787596
50
197.0102256
51
205.1601227
0
ARC
8
DEFAULT_255_2_778
10
2.4219189
20
1.490357
40
1.9625309
50
205.0505009
51
216.8555223
0
ARC
8
DEFAULT_255_2_778
10
1.9409811
20
1.1235603
40
1.3577133
50
216.6434042
51
237.4478138
0
ARC
8
DEFAULT_255_2_778
10
1.8780853
20
1.0602222
40
1.2706245
50
238.3016668
51
267.5348763
0
ARC
8
DEFAULT_255_2_778
10
1.913245
20
1.3612028
40
1.5729952
50
266.7268902
51
267.9630165
0
ARC
8
DEFAULT_255_2_778
10
1.8706279
20
1.4243138
40
1.6351663
50
269.534166
51
281.3821079
0
ARC
8
DEFAULT_255_2_778
10
2.0032688
20
0.7960165
40
0.9930674
50
281.0337961
51
302.2937554
0
ARC
8
DEFAULT_255_2_778
10
2.0912529
20
0.6304928
40
0.8062629
50
303.2928174
51
340.9067945
0
ARC
8
DEFAULT_255_2_778
10
1.6638246
20
0.7922564
40
1.2631587
50
340.314829
51
354.6452524
0
ARC
8
DEFAULT_255_2_778
10
1.0976008
20
0.8584714
40
1.8331374
50
354.2362737
51
0.1290886
0
ARC
8
DEFAULT_255_2_778
10
1.2246017
20
6.6083846
40
1.7076343
50
2.4036458
51
13.4851529
0
ARC
8
DEFAULT_255_2_778
10
1.8698291
20
6.7688625
40
1.0427883
50
13.1779673
51
32.9919152
0
ARC
8
DEFAULT_255_2_778
10
2.0315103
20
6.8556044
40
0.8600816
50
34.010149
51
71.268184
0
ARC
8
DEFAULT_255_2_778
10
1.8375891
20
6.3394946
40
1.4112436
50
70.5411622
51
83.9861936
0
ARC
8
DEFAULT_255_2_778
10
1.7592434
20
5.75661
40
1.9991993
50
83.5033699
51
87.1876695
0
ARC
8
DEFAULT_255_2_778
10
11.2949074
20
8.2855596
40
4.3104436
50
359.8370616
51
6.5599235
0
ARC
8
DEFAULT_255_2_778
10
12.4037572
20
8.4160149
40
3.1939514
50
6.5074751
51
15.4841512
0
ARC
8
DEFAULT_255_2_778
10
13.1790482
20
8.6340651
40
2.3885888
50
15.408471
51
28.3611667
0
ARC
8
DEFAULT_255_2_778
10
13.5409886
20
8.8209458
40
1.9813325
50
28.5775355
51
67.7868343
0
ARC
8
DEFAULT_255_2_778
10
13.1878465
20
8.0480757
40
2.830563
50
67.0834751
51
78.17861
0
ARC
8
DEFAULT_255_2_778
10
12.962979
20
6.9996841
40
3.9027897
50
78.1004615
51
85.9653744
0
ARC
8
DEFAULT_255_2_778
10
12.8757994
20
5.9668024
40
4.9392661
50
85.799601
51
88.8662038
0
ARC
8
DEFAULT_255_2_778
10
4.5663125
20
6.3552241
40
4.5505319
50
90.971807
51
97.656642
0
ARC
8
DEFAULT_255_2_778
10
4.4012115
20
7.5592673
40
3.3352279
50
97.6015515
51
106.5603038
0
ARC
8
DEFAULT_255_2_778
10
4.146087
20
8.4036844
40
2.4531233
50
106.4700883
51
119.6272068
0
ARC
8
DEFAULT_255_2_778
10
3.9099098
20
8.8247344
40
1.9703681
50
119.7100415
51
158.2136403
0
ARC
8
DEFAULT_255_2_778
10
4.5761154
20
8.5321227
40
2.697702
50
157.6943112
51
168.8769964
0
ARC
8
DEFAULT_255_2_778
10
5.5053133
20
8.3443734
40
3.6456685
50
168.7989587
51
176.6604082
0
ARC
8
DEFAULT_255_2_778
10
6.4593025
20
8.277109
40
4.6019706
50
176.5162769
51
180.0474049
0
ARC
8
DEFAULT_255_2_778
10
1.8696855
20
5.848984
40
2.424349
50
80.5772949
51
90.2919197
0
ARC
8
DEFAULT_255_2_778
10
1.9975187
20
6.5948391
40
1.6676338
50
66.1886769
51
80.7147005
0
ARC
8
DEFAULT_255_2_778
10
2.1774309
20
6.9979343
40
1.2262162
50
18.9299131
51
66.2754964
0
ARC
8
DEFAULT_255_2_778
10
1.6227241
20
6.7815588
40
1.8212849
50
6.7474772
51
19.7075997
0
ARC
8
DEFAULT_255_2_778
10
0.9146509
20
6.6877667
40
2.535493
50
359.8358234
51
6.9722852
0
ARC
8
DEFAULT_255_2_778
10
5.8751163
20
6.6681422
40
2.4250143
50
179.7079856
51
189.4206658
0
ARC
8
DEFAULT_255_2_778
10
5.1286749
20
6.5402342
40
1.6677085
50
189.2831013
51
203.8087634
0
ARC
8
DEFAULT_255_2_778
10
4.7253251
20
6.3602266
40
1.2260196
50
203.7217366
51
251.0734963
0
ARC
8
DEFAULT_255_2_778
10
4.9418171
20
6.9153036
40
1.821475
50
250.2950881
51
263.254297
0
ARC
8
DEFAULT_255_2_778
10
5.0356639
20
7.6239305
40
2.5362395
50
263.0292985
51
270.1642292
0
ARC
8
DEFAULT_255_2_778
10
12.4635929
20
7.5126843
40
2.4250143
50
269.7079856
51
279.4206658
0
ARC
8
DEFAULT_255_2_778
10
12.5915009
20
6.7662428
40
1.6677085
50
279.2831013
51
293.8087634
0
ARC
8
DEFAULT_255_2_778
10
12.7715085
20
6.3628931
40
1.2260196
50
293.7217366
51
341.0734963
0
ARC
8
DEFAULT_255_2_778
10
12.2164315
20
6.579385
40
1.821475
50
340.2950881
51
353.254297
0
ARC
8
DEFAULT_255_2_778
10
11.5078045
20
6.6732318
40
2.5362395
50
353.0292985
51
0.1642292
0
ARC
8
DEFAULT_255_2_778
10
16.8475899
20
6.7705116
40
2.8050009
50
180.9330799
51
181.8388894
0
ARC
8
DEFAULT_255_2_778
10
16.734586
20
6.7686614
40
2.6919818
50
180.003628
51
180.9328713
0
ARC
8
DEFAULT_255_2_778
10
16.222254
20
6.7798729
40
2.1796796
50
170.4801556
51
180.299192
0
ARC
8
DEFAULT_255_2_778
10
15.5625428
20
6.8937094
40
1.5102296
50
155.9773672
51
170.6000292
0
ARC
8
DEFAULT_255_2_778
10
15.2705692
20
7.0147234
40
1.19431
50
109.2079164
51
155.5777713
0
ARC
8
DEFAULT_255_2_778
10
15.5550861
20
6.3217717
40
1.9427175
50
97.976094
51
110.408322
0
ARC
8
DEFAULT_255_2_778
10
15.6853912
20
5.4803447
40
2.7941127
50
91.6480314
51
98.2280748
0
LINE
8
DEFAULT_255_2_778
10
12.9388336
20
2.4207015
11
4.4891336
21
2.4207015
0
LINE
8
DEFAULT_255_2_778
10
4.4891336
20
4.5675015
11
12.9730336
21
4.5675015
0
LINE
8
DEFAULT_255_2_778
10
14.0117336
20
3.4941015
11
14.0123336
21
3.4941015
0
LINE
8
DEFAULT_255_2_778
10
12.9735336
20
1.9013015
11
4.4891336
21
1.9013015
0
LINE
8
DEFAULT_255_2_778
10
4.4891336
20
-0.2454985
11
12.9730336
21
-0.2454985
0
LINE
8
DEFAULT_255_2_778
10
12.9730336
20
1.9013015
11
12.9735336
21
1.9013015
0
LINE
8
DEFAULT_255_2_778
10
14.5319336
20
6.7152015
11
14.5319336
21
0.8626015
0
LINE
8
DEFAULT_255_2_778
10
17.1978336
20
2.9747015
11
17.1978336
21
5.6066015
0
LINE
8
DEFAULT_255_2_778
10
15.6050336
20
7.7536015
11
15.6053336
21
7.7539015
0
LINE
8
DEFAULT_255_2_778
10
0.2645336
20
5.6066015
11
0.2645336
21
2.9747015
0
LINE
8
DEFAULT_255_2_778
10
2.9307336
20
0.8626015
11
2.9307336
21
6.6800015
0
LINE
8
DEFAULT_255_2_778
10
1.8573336
20
7.7534015
11
1.8576336
21
7.7539015
0
LINE
8
DEFAULT_255_2_778
10
12.9735336
20
10.9051015
11
4.4891336
21
10.9051015
0
LINE
8
DEFAULT_255_2_778
10
5.0429336
20
5.0877015
11
12.4512336
21
5.0877015
0
LINE
8
DEFAULT_255_2_778
10
15.6050336
20
8.2733015
11
15.6053336
21
8.2733015
0
ENDSEC
0
EOF