0
SECTION
2
HEADER
9
$MEASUREMENT
70
1
0
ENDSEC
0
SECTION
2
TABLES
0
TABLE
2
LTYPE
0
LTYPE
72
65
70
64
2
CONTINUOUS
3
______
73
0
40
0
0
ENDTAB
0
TABLE
2
LAYER
0
LAYER
2
DEFAULT_255_2_778
70
0
62
255
6
CONTINUOUS
0
ENDTAB
0
ENDSEC
0
SECTION
2
ENTITIES
0
ARC
8
DEFAULT_255_2_778
10
8.5963195
20
8.3215817
40
8.4585461
50
232.1578369
51
269.9998593
0
LINE
8
DEFAULT_255_2_778
10
8.5962988
20
-0.1369645
11
8.599
21
-0.1369641
0
ARC
8
DEFAULT_255_2_778
10
8.6025328
20
8.3716492
40
8.508614
50
269.9762108
51
279.9208514
0
ARC
8
DEFAULT_255_2_778
10
8.6195722
20
8.2626464
40
8.3983057
50
279.9344637
51
292.8902116
0
ARC
8
DEFAULT_255_2_778
10
8.5839771
20
8.3384396
40
8.4819763
50
292.9125776
51
311.2488088
0
ARC
8
DEFAULT_255_2_778
10
14.1629305
20
1.980897
40
0.0238324
50
304.414382
51
348.8142415
0
ARC
8
DEFAULT_255_2_778
10
14.1811611
20
1.9762401
40
0.0051492
50
0.3748011
51
100.3873724
0
ARC
8
DEFAULT_255_2_778
10
14.1821474
20
1.955153
40
0.0262219
50
94.1875066
51
123.4332626
0
ARC
8
DEFAULT_255_2_778
10
11.7575103
20
5.5893428
40
4.342554
50
302.2153649
51
303.71186
0
ARC
8
DEFAULT_255_2_778
10
11.3023213
20
6.3115111
40
5.1962074
50
300.6608948
51
302.2167166
0
ARC
8
DEFAULT_255_2_778
10
10.8877315
20
7.0101346
40
6.0085864
50
299.1337829
51
300.6643581
0
ARC
8
DEFAULT_255_2_778
10
10.5274036
20
7.6560978
40
6.7482515
50
297.601743
51
299.1359363
0
ARC
8
DEFAULT_255_2_778
10
10.2169279
20
8.2495436
40
7.4180075
50
296.040284
51
297.6031582
0
ARC
8
DEFAULT_255_2_778
10
9.9469171
20
8.8018933
40
8.0328212
50
294.4213013
51
296.0411231
0
ARC
8
DEFAULT_255_2_778
10
9.717118
20
9.3075114
40
8.5882105
50
292.7998917
51
294.4226005
0
ARC
8
DEFAULT_255_2_778
10
9.5881545
20
9.611286
40
8.9182246
50
292.5749129
51
292.8074079
0
ARC
8
DEFAULT_255_2_778
10
9.4658388
20
9.9112283
40
9.242141
50
290.2896929
51
292.5612649
0
ARC
8
DEFAULT_255_2_778
10
9.2567157
20
10.4763807
40
9.8447434
50
287.9276799
51
290.290689
0
ARC
8
DEFAULT_255_2_778
10
9.0884326
20
10.9957999
40
10.3907427
50
285.5492884
51
287.9289294
0
ARC
8
DEFAULT_255_2_778
10
8.9498676
20
11.4940666
40
10.9079178
50
282.9918129
51
285.5488919
0
ARC
8
DEFAULT_255_2_778
10
8.8402578
20
11.967272
40
11.3936518
50
280.6350167
51
282.9939344
0
ARC
8
DEFAULT_255_2_778
10
8.7519516
20
12.4390495
40
11.8736223
50
278.0302072
51
280.6336743
0
ARC
8
DEFAULT_255_2_778
10
8.6822477
20
12.9315853
40
12.371066
50
275.5505816
51
278.0312058
0
ARC
8
DEFAULT_255_2_778
10
8.6315914
20
13.4561763
40
12.8980971
50
272.8707589
51
275.5491511
0
ARC
8
DEFAULT_255_2_778
10
8.6022058
20
14.0439643
40
13.4866192
50
270.1703122
51
272.8703783
0
ARC
8
DEFAULT_255_2_778
10
8.5987387
20
14.3446665
40
13.7873306
50
269.9998392
51
270.1810057
0
ARC
8
DEFAULT_255_2_778
10
8.5937626
20
17.2765112
40
16.719176
50
267.8194852
51
270.0169202
0
ARC
8
DEFAULT_255_2_778
10
8.5355936
20
15.7648186
40
15.2063649
50
265.4288348
51
267.8217837
0
ARC
8
DEFAULT_255_2_778
10
8.4229661
20
14.3590644
40
13.7961061
50
262.9247333
51
265.4298087
0
ARC
8
DEFAULT_255_2_778
10
8.258297
20
13.0395038
40
12.466311
50
260.1325803
51
262.9287816
0
ARC
8
DEFAULT_255_2_778
10
8.0435833
20
11.8066516
40
11.2149012
50
257.2105681
51
260.1339334
0
ARC
8
DEFAULT_255_2_778
10
7.7905988
20
10.6931715
40
10.0730435
50
254.178063
51
257.2118107
0
ARC
8
DEFAULT_255_2_778
10
7.5040902
20
9.6832088
40
9.0232284
50
251.0251365
51
254.1798974
0
ARC
8
DEFAULT_255_2_778
10
7.1945383
20
8.7824083
40
8.0707246
50
247.940233
51
251.023951
0
ARC
8
DEFAULT_255_2_778
10
6.8599218
20
7.9581424
40
7.181128
50
244.6793947
51
247.9446023
0
ARC
8
DEFAULT_255_2_778
10
6.6339203
20
7.471785
40
6.6448396
50
243.8877137
51
244.6473396
0
ARC
8
DEFAULT_255_2_778
10
6.5444899
20
7.2893331
40
6.4416487
50
243.1259109
51
243.8877104
0
ARC
8
DEFAULT_255_2_778
10
6.4345916
20
7.0731381
40
6.199125
50
241.9906233
51
243.1287079
0
ARC
8
DEFAULT_255_2_778
10
6.2982526
20
6.8168658
40
5.9088426
50
240.8470001
51
241.990818
0
ARC
8
DEFAULT_255_2_778
10
5.5142378
20
5.4107629
40
4.2989344
50
240.8189146
51
240.8433167
0
ARC
8
DEFAULT_255_2_778
10
3.4068831
20
1.6366634
40
0.0236552
50
61.4183555
51
87.4035796
0
ARC
8
DEFAULT_255_2_778
10
3.4069583
20
1.6535453
40
0.0068221
50
81.6012678
51
179.9188519
0
ARC
8
DEFAULT_255_2_778
10
3.4145453
20
1.654577
40
0.0144454
50
184.0569578
51
224.3625232
0
ARC
8
DEFAULT_255_2_778
10
3.4249649
20
1.6626436
40
0.0275767
50
221.206553
51
229.6222938
0
ARC
8
DEFAULT_255_2_778
10
9.1741232
20
12.9479838
40
11.7387481
50
270.0106247
51
272.8217524
0
ARC
8
DEFAULT_255_2_778
10
9.1594579
20
13.2673712
40
12.0584703
50
272.8166417
51
275.5843529
0
ARC
8
DEFAULT_255_2_778
10
9.2305375
20
12.7448377
40
11.5315172
50
275.4855075
51
285.182482
0
ARC
8
DEFAULT_255_2_778
10
9.7821286
20
10.6768371
40
9.3912428
50
285.2389679
51
291.682376
0
ARC
8
DEFAULT_255_2_778
10
10.4861749
20
8.9082494
40
7.4876717
50
291.6761907
51
298.3548393
0
ARC
8
DEFAULT_255_2_778
10
11.275272
20
7.4505072
40
5.8300586
50
298.3342291
51
306.0171216
0
ARC
8
DEFAULT_255_2_778
10
11.8275008
20
6.6697791
40
4.8738639
50
306.1631709
51
309.3621137
0
ARC
8
DEFAULT_255_2_778
10
12.3340407
20
6.054689
40
4.0770481
50
309.3406007
51
317.3250106
0
ARC
8
DEFAULT_255_2_778
10
11.9365969
20
6.4202502
40
4.6170446
50
317.3329333
51
324.1663002
0
ARC
8
DEFAULT_255_2_778
10
11.3009295
20
6.8803235
40
5.4017353
50
324.1572975
51
329.8060504
0
ARC
8
DEFAULT_255_2_778
10
9.7219227
20
7.7931994
40
7.2256281
50
329.8465198
51
333.9934462
0
ARC
8
DEFAULT_255_2_778
10
8.5230902
20
8.3905588
40
8.5650055
50
333.9184149
51
337.57345
0
ARC
8
DEFAULT_255_2_778
10
8.7492924
20
8.2970519
40
8.3202383
50
337.5744076
51
338.3093765
0
ARC
8
DEFAULT_255_2_778
10
16.4536518
20
5.2323872
40
0.0287175
50
338.6581373
51
358.4815714
0
ARC
8
DEFAULT_255_2_778
10
16.4756891
20
5.2332022
40
0.0068539
50
346.7061779
51
82.3404642
0
ARC
8
DEFAULT_255_2_778
10
16.4815032
20
5.2193903
40
0.0211795
50
103.3786413
51
154.4173283
0
ARC
8
DEFAULT_255_2_778
10
13.4082549
20
7.3242602
40
3.7040333
50
314.8907312
51
325.54247
0
ARC
8
DEFAULT_255_2_778
10
12.523295
20
8.2050793
40
4.9526227
50
306.9561804
51
314.9521521
0
ARC
8
DEFAULT_255_2_778
10
11.5816741
20
9.4493677
40
6.5130358
50
300.588077
51
306.9946578
0
ARC
8
DEFAULT_255_2_778
10
10.6325418
20
11.0484875
40
8.372613
50
295.1734575
51
300.6108428
0
ARC
8
DEFAULT_255_2_778
10
9.7278945
20
12.9665054
40
10.4932668
50
290.3858779
51
295.1891801
0
ARC
8
DEFAULT_255_2_778
10
8.9278254
20
15.1126229
40
12.7836657
50
285.9538973
51
290.3965374
0
ARC
8
DEFAULT_255_2_778
10
8.2918117
20
17.3301978
40
15.0906439
50
281.6194794
51
285.9614354
0
ARC
8
DEFAULT_255_2_778
10
7.8768354
20
19.3360391
40
17.1389601
50
277.141467
51
281.6277491
0
ARC
8
DEFAULT_255_2_778
10
7.701802
20
20.7106607
40
18.5246779
50
271.336253
51
277.1500751
0
ARC
8
DEFAULT_255_2_778
10
7.6938918
20
20.8509434
40
18.6651073
50
270.0006393
51
271.3504862
0
ARC
8
DEFAULT_255_2_778
10
7.695783
20
15.0269878
40
12.841152
50
267.1717778
51
269.9924906
0
ARC
8
DEFAULT_255_2_778
10
7.7029589
20
15.1978308
40
13.012141
50
266.2452532
51
267.1773373
0
ARC
8
DEFAULT_255_2_778
10
7.6593871
20
14.7747054
40
12.5870805
50
257.0163912
51
266.3170353
0
ARC
8
DEFAULT_255_2_778
10
7.1989185
20
12.7445063
40
10.5053329
50
250.965347
51
256.9758514
0
ARC
8
DEFAULT_255_2_778
10
6.543702
20
10.8486826
40
8.4994778
50
244.8387106
51
250.972671
0
ARC
8
DEFAULT_255_2_778
10
5.7676047
20
9.2009909
40
6.6781568
50
237.9879907
51
244.8551094
0
ARC
8
DEFAULT_255_2_778
10
4.9411497
20
7.8850923
40
5.1242573
50
229.6067675
51
238.0240828
0
ARC
8
DEFAULT_255_2_778
10
4.1226215
20
6.9295394
40
3.8660656
50
218.4522446
51
229.6686609
0
ARC
8
DEFAULT_255_2_778
10
3.6578358
20
6.5426736
40
3.2615321
50
214.6170105
51
218.2074921
0
ARC
8
DEFAULT_255_2_778
10
0.9587374
20
4.6814736
40
0.0171409
50
29.2001139
51
79.7933216
0
ARC
8
DEFAULT_255_2_778
10
0.962465
20
4.6917206
40
0.0066585
50
95.9502227
51
192.6777024
0
ARC
8
DEFAULT_255_2_778
10
0.9834203
20
4.6910238
40
0.0274622
50
181.5954123
51
201.103574
0
ARC
8
DEFAULT_255_2_778
10
4.7385625
20
6.4808091
40
4.1872412
50
205.4548212
51
223.1896207
0
ARC
8
DEFAULT_255_2_778
10
5.4994828
20
7.1781143
40
5.2192833
50
223.0536594
51
233.2084918
0
ARC
8
DEFAULT_255_2_778
10
6.247209
20
8.1678792
40
6.4597267
50
233.1551039
51
240.627655
0
ARC
8
DEFAULT_255_2_778
10
6.9574669
20
9.4233708
40
7.902196
50
240.6047634
51
246.7837045
0
ARC
8
DEFAULT_255_2_778
10
7.6210331
20
10.9657696
40
9.5812764
50
246.7728564
51
252.2354404
0
ARC
8
DEFAULT_255_2_778
10
8.1873652
20
12.7207689
40
11.4253865
50
252.2160478
51
256.7983195
0
ARC
8
DEFAULT_255_2_778
10
8.6388811
20
14.6424626
40
13.3994111
50
256.795292
51
261.1526543
0
ARC
8
DEFAULT_255_2_778
10
8.9655786
20
16.7310595
40
15.5134041
50
261.1468222
51
265.2407723
0
ARC
8
DEFAULT_255_2_778
10
9.1447362
20
18.8648123
40
17.6546646
50
265.2358874
51
269.1690744
0
ARC
8
DEFAULT_255_2_778
10
9.1752176
20
20.1404605
40
18.9306245
50
269.1328188
51
270.0017628
0
ARC
8
DEFAULT_255_2_778
10
6.891719
20
18.2216351
40
13.2884003
50
267.1154119
51
270.0236325
0
ARC
8
DEFAULT_255_2_778
10
6.8287717
20
16.9803383
40
12.0455085
50
263.9873261
51
267.1173155
0
ARC
8
DEFAULT_255_2_778
10
6.7080425
20
15.8403185
40
10.8991139
50
260.5355504
51
263.9907416
0
ARC
8
DEFAULT_255_2_778
10
6.535302
20
14.8060557
40
9.8505251
50
256.8399755
51
260.5374086
0
ARC
8
DEFAULT_255_2_778
10
6.3197158
20
13.8856239
40
8.9051828
50
252.8631837
51
256.8423458
0
ARC
8
DEFAULT_255_2_778
10
6.0793182
20
13.104172
40
8.0875902
50
248.9829275
51
252.859405
0
ARC
8
DEFAULT_255_2_778
10
5.8165908
20
12.4224605
40
7.3570043
50
244.6121306
51
248.9888142
0
ARC
8
DEFAULT_255_2_778
10
5.5243342
20
11.806984
40
6.6756634
50
240.0418363
51
244.613422
0
ARC
8
DEFAULT_255_2_778
10
5.2038412
20
11.2525291
40
6.0352454
50
234.9386624
51
240.0493863
0
ARC
8
DEFAULT_255_2_778
10
4.8474397
20
10.7455709
40
5.4155451
50
229.4906086
51
234.9439978
0
ARC
8
DEFAULT_255_2_778
10
4.4589984
20
10.2917171
40
4.8181594
50
223.745294
51
229.4968003
0
ARC
8
DEFAULT_255_2_778
10
4.0608855
20
9.9099008
40
4.2665462
50
218.4291541
51
223.7378367
0
ARC
8
DEFAULT_255_2_778
10
3.7256192
20
9.6415614
40
3.8371211
50
214.7048997
51
218.4018672
0
ARC
8
DEFAULT_255_2_778
10
3.4419399
20
9.4453262
40
3.4921833
50
210.8571849
51
214.7079965
0
ARC
8
DEFAULT_255_2_778
10
3.1439663
20
9.2675778
40
3.1452211
50
206.7942544
51
210.8616071
0
ARC
8
DEFAULT_255_2_778
10
2.840618
20
9.1144668
40
2.8054223
50
202.6630812
51
206.795768
0
ARC
8
DEFAULT_255_2_778
10
2.5309633
20
8.9856333
40
2.4700363
50
198.0610522
51
202.673002
0
ARC
8
DEFAULT_255_2_778
10
2.2775618
20
8.9016945
40
2.2030974
50
195.0768805
51
198.028785
0
ARC
8
DEFAULT_255_2_778
10
0.1342142
20
8.3276208
40
0.0161179
50
3.6109376
51
60.3362141
0
ARC
8
DEFAULT_255_2_778
10
0.1407455
20
8.3368799
40
0.0049616
50
73.0624088
51
89.849385
0
ARC
8
DEFAULT_255_2_778
10
0.1454741
20
8.329399
40
0.0133061
50
110.7558613
51
194.6400164
0
ARC
8
DEFAULT_255_2_778
10
8.2150795
20
8.3321986
40
8.0824818
50
180.0436861
51
181.8497157
0
ARC
8
DEFAULT_255_2_778
10
9.8200829
20
8.3815242
40
9.6882413
50
181.8348929
51
183.8872164
0
ARC
8
DEFAULT_255_2_778
10
9.0391396
20
8.3183914
40
8.9048204
50
183.8225824
51
186.7697267
0
ARC
8
DEFAULT_255_2_778
10
6.236987
20
7.986779
40
6.0831144
50
186.7792904
51
189.2616115
0
ARC
8
DEFAULT_255_2_778
10
4.2599934
20
7.6672946
40
4.0804757
50
189.3018122
51
191.3129619
0
ARC
8
DEFAULT_255_2_778
10
1.1381329
20
7.0504196
40
0.8982924
50
191.7925949
51
201.1583542
0
ARC
8
DEFAULT_255_2_778
10
1.7558273
20
7.283412
40
1.5584542
50
200.9499287
51
208.2574272
0
ARC
8
DEFAULT_255_2_778
10
2.1241127
20
7.4751413
40
1.9736295
50
208.0983968
51
213.1284382
0
ARC
8
DEFAULT_255_2_778
10
2.1532031
20
7.4899138
40
2.0060677
50
213.0276974
51
222.8339807
0
ARC
8
DEFAULT_255_2_778
10
3.8911931
20
9.2206612
40
4.4581368
50
223.9596938
51
226.0664076
0
ARC
8
DEFAULT_255_2_778
10
4.256541
20
9.5996363
40
4.9845408
50
226.0645545
51
228.0918436
0
ARC
8
DEFAULT_255_2_778
10
4.617804
20
10.0021629
40
5.5254092
50
228.0918966
51
230.1609206
0
ARC
8
DEFAULT_255_2_778
10
4.9625046
20
10.4147903
40
6.0630705
50
230.1577619
51
232.0669098
0
ARC
8
DEFAULT_255_2_778
10
5.2845814
20
10.8279344
40
6.5869228
50
232.0664328
51
233.9763185
0
ARC
8
DEFAULT_255_2_778
10
5.5897664
20
11.2473588
40
7.1056276
50
233.9750767
51
235.8212681
0
ARC
8
DEFAULT_255_2_778
10
5.7487161
20
11.4790214
40
7.3865738
50
235.8107596
51
236.0715349
0
ARC
8
DEFAULT_255_2_778
10
6.0341457
20
11.9116152
40
7.9048283
50
236.1050536
51
239.4828306
0
ARC
8
DEFAULT_255_2_778
10
6.4944351
20
12.6905108
40
8.8095623
50
239.4762736
51
242.5950483
0
ARC
8
DEFAULT_255_2_778
10
6.9064126
20
13.4852888
40
9.7047704
50
242.5954853
51
245.8217518
0
ARC
8
DEFAULT_255_2_778
10
7.2834865
20
14.3240894
40
10.6244284
50
245.8193676
51
248.9425918
0
ARC
8
DEFAULT_255_2_778
10
7.6052669
20
15.1571489
40
11.5174737
50
248.9377601
51
251.7274135
0
ARC
8
DEFAULT_255_2_778
10
7.8952246
20
16.0370266
40
12.4438968
50
251.7298929
51
254.716446
0
ARC
8
DEFAULT_255_2_778
10
8.1623804
20
17.0135823
40
13.456336
50
254.715207
51
257.5880279
0
ARC
8
DEFAULT_255_2_778
10
8.3778068
20
17.9864843
40
14.4528025
50
257.5829679
51
260.0033563
0
ARC
8
DEFAULT_255_2_778
10
8.556721
20
19.0050345
40
15.4869467
50
260.005623
51
262.5844411
0
ARC
8
DEFAULT_255_2_778
10
8.7030428
20
20.1250105
40
16.6164405
50
262.5825501
51
264.9563065
0
ARC
8
DEFAULT_255_2_778
10
8.810841
20
21.3528973
40
17.84905
50
264.9581343
51
267.4373392
0
ARC
8
DEFAULT_255_2_778
10
8.8716241
20
22.695451
40
19.192979
50
267.4352671
51
269.6946538
0
ARC
8
DEFAULT_255_2_778
10
8.8803434
20
23.4666722
40
19.9642362
50
269.681426
51
270.0004494
0
ARC
8
DEFAULT_255_2_778
10
8.8852477
20
29.9899016
40
26.4874661
50
269.9897301
51
271.2680284
0
ARC
8
DEFAULT_255_2_778
10
8.9416393
20
27.4704628
40
23.9673964
50
271.2665368
51
272.6694537
0
ARC
8
DEFAULT_255_2_778
10
9.0493362
20
25.1587769
40
21.6532032
50
272.6696766
51
274.0967682
0
ARC
8
DEFAULT_255_2_778
10
9.1927012
20
23.152136
40
19.6414475
50
274.0978127
51
275.4979117
0
ARC
8
DEFAULT_255_2_778
10
9.3577999
20
21.4336288
40
17.9150279
50
275.4989034
51
276.8684715
0
ARC
8
DEFAULT_255_2_778
10
9.5568844
20
19.7911448
40
16.260523
50
276.8641368
51
278.5416124
0
ARC
8
DEFAULT_255_2_778
10
9.8104308
20
18.1098627
40
14.5602307
50
278.5376093
51
280.4878042
0
ARC
8
DEFAULT_255_2_778
10
10.087559
20
16.6093144
40
13.0343066
50
280.4906208
51
282.3465513
0
ARC
8
DEFAULT_255_2_778
10
10.3836586
20
15.2616635
40
11.6545108
50
282.3411871
51
284.5478089
0
ARC
8
DEFAULT_255_2_778
10
10.7010321
20
14.037329
40
10.3897101
50
284.5496832
51
286.7306331
0
ARC
8
DEFAULT_255_2_778
10
11.0280304
20
12.9520876
40
9.2562745
50
286.7260227
51
289.2265658
0
ARC
8
DEFAULT_255_2_778
10
11.3726464
20
11.9644791
40
8.2102675
50
289.225374
51
291.8790828
0
ARC
8
DEFAULT_255_2_778
10
11.7282924
20
11.0806014
40
7.2575223
50
291.8739241
51
294.8838548
0
ARC
8
DEFAULT_255_2_778
10
12.0930811
20
10.2948063
40
6.3911825
50
294.8813841
51
298.1253479
0
ARC
8
DEFAULT_255_2_778
10
12.4397812
20
9.6455825
40
5.655185
50
298.1282272
51
301.3466605
0
ARC
8
DEFAULT_255_2_778
10
12.7602909
20
9.1193756
40
5.0390516
50
301.3468195
51
304.6703691
0
ARC
8
DEFAULT_255_2_778
10
13.0537261
20
8.6946297
40
4.5228025
50
304.6739942
51
307.8916663
0
ARC
8
DEFAULT_255_2_778
10
13.3251463
20
8.3460803
40
4.0810383
50
307.8898566
51
311.2896812
0
ARC
8
DEFAULT_255_2_778
10
13.576825
20
8.059141
40
3.6993627
50
311.2933125
51
314.5358254
0
ARC
8
DEFAULT_255_2_778
10
13.8165897
20
7.815843
40
3.3577766
50
314.5312387
51
318.1007892
0
ARC
8
DEFAULT_255_2_778
10
14.0556201
20
7.6014313
40
3.0366725
50
318.1000586
51
321.7142363
0
ARC
8
DEFAULT_255_2_778
10
14.2890856
20
7.417238
40
2.7392952
50
321.7127166
51
325.3586495
0
ARC
8
DEFAULT_255_2_778
10
14.5245738
20
7.2546947
40
2.4531573
50
325.3555736
51
329.0295155
0
ARC
8
DEFAULT_255_2_778
10
14.7647723
20
7.1105538
40
2.1730288
50
329.0291422
51
332.5048639
0
ARC
8
DEFAULT_255_2_778
10
15.0235234
20
6.9762392
40
1.8814943
50
332.495279
51
336.059457
0
ARC
8
DEFAULT_255_2_778
10
15.2041239
20
6.8945405
40
1.6832795
50
336.1065792
51
336.9225171
0
ARC
8
DEFAULT_255_2_778
10
14.6724991
20
7.1092462
40
2.256547
50
337.1982601
51
343.1759386
0
ARC
8
DEFAULT_255_2_778
10
13.2736563
20
7.5369445
40
3.7193095
50
343.1063154
51
347.5741066
0
ARC
8
DEFAULT_255_2_778
10
11.3066333
20
7.9702614
40
5.7334949
50
347.5750157
51
351.7906976
0
ARC
8
DEFAULT_255_2_778
10
9.1304207
20
8.2887142
40
7.9328811
50
351.7585639
51
355.9408007
0
ARC
8
DEFAULT_255_2_778
10
8.5316281
20
8.3417085
40
8.5339292
50
355.8704758
51
358.912303
0
ARC
8
DEFAULT_255_2_778
10
9.1875757
20
8.3271935
40
7.8778245
50
358.9272911
51
359.9937633
0
ARC
8
DEFAULT_255_2_778
10
7.7457229
20
8.3305486
40
9.3196781
50
359.9741015
51
1.472105
0
ARC
8
DEFAULT_255_2_778
10
7.1569308
20
8.3080374
40
9.908857
50
1.5147636
51
2.759205
0
ARC
8
DEFAULT_255_2_778
10
17.0397676
20
8.7894175
40
0.0151786
50
343.2218595
51
63.5370416
0
ARC
8
DEFAULT_255_2_778
10
17.0465697
20
8.7984106
40
0.0045953
50
90.4766872
51
113.8854281
0
ARC
8
DEFAULT_255_2_778
10
17.0566837
20
8.7864368
40
0.0201256
50
126.5123437
51
176.2988381
0
ARC
8
DEFAULT_255_2_778
10
16.0668031
20
8.9714443
40
0.9870435
50
339.8984222
51
349.2735727
0
ARC
8
DEFAULT_255_2_778
10
15.8277669
20
9.0580166
40
1.2412727
50
332.8808436
51
339.9378682
0
ARC
8
DEFAULT_255_2_778
10
15.5416897
20
9.2038282
40
1.5623659
50
327.2007246
51
332.9037635
0
ARC
8
DEFAULT_255_2_778
10
15.2125815
20
9.4150927
40
1.9534471
50
322.5698439
51
327.2210745
0
ARC
8
DEFAULT_255_2_778
10
14.8623713
20
9.681846
40
2.3936784
50
318.9926361
51
322.5944536
0
ARC
8
DEFAULT_255_2_778
10
14.4749347
20
10.018955
40
2.9072436
50
315.5258431
51
318.9892455
0
ARC
8
DEFAULT_255_2_778
10
14.03748
20
10.4475574
40
3.5196702
50
312.5985618
51
315.536244
0
ARC
8
DEFAULT_255_2_778
10
13.6275609
20
10.891182
40
4.1236857
50
310.57337
51
312.6190785
0
ARC
8
DEFAULT_255_2_778
10
13.0022566
20
11.6318127
40
5.0929648
50
306.4694161
51
310.4973506
0
ARC
8
DEFAULT_255_2_778
10
12.0592693
20
12.905339
40
6.6776078
50
302.9618146
51
306.481002
0
ARC
8
DEFAULT_255_2_778
10
11.0504515
20
14.4577935
40
8.5290467
50
299.904144
51
302.9737203
0
ARC
8
DEFAULT_255_2_778
10
10.0060862
20
16.2719842
40
10.622366
50
297.0477764
51
299.9087487
0
ARC
8
DEFAULT_255_2_778
10
9.0347896
20
18.1668034
40
12.7516259
50
294.7172418
51
297.0631711
0
ARC
8
DEFAULT_255_2_778
10
8.1346188
20
20.1247969
40
14.9066307
50
292.1557246
51
294.7133329
0
ARC
8
DEFAULT_255_2_778
10
7.3168148
20
22.1302434
40
17.0724141
50
289.5913311
51
292.159466
0
ARC
8
DEFAULT_255_2_778
10
6.7284448
20
23.7762485
40
18.8204149
50
287.1398095
51
289.5986003
0
ARC
8
DEFAULT_255_2_778
10
6.3845575
20
24.8885565
40
19.9846687
50
284.0576655
51
287.1421396
0
ARC
8
DEFAULT_255_2_778
10
6.3693398
20
24.9191707
40
20.0180637
50
279.3910256
51
284.0786335
0
ARC
8
DEFAULT_255_2_778
10
6.5998048
20
23.5363746
40
18.616195
50
276.3361843
51
279.3856596
0
ARC
8
DEFAULT_255_2_778
10
6.7709143
20
22.0050852
40
17.0753755
50
273.7290587
51
276.3326006
0
ARC
8
DEFAULT_255_2_778
10
6.8652864
20
20.5751273
40
15.6423074
50
271.461992
51
273.7247729
0
ARC
8
DEFAULT_255_2_778
10
6.8954228
20
19.4921247
40
14.5588889
50
270.0069941
51
271.4521725
0
ARC
8
DEFAULT_255_2_778
10
4.5765569
20
10.1317194
40
4.0613073
50
153.2906185
51
154.7633264
0
ARC
8
DEFAULT_255_2_778
10
5.5519365
20
9.671416
40
5.1398453
50
154.7576616
51
156.0291159
0
ARC
8
DEFAULT_255_2_778
10
7.087701
20
8.9934855
40
6.818579
50
156.0667468
51
158.0956287
0
ARC
8
DEFAULT_255_2_778
10
9.3821518
20
8.0736496
40
9.2905414
50
158.1112535
51
160.7370567
0
ARC
8
DEFAULT_255_2_778
10
9.9400366
20
7.8679618
40
9.8850551
50
160.6783765
51
163.0507873
0
ARC
8
DEFAULT_255_2_778
10
7.9779931
20
8.4655103
40
7.8340362
50
163.047939
51
164.7719985
0
ARC
8
DEFAULT_255_2_778
10
5.6043136
20
9.1090619
40
5.3746656
50
164.745165
51
166.845232
0
ARC
8
DEFAULT_255_2_778
10
3.5554725
20
9.5876962
40
3.2706597
50
166.841634
51
169.1575659
0
ARC
8
DEFAULT_255_2_778
10
1.4911171
20
9.9739368
40
1.1705359
50
168.7181123
51
173.1481741
0
ARC
8
DEFAULT_255_2_778
10
0.9858712
20
10.034486
40
0.6616749
50
173.1343082
51
179.7477891
0
ARC
8
DEFAULT_255_2_778
10
0.7798138
20
10.0350736
40
0.4556169
50
179.7076137
51
194.4251027
0
ARC
8
DEFAULT_255_2_778
10
0.9822407
20
10.0946487
40
0.6665429
50
195.0500012
51
204.8689466
0
ARC
8
DEFAULT_255_2_778
10
1.5478662
20
10.3399043
40
1.2829519
50
204.1830977
51
205.2401825
0
ARC
8
DEFAULT_255_2_778
10
1.7730141
20
10.4483064
40
1.53283
50
205.3166845
51
210.8053636
0
ARC
8
DEFAULT_255_2_778
10
2.0803732
20
10.6307815
40
1.8902744
50
210.7848825
51
215.4309656
0
ARC
8
DEFAULT_255_2_778
10
2.4068443
20
10.8626789
40
2.2907237
50
215.4232353
51
219.6470563
0
ARC
8
DEFAULT_255_2_778
10
2.7455842
20
11.1425453
40
2.7301205
50
219.6336038
51
223.2708689
0
ARC
8
DEFAULT_255_2_778
10
3.0898822
20
11.4662785
40
3.2027136
50
223.2658356
51
226.6208614
0
ARC
8
DEFAULT_255_2_778
10
3.4375651
20
11.8335148
40
3.7084266
50
226.6134724
51
229.5921378
0
ARC
8
DEFAULT_255_2_778
10
3.7919953
20
12.2497983
40
4.2551557
50
229.5916593
51
232.4845846
0
ARC
8
DEFAULT_255_2_778
10
4.0835621
20
12.6266346
40
4.7316156
50
232.4629822
51
234.1092651
0
ARC
8
DEFAULT_255_2_778
10
4.4867528
20
13.1927848
40
5.426644
50
234.1648148
51
238.2025189
0
ARC
8
DEFAULT_255_2_778
10
5.0523227
20
14.1022593
40
6.4976302
50
238.1895745
51
241.7004625
0
ARC
8
DEFAULT_255_2_778
10
5.6029717
20
15.123914
40
7.6582303
50
241.6968048
51
244.9952946
0
ARC
8
DEFAULT_255_2_778
10
6.1446392
20
16.2834319
40
8.938029
50
244.9903012
51
248.0240327
0
ARC
8
DEFAULT_255_2_778
10
6.6467005
20
17.5235554
40
10.2759265
50
248.0156363
51
250.6283455
0
ARC
8
DEFAULT_255_2_778
10
7.0891154
20
18.7778421
40
11.6059506
50
250.6217872
51
252.86524
0
ARC
8
DEFAULT_255_2_778
10
7.5203617
20
20.1798616
40
13.0727946
50
252.8694385
51
255.2812034
0
ARC
8
DEFAULT_255_2_778
10
7.9394528
20
21.7710143
40
14.7182134
50
255.2770542
51
257.4332851
0
ARC
8
DEFAULT_255_2_778
10
8.2943054
20
23.3556017
40
16.3420469
50
257.4277356
51
259.2301428
0
ARC
8
DEFAULT_255_2_778
10
8.6139105
20
25.0392018
40
18.0557145
50
259.2321407
51
261.1196011
0
ARC
8
DEFAULT_255_2_778
10
8.9144272
20
26.9616321
40
20.0014917
50
261.1191881
51
262.946766
0
ARC
8
DEFAULT_255_2_778
10
9.1683567
20
29.0070028
40
22.0625646
50
262.9445485
51
264.6042399
0
ARC
8
DEFAULT_255_2_778
10
9.361742
20
31.0406998
40
24.105435
50
264.6011728
51
266.026649
0
ARC
8
DEFAULT_255_2_778
10
9.5130353
20
33.2323963
40
26.3023471
50
266.0286932
51
267.5720812
0
ARC
8
DEFAULT_255_2_778
10
9.6117187
20
35.513998
40
28.5860811
50
267.568192
51
268.8079694
0
ARC
8
DEFAULT_255_2_778
10
9.6578558
20
37.7253405
40
30.7979048
50
268.8077391
51
270.0073377
0
ARC
8
DEFAULT_255_2_778
10
9.6720364
20
28.4560128
40
21.5285793
50
269.9727572
51
272.7100954
0
ARC
8
DEFAULT_255_2_778
10
9.7987505
20
25.7856196
40
18.8551814
50
272.7091544
51
275.4119793
0
ARC
8
DEFAULT_255_2_778
10
10.0633073
20
23.0312658
40
16.0881541
50
275.3991706
51
278.5752576
0
ARC
8
DEFAULT_255_2_778
10
10.4797435
20
20.2799947
40
13.3055458
50
278.568612
51
282.0162394
0
ARC
8
DEFAULT_255_2_778
10
11.0049291
20
17.8178971
40
10.7880584
50
282.0104153
51
285.7604447
0
ARC
8
DEFAULT_255_2_778
10
11.6257091
20
15.6313342
40
8.5150847
50
285.7366447
51
290.3280437
0
ARC
8
DEFAULT_255_2_778
10
12.3227545
20
13.7566895
40
6.5150455
50
290.3070154
51
295.7644039
0
ARC
8
DEFAULT_255_2_778
10
13.042968
20
12.2714002
40
4.8643549
50
295.7290302
51
302.537734
0
ARC
8
DEFAULT_255_2_778
10
13.7540337
20
11.1634541
40
3.5478665
50
302.4805536
51
311.431619
0
ARC
8
DEFAULT_255_2_778
10
14.4174897
20
10.4185894
40
2.5503852
50
311.3299095
51
324.2241456
0
ARC
8
DEFAULT_255_2_778
10
14.9330823
20
10.0490759
40
1.9160569
50
324.1753016
51
344.0310112
0
ARC
8
DEFAULT_255_2_778
10
15.1395381
20
9.9844867
40
1.6998068
50
344.2095643
51
358.0716029
0
ARC
8
DEFAULT_255_2_778
10
15.0369032
20
9.9889675
40
1.8025345
50
358.0390368
51
0.0068146
0
ARC
8
DEFAULT_255_2_778
10
14.7950334
20
9.9845611
40
2.0444095
50
0.1295022
51
7.0897793
0
ARC
8
DEFAULT_255_2_778
10
14.1658241
20
9.9070306
40
2.6783771
50
7.0743317
51
12.3003941
0
ARC
8
DEFAULT_255_2_778
10
13.4920659
20
9.7662782
40
3.3666595
50
12.19804
51
14.2525177
0
ARC
8
DEFAULT_255_2_778
10
11.5155441
20
9.2572793
40
5.4076618
50
14.3237227
51
17.3471275
0
ARC
8
DEFAULT_255_2_778
10
9.9655641
20
8.7792373
40
7.0296779
50
17.2994999
51
19.1778047
0
ARC
8
DEFAULT_255_2_778
10
8.2551727
20
8.1760188
40
8.84331
50
19.2288407
51
22.9090607
0
ARC
8
DEFAULT_255_2_778
10
7.8705277
20
8.0212108
40
9.2578804
50
22.8649138
51
23.6431852
0
ARC
8
DEFAULT_255_2_778
10
8.2960702
20
8.2086128
40
8.7929022
50
23.6365895
51
24.8447097
0
ARC
8
DEFAULT_255_2_778
10
9.2715189
20
8.6611614
40
7.7175884
50
24.8386198
51
26.0854708
0
ARC
8
DEFAULT_255_2_778
10
9.8633224
20
8.9482391
40
7.0598356
50
26.1048433
51
26.146991
0
ARC
8
DEFAULT_255_2_778
10
16.1835144
20
12.051515
40
0.0188815
50
24.469583
51
52.8206871
0
ARC
8
DEFAULT_255_2_778
10
16.1904253
20
12.0605165
40
0.0075337
50
53.3266531
51
87.852434
0
ARC
8
DEFAULT_255_2_778
10
16.1920758
20
12.0604964
40
0.0076715
50
100.2739271
51
194.3501523
0
ARC
8
DEFAULT_255_2_778
10
16.2110421
20
12.0587079
40
0.0263986
50
180.245085
51
187.9956237
0
ARC
8
DEFAULT_255_2_778
10
15.0161769
20
12.0160098
40
1.1693745
50
0.0007425
51
1.9125164
0
ARC
8
DEFAULT_255_2_778
10
14.9222733
20
12.027671
40
1.2633319
50
331.414268
51
359.4718109
0
ARC
8
DEFAULT_255_2_778
10
14.3950293
20
12.2963896
40
1.8549523
50
320.2305618
51
331.9180496
0
ARC
8
DEFAULT_255_2_778
10
13.7744214
20
12.807252
40
2.6587691
50
312.1096478
51
320.3241133
0
ARC
8
DEFAULT_255_2_778
10
13.0623045
20
13.5878748
40
3.7153985
50
306.3069608
51
312.1843686
0
ARC
8
DEFAULT_255_2_778
10
12.2595527
20
14.6778971
40
5.0691184
50
301.394064
51
306.3237831
0
ARC
8
DEFAULT_255_2_778
10
11.3561718
20
16.1529779
40
6.7988451
50
297.3946702
51
301.4170658
0
ARC
8
DEFAULT_255_2_778
10
10.3657989
20
18.0617317
40
8.9492355
50
293.8349523
51
297.4014582
0
ARC
8
DEFAULT_255_2_778
10
9.3366457
20
20.383177
40
11.4885772
50
290.8776816
51
293.8512915
0
ARC
8
DEFAULT_255_2_778
10
8.2703007
20
23.1830116
40
14.4846019
50
287.858864
51
290.8719221
0
ARC
8
DEFAULT_255_2_778
10
7.1683833
20
26.6088685
40
18.083312
50
284.649449
51
287.8531682
0
ARC
8
DEFAULT_255_2_778
10
6.3681922
20
29.6373132
40
21.2156795
50
281.8934416
51
284.6717854
0
ARC
8
DEFAULT_255_2_778
10
6.0955625
20
30.8967315
40
22.5042494
50
279.6335062
51
281.9118257
0
ARC
8
DEFAULT_255_2_778
10
6.1696449
20
30.4494145
40
22.0508431
50
278.117108
51
279.6382318
0
ARC
8
DEFAULT_255_2_778
10
6.3380119
20
29.2676009
40
20.8570965
50
276.8462371
51
278.1176247
0
ARC
8
DEFAULT_255_2_778
10
6.5338939
20
27.6271272
40
19.2049698
50
275.4924465
51
276.8494226
0
ARC
8
DEFAULT_255_2_778
10
6.7160327
20
25.7382381
40
17.3073195
50
274.3060833
51
275.4907634
0
ARC
8
DEFAULT_255_2_778
10
6.8439237
20
24.0524106
40
15.6166483
50
273.3515054
51
274.3025969
0
ARC
8
DEFAULT_255_2_778
10
6.9465667
20
22.2646833
40
13.8259781
50
272.0049531
51
273.3599827
0
ARC
8
DEFAULT_255_2_778
10
7.017808
20
20.2146942
40
11.7747515
50
270.5494104
51
272.0074979
0
ARC
8
DEFAULT_255_2_778
10
7.0340012
20
18.8838058
40
10.4437697
50
270.0027366
51
270.5305892
0
ARC
8
DEFAULT_255_2_778
10
7.0297931
20
20.7755727
40
12.3355377
50
264.6661679
51
270.0218628
0
ARC
8
DEFAULT_255_2_778
10
6.9401255
20
19.8408904
40
11.3965673
50
259.6415464
51
264.6781965
0
ARC
8
DEFAULT_255_2_778
10
6.7012566
20
18.5427924
40
10.0766757
50
254.7636896
51
259.6504745
0
ARC
8
DEFAULT_255_2_778
10
6.2967201
20
17.0661796
40
8.5456536
50
249.6035301
51
254.7788573
0
ARC
8
DEFAULT_255_2_778
10
5.7358377
20
15.5643918
40
6.9425474
50
243.9218431
51
249.6226973
0
ARC
8
DEFAULT_255_2_778
10
5.0679056
20
14.2043055
40
5.427304
50
237.5054609
51
243.9434201
0
ARC
8
DEFAULT_255_2_778
10
4.343492
20
13.0732171
40
4.084128
50
229.5899204
51
237.5525822
0
ARC
8
DEFAULT_255_2_778
10
3.6096764
20
12.2172962
40
2.9567129
50
219.1890579
51
229.6653208
0
ARC
8
DEFAULT_255_2_778
10
2.9311692
20
11.6709716
40
2.0856199
50
203.7360621
51
219.3346274
0
ARC
8
DEFAULT_255_2_778
10
2.4690521
20
11.4664348
40
1.5802631
50
180.2138746
51
203.6917663
0
ARC
8
DEFAULT_255_2_778
10
2.9507548
20
11.3971056
40
2.0629302
50
164.360561
51
178.2380087
0
ARC
8
DEFAULT_255_2_778
10
0.9443854
20
11.958961
40
0.0206251
50
343.8842776
51
359.1416702
0
ARC
8
DEFAULT_255_2_778
10
0.9585458
20
11.9598897
40
0.0065799
50
349.1587749
51
86.0365889
0
ARC
8
DEFAULT_255_2_778
10
0.9592346
20
11.9579937
40
0.0084634
50
91.5847593
51
122.4547222
0
ARC
8
DEFAULT_255_2_778
10
0.9645661
20
11.9501436
40
0.0179507
50
123.3681959
51
154.9788041
0
ARC
8
DEFAULT_255_2_778
10
13.9067156
20
14.4738833
40
0.3369257
50
357.8317383
51
32.8075393
0
ARC
8
DEFAULT_255_2_778
10
13.7073
20
14.4651328
40
0.5361149
50
343.833062
51
359.5728467
0
ARC
8
DEFAULT_255_2_778
10
13.4896175
20
14.5262627
40
0.7622123
50
333.609374
51
343.9757558
0
ARC
8
DEFAULT_255_2_778
10
13.210355
20
14.6632707
40
1.0732707
50
325.9679535
51
333.6840819
0
ARC
8
DEFAULT_255_2_778
10
12.878393
20
14.8858536
40
1.4729464
50
320.0383098
51
326.0194831
0
ARC
8
DEFAULT_255_2_778
10
12.5056029
20
15.1967649
40
1.9583712
50
315.2502688
51
320.0713261
0
ARC
8
DEFAULT_255_2_778
10
12.0998856
20
15.5977343
40
2.5287943
50
311.206735
51
315.2698809
0
ARC
8
DEFAULT_255_2_778
10
11.6671051
20
16.0908577
40
3.1848958
50
307.7000779
51
311.2200154
0
ARC
8
DEFAULT_255_2_778
10
11.268461
20
16.6033382
40
3.8341648
50
305.2914798
51
307.7302645
0
ARC
8
DEFAULT_255_2_778
10
10.7469527
20
17.349485
40
4.7444849
50
301.0498051
51
305.2261623
0
ARC
8
DEFAULT_255_2_778
10
10.0688932
20
18.4723118
40
6.0561641
50
297.3988084
51
301.0665667
0
ARC
8
DEFAULT_255_2_778
10
9.4308545
20
19.6995207
40
7.4393244
50
294.1537992
51
297.4121173
0
ARC
8
DEFAULT_255_2_778
10
8.8831725
20
20.9148946
40
8.7723976
50
291.4638826
51
294.1695855
0
ARC
8
DEFAULT_255_2_778
10
8.3968352
20
22.1529779
40
10.1025758
50
288.6031534
51
291.461479
0
ARC
8
DEFAULT_255_2_778
10
7.9726531
20
23.4081954
40
11.4275284
50
286.0661713
51
288.6111261
0
ARC
8
DEFAULT_255_2_778
10
7.6199563
20
24.6332699
40
12.7023627
50
283.3997259
51
286.0656539
0
ARC
8
DEFAULT_255_2_778
10
7.3285423
20
25.8537084
40
13.9571104
50
280.7958023
51
283.4024044
0
ARC
8
DEFAULT_255_2_778
10
7.1134854
20
26.976061
40
15.0998806
50
278.382808
51
280.7996857
0
ARC
8
DEFAULT_255_2_778
10
6.9583194
20
28.0289241
40
16.1641163
50
275.8624602
51
278.3828625
0
ARC
8
DEFAULT_255_2_778
10
6.8586376
20
28.9884506
40
17.1288059
50
273.6519791
51
275.8663191
0
ARC
8
DEFAULT_255_2_778
10
6.8031215
20
29.8580964
40
18.0002219
50
271.3608236
51
273.6520124
0
ARC
8
DEFAULT_255_2_778
10
6.7850047
20
30.537714
40
18.6800781
50
269.9969185
51
271.3668713
0
ARC
8
DEFAULT_255_2_778
10
6.7780469
20
24.4127785
40
12.5551439
50
267.9934258
51
270.0271671
0
ARC
8
DEFAULT_255_2_778
10
6.7087676
20
22.4659529
40
10.6070865
50
265.6514049
51
267.9992077
0
ARC
8
DEFAULT_255_2_778
10
6.5760926
20
20.7325274
40
8.8685913
50
262.9885707
51
265.6569413
0
ARC
8
DEFAULT_255_2_778
10
6.3854163
20
19.1940992
40
7.3183925
50
259.7991514
51
262.9999902
0
ARC
8
DEFAULT_255_2_778
10
6.1435903
20
17.8560555
40
5.9586722
50
256.0874679
51
259.8091208
0
ARC
8
DEFAULT_255_2_778
10
5.8659183
20
16.739548
40
4.8081551
50
251.7236328
51
256.1002504
0
ARC
8
DEFAULT_255_2_778
10
5.5664815
20
15.8357806
40
3.8560747
50
246.6026047
51
251.7371469
0
ARC
8
DEFAULT_255_2_778
10
5.2589273
20
15.1275268
40
3.0839274
50
240.4550099
51
246.6214226
0
ARC
8
DEFAULT_255_2_778
10
4.9577357
20
14.5977319
40
2.4745029
50
233.07212
51
240.4731139
0
ARC
8
DEFAULT_255_2_778
10
4.6808144
20
14.2303768
40
2.0144652
50
224.0277675
51
233.0908456
0
ARC
8
DEFAULT_255_2_778
10
4.4524475
20
14.0096136
40
1.6968368
50
213.1091952
51
224.027335
0
ARC
8
DEFAULT_255_2_778
10
4.3380949
20
13.9316072
40
1.5584444
50
208.030258
51
213.0034213
0
ARC
8
DEFAULT_255_2_778
10
4.2891248
20
13.9057417
40
1.5030635
50
200.3885225
51
208.0371725
0
ARC
8
DEFAULT_255_2_778
10
4.2674715
20
13.8973375
40
1.479839
50
192.551361
51
200.3755929
0
ARC
8
DEFAULT_255_2_778
10
4.2759885
20
13.8990737
40
1.4885296
50
185.2630537
51
192.5453498
0
ARC
8
DEFAULT_255_2_778
10
4.2871888
20
13.9002299
40
1.4997887
50
179.9997704
51
185.2677891
0
ARC
8
DEFAULT_255_2_778
10
3.9682173
20
13.8957409
40
1.1808258
50
156.2389692
51
179.7818897
0
ARC
8
DEFAULT_255_2_778
10
4.3416157
20
13.7344054
40
1.5875809
50
143.3499651
51
156.3397017
0
ARC
8
DEFAULT_255_2_778
10
4.6937385
20
13.4876558
40
2.017416
50
140.5424676
51
143.6971564
0
ARC
8
DEFAULT_255_2_778
10
3.1186779
20
14.7854619
40
0.0234699
50
317.92929
51
353.0160919
0
ARC
8
DEFAULT_255_2_778
10
3.1372715
20
14.7830312
40
0.0047211
50
354.859256
51
96.1558045
0
ARC
8
DEFAULT_255_2_778
10
3.1396808
20
14.7644596
40
0.0234473
50
97.1426858
51
135.6988008
0
ARC
8
DEFAULT_255_2_778
10
8.6262585
20
8.2898833
40
8.5099601
50
130.2929669
51
141.8811582
0
ARC
8
DEFAULT_255_2_778
10
3.7946326
20
12.0522503
40
2.3863828
50
141.3394504
51
147.7585363
0
ARC
8
DEFAULT_255_2_778
10
2.7092039
20
12.7307785
40
1.1063443
50
147.4913247
51
157.2363372
0
ARC
8
DEFAULT_255_2_778
10
2.024649
20
13.0103855
40
0.3669894
50
156.1360089
51
176.8677247
0
ARC
8
DEFAULT_255_2_778
10
1.8495116
20
13.0287106
40
0.1913115
50
179.4825676
51
179.9923999
0
ARC
8
DEFAULT_255_2_778
10
2.7438241
20
13.0422619
40
1.0857084
50
180.7138222
51
211.7299377
0
ARC
8
DEFAULT_255_2_778
10
3.3040205
20
13.3663133
40
1.7327037
50
211.101688
51
224.3359648
0
ARC
8
DEFAULT_255_2_778
10
3.9849853
20
14.0214869
40
2.6776541
50
224.1800513
51
233.0324977
0
ARC
8
DEFAULT_255_2_778
10
4.7794852
20
15.0684208
40
3.9919155
50
232.9578522
51
239.558288
0
ARC
8
DEFAULT_255_2_778
10
5.6455825
20
16.5316993
40
5.6922945
50
239.5047942
51
244.5611416
0
ARC
8
DEFAULT_255_2_778
10
6.539959
20
18.4039004
40
7.7671531
50
244.5356047
51
248.7313534
0
ARC
8
DEFAULT_255_2_778
10
7.429315
20
20.6809916
40
10.2117578
50
248.7157177
51
252.3696625
0
ARC
8
DEFAULT_255_2_778
10
8.2637715
20
23.3004243
40
12.9608927
50
252.3612504
51
255.7457824
0
ARC
8
DEFAULT_255_2_778
10
8.9761989
20
26.0985448
40
15.8482841
50
255.7402598
51
259.0783973
0
ARC
8
DEFAULT_255_2_778
10
9.4667101
20
28.624232
40
18.4211599
50
259.0687685
51
262.4740773
0
ARC
8
DEFAULT_255_2_778
10
9.672686
20
30.1528891
40
19.9636266
50
262.4626374
51
267.8814157
0
ARC
8
DEFAULT_255_2_778
10
9.6468137
20
29.4403857
40
19.2506538
50
267.8799717
51
269.9238106
0
ARC
8
DEFAULT_255_2_778
10
9.6431341
20
28.6673114
40
18.4775754
50
269.9320328
51
270.0005145
0
ARC
8
DEFAULT_255_2_778
10
9.650154
20
27.9492405
40
17.7595059
50
269.9778878
51
272.1281372
0
ARC
8
DEFAULT_255_2_778
10
9.7325526
20
25.766011
40
15.5747224
50
272.1234697
51
274.5458343
0
ARC
8
DEFAULT_255_2_778
10
9.8981833
20
23.6967772
40
13.4988706
50
274.5411258
51
277.2318369
0
ARC
8
DEFAULT_255_2_778
10
10.1409067
20
21.7911045
40
11.5778025
50
277.2273935
51
280.1800546
0
ARC
8
DEFAULT_255_2_778
10
10.4482102
20
20.0836363
40
9.8429011
50
280.1760725
51
283.3804809
0
ARC
8
DEFAULT_255_2_778
10
10.8169377
20
18.5405293
40
8.2563527
50
283.369253
51
287.0878051
0
ARC
8
DEFAULT_255_2_778
10
11.2431372
20
17.1580958
40
6.8097129
50
287.0779169
51
291.276536
0
ARC
8
DEFAULT_255_2_778
10
11.7118896
20
15.9586618
40
5.5219367
50
291.2603085
51
296.1540834
0
ARC
8
DEFAULT_255_2_778
10
12.2116289
20
14.9444348
40
4.3912762
50
296.1343264
51
301.8673797
0
ARC
8
DEFAULT_255_2_778
10
12.7294904
20
14.1153932
40
3.4137872
50
301.8319841
51
308.8814501
0
ARC
8
DEFAULT_255_2_778
10
13.2390699
20
13.4857205
40
2.6037525
50
308.8500312
51
317.3146751
0
ARC
8
DEFAULT_255_2_778
10
13.7206454
20
13.0453238
40
1.9511775
50
317.2335115
51
328.6144249
0
ARC
8
DEFAULT_255_2_778
10
14.110479
20
12.8063324
40
1.4939185
50
328.6527515
51
341.1842664
0
ARC
8
DEFAULT_255_2_778
10
14.3116117
20
12.7334528
40
1.2800351
50
341.3684403
51
348.406296
0
ARC
8
DEFAULT_255_2_778
10
14.4085006
20
12.713766
40
1.1811667
50
348.3972415
51
357.7509492
0
ARC
8
DEFAULT_255_2_778
10
14.4477103
20
12.7112721
40
1.1418898
50
357.7987812
51
359.9981878
0
ARC
8
DEFAULT_255_2_778
10
14.2947743
20
12.7183178
40
1.2948451
50
359.6866325
51
8.8301287
0
ARC
8
DEFAULT_255_2_778
10
14.5443082
20
12.7529071
40
1.0429672
50
9.0567629
51
24.8760013
0
ARC
8
DEFAULT_255_2_778
10
14.1570869
20
12.5686391
40
1.4717819
50
25.0428047
51
34.0407715
0
ARC
8
DEFAULT_255_2_778
10
13.188379
20
11.9248213
40
2.6349042
50
33.8500006
51
38.1217853
0
ARC
8
DEFAULT_255_2_778
10
11.4271331
20
10.5522348
40
4.8678284
50
38.0339257
51
40.2274733
0
ARC
8
DEFAULT_255_2_778
10
7.6084863
20
7.327457
40
9.8659527
50
40.2036684
51
41.430258
0
ARC
8
DEFAULT_255_2_778
10
8.0548252
20
7.7537331
40
9.2492664
50
41.2799788
51
43.5714731
0
ARC
8
DEFAULT_255_2_778
10
7.9544709
20
7.6565946
40
9.3889283
50
43.5788463
51
44.8724954
0
ARC
8
DEFAULT_255_2_778
10
6.49349
20
6.1767079
40
11.4684148
50
44.9624032
51
47.7626295
0
ARC
8
DEFAULT_255_2_778
10
14.1901597
20
14.6540084
40
0.0183781
50
47.3975713
51
85.0346895
0
ARC
8
DEFAULT_255_2_778
10
14.1913342
20
14.6666182
40
0.0057144
50
85.8228508
51
184.8205195
0
ARC
8
DEFAULT_255_2_778
10
14.2032207
20
14.6673721
40
0.017624
50
184.0152632
51
218.3542283
0
ARC
8
DEFAULT_255_2_778
10
8.6427477
20
8.4556574
40
8.3284601
50
59.0266562
51
75.8535911
0
ARC
8
DEFAULT_255_2_778
10
8.6196731
20
8.3440903
40
8.4422848
50
75.8867935
51
86.4970501
0
ARC
8
DEFAULT_255_2_778
10
8.5991497
20
8.0797313
40
8.7074049
50
86.4685404
51
90.0062493
0
ARC
8
DEFAULT_255_2_778
10
8.5962904
20
8.2782819
40
8.5088542
50
89.9871412
51
101.4109961
0
ARC
8
DEFAULT_255_2_778
10
8.5716578
20
8.3939055
40
8.3906426
50
101.4023236
51
114.8815977
0
ARC
8
DEFAULT_255_2_778
10
8.5018714
20
8.5495473
40
8.2200857
50
114.896769
51
121.4958179
0
ARC
8
DEFAULT_255_2_778
10
6.7842287
20
11.405026
40
4.8879977
50
121.8147584
51
124.0580031
0
ARC
8
DEFAULT_255_2_778
10
5.4601797
20
13.3575078
40
2.5289158
50
123.979064
51
128.1071036
0
ARC
8
DEFAULT_255_2_778
10
4.7262357
20
14.2893076
40
1.3427821
50
128.0019123
51
134.9359407
0
ARC
8
DEFAULT_255_2_778
10
4.276848
20
14.7341827
40
0.7104574
50
134.6215858
51
148.0526599
0
ARC
8
DEFAULT_255_2_778
10
4.0209648
20
14.8907937
40
0.4104702
50
147.702573
51
179.7009712
0
ARC
8
DEFAULT_255_2_778
10
4.0860192
20
14.893721
40
0.4755199
50
180.094597
51
193.2292429
0
ARC
8
DEFAULT_255_2_778
10
4.1302915
20
14.9030847
40
0.5207611
50
193.1174141
51
196.8929673
0
ARC
8
DEFAULT_255_2_778
10
4.2903943
20
14.964148
40
0.6918017
50
197.8789957
51
219.4079175
0
ARC
8
DEFAULT_255_2_778
10
4.7058547
20
15.2937243
40
1.2220667
50
218.9810745
51
231.4077538
0
ARC
8
DEFAULT_255_2_778
10
5.1958762
20
15.8961414
40
1.9985945
50
231.2004515
51
239.4126255
0
ARC
8
DEFAULT_255_2_778
10
5.727918
20
16.7889322
40
3.0378898
50
239.3426111
51
245.7286519
0
ARC
8
DEFAULT_255_2_778
10
6.2737804
20
17.9896907
40
4.3568953
50
245.6756411
51
250.7255966
0
ARC
8
DEFAULT_255_2_778
10
6.7789193
20
19.4221895
40
5.8758444
50
250.6869076
51
254.7229848
0
ARC
8
DEFAULT_255_2_778
10
7.223744
20
21.0428395
40
7.5564312
50
254.7071583
51
258.2417918
0
ARC
8
DEFAULT_255_2_778
10
7.6024207
20
22.8535204
40
9.4062852
50
258.2311536
51
261.4114406
0
ARC
8
DEFAULT_255_2_778
10
7.8978131
20
24.7970604
40
11.3721442
50
261.4021917
51
264.2659896
0
ARC
8
DEFAULT_255_2_778
10
8.1020182
20
26.8159211
40
13.4013057
50
264.2596698
51
266.8933914
0
ARC
8
DEFAULT_255_2_778
10
8.2139237
20
28.8459626
40
15.4344285
50
266.8869878
51
269.2625525
0
ARC
8
DEFAULT_255_2_778
10
8.2378614
20
30.1908656
40
16.7795296
50
269.2399268
51
270.0025222
0
ARC
8
DEFAULT_255_2_778
10
8.2421819
20
28.3839689
40
14.9726334
50
269.9862931
51
273.4414698
0
ARC
8
DEFAULT_255_2_778
10
8.3080144
20
27.3220036
40
13.9086313
50
273.4333745
51
276.7831977
0
ARC
8
DEFAULT_255_2_778
10
8.4912102
20
25.7954905
40
12.371166
50
276.7757281
51
280.0654162
0
ARC
8
DEFAULT_255_2_778
10
8.8043876
20
24.0339792
40
10.5820316
50
280.0627435
51
283.2155802
0
ARC
8
DEFAULT_255_2_778
10
9.2396646
20
22.1899421
40
8.6873197
50
283.2012436
51
286.6826283
0
ARC
8
DEFAULT_255_2_778
10
9.790143
20
20.3596153
40
6.7760065
50
286.6667614
51
290.543405
0
ARC
8
DEFAULT_255_2_778
10
10.4261125
20
18.6720132
40
4.9725534
50
290.5051742
51
295.2951987
0
ARC
8
DEFAULT_255_2_778
10
11.0940841
20
17.2639799
40
3.414113
50
295.2566335
51
301.0770918
0
ARC
8
DEFAULT_255_2_778
10
11.7417875
20
16.1980905
40
2.1668733
50
300.9570888
51
309.2242133
0
ARC
8
DEFAULT_255_2_778
10
12.3281258
20
15.4870855
40
1.2453074
50
309.0119181
51
321.5115402
0
ARC
8
DEFAULT_255_2_778
10
12.7887899
20
15.1281407
40
0.6613633
50
321.0143146
51
343.4920459
0
ARC
8
DEFAULT_255_2_778
10
12.9548222
20
15.0688323
40
0.4854191
50
344.6353824
51
348.6092688
0
ARC
8
DEFAULT_255_2_778
10
12.9927648
20
15.0618002
40
0.4468354
50
348.5323333
51
359.9276541
0
ARC
8
DEFAULT_255_2_778
10
13.1176722
20
15.0588187
40
0.3219369
50
0.430215
51
40.0213013
0
ARC
8
DEFAULT_255_2_778
10
12.9346986
20
14.9289434
40
0.5458821
50
38.1100358
51
43.0443698
0
ARC
8
DEFAULT_255_2_778
10
12.6832397
20
14.6833638
40
0.8973128
50
43.544907
51
52.5510892
0
ARC
8
DEFAULT_255_2_778
10
12.0314116
20
13.8446313
40
1.9595398
50
52.3321114
51
56.9534915
0
ARC
8
DEFAULT_255_2_778
10
10.6687871
20
11.7665304
40
4.4445376
50
56.8379713
51
59.0855321
0
ARC
8
DEFAULT_255_2_778
10
9.0391912
20
9.0835224
40
7.5836279
50
58.936913
51
59.1422276
0
ENDSEC
0
EOF