0
SECTION
2
HEADER
9
$MEASUREMENT
70
1
0
ENDSEC
0
SECTION
2
TABLES
0
TABLE
2
LTYPE
0
LTYPE
72
65
70
64
2
CONTINUOUS
3
______
73
0
40
0
0
ENDTAB
0
TABLE
2
LAYER
0
LAYER
2
DEFAULT_255_2_778
70
0
62
255
6
CONTINUOUS
0
ENDTAB
0
ENDSEC
0
SECTION
2
ENTITIES
0
ARC
8
DEFAULT_255_2_778
10
11.5255767
20
5.2792541
40
0.2041796
50
90.7604134
51
159.8721022
0
ARC
8
DEFAULT_255_2_778
10
11.5459964
20
5.3017553
40
0.1818082
50
89.9995145
51
92.3104696
0
ARC
8
DEFAULT_255_2_778
10
11.5459843
20
5.3036323
40
0.1799312
50
14.7739161
51
89.9956452
0
ARC
8
DEFAULT_255_2_778
10
13.2596859
20
1.6941968
40
0.1411824
50
269.7487943
51
0.2512057
0
ARC
8
DEFAULT_255_2_778
10
13.2693436
20
1.7126187
40
0.1599335
50
197.9174728
51
266.3158661
0
ARC
8
DEFAULT_255_2_778
10
9.7854007
20
1.7090376
40
0.1535235
50
272.9370177
51
337.4309414
0
ARC
8
DEFAULT_255_2_778
10
9.7842415
20
1.6804343
40
0.1250447
50
182.9881535
51
274.1390672
0
ARC
8
DEFAULT_255_2_778
10
9.931718
20
1.6779441
40
0.2723808
50
175.671816
51
180.8473948
0
ARC
8
DEFAULT_255_2_778
10
9.7375488
20
1.6950485
40
0.0775117
50
131.8176211
51
177.4475417
0
ARC
8
DEFAULT_255_2_778
10
14.4609605
20
5.3103093
40
0.1340937
50
180.0827111
51
269.9172889
0
ARC
8
DEFAULT_255_2_778
10
14.4609605
20
5.3099222
40
0.1340937
50
90.0827111
51
179.9172889
0
ARC
8
DEFAULT_255_2_778
10
17.2199413
20
5.3042872
40
0.1397471
50
2.3903789
51
90.9325112
0
ARC
8
DEFAULT_255_2_778
10
17.2216176
20
5.3141652
40
0.1380088
50
271.6813871
51
358.3185902
0
ARC
8
DEFAULT_255_2_778
10
15.8389864
20
1.7083884
40
0.1553745
50
269.4721071
51
354.9885805
0
ARC
8
DEFAULT_255_2_778
10
15.8363669
20
1.7000233
40
0.1470076
50
270.0000036
51
270.4629916
0
ARC
8
DEFAULT_255_2_778
10
15.8371
20
1.6878281
40
0.1348143
50
177.0289114
51
269.6884419
0
ARC
8
DEFAULT_255_2_778
10
20.651939
20
3.5041972
40
2.0980789
50
149.1110789
51
180.1469607
0
ARC
8
DEFAULT_255_2_778
10
20.4907288
20
3.6053669
40
1.9078004
50
110.8711641
51
149.2329786
0
ARC
8
DEFAULT_255_2_778
10
20.5066855
20
3.5357692
40
1.978541
50
92.9783888
51
110.5848833
0
ARC
8
DEFAULT_255_2_778
10
20.5228033
20
3.3561427
40
2.158773
50
89.990347
51
93.1578786
0
ARC
8
DEFAULT_255_2_778
10
20.5305583
20
3.4991347
40
2.0157946
50
74.3343879
51
90.2100885
0
ARC
8
DEFAULT_255_2_778
10
20.5783435
20
3.6775477
40
1.8311072
50
48.189825
51
74.2666303
0
ARC
8
DEFAULT_255_2_778
10
20.4631101
20
3.5739686
40
1.985204
50
8.9773118
51
47.7038664
0
ARC
8
DEFAULT_255_2_778
10
20.2963504
20
3.5308256
40
2.1567169
50
359.978485
51
9.4181217
0
ARC
8
DEFAULT_255_2_778
10
20.373139
20
3.5098153
40
2.0799337
50
329.6694399
51
0.1349925
0
ARC
8
DEFAULT_255_2_778
10
20.5267469
20
3.4138637
40
1.8989035
50
290.1784248
51
329.8277955
0
ARC
8
DEFAULT_255_2_778
10
20.5131238
20
3.4804799
40
1.9661566
50
272.264456
51
289.8814183
0
ARC
8
DEFAULT_255_2_778
10
20.4997712
20
3.6479195
40
2.1340037
50
269.994516
51
272.4450513
0
ARC
8
DEFAULT_255_2_778
10
20.492652
20
3.5264236
40
2.0125197
50
253.9047285
51
270.196867
0
ARC
8
DEFAULT_255_2_778
10
20.4534601
20
3.3797725
40
1.8607542
50
226.8899721
51
253.8123152
0
ARC
8
DEFAULT_255_2_778
10
20.5646359
20
3.4788009
40
2.009072
50
184.9113003
51
226.5053424
0
ARC
8
DEFAULT_255_2_778
10
20.6572265
20
3.4986958
40
2.1030595
50
179.9967323
51
185.2353659
0
ARC
8
DEFAULT_255_2_778
10
20.2355602
20
3.5053358
40
1.9182179
50
359.8052513
51
20.6582711
0
ARC
8
DEFAULT_255_2_778
10
20.497423
20
3.6275762
40
1.6302151
50
19.885136
51
77.1894904
0
ARC
8
DEFAULT_255_2_778
10
20.5023715
20
3.5816442
40
1.673974
50
77.7032402
51
90.095992
0
ARC
8
DEFAULT_255_2_778
10
20.4938123
20
3.6584023
40
1.5972238
50
89.7935664
51
112.5117671
0
ARC
8
DEFAULT_255_2_778
10
20.5402064
20
3.6057119
40
1.663817
50
113.2929859
51
163.0847792
0
ARC
8
DEFAULT_255_2_778
10
20.7312368
20
3.5257255
40
1.8699725
50
162.4430334
51
180.0952818
0
ARC
8
DEFAULT_255_2_778
10
20.7143299
20
3.5005612
40
1.8530732
50
179.8097037
51
203.375161
0
ARC
8
DEFAULT_255_2_778
10
20.506796
20
3.3937174
40
1.6202584
50
202.8187058
51
258.5473732
0
ARC
8
DEFAULT_255_2_778
10
20.5129831
20
3.4694164
40
1.6957025
50
258.8503485
51
270.0839269
0
ARC
8
DEFAULT_255_2_778
10
20.522555
20
3.3968045
40
1.6231042
50
269.7497896
51
291.1489248
0
ARC
8
DEFAULT_255_2_778
10
20.5076243
20
3.3825818
40
1.6153388
50
291.8248729
51
341.044007
0
ARC
8
DEFAULT_255_2_778
10
20.2316889
20
3.4987464
40
1.9141517
50
340.438472
51
359.9155646
0
ARC
8
DEFAULT_255_2_778
10
20.0976361
20
3.5066736
40
2.0482307
50
359.6993402
51
0.0011782
0
ARC
8
DEFAULT_255_2_778
10
24.4057217
20
5.319061
40
0.1410567
50
89.6972823
51
180.3027177
0
ARC
8
DEFAULT_255_2_778
10
24.4263437
20
5.2718558
40
0.1886308
50
35.4707025
51
86.4063771
0
ARC
8
DEFAULT_255_2_778
10
27.7478282
20
5.3125086
40
0.1553122
50
90.4652733
51
150.488254
0
ARC
8
DEFAULT_255_2_778
10
27.7757686
20
5.3125584
40
0.1552827
50
4.9717122
51
91.0337875
0
ARC
8
DEFAULT_255_2_778
10
27.7757114
20
1.7163539
40
0.1553466
50
269.3171828
51
355.0004353
0
ARC
8
DEFAULT_255_2_778
10
27.7729988
20
1.7034827
40
0.1424668
50
269.9871722
51
270.3463901
0
ARC
8
DEFAULT_255_2_778
10
27.7724749
20
1.7023237
40
0.1413088
50
179.8005073
51
270.1995127
0
ARC
8
DEFAULT_255_2_778
10
25.8077922
20
3.2054517
40
0.5269653
50
319.2901358
51
320.253703
0
ARC
8
DEFAULT_255_2_778
10
26.0701389
20
2.9542214
40
0.1653744
50
275.8752008
51
326.0018792
0
ARC
8
DEFAULT_255_2_778
10
26.0908661
20
2.9031422
40
0.11349
50
222.2389937
51
268.0816179
0
ARC
8
DEFAULT_255_2_778
10
26.3571648
20
3.1852419
40
0.5011669
50
219.1961534
51
225.6523774
0
ARC
8
DEFAULT_255_2_778
10
24.4186477
20
1.6857441
40
0.1320274
50
359.9924826
51
0.6386624
0
ARC
8
DEFAULT_255_2_778
10
24.4181716
20
1.6857089
40
0.1325037
50
315.0006468
51
0.0077128
0
ARC
8
DEFAULT_255_2_778
10
24.4183412
20
1.6856479
40
0.1323406
50
269.9657307
51
314.9674241
0
ARC
8
DEFAULT_255_2_778
10
24.4182285
20
1.6803965
40
0.1270892
50
269.3410869
51
270.0151476
0
ARC
8
DEFAULT_255_2_778
10
24.4095995
20
1.6877586
40
0.1346338
50
180.2310195
51
273.0516766
0
LINE
8
DEFAULT_255_2_778
10
9.679767
20
1.7578158
11
11.333867
21
5.3495158
0
LINE
8
DEFAULT_255_2_778
10
11.522867
20
5.4834158
11
11.538667
21
5.4834158
0
LINE
8
DEFAULT_255_2_778
10
11.719967
20
5.3495158
11
13.374367
21
1.7737158
0
LINE
8
DEFAULT_255_2_778
10
13.374367
20
1.7737158
11
13.400867
21
1.6948158
0
LINE
8
DEFAULT_255_2_778
10
13.117167
20
1.6634158
11
12.660267
21
2.6555158
0
LINE
8
DEFAULT_255_2_778
10
12.660267
20
2.6555158
11
10.376167
21
2.6555158
0
LINE
8
DEFAULT_255_2_778
10
10.376167
20
2.6555158
11
9.927167
21
1.6501158
0
LINE
8
DEFAULT_255_2_778
10
12.552867
20
2.9106158
11
11.528867
21
5.1633158
0
LINE
8
DEFAULT_255_2_778
10
11.528867
20
5.1633158
11
10.504967
21
2.9185158
0
LINE
8
DEFAULT_255_2_778
10
10.504967
20
2.9185158
11
12.552867
21
2.9185158
0
LINE
8
DEFAULT_255_2_778
10
15.697467
20
5.1762158
11
14.460767
21
5.1762158
0
LINE
8
DEFAULT_255_2_778
10
14.460767
20
5.4440158
11
17.217667
21
5.4440158
0
LINE
8
DEFAULT_255_2_778
10
17.225667
20
5.1762158
11
15.993767
21
5.1762158
0
LINE
8
DEFAULT_255_2_778
10
15.993767
20
5.1762158
11
15.993767
21
1.6948158
0
LINE
8
DEFAULT_255_2_778
10
15.702467
20
1.6948158
11
15.702467
21
5.1762158
0
LINE
8
DEFAULT_255_2_778
10
22.453067
20
3.5300158
11
22.453067
21
3.5147158
0
LINE
8
DEFAULT_255_2_778
10
18.861267
20
3.5226158
11
18.861267
21
3.5067158
0
LINE
8
DEFAULT_255_2_778
10
24.406467
20
5.4601158
11
24.438167
21
5.4601158
0
LINE
8
DEFAULT_255_2_778
10
24.579967
20
5.3813158
11
26.092367
21
3.1442158
0
LINE
8
DEFAULT_255_2_778
10
26.092367
20
3.1442158
11
27.612667
21
5.3890158
0
LINE
8
DEFAULT_255_2_778
10
27.746567
20
5.4678158
11
27.772967
21
5.4678158
0
LINE
8
DEFAULT_255_2_778
10
27.930467
20
5.3260158
11
27.930467
21
1.7028158
0
LINE
8
DEFAULT_255_2_778
10
27.631167
20
1.7028158
11
27.631167
21
4.9402158
0
LINE
8
DEFAULT_255_2_778
10
27.631167
20
4.9402158
11
26.212967
21
2.8685158
0
LINE
8
DEFAULT_255_2_778
10
25.968767
20
2.8685158
11
24.550667
21
4.9402158
0
LINE
8
DEFAULT_255_2_778
10
24.550667
20
4.9402158
11
24.550667
21
1.6872158
0
LINE
8
DEFAULT_255_2_778
10
24.274967
20
1.6872158
11
24.274967
21
5.3106158
0
ARC
8
DEFAULT_255_2_778
10
-4.1122574
20
-0.8154373
40
11.0316226
50
22.629372
51
26.0427555
0
ARC
8
DEFAULT_255_2_778
10
-3.2412701
20
-0.4532835
40
10.0883444
50
19.4243846
51
22.6342324
0
ARC
8
DEFAULT_255_2_778
10
-2.1224755
20
-0.0599116
40
8.9024096
50
16.1713631
51
19.4313836
0
ARC
8
DEFAULT_255_2_778
10
-0.8840051
20
0.2989501
40
7.6129948
50
12.9737369
51
16.1733584
0
ARC
8
DEFAULT_255_2_778
10
0.4142775
20
0.5960389
40
6.281156
50
9.2622387
51
12.9916631
0
ARC
8
DEFAULT_255_2_778
10
1.7182348
20
0.8075047
40
4.9601637
50
5.1178072
51
9.275726
0
ARC
8
DEFAULT_255_2_778
10
2.910531
20
0.9126513
40
3.7632415
50
0.2151591
51
5.1426235
0
ARC
8
DEFAULT_255_2_778
10
3.3572701
20
0.9217607
40
3.3164797
50
0.0023826
51
0.0867681
0
ARC
8
DEFAULT_255_2_778
10
3.8783498
20
0.9163809
40
2.7954054
50
355.1318571
51
0.1130941
0
ARC
8
DEFAULT_255_2_778
10
4.5968719
20
0.8540463
40
2.0741856
50
349.0489798
51
355.163178
0
ARC
8
DEFAULT_255_2_778
10
5.1598928
20
0.7440625
40
1.5005242
50
341.4481993
51
349.0880801
0
ARC
8
DEFAULT_255_2_778
10
5.5801635
20
0.6010515
40
1.0565933
50
330.7250438
51
341.5493624
0
ARC
8
DEFAULT_255_2_778
10
5.8621239
20
0.4403898
40
0.7320839
50
313.6043468
51
330.9021925
0
ARC
8
DEFAULT_255_2_778
10
5.9618367
20
0.3405544
40
0.5910311
50
296.9922274
51
313.2795823
0
ARC
8
DEFAULT_255_2_778
10
5.9597452
20
0.3502329
40
0.60061
50
276.648818
51
296.7509609
0
ARC
8
DEFAULT_255_2_778
10
5.9446998
20
0.4556955
40
0.7071106
50
269.9240421
51
276.8702982
0
ARC
8
DEFAULT_255_2_778
10
5.9514672
20
0.6659825
40
0.9174294
50
255.4177522
51
269.5188104
0
ARC
8
DEFAULT_255_2_778
10
6.0615204
20
1.1049437
40
1.3699643
50
246.3338719
51
255.5854194
0
ARC
8
DEFAULT_255_2_778
10
6.3066493
20
1.6697388
40
1.9856577
50
239.3095073
51
246.3973161
0
ARC
8
DEFAULT_255_2_778
10
6.7080366
20
2.3511382
40
2.7764877
50
233.8917008
51
239.3635459
0
ARC
8
DEFAULT_255_2_778
10
7.2639326
20
3.1164799
40
3.7224082
50
229.4228015
51
233.9211801
0
ARC
8
DEFAULT_255_2_778
10
7.9773916
20
3.9516021
40
4.8207941
50
225.516526
51
229.4386076
0
ARC
8
DEFAULT_255_2_778
10
8.8407392
20
4.8322839
40
6.0540695
50
221.9850747
51
225.5273086
0
ARC
8
DEFAULT_255_2_778
10
9.5053543
20
5.4389361
40
6.9539056
50
220.7706332
51
222.037399
0
ARC
8
DEFAULT_255_2_778
10
10.1097952
20
5.955739
40
7.7491566
50
218.0998182
51
220.7460167
0
ARC
8
DEFAULT_255_2_778
10
10.9518494
20
6.6166499
40
8.8196045
50
215.526361
51
218.1031943
0
ARC
8
DEFAULT_255_2_778
10
11.7653919
20
7.1981317
40
9.8195905
50
212.9602225
51
215.529318
0
ARC
8
DEFAULT_255_2_778
10
12.482598
20
7.6640437
40
10.6748439
50
210.4130654
51
212.9640975
0
ARC
8
DEFAULT_255_2_778
10
13.0558679
20
8.0010093
40
11.3398131
50
207.6120959
51
210.4150454
0
ARC
8
DEFAULT_255_2_778
10
13.3010639
20
8.1316153
40
11.6176164
50
207.223966
51
207.6223863
0
ARC
8
DEFAULT_255_2_778
10
12.9676546
20
7.9325595
40
11.2301051
50
203.5357859
51
207.0990662
0
ARC
8
DEFAULT_255_2_778
10
12.1387593
20
7.5726585
40
10.3264487
50
200.2079766
51
203.5415273
0
ARC
8
DEFAULT_255_2_778
10
11.1105709
20
7.1936819
40
9.2306411
50
197.3284128
51
200.2049802
0
ARC
8
DEFAULT_255_2_778
10
9.9295304
20
6.8275522
40
7.9941535
50
193.9498395
51
197.3446014
0
ARC
8
DEFAULT_255_2_778
10
8.6038277
20
6.4991683
40
6.6283851
50
190.3758229
51
193.9575436
0
ARC
8
DEFAULT_255_2_778
10
7.3042766
20
6.2624504
40
5.3074511
50
186.4022415
51
190.3888587
0
ARC
8
DEFAULT_255_2_778
10
6.1009699
20
6.1286871
40
4.0967332
50
181.8482524
51
186.4197097
0
ARC
8
DEFAULT_255_2_778
10
5.3799503
20
6.0997772
40
3.3751609
50
180.0151283
51
181.7525068
0
ARC
8
DEFAULT_255_2_778
10
4.8056628
20
6.104184
40
2.8008782
50
175.2121085
51
180.1083761
0
ARC
8
DEFAULT_255_2_778
10
4.1072635
20
6.1635916
40
2.0999576
50
169.3513413
51
175.2368527
0
ARC
8
DEFAULT_255_2_778
10
3.5453032
20
6.2707872
40
1.5278675
50
161.6758195
51
169.4078558
0
ARC
8
DEFAULT_255_2_778
10
3.1221057
20
6.4124264
40
1.0815998
50
151.3163138
51
161.7503396
0
ARC
8
DEFAULT_255_2_778
10
2.8397092
20
6.5693545
40
0.7585398
50
135.0854095
51
151.4770059
0
ARC
8
DEFAULT_255_2_778
10
2.7296934
20
6.6753765
40
0.6057796
50
116.627747
51
134.8398436
0
ARC
8
DEFAULT_255_2_778
10
2.7167894
20
6.7102343
40
0.5688499
50
92.6184709
51
117.0394631
0
ARC
8
DEFAULT_255_2_778
10
2.7295894
20
6.5827848
40
0.6967859
50
89.9805556
51
93.1911303
0
ARC
8
DEFAULT_255_2_778
10
2.7184935
20
6.3534928
40
0.9261472
50
73.4819868
51
89.2989084
0
ARC
8
DEFAULT_255_2_778
10
2.5505993
20
5.7625662
40
1.5404379
50
63.9861041
51
73.744026
0
ARC
8
DEFAULT_255_2_778
10
2.1739951
20
4.9792109
40
2.4096095
50
57.2975195
51
64.1078842
0
ARC
8
DEFAULT_255_2_778
10
1.5599624
20
4.0160517
40
3.5518454
50
52.1617248
51
57.3567499
0
ARC
8
DEFAULT_255_2_778
10
2.4206654
20
5.4634629
40
3.0426266
50
235.6552938
51
242.721652
0
ARC
8
DEFAULT_255_2_778
10
1.7743921
20
4.5256828
40
1.9037376
50
225.6713387
51
235.7917224
0
ARC
8
DEFAULT_255_2_778
10
1.2178941
20
3.9629578
40
1.1123409
50
210.0287182
51
225.9221872
0
ARC
8
DEFAULT_255_2_778
10
0.8301706
20
3.74302
40
0.6666052
50
180.7165079
51
210.3393083
0
ARC
8
DEFAULT_255_2_778
10
0.7629393
20
3.7346683
40
0.5993218
50
176.4186588
51
179.998495
0
ARC
8
DEFAULT_255_2_778
10
0.8190519
20
3.7335526
40
0.655399
50
141.4320386
51
176.6277316
0
ARC
8
DEFAULT_255_2_778
10
1.2226551
20
3.4351322
40
1.1571564
50
127.8354052
51
142.3380712
0
ARC
8
DEFAULT_255_2_778
10
1.695077
20
2.8387997
40
1.9179208
50
118.5727056
51
128.0540835
0
ARC
8
DEFAULT_255_2_778
10
2.2130524
20
1.8976739
40
2.9921655
50
111.5445953
51
118.6641613
0
ARC
8
DEFAULT_255_2_778
10
2.7256485
20
0.6125022
40
4.3757858
50
106.0417513
51
111.6078968
0
ARC
8
DEFAULT_255_2_778
10
3.1770455
20
-0.9451787
40
5.9975503
50
101.3392664
51
106.0739821
0
ARC
8
DEFAULT_255_2_778
10
3.5121568
20
-2.5937129
40
7.6797957
50
97.4238634
51
101.372378
0
ARC
8
DEFAULT_255_2_778
10
3.7198409
20
-4.1761064
40
9.2757592
50
93.5590592
51
97.4330325
0
ARC
8
DEFAULT_255_2_778
10
3.8056739
20
-5.5074429
40
10.6098567
50
89.970619
51
93.5753763
0
ARC
8
DEFAULT_255_2_778
10
3.810575
20
-6.1642515
40
11.2666641
50
88.7214535
51
89.9972563
0
ARC
8
DEFAULT_255_2_778
10
3.8051934
20
-6.4108079
40
11.513279
50
87.4990849
51
88.7220561
0
ARC
8
DEFAULT_255_2_778
10
3.8000138
20
-6.5376277
40
11.6402041
50
87.0937806
51
87.5008529
0
ARC
8
DEFAULT_255_2_778
10
3.8329016
20
-5.9408846
40
11.0425611
50
82.5532948
51
87.1072182
0
ARC
8
DEFAULT_255_2_778
10
3.9915273
20
-4.7451945
40
9.8363974
50
78.2858191
51
82.5668187
0
ARC
8
DEFAULT_255_2_778
10
4.3142868
20
-3.1955038
40
8.2534531
50
74.0917312
51
78.2955659
0
ARC
8
DEFAULT_255_2_778
10
4.7873233
20
-1.5449619
40
6.5364662
50
69.4657876
51
74.1137308
0
ARC
8
DEFAULT_255_2_778
10
5.3839165
20
0.039141
40
4.8437486
50
64.0079484
51
69.5017118
0
ARC
8
DEFAULT_255_2_778
10
6.046392
20
1.3898913
40
3.3392943
50
57.1394207
51
64.0681346
0
ARC
8
DEFAULT_255_2_778
10
6.7041886
20
2.4008058
40
2.1332183
50
47.8275515
51
57.2475551
0
ARC
8
DEFAULT_255_2_778
10
7.2871998
20
3.0378007
40
1.2697185
50
34.0025561
51
48.0274551
0
ARC
8
DEFAULT_255_2_778
10
7.7530741
20
3.3417131
40
0.7135976
50
5.3558327
51
34.6917641
0
ARC
8
DEFAULT_255_2_778
10
7.8784681
20
3.3648943
40
0.5866975
50
0.0032285
51
4.2448452
0
ARC
8
DEFAULT_255_2_778
10
7.8810844
20
3.3649305
40
0.5840813
50
357.6818418
51
359.9996929
0
ARC
8
DEFAULT_255_2_778
10
7.7883521
20
3.4224452
40
0.6811856
50
322.8796415
51
353.1589302
0
ARC
8
DEFAULT_255_2_778
10
7.3670935
20
3.7234078
40
1.1987973
50
308.6475813
51
323.5606088
0
ARC
8
DEFAULT_255_2_778
10
6.8775765
20
4.3234427
40
1.9731578
50
298.7468676
51
308.8675403
0
ARC
8
DEFAULT_255_2_778
10
6.3992253
20
5.1808152
40
2.9549288
50
291.5954281
51
298.8835735
0
ARC
8
DEFAULT_255_2_778
10
1.1714005
20
3.6691743
40
3.9732171
50
300.6443078
51
305.7719755
0
ARC
8
DEFAULT_255_2_778
10
1.7636309
20
2.6649377
40
2.8073609
50
294.2152263
51
300.6921076
0
ARC
8
DEFAULT_255_2_778
10
2.1387212
20
1.825197
40
1.8876603
50
285.7758442
51
294.2864355
0
ARC
8
DEFAULT_255_2_778
10
2.3203915
20
1.1695494
40
1.2073224
50
273.3260279
51
285.9384606
0
ARC
8
DEFAULT_255_2_778
10
2.3447809
20
0.8851933
40
0.9220638
50
270.0188299
51
272.8381906
0
ARC
8
DEFAULT_255_2_778
10
2.3403077
20
0.7186203
40
0.7555058
50
255.9173742
51
270.3622176
0
ARC
8
DEFAULT_255_2_778
10
2.3065169
20
0.5780987
40
0.610987
50
237.761366
51
255.7845353
0
ARC
8
DEFAULT_255_2_778
10
2.3249303
20
0.5696356
40
0.61398
50
210.2714962
51
235.8863276
0
ARC
8
DEFAULT_255_2_778
10
2.5296798
20
0.695067
40
0.8540561
50
198.7091783
51
210.6146179
0
ARC
8
DEFAULT_255_2_778
10
2.8363963
20
0.8008853
40
1.1785097
50
190.3677555
51
198.7987758
0
ARC
8
DEFAULT_255_2_778
10
3.2485306
20
0.8778648
40
1.5977694
50
184.0289887
51
190.4234322
0
ARC
8
DEFAULT_255_2_778
10
3.7063035
20
0.9127631
40
2.0568648
50
179.9272363
51
184.1027639
0
ARC
8
DEFAULT_255_2_778
10
4.3778953
20
0.9066984
40
2.7284686
50
173.7555778
51
179.8177919
0
ARC
8
DEFAULT_255_2_778
10
5.4103694
20
0.7960971
40
3.7668479
50
168.8389824
51
173.7914327
0
ARC
8
DEFAULT_255_2_778
10
6.6372032
20
0.5552088
40
5.0171068
50
164.4118154
51
168.8520239
0
ARC
8
DEFAULT_255_2_778
10
7.9889306
20
0.1805328
40
6.4197986
50
160.5801408
51
164.4327277
0
ARC
8
DEFAULT_255_2_778
10
9.3481558
20
-0.2971723
40
7.8605254
50
156.9753041
51
160.5903371
0
ARC
8
DEFAULT_255_2_778
10
10.6093756
20
-0.8314283
40
9.2302344
50
153.5236254
51
156.9852545
0
ARC
8
DEFAULT_255_2_778
10
11.6434545
20
-1.3449054
40
10.3847803
50
150.0347337
51
153.531346
0
ARC
8
DEFAULT_255_2_778
10
12.2715137
20
-1.7034328
40
11.1079617
50
147.3990067
51
150.0507101
0
ARC
8
DEFAULT_255_2_778
10
12.4761978
20
-1.832323
40
11.3498406
50
146.8827747
51
147.4075792
0
ARC
8
DEFAULT_255_2_778
10
12.7272523
20
-1.9952067
40
11.6491044
50
144.5712916
51
146.8864175
0
ARC
8
DEFAULT_255_2_778
10
12.3433065
20
-1.7215505
40
11.1776154
50
142.3751612
51
144.5734237
0
ARC
8
DEFAULT_255_2_778
10
11.8244164
20
-1.32104
40
10.5221345
50
140.2015405
51
142.3775454
0
ARC
8
DEFAULT_255_2_778
10
11.2051444
20
-0.8045622
40
9.7157556
50
138.0130611
51
140.2040237
0
ARC
8
DEFAULT_255_2_778
10
10.7537755
20
-0.4014701
40
9.1106017
50
137.2401888
51
137.9984019
0
ARC
8
DEFAULT_255_2_778
10
10.1359234
20
0.1780567
40
8.2635169
50
134.0225744
51
137.2819012
0
ARC
8
DEFAULT_255_2_778
10
9.1477159
20
1.2022617
40
6.8402992
50
130.5219362
51
134.032428
0
ARC
8
DEFAULT_255_2_778
10
8.2573612
20
2.2450912
40
5.4690864
50
126.7539082
51
130.5298718
0
ARC
8
DEFAULT_255_2_778
10
7.5128132
20
3.244414
40
4.2228942
50
122.3748986
51
126.7733442
0
ARC
8
DEFAULT_255_2_778
10
6.929267
20
4.1676579
40
3.1306934
50
117.1109698
51
122.4026432
0
ARC
8
DEFAULT_255_2_778
10
6.5127014
20
4.9863395
40
2.2121298
50
110.237287
51
117.1702845
0
ARC
8
DEFAULT_255_2_778
10
6.2646224
20
5.6651376
40
1.4894239
50
101.0616525
51
110.3156748
0
ARC
8
DEFAULT_255_2_778
10
6.1722
20
6.1361326
40
1.0094469
50
90.3251738
51
101.0424799
0
ARC
8
DEFAULT_255_2_778
10
6.1684954
20
6.3838524
40
0.7617134
50
81.3362114
51
90.1522652
0
ARC
8
DEFAULT_255_2_778
10
6.1908419
20
6.5239666
40
0.6198326
50
66.9881317
51
81.4272924
0
ARC
8
DEFAULT_255_2_778
10
6.2110793
20
6.5761027
40
0.5639368
50
58.0877125
51
66.8099078
0
ARC
8
DEFAULT_255_2_778
10
6.1121452
20
6.4732029
40
0.7042046
50
20.412334
51
55.6798091
0
ARC
8
DEFAULT_255_2_778
10
5.704464
20
6.3049935
40
1.1450575
50
7.7221694
51
21.1858614
0
ARC
8
DEFAULT_255_2_778
10
5.0902838
20
6.2148772
40
1.7657897
50
359.739477
51
7.9419027
0
ARC
8
DEFAULT_255_2_778
10
4.3824435
20
6.2117443
40
2.4736168
50
355.1375909
51
359.8865929
0
ARC
8
DEFAULT_255_2_778
10
3.6664302
20
6.2706367
40
3.1920458
50
351.6400834
51
355.1736903
0
ARC
8
DEFAULT_255_2_778
10
2.8709764
20
6.3867866
40
3.9959345
50
348.6372152
51
351.6506368
0
ARC
8
DEFAULT_255_2_778
10
4.325506
20
3.5170308
40
0.5298963
50
0.0122451
51
11.7859964
0
ARC
8
DEFAULT_255_2_778
10
4.3382961
20
3.5135422
40
0.5171189
50
282.2855457
51
0.3990821
0
ARC
8
DEFAULT_255_2_778
10
4.3408337
20
3.5038641
40
0.5071226
50
273.3844022
51
282.2380816
0
ARC
8
DEFAULT_255_2_778
10
4.3408504
20
3.5036778
40
0.5069356
50
269.9995119
51
273.3837656
0
ARC
8
DEFAULT_255_2_778
10
4.3409006
20
3.5046109
40
0.5078687
50
236.8162214
51
269.9938457
0
ARC
8
DEFAULT_255_2_778
10
4.3405745
20
3.5044718
40
0.5075738
50
191.4092485
51
236.8384325
0
ARC
8
DEFAULT_255_2_778
10
4.3619517
20
3.5123444
40
0.5300974
50
180.0123072
51
191.7862866
0
ARC
8
DEFAULT_255_2_778
10
4.3488549
20
3.5158949
40
0.5170136
50
102.2869169
51
180.406088
0
ARC
8
DEFAULT_255_2_778
10
4.342898
20
3.5161895
40
0.5154901
50
90.0213025
51
101.6469338
0
ARC
8
DEFAULT_255_2_778
10
4.3420005
20
3.5181549
40
0.5135251
50
12.0391277
51
89.9212484
0
ENDSEC
0
EOF