0
SECTION
2
HEADER
9
$MEASUREMENT
70
1
0
ENDSEC
0
SECTION
2
TABLES
0
TABLE
2
LTYPE
0
LTYPE
72
65
70
64
2
CONTINUOUS
3
______
73
0
40
0
0
ENDTAB
0
TABLE
2
LAYER
0
LAYER
2
DEFAULT_255_2_778
70
0
62
255
6
CONTINUOUS
0
ENDTAB
0
ENDSEC
0
SECTION
2
ENTITIES
0
ARC
8
DEFAULT_255_2_778
10
7.4051229
20
16.1530258
40
0.6474752
50
28.4020388
51
89.9876417
0
ARC
8
DEFAULT_255_2_778
10
7.4054019
20
16.1530261
40
0.6474748
50
90.0123305
51
151.5979715
0
ARC
8
DEFAULT_255_2_778
10
0.8684734
20
4.4230691
40
0.6466088
50
150.6499172
51
177.2325221
0
ARC
8
DEFAULT_255_2_778
10
0.8755006
20
4.4223085
40
0.6536647
50
177.1956706
51
180.0008373
0
ARC
8
DEFAULT_255_2_778
10
0.8661601
20
4.4196904
40
0.6443296
50
179.7680321
51
236.3430805
0
ARC
8
DEFAULT_255_2_778
10
0.8666012
20
4.4240253
40
0.6481854
50
236.5229948
51
239.4528276
0
ARC
8
DEFAULT_255_2_778
10
7.4180796
20
0.5537506
40
0.6862745
50
240.3387857
51
269.9793121
0
LINE
8
DEFAULT_255_2_778
10
7.4178318
20
-0.132524
11
7.4182001
21
-0.1325241
0
ARC
8
DEFAULT_255_2_778
10
7.4183548
20
0.5533367
40
0.6858608
50
269.9870745
51
299.670394
0
ARC
8
DEFAULT_255_2_778
10
13.918959
20
4.4266494
40
0.6757765
50
303.1871592
51
359.8216928
0
ARC
8
DEFAULT_255_2_778
10
13.9484215
20
4.4245678
40
0.6463107
50
359.9981004
51
1.4641041
0
ARC
8
DEFAULT_255_2_778
10
13.9741512
20
4.4270589
40
0.6205285
50
1.2948725
51
30.5495197
0
LINE
8
DEFAULT_255_2_778
10
14.5085442
20
4.7424629
11
14.5084626
21
4.7426009
0
ARC
8
DEFAULT_255_2_778
10
8.3993181
20
8.3821455
40
1.5828843
50
50.7432176
51
57.8700007
0
ARC
8
DEFAULT_255_2_778
10
9.0612291
20
9.8519974
40
0.0118966
50
215.1348273
51
270.1610063
0
ARC
8
DEFAULT_255_2_778
10
-27.7633664
20
-21.7929071
40
48.541746
50
40.6751921
51
40.6769966
0
ARC
8
DEFAULT_255_2_778
10
9.0432729
20
9.8415672
40
0.0086476
50
33.2640124
51
86.7540936
0
ARC
8
DEFAULT_255_2_778
10
8.5640039
20
9.1064951
40
0.8850235
50
57.1742607
51
64.3711465
0
ARC
8
DEFAULT_255_2_778
10
21.4264475
20
35.4944863
40
28.4708885
50
243.8394205
51
244.0026429
0
ARC
8
DEFAULT_255_2_778
10
8.8739291
20
9.9519974
40
0.0118966
50
215.1348273
51
270.1610063
0
ARC
8
DEFAULT_255_2_778
10
-27.9506664
20
-21.6929071
40
48.541746
50
40.6751921
51
40.6769966
0
ARC
8
DEFAULT_255_2_778
10
8.8559729
20
9.9415672
40
0.0086476
50
33.2640124
51
86.7540936
0
ARC
8
DEFAULT_255_2_778
10
8.2444075
20
8.7601694
40
1.3382027
50
62.7824091
51
66.7991417
0
ARC
8
DEFAULT_255_2_778
10
24.3127086
20
46.0765872
40
39.2906724
50
246.5533749
51
246.7002226
0
ARC
8
DEFAULT_255_2_778
10
8.6791362
20
10.0419105
40
0.0118096
50
215.2129764
51
270.1280404
0
ARC
8
DEFAULT_255_2_778
10
4.4052237
20
6.3537166
40
5.633519
50
40.804392
51
40.819339
0
ARC
8
DEFAULT_255_2_778
10
8.6612818
20
10.0314352
40
0.008679
50
33.4037246
51
86.8243482
0
ARC
8
DEFAULT_255_2_778
10
9.0421216
20
11.1301746
40
1.1545275
50
246.5830651
51
250.7646063
0
LINE
8
DEFAULT_255_2_778
10
8.5832903
20
10.0707373
11
8.5818251
21
10.0713509
0
ARC
8
DEFAULT_255_2_778
10
8.1102686
20
8.9839122
40
1.1852799
50
66.5565353
51
70.7029759
0
ARC
8
DEFAULT_255_2_778
10
7.5405978
20
7.5346546
40
2.7420012
50
69.4755552
51
79.134794
0
ARC
8
DEFAULT_255_2_778
10
6.0942867
20
11.2786227
40
2.2268625
50
312.6442726
51
331.8345537
0
ARC
8
DEFAULT_255_2_778
10
7.417857
20
7.1321881
40
2.515226
50
67.6130222
51
85.781842
0
ARC
8
DEFAULT_255_2_778
10
7.2572414
20
6.6727811
40
3.0012974
50
67.8863955
51
68.1181486
0
ARC
8
DEFAULT_255_2_778
10
7.1910145
20
6.6758305
40
3.024049
50
57.9296816
51
66.7020822
0
ARC
8
DEFAULT_255_2_778
10
8.7936099
20
9.2127463
40
0.0258356
50
37.2959697
51
83.2142677
0
ARC
8
DEFAULT_255_2_778
10
8.6860441
20
8.9839548
40
0.275986
50
50.171028
51
62.3401793
0
ARC
8
DEFAULT_255_2_778
10
12.895342
20
14.0508795
40
6.3112686
50
230.2870881
51
230.8588684
0
ARC
8
DEFAULT_255_2_778
10
8.8238918
20
8.9965254
40
0.1818494
50
43.1961465
51
61.2128718
0
ARC
8
DEFAULT_255_2_778
10
8.6388798
20
8.6346482
40
0.5808595
50
45.4373269
51
56.8559244
0
ARC
8
DEFAULT_255_2_778
10
9.2381918
20
9.2449797
40
0.2745251
50
225.7009441
51
232.9075844
0
ARC
8
DEFAULT_255_2_778
10
8.9028868
20
8.8015201
40
0.2814298
50
45.8645132
51
52.9057242
0
ARC
8
DEFAULT_255_2_778
10
9.8658258
20
9.1300485
40
0.6337176
50
216.4323154
51
225.0949012
0
ARC
8
DEFAULT_255_2_778
10
9.7921759
20
8.709088
40
0.3182421
50
212.3284798
51
212.5589726
0
ARC
8
DEFAULT_255_2_778
10
10.3708871
20
9.1025928
40
1.0179741
50
213.6969589
51
216.1108155
0
ARC
8
DEFAULT_255_2_778
10
9.4225445
20
8.4108297
40
0.1558615
50
20.8880186
51
36.0946479
0
ARC
8
DEFAULT_255_2_778
10
8.9335016
20
7.9643749
40
0.8063765
50
28.365179
51
31.5663121
0
ARC
8
DEFAULT_255_2_778
10
9.818006
20
8.4407638
40
0.198262
50
208.0686056
51
219.7449087
0
ARC
8
DEFAULT_255_2_778
10
9.212934
20
8.0327677
40
0.5328834
50
26.9227
51
31.8540628
0
ARC
8
DEFAULT_255_2_778
10
10.1631911
20
8.5153341
40
0.5328834
50
206.9227
51
211.8540628
0
ARC
8
DEFAULT_255_2_778
10
9.2413805
20
7.9440625
40
0.5515923
50
26.9927724
51
31.7234732
0
LINE
8
DEFAULT_255_2_778
10
9.7328845
20
8.1944183
11
9.7330251
21
8.1941509
0
ARC
8
DEFAULT_255_2_778
10
10.212715
20
8.4384334
40
0.5383088
50
206.987511
51
211.8711035
0
ARC
8
DEFAULT_255_2_778
10
10.0545192
20
8.2693985
40
0.3203835
50
201.0732709
51
207.7832726
0
ARC
8
DEFAULT_255_2_778
10
7.524246
20
6.987942
40
2.515931
50
26.5943435
51
26.7423505
0
ARC
8
DEFAULT_255_2_778
10
9.5830978
20
8.0121577
40
0.2164761
50
16.6824603
51
28.1391271
0
ARC
8
DEFAULT_255_2_778
10
9.462933
20
7.9110881
40
0.3659427
50
23.2903307
51
26.487754
0
ARC
8
DEFAULT_255_2_778
10
8.299214
20
7.4212113
40
1.6285584
50
21.6426604
51
22.932698
0
ARC
8
DEFAULT_255_2_778
10
10.0290733
20
8.1019202
40
0.2304668
50
200.3297309
51
212.8513436
0
ARC
8
DEFAULT_255_2_778
10
7.7097798
20
7.1028667
40
2.2983609
50
7.6166327
51
22.3513929
0
ARC
8
DEFAULT_255_2_778
10
12.1375379
20
7.6441737
40
2.1413154
50
194.8521164
51
196.0501738
0
ARC
8
DEFAULT_255_2_778
10
13.1194616
20
7.9248107
40
3.1625543
50
196.0178619
51
197.153394
0
ARC
8
DEFAULT_255_2_778
10
13.7510629
20
8.1197914
40
3.8235669
50
197.1538262
51
198.8127309
0
ARC
8
DEFAULT_255_2_778
10
14.0700321
20
8.2277473
40
4.1603093
50
198.8034858
51
200.9007185
0
ARC
8
DEFAULT_255_2_778
10
14.0354223
20
8.2134735
40
4.1228849
50
200.8869957
51
203.7038336
0
ARC
8
DEFAULT_255_2_778
10
13.6616228
20
8.0466598
40
3.713561
50
203.6657279
51
208.0922478
0
ARC
8
DEFAULT_255_2_778
10
13.2821367
20
7.847671
40
3.2850812
50
208.1472055
51
209.9143009
0
ARC
8
DEFAULT_255_2_778
10
12.5038809
20
7.3654426
40
2.3702095
50
209.1923989
51
225.4414758
0
ARC
8
DEFAULT_255_2_778
10
11.8392202
20
6.7060986
40
1.4340954
50
225.8798789
51
242.2535192
0
ARC
8
DEFAULT_255_2_778
10
8.0777045
20
3.1209519
40
0.3422603
50
160.4626833
51
179.4058649
0
ARC
8
DEFAULT_255_2_778
10
8.2474824
20
3.0631874
40
0.5215859
50
149.8207441
51
160.7195865
0
ARC
8
DEFAULT_255_2_778
10
8.3663699
20
2.9987708
40
0.6567544
50
149.2339378
51
150.1767063
0
ARC
8
DEFAULT_255_2_778
10
8.5916646
20
2.8524181
40
0.9252658
50
137.1916017
51
148.5831303
0
ARC
8
DEFAULT_255_2_778
10
9.1777889
20
2.3133825
40
1.7215677
50
128.9458846
51
137.2863624
0
ARC
8
DEFAULT_255_2_778
10
9.9485852
20
1.3661995
40
2.9427445
50
122.3829576
51
129.0255768
0
ARC
8
DEFAULT_255_2_778
10
10.393527
20
0.6873838
40
3.7543155
50
119.1670839
51
122.5690018
0
ARC
8
DEFAULT_255_2_778
10
10.3218555
20
0.8198406
40
3.6037247
50
116.8509169
51
119.1984073
0
ARC
8
DEFAULT_255_2_778
10
10.0025639
20
1.4529657
40
2.8946457
50
114.6055568
51
116.8726275
0
ARC
8
DEFAULT_255_2_778
10
9.701692
20
2.1060036
40
2.1756333
50
113.3535576
51
114.5621916
0
ARC
8
DEFAULT_255_2_778
10
7.6923603
20
6.6184593
40
2.7583182
50
300.6628626
51
311.6689929
0
ARC
8
DEFAULT_255_2_778
10
9.5753581
20
4.5074375
40
0.0705469
50
126.8025469
51
134.2143828
0
ARC
8
DEFAULT_255_2_778
10
14.8062949
20
-2.4625045
40
8.7850629
50
126.8176306
51
126.8875159
0
ARC
8
DEFAULT_255_2_778
10
9.5099257
20
4.6172644
40
0.0566442
50
304.0851537
51
334.5251092
0
ARC
8
DEFAULT_255_2_778
10
9.507991
20
4.6794007
40
0.1014831
50
301.5310284
51
315.6095671
0
ARC
8
DEFAULT_255_2_778
10
13.8200221
20
0.1742927
40
6.1347251
50
133.6752769
51
133.7147131
0
ARC
8
DEFAULT_255_2_778
10
9.6393818
20
4.558695
40
0.076719
50
115.7409327
51
136.6839676
0
ARC
8
DEFAULT_255_2_778
10
9.1828137
20
5.150959
40
0.6729294
50
308.973785
51
316.2006388
0
ARC
8
DEFAULT_255_2_778
10
10.1542114
20
4.2194428
40
0.6729294
50
128.973785
51
136.2006388
0
ARC
8
DEFAULT_255_2_778
10
9.0998704
20
5.4548731
40
0.9503949
50
313.026745
51
324.4648126
0
ARC
8
DEFAULT_255_2_778
10
9.9614206
20
4.8477162
40
0.1037941
50
134.5175409
51
148.1416099
0
ARC
8
DEFAULT_255_2_778
10
5.8812371
20
8.7476221
40
5.5404718
50
316.3274215
51
316.3735261
0
ARC
8
DEFAULT_255_2_778
10
9.8386267
20
4.981071
40
0.0772586
50
313.4152331
51
334.1632121
0
ARC
8
DEFAULT_255_2_778
10
9.5418562
20
5.3011974
40
0.5092665
50
315.9952577
51
324.646834
0
ARC
8
DEFAULT_255_2_778
10
12.430454
20
3.2391527
40
3.0398242
50
142.9117682
51
144.4504205
0
ARC
8
DEFAULT_255_2_778
10
9.9288054
20
5.1428092
40
0.1042261
50
317.4297429
51
328.0701696
0
ARC
8
DEFAULT_255_2_778
10
11.3687474
20
4.189269
40
1.6228576
50
146.2549646
51
146.3855273
0
ARC
8
DEFAULT_255_2_778
10
10.0767092
20
5.0567205
40
0.066733
50
130.8474857
51
149.3270733
0
ARC
8
DEFAULT_255_2_778
10
10.1523591
20
5.2670343
40
0.0118966
50
125.1348273
51
180.1610063
0
ARC
8
DEFAULT_255_2_778
10
-21.4925454
20
42.0916299
40
48.541746
50
310.6751921
51
310.6769966
0
ARC
8
DEFAULT_255_2_778
10
10.1419288
20
5.2849905
40
0.0086476
50
303.2640124
51
356.7540936
0
ARC
8
DEFAULT_255_2_778
10
12.6530161
20
7.4531196
40
3.0668851
50
211.8122175
51
219.392097
0
ARC
8
DEFAULT_255_2_778
10
13.3991996
20
7.9187684
40
3.9464386
50
207.0238609
51
211.8464558
0
ARC
8
DEFAULT_255_2_778
10
14.0853862
20
8.2789394
40
4.7213621
50
206.5837933
51
207.1339274
0
ARC
8
DEFAULT_255_2_778
10
7.5589517
20
6.9612817
40
2.4375603
50
331.1201116
51
340.9604988
0
ARC
8
DEFAULT_255_2_778
10
9.6747449
20
5.5580138
40
0.0973456
50
137.1627326
51
147.4096372
0
ARC
8
DEFAULT_255_2_778
10
9.5860798
20
5.6146818
40
0.0078817
50
269.1479916
51
327.4998997
0
ARC
8
DEFAULT_255_2_778
10
8.436902
20
6.339911
40
1.3630079
50
320.9869405
51
327.4617897
0
ARC
8
DEFAULT_255_2_778
10
9.5701366
20
5.4131201
40
0.1011563
50
137.1605857
51
148.1394793
0
ARC
8
DEFAULT_255_2_778
10
8.110097
20
6.378119
40
1.649011
50
326.2955863
51
326.4394323
0
ARC
8
DEFAULT_255_2_778
10
9.4260106
20
5.4962541
40
0.0650234
50
310.7584838
51
329.3121449
0
ARC
8
DEFAULT_255_2_778
10
8.9487154
20
5.7888546
40
0.6220941
50
312.7586841
51
326.6658517
0
ARC
8
DEFAULT_255_2_778
10
9.4424449
20
5.2659138
40
0.0973456
50
137.1627326
51
147.4096372
0
ARC
8
DEFAULT_255_2_778
10
9.3537798
20
5.3225818
40
0.0078817
50
269.1479916
51
327.4998997
0
ARC
8
DEFAULT_255_2_778
10
7.4825656
20
6.9649654
40
2.4948701
50
296.2716165
51
318.5884469
0
ARC
8
DEFAULT_255_2_778
10
9.0882171
20
3.3599444
40
1.4502412
50
112.4474638
51
114.0919333
0
ARC
8
DEFAULT_255_2_778
10
9.5811461
20
2.248469
40
2.6661151
50
114.0120849
51
115.2100354
0
ARC
8
DEFAULT_255_2_778
10
9.9320102
20
1.5027441
40
3.4902578
50
115.2069605
51
116.7662603
0
ARC
8
DEFAULT_255_2_778
10
10.1453085
20
1.0783126
40
3.9652713
50
116.7561478
51
118.6472788
0
ARC
8
DEFAULT_255_2_778
10
10.184737
20
1.0044046
40
4.0490349
50
118.6355234
51
121.0944979
0
ARC
8
DEFAULT_255_2_778
10
10.038654
20
1.2436751
40
3.7686992
50
121.0713621
51
124.5507558
0
ARC
8
DEFAULT_255_2_778
10
9.8283821
20
1.5518266
40
3.3956459
50
124.5773954
51
126.4454248
0
ARC
8
DEFAULT_255_2_778
10
9.0998043
20
2.4618461
40
2.2312522
50
125.2774359
51
145.5292404
0
ARC
8
DEFAULT_255_2_778
10
8.147973
20
3.1188359
40
1.0747051
50
145.6843572
51
178.9088829
0
ARC
8
DEFAULT_255_2_778
10
12.9564256
20
-15.1102283
40
22.638695
50
121.0489754
51
121.3024534
0
ARC
8
DEFAULT_255_2_778
10
11.8108896
20
-13.2089536
40
20.4189885
50
120.7540694
51
121.0467595
0
ARC
8
DEFAULT_255_2_778
10
11.3719828
20
-12.4712024
40
19.5605503
50
120.291371
51
120.7542707
0
ARC
8
DEFAULT_255_2_778
10
10.9846578
20
-11.8076403
40
18.7922176
50
119.6981359
51
120.2921484
0
ARC
8
DEFAULT_255_2_778
10
10.45798
20
-10.8827911
40
17.7279174
50
118.9130613
51
119.7004016
0
ARC
8
DEFAULT_255_2_778
10
9.6324806
20
-9.3840844
40
16.0169041
50
117.7310703
51
118.9201914
0
ARC
8
DEFAULT_255_2_778
10
8.9403239
20
-8.0740479
40
14.5352609
50
117.2620038
51
117.7189782
0
ARC
8
DEFAULT_255_2_778
10
8.1285574
20
-6.4853822
40
12.751226
50
115.5423929
51
117.2894494
0
ARC
8
DEFAULT_255_2_778
10
6.9282118
20
-3.9671969
40
9.9615887
50
113.2876859
51
115.5582471
0
ARC
8
DEFAULT_255_2_778
10
5.9516298
20
-1.6978571
40
7.4910391
50
110.7764821
51
113.2888939
0
ARC
8
DEFAULT_255_2_778
10
5.313729
20
-0.020877
40
5.6968327
50
108.3669174
51
110.7608416
0
ARC
8
DEFAULT_255_2_778
10
5.0211408
20
0.8481444
40
4.7798875
50
107.3961921
51
108.3207243
0
ARC
8
DEFAULT_255_2_778
10
3.6993017
20
5.0697311
40
0.3561963
50
96.1789705
51
107.5217274
0
ARC
8
DEFAULT_255_2_778
10
3.7132854
20
4.9527457
40
0.4740089
50
89.8689056
51
96.3374196
0
ARC
8
DEFAULT_255_2_778
10
3.7059271
20
4.691991
40
0.734811
50
77.5014538
51
89.3416663
0
ARC
8
DEFAULT_255_2_778
10
3.5824537
20
4.1148305
40
1.3250223
50
69.9189573
51
77.6899376
0
ARC
8
DEFAULT_255_2_778
10
3.2697566
20
3.2524536
40
2.2423389
50
64.0565437
51
69.9804993
0
ARC
8
DEFAULT_255_2_778
10
2.8105736
20
2.2902416
40
3.3084803
50
60.8518696
51
64.1958301
0
ARC
8
DEFAULT_255_2_778
10
2.0400099
20
0.9395371
40
4.8634774
50
54.3429125
51
60.674032
0
ARC
8
DEFAULT_255_2_778
10
1.7462535
20
0.5057809
40
5.3871719
50
52.7343437
51
54.4935938
0
ARC
8
DEFAULT_255_2_778
10
1.9998241
20
0.838598
40
4.968764
50
51.3493672
51
52.7375291
0
ARC
8
DEFAULT_255_2_778
10
2.2607437
20
1.1664285
40
4.5497761
50
50.8547923
51
51.3369875
0
ARC
8
DEFAULT_255_2_778
10
6.2209337
20
5.7219045
40
1.4954484
50
224.8356191
51
233.8023361
0
ARC
8
DEFAULT_255_2_778
10
6.9261956
20
6.3561086
40
2.4334916
50
229.7933047
51
242.2296694
0
ARC
8
DEFAULT_255_2_778
10
5.8965025
20
4.1244834
40
0.026221
50
37.652216
51
82.8580019
0
ARC
8
DEFAULT_255_2_778
10
7.5083563
20
7.1243376
40
3.3815471
50
241.9317865
51
247.5929202
0
ARC
8
DEFAULT_255_2_778
10
6.3670463
20
4.3112521
40
0.3462285
50
244.7511809
51
252.7478078
0
ARC
8
DEFAULT_255_2_778
10
6.2641206
20
3.9625755
40
0.018027
50
69.9992822
51
89.2308857
0
ARC
8
DEFAULT_255_2_778
10
6.2376075
20
3.8951109
40
0.0905096
50
62.7851684
51
68.8350442
0
ARC
8
DEFAULT_255_2_778
10
6.299561
20
4.015366
40
0.0447662
50
242.658364
51
269.6180514
0
ARC
8
DEFAULT_255_2_778
10
7.9984377
20
8.8906053
40
5.2051551
50
250.9471101
51
253.5742488
0
ARC
8
DEFAULT_255_2_778
10
7.6281191
20
7.6365153
40
3.8975323
50
253.5828124
51
257.037677
0
ARC
8
DEFAULT_255_2_778
10
8.6907243
20
2.7821109
40
2.2061212
50
131.863101
51
151.3959262
0
ARC
8
DEFAULT_255_2_778
10
7.3918277
20
6.9736215
40
2.5544105
50
249.2437548
51
266.1084046
0
ARC
8
DEFAULT_255_2_778
10
6.4597102
20
4.5552315
40
0.0400907
50
47.9491359
51
73.5625621
0
ARC
8
DEFAULT_255_2_778
10
6.3561836
20
4.260744
40
0.352199
50
70.9645233
51
71.9638397
0
ARC
8
DEFAULT_255_2_778
10
6.4735519
20
4.6293162
40
0.0346926
50
230.8795525
51
256.1215109
0
ARC
8
DEFAULT_255_2_778
10
6.5591794
20
4.9574612
40
0.370982
50
239.6559646
51
253.1530152
0
ARC
8
DEFAULT_255_2_778
10
6.344779
20
4.6075604
40
0.0401573
50
47.7826401
51
73.2124742
0
ARC
8
DEFAULT_255_2_778
10
6.2475437
20
4.3342547
40
0.3302026
50
70.755693
51
71.8678082
0
ARC
8
DEFAULT_255_2_778
10
6.3586847
20
4.6815442
40
0.0345167
50
230.7859477
51
255.9516899
0
ARC
8
DEFAULT_255_2_778
10
6.4348402
20
4.9102372
40
0.2735824
50
241.3346336
51
249.0147013
0
ARC
8
DEFAULT_255_2_778
10
6.1222223
20
4.3546603
40
0.3639451
50
60.1072518
51
67.0110228
0
ARC
8
DEFAULT_255_2_778
10
7.3843019
20
6.9855048
40
2.554404
50
230.9451151
51
243.9959483
0
ARC
8
DEFAULT_255_2_778
10
2.634926
20
1.9075009
40
4.4052034
50
48.6966241
51
59.8386463
0
ARC
8
DEFAULT_255_2_778
10
2.9134499
20
2.3193015
40
3.9093613
50
60.3356661
51
65.4813927
0
ARC
8
DEFAULT_255_2_778
10
3.3727002
20
3.3312025
40
2.7981239
50
65.4386098
51
72.0594732
0
ARC
8
DEFAULT_255_2_778
10
3.6314708
20
4.1387197
40
1.9501635
50
71.9845289
51
81.022747
0
ARC
8
DEFAULT_255_2_778
10
3.716812
20
4.6634725
40
1.4185239
50
81.1201733
51
89.8095937
0
ARC
8
DEFAULT_255_2_778
10
3.7179936
20
4.9637785
40
1.1182157
50
89.8190022
51
100.0367475
0
ARC
8
DEFAULT_255_2_778
10
3.6938707
20
5.1113997
40
0.9686516
50
100.1534897
51
107.3653996
0
ARC
8
DEFAULT_255_2_778
10
5.3887677
20
-0.0917141
40
6.4408029
50
107.9409666
51
110.5969814
0
ARC
8
DEFAULT_255_2_778
10
6.0519611
20
-1.8626171
40
8.331813
50
110.5819261
51
112.7019768
0
ARC
8
DEFAULT_255_2_778
10
7.3962283
20
-5.0168674
40
11.7605127
50
112.8129344
51
116.6065938
0
ARC
8
DEFAULT_255_2_778
10
8.5840899
20
-7.453293
40
14.4709547
50
116.4913282
51
116.9199611
0
ARC
8
DEFAULT_255_2_778
10
8.9846491
20
-8.2393043
40
15.3531451
50
116.9247812
51
117.8853899
0
ARC
8
DEFAULT_255_2_778
10
9.3996888
20
-9.0248627
40
16.2416044
50
117.8834078
51
118.8488518
0
ARC
8
DEFAULT_255_2_778
10
9.4744047
20
-9.1622876
40
16.3980247
50
118.8458318
51
119.5840593
0
ARC
8
DEFAULT_255_2_778
10
9.126045
20
-8.5501124
40
15.6936723
50
119.5814526
51
120.2843189
0
ARC
8
DEFAULT_255_2_778
10
6.7930666
20
10.9418122
40
0.2905684
50
338.9309658
51
358.0255296
0
ARC
8
DEFAULT_255_2_778
10
6.4489354
20
11.0645552
40
0.6558831
50
327.8998978
51
339.7325078
0
ARC
8
DEFAULT_255_2_778
10
6.0817069
20
11.2895347
40
1.0865338
50
319.3022109
51
328.1403823
0
ARC
8
DEFAULT_255_2_778
10
5.7121203
20
11.6049162
40
1.5723909
50
311.7473876
51
319.3709533
0
ARC
8
DEFAULT_255_2_778
10
5.3366401
20
12.0228664
40
2.134232
50
305.32595
51
311.7970531
0
ARC
8
DEFAULT_255_2_778
10
5.0237356
20
12.4568304
40
2.669226
50
301.6002226
51
305.4195686
0
ARC
8
DEFAULT_255_2_778
10
4.8130025
20
12.7961373
40
3.0686445
50
299.2417793
51
301.6318434
0
ARC
8
DEFAULT_255_2_778
10
4.6381083
20
13.1085803
40
3.4267069
50
296.8782288
51
299.2414376
0
ARC
8
DEFAULT_255_2_778
10
4.4708409
20
13.4376205
40
3.7958216
50
294.9544515
51
296.8848652
0
ARC
8
DEFAULT_255_2_778
10
4.3685614
20
13.6551778
40
4.0362201
50
294.3395462
51
294.967854
0
ARC
8
DEFAULT_255_2_778
10
6.5335189
20
8.7100191
40
1.358237
50
114.0652
51
119.5571344
0
ARC
8
DEFAULT_255_2_778
10
21.187946
20
-17.1306981
40
31.0650527
50
119.5578037
51
119.8043808
0
ARC
8
DEFAULT_255_2_778
10
7.4854597
20
6.8951678
40
3.4071564
50
121.0153399
51
130.0575222
0
ARC
8
DEFAULT_255_2_778
10
6.513971
20
8.0030731
40
1.934201
50
129.1517283
51
139.0518788
0
ARC
8
DEFAULT_255_2_778
10
6.3444931
20
7.9237575
40
1.8657811
50
134.2288391
51
144.3611151
0
ARC
8
DEFAULT_255_2_778
10
5.4697688
20
8.4928446
40
0.8262023
50
142.0619853
51
142.4838079
0
ARC
8
DEFAULT_255_2_778
10
6.3071682
20
7.8692316
40
1.870246
50
142.9533328
51
145.3240059
0
ARC
8
DEFAULT_255_2_778
10
3.8977194
20
9.5342439
40
1.0585275
50
321.0355155
51
325.4075189
0
ARC
8
DEFAULT_255_2_778
10
4.7088337
20
8.8685489
40
0.011929
50
305.5094662
51
0.249768
0
ARC
8
DEFAULT_255_2_778
10
-0.4019555
20
14.754046
40
7.8066965
50
310.9505808
51
310.9617373
0
ARC
8
DEFAULT_255_2_778
10
4.7194141
20
8.8506284
40
0.0086644
50
123.6376067
51
176.8738842
0
ARC
8
DEFAULT_255_2_778
10
2.6929578
20
10.0994914
40
2.3727652
50
326.4645589
51
328.255441
0
ARC
8
DEFAULT_255_2_778
10
6.6485673
20
7.4778104
40
2.3727651
50
146.4645589
51
148.255441
0
ARC
8
DEFAULT_255_2_778
10
4.6189096
20
8.7261846
40
0.0118529
50
305.3208854
51
0.0785936
0
ARC
8
DEFAULT_255_2_778
10
0.6026856
20
13.3449354
40
6.1324904
50
310.9843681
51
310.9975399
0
ARC
8
DEFAULT_255_2_778
10
4.6295885
20
8.7082257
40
0.0088389
50
123.5897466
51
176.9180509
0
ARC
8
DEFAULT_255_2_778
10
4.5722949
20
8.5446115
40
0.0447764
50
134.5864699
51
144.9132411
0
ARC
8
DEFAULT_255_2_778
10
4.5764309
20
8.5430171
40
0.0490892
50
146.1654256
51
160.6888084
0
ARC
8
DEFAULT_255_2_778
10
4.1551054
20
8.6915148
40
0.3976398
50
337.8358954
51
340.5719683
0
ARC
8
DEFAULT_255_2_778
10
5.7504696
20
7.8510368
40
1.4080243
50
150.6345717
51
156.2713736
0
ARC
8
DEFAULT_255_2_778
10
3.9848587
20
8.6546977
40
0.5323202
50
333.4306317
51
333.5547824
0
ARC
8
DEFAULT_255_2_778
10
4.435413
20
8.4198001
40
0.0257491
50
306.8702392
51
352.8628787
0
ARC
8
DEFAULT_255_2_778
10
3.0437147
20
8.9520016
40
1.5118378
50
335.9862762
51
338.5525247
0
ARC
8
DEFAULT_255_2_778
10
5.8695483
20
7.6929837
40
1.5817783
50
155.9841387
51
158.4379505
0
ARC
8
DEFAULT_255_2_778
10
4.693875
20
8.134211
40
0.326946
50
154.6288555
51
163.0915855
0
ARC
8
DEFAULT_255_2_778
10
4.6404787
20
7.9496086
40
0.3448968
50
154.700384
51
162.7124179
0
ARC
8
DEFAULT_255_2_778
10
3.8372948
20
8.1669423
40
0.4875851
50
334.1961837
51
346.3770759
0
ARC
8
DEFAULT_255_2_778
10
4.3636728
20
7.9074902
40
0.0993448
50
151.6262866
51
167.7901691
0
ARC
8
DEFAULT_255_2_778
10
5.0310503
20
7.7374526
40
0.7879859
50
165.9687321
51
166.2488184
0
ARC
8
DEFAULT_255_2_778
10
4.1282906
20
7.9545968
40
0.1405625
50
338.158037
51
347.7453908
0
ARC
8
DEFAULT_255_2_778
10
3.5192164
20
8.073914
40
0.7591966
50
342.4948508
51
346.9356297
0
ARC
8
DEFAULT_255_2_778
10
5.0771701
20
7.5714376
40
0.8778125
50
161.8037848
51
166.4300422
0
ARC
8
DEFAULT_255_2_778
10
4.3166509
20
7.7315275
40
0.1035086
50
153.6927869
51
171.8503026
0
ARC
8
DEFAULT_255_2_778
10
5.7710629
20
7.4465406
40
1.5854517
50
169.1052047
51
169.2904286
0
ARC
8
DEFAULT_255_2_778
10
4.081422
20
7.7612848
40
0.1333316
50
339.6879149
51
351.3214646
0
ARC
8
DEFAULT_255_2_778
10
4.4170991
20
7.645746
40
0.2217295
50
161.7997102
51
173.7198628
0
ARC
8
DEFAULT_255_2_778
10
6.7136099
20
7.3192221
40
2.5412361
50
172.0658594
51
172.2303051
0
ARC
8
DEFAULT_255_2_778
10
3.8859711
20
7.6985612
40
0.311793
50
346.3537508
51
353.4094415
0
ARC
8
DEFAULT_255_2_778
10
4.3920146
20
7.5542142
40
0.2150369
50
160.7807521
51
171.7552611
0
ARC
8
DEFAULT_255_2_778
10
5.6792096
20
7.3355367
40
1.5206203
50
170.555794
51
170.7874127
0
ARC
8
DEFAULT_255_2_778
10
3.8480684
20
7.6270522
40
0.3336161
50
345.7800213
51
351.7160427
0
ARC
8
DEFAULT_255_2_778
10
4.5029112
20
7.457663
40
0.342788
50
165.2217517
51
174.3516843
0
ARC
8
DEFAULT_255_2_778
10
7.3710942
20
7.107751
40
3.2321566
50
173.1830452
51
173.3280386
0
ARC
8
DEFAULT_255_2_778
10
3.6599541
20
7.5343271
40
0.5034677
50
348.935065
51
354.1805091
0
ARC
8
DEFAULT_255_2_778
10
3.9969462
20
7.441112
40
0.1571533
50
345.3820644
51
358.75625
0
ARC
8
DEFAULT_255_2_778
10
4.301081
20
7.3617895
40
0.1571555
50
165.3821761
51
178.7561793
0
ARC
8
DEFAULT_255_2_778
10
3.847275
20
7.3711466
40
0.2967471
50
349.457586
51
358.8519355
0
LINE
8
DEFAULT_255_2_778
10
4.1390129
20
7.3168527
11
4.1389626
21
7.3165384
0
ARC
8
DEFAULT_255_2_778
10
4.4328178
20
7.2617665
40
0.2989162
50
169.4417575
51
178.8432593
0
ARC
8
DEFAULT_255_2_778
10
3.8040681
20
7.2527141
40
0.3302392
50
0.0010325
51
2.6184391
0
ARC
8
DEFAULT_255_2_778
10
3.8059968
20
7.2526543
40
0.3283105
50
345.5088361
51
0.0114779
0
ARC
8
DEFAULT_255_2_778
10
7.1827537
20
7.0173594
40
3.0589621
50
179.6096262
51
179.9994334
0
ARC
8
DEFAULT_255_2_778
10
7.1865547
20
7.0176112
40
3.0627631
50
180.0041434
51
188.6665839
0
ARC
8
DEFAULT_255_2_778
10
3.5357557
20
3.9336552
40
2.695433
50
66.8699081
51
76.6361413
0
ARC
8
DEFAULT_255_2_778
10
2.3073651
20
0.9491988
40
5.9226755
50
64.14019
51
67.2830664
0
ARC
8
DEFAULT_255_2_778
10
7.4436912
20
7.055251
40
2.6684884
50
181.1734874
51
196.9160377
0
ARC
8
DEFAULT_255_2_778
10
5.8115098
20
7.0735814
40
1.0361251
50
180.1440491
51
181.5474548
0
ARC
8
DEFAULT_255_2_778
10
5.7592735
20
7.073564
40
0.983889
50
179.9956948
51
180.1506876
0
ARC
8
DEFAULT_255_2_778
10
5.853886
20
7.0728278
40
1.0785018
50
172.0067242
51
179.9569612
0
ARC
8
DEFAULT_255_2_778
10
5.2893737
20
7.2650183
40
0.5035188
50
172.3578242
51
179.6833595
0
ARC
8
DEFAULT_255_2_778
10
6.8600831
20
7.0542088
40
2.0883118
50
170.7952431
51
172.3563238
0
ARC
8
DEFAULT_255_2_778
10
3.0401247
20
7.663354
40
1.7799244
50
351.1091398
51
352.1483492
0
ARC
8
DEFAULT_255_2_778
10
2.4895249
20
7.8701846
40
2.3539089
50
349.4129025
51
351.3773871
0
ARC
8
DEFAULT_255_2_778
10
18.9804528
20
5.3628888
40
14.3265361
50
170.9856329
51
171.3512122
0
ARC
8
DEFAULT_255_2_778
10
4.8934163
20
7.6054506
40
0.0625907
50
156.8565951
51
178.0312031
0
ARC
8
DEFAULT_255_2_778
10
4.7783088
20
7.6546512
40
0.0625908
50
336.8565951
51
358.0312031
0
ARC
8
DEFAULT_255_2_778
10
5.6993264
20
7.4502851
40
0.8819588
50
162.9240056
51
166.7452952
0
ARC
8
DEFAULT_255_2_778
10
4.1927355
20
7.9209683
40
0.6964678
50
342.3038223
51
348.7253986
0
ARC
8
DEFAULT_255_2_778
10
4.903708
20
7.7823839
40
0.0280498
50
144.7105804
51
175.0567276
0
LINE
8
DEFAULT_255_2_778
10
4.8808126
20
7.7985884
11
4.8809555
21
7.7988353
0
ARC
8
DEFAULT_255_2_778
10
4.8585454
20
7.8146286
40
0.027416
50
324.8260184
51
355.129533
0
ARC
8
DEFAULT_255_2_778
10
4.9084594
20
7.9990956
40
0.0402112
50
317.8306989
51
343.3287287
0
ARC
8
DEFAULT_255_2_778
10
4.628323
20
8.0982742
40
0.3373429
50
340.8407252
51
341.9266387
0
ARC
8
DEFAULT_255_2_778
10
4.9825534
20
7.9852789
40
0.0345535
50
140.8360952
51
166.0331288
0
ARC
8
DEFAULT_255_2_778
10
8.1618809
20
6.7789005
40
3.4333178
50
157.8513077
51
159.0391541
0
ARC
8
DEFAULT_255_2_778
10
5.8356663
20
7.7281407
40
0.920886
50
153.9882085
51
157.9872353
0
ARC
8
DEFAULT_255_2_778
10
4.9770578
20
8.1637501
40
0.0443769
50
314.3203706
51
324.4117292
0
ARC
8
DEFAULT_255_2_778
10
4.973431
20
8.1650399
40
0.0480886
50
325.6768143
51
340.7158943
0
ARC
8
DEFAULT_255_2_778
10
5.3973583
20
8.0154858
40
0.4014455
50
157.8412235
51
160.5503445
0
ARC
8
DEFAULT_255_2_778
10
2.6161906
20
9.4090562
40
2.7107237
50
332.7265646
51
334.0209882
0
ARC
8
DEFAULT_255_2_778
10
5.5101365
20
8.0075037
40
0.5048001
50
143.5487998
51
154.8992487
0
ARC
8
DEFAULT_255_2_778
10
5.3780668
20
8.0977618
40
0.3449923
50
142.2018948
51
142.5743113
0
ARC
8
DEFAULT_255_2_778
10
4.9580503
20
8.4223275
40
0.1858171
50
322.4967747
51
332.5605251
0
ARC
8
DEFAULT_255_2_778
10
3.4634312
20
9.3417484
40
1.9401456
50
328.8000111
51
330.9325728
0
ARC
8
DEFAULT_255_2_778
10
6.8554226
20
7.4563045
40
1.9406411
50
148.8002826
51
150.9322997
0
ARC
8
DEFAULT_255_2_778
10
5.0630697
20
8.5646242
40
0.1677548
50
322.1112459
51
333.2434467
0
ARC
8
DEFAULT_255_2_778
10
6.4537997
20
7.6964239
40
1.4725019
50
140.9498363
51
147.4306624
0
ARC
8
DEFAULT_255_2_778
10
5.3197478
20
8.6240972
40
0.0094852
50
175.2483448
51
179.9774798
0
ARC
8
DEFAULT_255_2_778
10
5.3205901
20
8.6240204
40
0.010331
50
135.9689851
51
175.2111161
0
ARC
8
DEFAULT_255_2_778
10
5.3202319
20
8.6240346
40
0.0100664
50
89.8256498
51
134.609827
0
ARC
8
DEFAULT_255_2_778
10
5.2808397
20
8.8653882
40
0.1733169
50
322.1329625
51
332.9246252
0
ARC
8
DEFAULT_255_2_778
10
7.5023661
20
6.9151585
40
2.7884141
50
123.0986556
51
137.8469346
0
ARC
8
DEFAULT_255_2_778
10
5.7968333
20
10.4912732
40
1.1996249
50
292.5544323
51
294.5418323
0
ARC
8
DEFAULT_255_2_778
10
5.284425
20
11.6250605
40
2.4438213
50
294.4290455
51
295.7356468
0
ARC
8
DEFAULT_255_2_778
10
4.8912298
20
12.4414076
40
3.3499256
50
295.7308427
51
297.355449
0
ARC
8
DEFAULT_255_2_778
10
4.6385163
20
12.9316756
40
3.9014928
50
297.3432677
51
299.2494422
0
ARC
8
DEFAULT_255_2_778
10
4.5729132
20
13.0505477
40
4.0372635
50
299.2374688
51
301.6821599
0
ARC
8
DEFAULT_255_2_778
10
4.7034578
20
12.842005
40
3.7912364
50
301.6585519
51
305.149515
0
ARC
8
DEFAULT_255_2_778
10
4.9112518
20
12.5442582
40
3.4281537
50
305.1748056
51
307.0447792
0
ARC
8
DEFAULT_255_2_778
10
5.6374643
20
11.6548031
40
2.2811435
50
305.9447093
51
325.5540423
0
ARC
8
DEFAULT_255_2_778
10
6.6147721
20
10.9844439
40
1.0960224
50
325.555356
51
358.8214546
0
ARC
8
DEFAULT_255_2_778
10
11.8392518
20
6.7398869
40
0.8172003
50
223.7210372
51
241.9017298
0
ARC
8
DEFAULT_255_2_778
10
12.3835078
20
7.2669634
40
1.5748365
50
211.8948589
51
223.8943602
0
ARC
8
DEFAULT_255_2_778
10
13.2504927
20
7.8275517
40
2.6071783
50
206.4555358
51
212.2875367
0
ARC
8
DEFAULT_255_2_778
10
14.0493428
20
8.2299656
40
3.5016524
50
202.2349909
51
206.5272517
0
ARC
8
DEFAULT_255_2_778
10
14.440178
20
8.3941435
40
3.9255531
50
199.8433531
51
202.2944699
0
ARC
8
DEFAULT_255_2_778
10
14.2490101
20
8.3263287
40
3.7227165
50
198.0104146
51
199.8603393
0
ARC
8
DEFAULT_255_2_778
10
13.5060427
20
8.0861952
40
2.9419078
50
196.2029145
51
198.0367254
0
ARC
8
DEFAULT_255_2_778
10
12.481066
20
7.7864349
40
1.8739996
50
196.0664781
51
196.1465308
0
ARC
8
DEFAULT_255_2_778
10
8.8825155
20
7.5202404
40
1.7191594
50
2.2388798
51
19.5103695
0
ARC
8
DEFAULT_255_2_778
10
7.4087268
20
6.9940486
40
3.284063
50
19.5760784
51
48.8125657
0
LINE
8
DEFAULT_255_2_778
10
14.5084626
20
4.7426009
11
7.9746626
21
16.4610009
0
LINE
8
DEFAULT_255_2_778
10
6.8358626
20
16.4610009
11
0.3048626
21
4.7400009
0
LINE
8
DEFAULT_255_2_778
10
0.5371626
20
3.8658009
11
7.0784626
21
-0.0425991
0
LINE
8
DEFAULT_255_2_778
10
7.7578626
20
-0.0425991
11
14.2888626
21
3.8611009
0
LINE
8
DEFAULT_255_2_778
10
9.5708626
20
9.4655009
11
9.4110626
21
9.5978009
0
LINE
8
DEFAULT_255_2_778
10
9.4110626
20
9.5978009
11
9.4009626
21
9.6078009
0
LINE
8
DEFAULT_255_2_778
10
9.2411626
20
9.7226009
11
9.2311626
21
9.7327009
0
LINE
8
DEFAULT_255_2_778
10
9.2311626
20
9.7327009
11
9.0612626
21
9.8401009
0
LINE
8
DEFAULT_255_2_778
10
9.0988626
20
9.0035009
11
9.1787626
21
8.9310009
0
LINE
8
DEFAULT_255_2_778
10
9.1787626
20
8.9310009
11
9.3559626
21
8.7537009
0
LINE
8
DEFAULT_255_2_778
10
9.4184626
20
8.6812009
11
9.4708626
21
8.6188009
0
LINE
8
DEFAULT_255_2_778
10
9.4708626
20
8.6188009
11
9.5232626
21
8.5389009
0
LINE
8
DEFAULT_255_2_778
10
9.5681626
20
8.4664009
11
9.6205626
21
8.3865009
0
LINE
8
DEFAULT_255_2_778
10
9.9878626
20
7.4075009
11
10.0677626
21
7.0953009
0
LINE
8
DEFAULT_255_2_778
10
11.1715626
20
5.4369009
11
13.6041626
21
4.2256009
0
LINE
8
DEFAULT_255_2_778
10
13.6041626
20
4.2256009
11
7.7354626
21
0.7167009
0
LINE
8
DEFAULT_255_2_778
10
7.7354626
20
0.7167009
11
7.7354626
21
3.1245009
0
LINE
8
DEFAULT_255_2_778
10
8.8392626
20
4.1034009
11
8.8567626
21
4.1135009
0
LINE
8
DEFAULT_255_2_778
10
8.8567626
20
4.1135009
11
9.0715626
21
4.2283009
0
LINE
8
DEFAULT_255_2_778
10
9.0715626
20
4.2283009
11
9.0990626
21
4.2458009
0
LINE
8
DEFAULT_255_2_778
10
9.7309626
20
4.7426009
11
9.7483626
21
4.7601009
0
LINE
8
DEFAULT_255_2_778
10
10.0330626
20
5.1072009
11
10.1404626
21
5.2670009
0
LINE
8
DEFAULT_255_2_778
10
10.1505626
20
5.2845009
11
10.2828626
21
5.5068009
0
LINE
8
DEFAULT_255_2_778
10
9.6933626
20
5.7840009
11
9.6033626
21
5.6242009
0
LINE
8
DEFAULT_255_2_778
10
8.5868626
20
4.7278009
11
8.5344626
21
4.7003009
0
LINE
8
DEFAULT_255_2_778
10
7.0734626
20
3.1393009
11
7.0734626
21
0.7316009
0
LINE
8
DEFAULT_255_2_778
10
7.0734626
20
0.7316009
11
1.1943626
21
4.2331009
0
LINE
8
DEFAULT_255_2_778
10
5.1329626
20
4.6950009
11
5.1604626
21
4.6675009
0
LINE
8
DEFAULT_255_2_778
10
5.3377626
20
4.5151009
11
5.3552626
21
4.4976009
0
LINE
8
DEFAULT_255_2_778
10
5.7923626
20
4.2029009
11
5.8997626
21
4.1505009
0
LINE
8
DEFAULT_255_2_778
10
5.7748626
20
5.0019009
11
5.5425626
21
5.2168009
0
LINE
8
DEFAULT_255_2_778
10
1.2118626
20
5.0019009
11
7.0834626
21
15.5572009
0
LINE
8
DEFAULT_255_2_778
10
7.0834626
20
15.5572009
11
7.0834626
21
10.9318009
0
LINE
8
DEFAULT_255_2_778
10
6.0320626
20
9.9777009
11
5.9796626
21
9.9502009
0
LINE
8
DEFAULT_255_2_778
10
5.7473626
20
9.8253009
11
5.7298626
21
9.8152009
0
LINE
8
DEFAULT_255_2_778
10
5.0530626
20
9.2707009
11
5.0430626
21
9.2607009
0
LINE
8
DEFAULT_255_2_778
10
4.8281626
20
9.0109009
11
4.8181626
21
9.0008009
0
LINE
8
DEFAULT_255_2_778
10
4.6207626
20
8.7087009
11
4.5408626
21
8.5765009
0
LINE
8
DEFAULT_255_2_778
10
4.3810626
20
8.2293009
11
4.3286626
21
8.0970009
0
LINE
8
DEFAULT_255_2_778
10
4.1238626
20
7.1705009
11
4.1238626
21
7.0382009
0
LINE
8
DEFAULT_255_2_778
10
4.7757626
20
7.0006009
11
4.7757626
21
7.0456009
0
LINE
8
DEFAULT_255_2_778
10
4.7858626
20
7.2228009
11
4.7858626
21
7.2678009
0
LINE
8
DEFAULT_255_2_778
10
4.8033626
20
7.4202009
11
4.8033626
21
7.4377009
0
LINE
8
DEFAULT_255_2_778
10
4.8858626
20
7.8123009
11
4.9382626
21
7.9721009
0
LINE
8
DEFAULT_255_2_778
10
5.3202626
20
8.6341009
11
5.4176626
21
8.7590009
0
LINE
8
DEFAULT_255_2_778
10
5.9796626
20
9.2511009
11
6.2569626
21
9.3834009
0
LINE
8
DEFAULT_255_2_778
10
7.7105626
20
10.9619009
11
7.7105626
21
15.5620009
0
LINE
8
DEFAULT_255_2_778
10
7.7105626
20
15.5620009
11
13.6372626
21
4.9226009
0
LINE
8
DEFAULT_255_2_778
10
13.6372626
20
4.9226009
11
11.4543626
21
6.0190009
0
LINE
8
DEFAULT_255_2_778
10
10.6802626
20
7.2678009
11
10.6003626
21
7.5874009
0
ENDSEC
0
EOF