0
SECTION
2
HEADER
9
$MEASUREMENT
70
1
0
ENDSEC
0
SECTION
2
TABLES
0
TABLE
2
LTYPE
0
LTYPE
72
65
70
64
2
CONTINUOUS
3
______
73
0
40
0
0
ENDTAB
0
TABLE
2
LAYER
0
LAYER
2
DEFAULT_255_2_778
70
0
62
255
6
CONTINUOUS
0
ENDTAB
0
ENDSEC
0
SECTION
2
ENTITIES
0
ARC
8
DEFAULT_255_2_778
10
6.2831581
20
33.6062222
40
6.018609
50
167.8503629
51
180.0387715
0
ARC
8
DEFAULT_255_2_778
10
6.1817365
20
33.6258515
40
5.9153281
50
150.9890531
51
167.8294785
0
ARC
8
DEFAULT_255_2_778
10
6.2083702
20
33.6107119
40
5.9459624
50
110.0344947
51
150.9859382
0
ARC
8
DEFAULT_255_2_778
10
6.2011048
20
33.6136754
40
5.9406921
50
95.9496164
51
109.9784548
0
ARC
8
DEFAULT_255_2_778
10
6.2164558
20
33.4820062
40
6.0732434
50
89.9887281
51
95.9649018
0
ARC
8
DEFAULT_255_2_778
10
34.0030233
20
33.5366419
40
6.018609
50
77.8503629
51
90.0387715
0
ARC
8
DEFAULT_255_2_778
10
34.0226526
20
33.6380635
40
5.9153281
50
60.9890531
51
77.8294785
0
ARC
8
DEFAULT_255_2_778
10
34.007513
20
33.6114298
40
5.9459624
50
20.0344947
51
60.9859382
0
ARC
8
DEFAULT_255_2_778
10
34.0104765
20
33.6186952
40
5.9406921
50
5.9496164
51
19.9784548
0
ARC
8
DEFAULT_255_2_778
10
33.8788073
20
33.6033442
40
6.0732434
50
359.9887281
51
5.9649018
0
ARC
8
DEFAULT_255_2_778
10
33.933443
20
5.8167767
40
6.018609
50
347.8503629
51
0.0387715
0
ARC
8
DEFAULT_255_2_778
10
34.0348646
20
5.7971474
40
5.9153281
50
330.9890531
51
347.8294785
0
ARC
8
DEFAULT_255_2_778
10
34.0082309
20
5.812287
40
5.9459624
50
290.0344947
51
330.9859382
0
ARC
8
DEFAULT_255_2_778
10
34.0154963
20
5.8093235
40
5.9406921
50
275.9496164
51
289.9784548
0
ARC
8
DEFAULT_255_2_778
10
34.0001453
20
5.9409927
40
6.0732434
50
269.9887281
51
275.9649018
0
ARC
8
DEFAULT_255_2_778
10
6.2135778
20
5.886357
40
6.018609
50
257.8503629
51
270.0387715
0
ARC
8
DEFAULT_255_2_778
10
6.1939485
20
5.7849354
40
5.9153281
50
240.9890531
51
257.8294785
0
ARC
8
DEFAULT_255_2_778
10
6.2090881
20
5.8115691
40
5.9459624
50
200.0344947
51
240.9859382
0
ARC
8
DEFAULT_255_2_778
10
6.2061246
20
5.8043037
40
5.9406921
50
185.9496164
51
199.9784548
0
ARC
8
DEFAULT_255_2_778
10
6.3377938
20
5.8196547
40
6.0732434
50
179.9887281
51
185.9649018
0
LINE
8
DEFAULT_255_2_778
10
6.2176506
20
39.5552494
11
33.9989506
21
39.5552494
0
LINE
8
DEFAULT_255_2_778
10
39.9520506
20
33.6021494
11
39.9520506
21
5.8208494
0
LINE
8
DEFAULT_255_2_778
10
33.9989506
20
-0.1322506
11
6.2176506
21
-0.1322506
0
LINE
8
DEFAULT_255_2_778
10
0.2645506
20
5.8208494
11
0.2645506
21
33.6021494
0
ARC
8
DEFAULT_255_2_778
10
14.5793927
20
20.295771
40
7.5774747
50
216.0169361
51
223.7002139
0
ARC
8
DEFAULT_255_2_778
10
14.4998966
20
20.2371701
40
7.4787161
50
206.797053
51
216.0119312
0
ARC
8
DEFAULT_255_2_778
10
14.5029655
20
20.2374605
40
7.4815864
50
194.933484
51
206.788442
0
ARC
8
DEFAULT_255_2_778
10
14.5639335
20
20.2532395
40
7.5445614
50
179.9930355
51
194.9299513
0
ARC
8
DEFAULT_255_2_778
10
14.5556908
20
20.255863
40
7.536319
50
161.2851905
51
180.0129733
0
ARC
8
DEFAULT_255_2_778
10
14.49332
20
20.2749675
40
7.4711164
50
150.4782825
51
161.2704831
0
ARC
8
DEFAULT_255_2_778
10
14.5140795
20
20.2620938
40
7.4955242
50
141.7541437
51
150.4708457
0
ARC
8
DEFAULT_255_2_778
10
14.5956628
20
20.1981592
40
7.5991745
50
136.3061378
51
141.7563396
0
ARC
8
DEFAULT_255_2_778
10
13.9058878
20
20.7073559
40
6.7495525
50
110.5338411
51
135.3865056
0
ARC
8
DEFAULT_255_2_778
10
14.3959874
20
19.5015378
40
8.0507472
50
92.0042695
51
110.790103
0
ARC
8
DEFAULT_255_2_778
10
14.4189771
20
19.2982832
40
8.2546969
50
90.0005595
51
92.1144024
0
ARC
8
DEFAULT_255_2_778
10
14.4265792
20
19.5180024
40
8.0349814
50
78.5911822
51
90.0547836
0
ARC
8
DEFAULT_255_2_778
10
14.570113
20
20.221893
40
7.3166071
50
68.5361289
51
78.6026339
0
ARC
8
DEFAULT_255_2_778
10
14.8976731
20
21.0427478
40
6.4328225
50
56.6873348
51
68.5760376
0
ARC
8
DEFAULT_255_2_778
10
15.304184
20
21.6707009
40
5.6847942
50
45.9667403
51
56.6353163
0
ARC
8
DEFAULT_255_2_778
10
26.0917271
20
19.4783792
40
7.0063185
50
34.613597
51
44.1927753
0
ARC
8
DEFAULT_255_2_778
10
25.9436067
20
19.3829801
40
7.1824144
50
19.9608726
51
34.5687289
0
ARC
8
DEFAULT_255_2_778
10
25.5258759
20
19.238999
40
7.6242058
50
359.9095953
51
19.9062186
0
ARC
8
DEFAULT_255_2_778
10
25.3261327
20
19.2270257
40
7.8239393
50
358.2024365
51
359.9995854
0
ARC
8
DEFAULT_255_2_778
10
25.2999177
20
19.227934
40
7.85017
50
342.726105
51
358.201812
0
ARC
8
DEFAULT_255_2_778
10
25.4093002
20
19.1931463
40
7.7353913
50
331.086894
51
342.7315761
0
ARC
8
DEFAULT_255_2_778
10
25.5025329
20
19.1433259
40
7.6296925
50
321.8070357
51
331.0758858
0
ARC
8
DEFAULT_255_2_778
10
25.5103607
20
19.1380203
40
7.62026
50
317.3515357
51
321.8019965
0
ARC
8
DEFAULT_255_2_778
10
26.4692028
20
18.6668856
40
6.6027752
50
297.1303215
51
314.7205994
0
ARC
8
DEFAULT_255_2_778
10
25.9001001
20
19.7409221
40
7.8181748
50
284.2603248
51
297.2527629
0
ARC
8
DEFAULT_255_2_778
10
25.7142504
20
20.4233158
40
8.52533
50
272.3318269
51
284.3411768
0
ARC
8
DEFAULT_255_2_778
10
25.7100072
20
20.4466099
40
8.5487781
50
270.0015044
51
272.3538904
0
ARC
8
DEFAULT_255_2_778
10
25.7014803
20
20.1472051
40
8.2493779
50
259.6196828
51
270.0607825
0
ARC
8
DEFAULT_255_2_778
10
25.5562717
20
19.3586378
40
7.4475529
50
250.3869553
51
259.6254297
0
ARC
8
DEFAULT_255_2_778
10
25.2448951
20
18.4944914
40
6.5290257
50
239.8646893
51
250.4154424
0
ARC
8
DEFAULT_255_2_778
10
24.7863959
20
17.7133592
40
5.6232847
50
226.0454906
51
239.9091832
0
LINE
8
DEFAULT_255_2_778
10
14.139647
20
10.0222066
11
9.101147
21
15.0606066
0
LINE
8
DEFAULT_255_2_778
10
19.255547
20
25.7577066
11
24.604147
21
20.4092066
0
LINE
8
DEFAULT_255_2_778
10
26.076847
20
29.4008066
11
31.115247
21
24.3623066
0
LINE
8
DEFAULT_255_2_778
10
20.883347
20
13.6652066
11
15.612547
21
19.0138066
0
ENDSEC
0
EOF