0
SECTION
2
HEADER
9
$MEASUREMENT
70
1
0
ENDSEC
0
SECTION
2
TABLES
0
TABLE
2
LTYPE
0
LTYPE
72
65
70
64
2
CONTINUOUS
3
______
73
0
40
0
0
ENDTAB
0
TABLE
2
LAYER
0
LAYER
2
DEFAULT_255_2_778
70
0
62
255
6
CONTINUOUS
0
ENDTAB
0
ENDSEC
0
SECTION
2
ENTITIES
0
ARC
8
DEFAULT_255_2_778
10
1.8790719
20
-0.0948828
40
0.3047237
50
184.9075351
51
193.8179915
0
ARC
8
DEFAULT_255_2_778
10
1.8226813
20
-0.1005002
40
0.2480606
50
180.044519
51
184.72906
0
ARC
8
DEFAULT_255_2_778
10
1.8282753
20
-0.1164575
40
0.2541437
50
117.3076778
51
176.4436668
0
ARC
8
DEFAULT_255_2_778
10
2.6265965
20
-1.2233457
40
1.616534
50
122.689551
51
124.4698783
0
ARC
8
DEFAULT_255_2_778
10
-61.50836
20
98.097978
40
116.6121407
50
302.8538712
51
302.8651639
0
ARC
8
DEFAULT_255_2_778
10
0.9886273
20
1.3727415
40
1.4529345
50
302.6659306
51
304.7150594
0
ARC
8
DEFAULT_255_2_778
10
3.673607
20
-1.9476358
40
3.5481374
50
86.2580787
51
89.7966349
0
ARC
8
DEFAULT_255_2_778
10
3.6253741
20
3.0638032
40
1.4645876
50
253.6369759
51
272.3802708
0
ARC
8
DEFAULT_255_2_778
10
3.4765365
20
2.581423
40
0.9598396
50
233.7124698
51
254.0495666
0
ARC
8
DEFAULT_255_2_778
10
10.0323565
20
10.7836255
40
11.4593353
50
216.7904828
51
231.5620377
0
ARC
8
DEFAULT_255_2_778
10
3.2338894
20
5.7560412
40
3.0042816
50
217.5640376
51
217.6543212
0
ARC
8
DEFAULT_255_2_778
10
14.1833689
20
14.1206764
40
16.7831737
50
217.1783865
51
217.4107211
0
ARC
8
DEFAULT_255_2_778
10
0.0443342
20
3.4309861
40
0.942369
50
35.5302871
51
48.386227
0
ARC
8
DEFAULT_255_2_778
10
1.4325396
20
5.037734
40
1.1811734
50
188.4758722
51
229.8015821
0
ARC
8
DEFAULT_255_2_778
10
0.35414
20
4.6454736
40
0.4039875
50
90.081685
51
102.8538252
0
ARC
8
DEFAULT_255_2_778
10
0.2978646
20
4.3832606
40
0.6685244
50
51.741375
51
85.2207494
0
ARC
8
DEFAULT_255_2_778
10
-33.5507869
20
-47.9542135
40
62.9949316
50
57.0311678
51
57.0508357
0
ARC
8
DEFAULT_255_2_778
10
2.2629161
20
7.1764664
40
2.7474469
50
236.0855789
51
250.268089
0
ARC
8
DEFAULT_255_2_778
10
2.5379386
20
8.149118
40
3.7564831
50
251.328387
51
271.245454
0
ARC
8
DEFAULT_255_2_778
10
2.6112715
20
11.3267124
40
6.9331951
50
270.0687265
51
272.7041154
0
ARC
8
DEFAULT_255_2_778
10
2.1409051
20
20.1749352
40
15.7938433
50
272.8942066
51
275.6772282
0
ARC
8
DEFAULT_255_2_778
10
-1.7523131
20
60.4042623
40
56.2110769
50
275.5696568
51
276.1007659
0
ARC
8
DEFAULT_255_2_778
10
7.3801024
20
-23.9359689
40
28.6223045
50
94.3433044
51
96.3354499
0
ARC
8
DEFAULT_255_2_778
10
5.7692319
20
-3.0537101
40
7.6780607
50
90.0650859
51
94.1583803
0
ARC
8
DEFAULT_255_2_778
10
5.8271298
20
-0.8621663
40
5.4869162
50
70.5535285
51
90.6956785
0
ARC
8
DEFAULT_255_2_778
10
7.7790653
20
4.6383622
40
0.3497976
50
249.0277255
51
266.6003734
0
ARC
8
DEFAULT_255_2_778
10
7.7769286
20
4.6217957
40
0.3331357
50
266.7982567
51
270.0025522
0
ARC
8
DEFAULT_255_2_778
10
7.7341305
20
4.8608396
40
0.573779
50
274.27914
51
306.7436336
0
LINE
8
DEFAULT_255_2_778
10
8.0773855
20
4.4010589
11
8.0776671
21
4.4012375
0
ARC
8
DEFAULT_255_2_778
10
-8.9602063
20
29.7560339
40
30.5475832
50
303.9002449
51
303.9091603
0
ARC
8
DEFAULT_255_2_778
10
-4.8403064
20
23.6289037
40
23.1641355
50
303.9066614
51
303.9183247
0
ARC
8
DEFAULT_255_2_778
10
554.1177862
20
-806.5880782
40
977.6827029
50
123.9436429
51
123.9518768
0
ARC
8
DEFAULT_255_2_778
10
15.4757687
20
-6.3201653
40
13.0252739
50
123.4710834
51
123.9472221
0
ARC
8
DEFAULT_255_2_778
10
10.7456834
20
0.8442005
40
4.4403013
50
121.9524322
51
123.5432752
0
ARC
8
DEFAULT_255_2_778
10
9.311113
20
3.1533585
40
1.7218197
50
117.9482952
51
122.1130121
0
ARC
8
DEFAULT_255_2_778
10
8.8397071
20
4.0503454
40
0.7085228
50
108.4628546
51
118.2692332
0
ARC
8
DEFAULT_255_2_778
10
8.7315336
20
4.3745914
40
0.3667085
50
90.4752174
51
108.475303
0
LINE
8
DEFAULT_255_2_778
10
8.7284921
20
4.7412875
11
8.7286875
21
4.7412874
0
ARC
8
DEFAULT_255_2_778
10
8.7223128
20
4.3493383
40
0.3920009
50
67.4078516
51
89.0682165
0
ARC
8
DEFAULT_255_2_778
10
8.53825
20
3.8793147
40
0.8967304
50
60.27138
51
68.0870648
0
ARC
8
DEFAULT_255_2_778
10
7.9129037
20
2.7616861
40
2.1773943
50
57.4186818
51
60.5656488
0
ARC
8
DEFAULT_255_2_778
10
5.8921216
20
-0.4158349
40
5.9430514
50
56.1718047
51
57.4988453
0
ARC
8
DEFAULT_255_2_778
10
-9.4183649
20
-23.3115745
40
33.4862131
50
55.9507294
51
56.2189896
0
ARC
8
DEFAULT_255_2_778
10
39.5376643
20
49.2326093
40
54.0315181
50
236.0091206
51
236.0706331
0
ARC
8
DEFAULT_255_2_778
10
9.7906301
20
4.9985645
40
0.7254987
50
235.419851
51
245.1266946
0
ARC
8
DEFAULT_255_2_778
10
9.719869
20
4.8530839
40
0.5637576
50
245.4322272
51
249.3115599
0
ARC
8
DEFAULT_255_2_778
10
9.6872591
20
4.7581358
40
0.4634215
50
248.9360951
51
269.8427129
0
ARC
8
DEFAULT_255_2_778
10
9.6815493
20
4.8176592
40
0.5229621
50
270.4861973
51
288.3769824
0
ARC
8
DEFAULT_255_2_778
10
9.6311983
20
4.9914451
40
0.7037942
50
287.806622
51
291.257607
0
ARC
8
DEFAULT_255_2_778
10
11.4330156
20
0.1554121
40
4.4570808
50
98.5878484
51
110.3044985
0
ARC
8
DEFAULT_255_2_778
10
11.6338844
20
-1.2291135
40
5.8560837
50
89.7222848
51
98.5083202
0
ARC
8
DEFAULT_255_2_778
10
11.5780869
20
-5.7751419
40
10.4023839
50
83.1188361
51
89.5363244
0
ARC
8
DEFAULT_255_2_778
10
10.7643898
20
-13.733682
40
18.4016629
50
83.5205259
51
83.5724343
0
ARC
8
DEFAULT_255_2_778
10
4.4797584
20
-69.2164902
40
74.2392714
50
83.2702732
51
83.533334
0
ARC
8
DEFAULT_255_2_778
10
22.0894886
20
79.9790112
40
75.9918845
50
263.266674
51
263.5335017
0
ARC
8
DEFAULT_255_2_778
10
15.1760615
20
17.9343739
40
13.5638919
50
263.0343584
51
268.1782675
0
ARC
8
DEFAULT_255_2_778
10
14.8468051
20
10.3679469
40
5.9914767
50
269.0251324
51
269.9933522
0
ARC
8
DEFAULT_255_2_778
10
14.9515146
20
7.8258096
40
3.4509494
50
268.2497046
51
294.4383417
0
ARC
8
DEFAULT_255_2_778
10
15.2374514
20
7.0296038
40
2.608697
50
295.9558018
51
305.6063037
0
ARC
8
DEFAULT_255_2_778
10
18.0220702
20
3.1334784
40
2.1802402
50
125.4648846
51
125.4913235
0
ARC
8
DEFAULT_255_2_778
10
17.1538063
20
4.4443468
40
0.6111424
50
94.9180024
51
130.4771516
0
ARC
8
DEFAULT_255_2_778
10
17.1009388
20
4.6912553
40
0.3619842
50
74.4191296
51
89.9249304
0
ARC
8
DEFAULT_255_2_778
10
15.6974825
20
5.2145291
40
1.5404362
50
318.1769033
51
346.955375
0
LINE
8
DEFAULT_255_2_778
10
16.8454268
20
4.1873155
11
16.8451838
21
4.1870106
0
ARC
8
DEFAULT_255_2_778
10
12.2844046
20
7.8258069
40
5.8345133
50
320.7291785
51
321.4155481
0
ARC
8
DEFAULT_255_2_778
10
12.0502484
20
6.1080325
40
4.9122789
50
306.4504405
51
321.710885
0
ARC
8
DEFAULT_255_2_778
10
12.3713102
20
5.7879693
40
4.464597
50
305.4722671
51
305.5765243
0
ARC
8
DEFAULT_255_2_778
10
61.9686266
20
-64.1363755
40
81.2635178
50
125.3412427
51
125.3901402
0
ARC
8
DEFAULT_255_2_778
10
15.5503527
20
1.1571104
40
1.152078
50
124.031106
51
135.8320119
0
ARC
8
DEFAULT_255_2_778
10
13.9352874
20
2.6514521
40
1.048974
50
274.1618931
51
318.7515949
0
ARC
8
DEFAULT_255_2_778
10
13.8208995
20
3.3270318
40
1.7322959
50
272.043401
51
276.314137
0
ARC
8
DEFAULT_255_2_778
10
13.8122954
20
2.8850841
40
1.2911658
50
269.701307
51
273.1243104
0
ARC
8
DEFAULT_255_2_778
10
13.8125413
20
6.978148
40
5.3842167
50
269.491649
51
269.9257552
0
ARC
8
DEFAULT_255_2_778
10
13.7169106
20
-3.8184644
40
5.4128192
50
89.493382
51
89.928665
0
ARC
8
DEFAULT_255_2_778
10
13.7219249
20
-0.328058
40
1.9224094
50
89.9485909
51
90.9968919
0
ARC
8
DEFAULT_255_2_778
10
13.6939685
20
0.7837655
40
0.8103136
50
90.3881968
51
99.0744921
0
ARC
8
DEFAULT_255_2_778
10
51.32274
20
57.6418756
40
67.5873599
50
236.0386426
51
236.5660185
0
ARC
8
DEFAULT_255_2_778
10
413.8449547
20
605.5453479
40
724.5656941
50
236.5145447
51
236.5318999
0
ARC
8
DEFAULT_255_2_778
10
-4.3192542
20
-27.4597422
40
34.0897846
50
54.1431165
51
56.9610435
0
ARC
8
DEFAULT_255_2_778
10
16.6424447
20
1.865534
40
1.9654885
50
239.6481816
51
241.1738355
0
ARC
8
DEFAULT_255_2_778
10
-227.2810262
20
-437.7357954
40
500.7750014
50
60.9730059
51
60.9744531
0
ARC
8
DEFAULT_255_2_778
10
15.5206207
20
-0.2757374
40
0.4528088
50
38.2194053
51
65.8555273
0
ARC
8
DEFAULT_255_2_778
10
15.7251646
20
-0.0916348
40
0.1791259
50
359.2833618
51
32.4220373
0
ARC
8
DEFAULT_255_2_778
10
15.6556663
20
-0.0926211
40
0.2486132
50
348.7354455
51
359.7109656
0
ARC
8
DEFAULT_255_2_778
10
15.5836504
20
-0.0796333
40
0.3217816
50
344.6594282
51
348.9722539
0
LINE
8
DEFAULT_255_2_778
10
15.8902671
20
-0.1676625
11
1.5831671
21
-0.1676625
0
LINE
8
DEFAULT_255_2_778
10
1.8160671
20
0.1784375
11
3.9051671
21
1.5929375
0
LINE
8
DEFAULT_255_2_778
10
0.2642671
20
4.8636375
11
0.2642671
21
5.0393375
0
LINE
8
DEFAULT_255_2_778
10
17.1981671
20
5.0399375
11
17.1981671
21
4.8668375
0
LINE
8
DEFAULT_255_2_778
10
16.8012671
20
4.1326375
11
15.9058671
21
3.0642375
0
LINE
8
DEFAULT_255_2_778
10
15.8939671
20
-0.1647625
11
15.8902671
21
-0.1676625
0
ARC
8
DEFAULT_255_2_778
10
8.9572128
20
3.7418534
40
0.7002451
50
117.2074368
51
126.0113903
0
ARC
8
DEFAULT_255_2_778
10
8.7826079
20
4.0697425
40
0.3288466
50
110.674218
51
116.2716243
0
ARC
8
DEFAULT_255_2_778
10
8.7456522
20
4.1744813
40
0.2178186
50
90.5395848
51
111.3062038
0
ARC
8
DEFAULT_255_2_778
10
8.7407095
20
4.1708487
40
0.2214604
50
63.8843444
51
89.2519148
0
ARC
8
DEFAULT_255_2_778
10
8.6723232
20
4.0207516
40
0.3863644
50
54.3686777
51
64.5762844
0
ARC
8
DEFAULT_255_2_778
10
15.2206426
20
-0.1179849
40
0.163637
50
47.2738086
51
71.7062254
0
ARC
8
DEFAULT_255_2_778
10
12.825694
20
-3.1332369
40
4.0138542
50
50.2723213
51
51.3668634
0
LINE
8
DEFAULT_255_2_778
10
15.3948064
20
-0.0489182
11
2.0844064
21
-0.0489182
0
LINE
8
DEFAULT_255_2_778
10
2.0844064
20
-0.0489182
11
2.6633064
21
0.3569818
0
LINE
8
DEFAULT_255_2_778
10
2.6633064
20
0.3569818
11
8.5455064
21
4.3082818
0
LINE
8
DEFAULT_255_2_778
10
8.8974064
20
4.3347818
11
15.2720064
21
0.0373818
0
LINE
8
DEFAULT_255_2_778
10
15.3911064
20
-0.0462182
11
15.3948064
21
-0.0489182
0
ARC
8
DEFAULT_255_2_778
10
7.0699707
20
2.2984818
40
1.0460629
50
122.5334828
51
123.0973529
0
ARC
8
DEFAULT_255_2_778
10
6.1543696
20
3.674932
40
0.6072217
50
298.5590349
51
304.5515901
0
ARC
8
DEFAULT_255_2_778
10
6.3885338
20
3.2428002
40
0.1157276
50
271.9066293
51
299.0117628
0
ARC
8
DEFAULT_255_2_778
10
6.3945744
20
3.2240172
40
0.0969053
50
232.715938
51
268.7048751
0
ARC
8
DEFAULT_255_2_778
10
6.4485472
20
3.3050674
40
0.1941848
50
224.6938392
51
234.5321834
0
ARC
8
DEFAULT_255_2_778
10
5.2906236
20
2.0660296
40
1.5018613
50
47.228285
51
65.7952198
0
ARC
8
DEFAULT_255_2_778
10
4.9240207
20
1.0227483
40
2.6054041
50
67.8489941
51
88.3522219
0
ARC
8
DEFAULT_255_2_778
10
4.3358531
20
-6.1834558
40
9.8329142
50
86.133302
51
86.918087
0
ARC
8
DEFAULT_255_2_778
10
3.2725446
20
-25.9747336
40
29.6527352
50
86.9224917
51
87.1966864
0
ARC
8
DEFAULT_255_2_778
10
7.3619275
20
56.8672081
40
53.2900821
50
267.0846919
51
267.1613197
0
ARC
8
DEFAULT_255_2_778
10
2.6657483
20
-35.1452867
40
38.8421784
50
87.0693998
51
87.7056904
0
ARC
8
DEFAULT_255_2_778
10
22.8988467
20
449.4449921
40
446.1703728
50
267.595886
51
267.6007107
0
ARC
8
DEFAULT_255_2_778
10
4.3456776
20
13.6281793
40
9.9621756
50
259.8524967
51
269.0652809
0
ARC
8
DEFAULT_255_2_778
10
3.5467033
20
8.4966052
40
4.7715567
50
254.8541623
51
258.4400073
0
ARC
8
DEFAULT_255_2_778
10
3.4324502
20
7.9837735
40
4.2467533
50
246.1456243
51
254.5343179
0
ARC
8
DEFAULT_255_2_778
10
2.4925701
20
9.9040787
40
5.8561362
50
262.3698679
51
268.9085503
0
ARC
8
DEFAULT_255_2_778
10
2.5330011
20
11.1270162
40
7.0796426
50
268.769926
51
270.0085761
0
ARC
8
DEFAULT_255_2_778
10
2.3479046
20
17.1084083
40
13.0623612
50
270.8165694
51
277.1498689
0
ARC
8
DEFAULT_255_2_778
10
-9.0328315
20
121.1214043
40
117.6946741
50
276.3447676
51
276.4452315
0
ARC
8
DEFAULT_255_2_778
10
106.8213786
20
-906.8103147
40
916.7451868
50
96.4268645
51
96.4285517
0
ARC
8
DEFAULT_255_2_778
10
6.2902081
20
-12.314593
40
16.6194747
50
92.3624708
51
97.2056005
0
ARC
8
DEFAULT_255_2_778
10
5.6707348
20
1.9332218
40
2.3584465
50
91.5605568
51
91.5939206
0
ARC
8
DEFAULT_255_2_778
10
5.8309014
20
-2.8767552
40
7.1710606
50
90.0220097
51
91.7931804
0
ARC
8
DEFAULT_255_2_778
10
5.9047406
20
-0.3023203
40
4.5972633
50
71.9982573
51
90.9546352
0
ARC
8
DEFAULT_255_2_778
10
7.7416687
20
5.3268404
40
1.3240492
50
251.6808062
51
253.1653893
0
ARC
8
DEFAULT_255_2_778
10
6.9643361
20
2.7135573
40
1.4024226
50
70.5173424
51
73.6888783
0
ARC
8
DEFAULT_255_2_778
10
7.3230425
20
3.7053821
40
0.3478292
50
42.6072476
51
71.7319192
0
ARC
8
DEFAULT_255_2_778
10
7.3329186
20
3.7218951
40
0.3294267
50
35.7995547
51
41.6561857
0
ARC
8
DEFAULT_255_2_778
10
11.1659965
20
1.2875258
40
2.9620122
50
102.7682881
51
116.3800383
0
ARC
8
DEFAULT_255_2_778
10
11.5884885
20
-0.7923153
40
5.08402
50
92.4404462
51
102.2316295
0
ARC
8
DEFAULT_255_2_778
10
11.7096871
20
-1.5463087
40
5.8431679
50
89.9441043
51
93.3130116
0
ARC
8
DEFAULT_255_2_778
10
11.4852155
20
-8.5222016
40
12.8211243
50
82.6994409
51
88.9713388
0
ARC
8
DEFAULT_255_2_778
10
18.5943873
20
53.5675877
40
49.6757854
50
263.6665811
51
264.0893539
0
ARC
8
DEFAULT_255_2_778
10
15.1497979
20
18.140461
40
14.0840337
50
263.1865358
51
269.1128953
0
ARC
8
DEFAULT_255_2_778
10
14.9578878
20
10.0045854
40
5.9465273
50
269.7481083
51
277.4527782
0
ARC
8
DEFAULT_255_2_778
10
14.0036125
20
7.7495628
40
4.0294558
50
273.1496343
51
295.3562243
0
ARC
8
DEFAULT_255_2_778
10
12.4131878
20
1.4969529
40
2.1159084
50
91.2045884
51
118.8080409
0
ARC
8
DEFAULT_255_2_778
10
12.110876
20
2.1751338
40
1.3773745
50
121.3839033
51
132.6258966
0
ARC
8
DEFAULT_255_2_778
10
11.0251817
20
3.345553
40
0.2191394
50
294.3034879
51
314.2539938
0
ARC
8
DEFAULT_255_2_778
10
11.0708762
20
3.2509112
40
0.1141104
50
274.5674981
51
292.9510698
0
ARC
8
DEFAULT_255_2_778
10
11.0721661
20
3.2421257
40
0.1052515
50
269.9981832
51
274.2483941
0
ARC
8
DEFAULT_255_2_778
10
11.0788455
20
3.2895848
40
0.1528567
50
236.0016505
51
267.4942998
0
ARC
8
DEFAULT_255_2_778
10
11.1643013
20
3.4451385
40
0.329998
50
236.3005062
51
238.8039242
0
LINE
8
DEFAULT_255_2_778
10
7.5996061
20
3.9145937
11
6.5074061
21
3.1803937
0
LINE
8
DEFAULT_255_2_778
10
7.6001061
20
3.9145937
11
7.5996061
21
3.9145937
0
LINE
8
DEFAULT_255_2_778
10
14.2250061
20
3.7261937
11
12.3687061
21
3.6123937
0
LINE
8
DEFAULT_255_2_778
10
10.9812061
20
3.1705937
11
9.8472061
21
3.9378937
0
LINE
8
DEFAULT_255_2_778
10
9.8472061
20
3.9378937
11
9.8499061
21
3.9410937
0
ARC
8
DEFAULT_255_2_778
10
3.7205739
20
-18.6594011
40
21.7352235
50
90.4212138
51
90.8829764
0
ARC
8
DEFAULT_255_2_778
10
3.6774918
20
7.2031689
40
4.1295832
50
268.3805728
51
281.0929555
0
ARC
8
DEFAULT_255_2_778
10
4.5265699
20
2.9072739
40
0.2495018
50
91.2276896
51
102.6267706
0
ARC
8
DEFAULT_255_2_778
10
4.524302
20
2.9525838
40
0.2041579
50
90.0018188
51
90.8637921
0
ARC
8
DEFAULT_255_2_778
10
4.520484
20
2.9769685
40
0.1798135
50
17.3948978
51
88.7854113
0
ARC
8
DEFAULT_255_2_778
10
4.1922408
20
2.8137913
40
0.5448791
50
13.2892885
51
23.4614066
0
ARC
8
DEFAULT_255_2_778
10
5.4674956
20
-9.6770909
40
12.6381079
50
93.379319
51
94.2424732
0
ARC
8
DEFAULT_255_2_778
10
4.0426089
20
8.7387165
40
5.8329427
50
270.7339067
51
274.8183667
0
ARC
8
DEFAULT_255_2_778
10
4.0705816
20
4.4420724
40
1.5365313
50
247.4100036
51
271.743158
0
ARC
8
DEFAULT_255_2_778
10
3.978577
20
4.1484313
40
1.2303923
50
241.189265
51
246.1129135
0
LINE
8
DEFAULT_255_2_778
10
3.385629
20
3.0703415
11
3.385629
21
3.0732415
0
ARC
8
DEFAULT_255_2_778
10
3.4962239
20
6.6383782
40
3.1492849
50
259.2396633
51
269.9831009
0
ARC
8
DEFAULT_255_2_778
10
7.3118947
20
130.6003524
40
127.1685442
50
268.280173
51
268.2880424
0
ARC
8
DEFAULT_255_2_778
10
3.546854
20
0.6944892
40
2.7942891
50
76.3566935
51
90.6992383
0
ARC
8
DEFAULT_255_2_778
10
3.8351943
20
2.1157052
40
1.346288
50
69.5647754
51
74.0141595
0
ARC
8
DEFAULT_255_2_778
10
3.7104908
20
5.3037551
40
2.0162066
50
277.1111924
51
287.1568442
0
ARC
8
DEFAULT_255_2_778
10
3.7538902
20
4.9889832
40
1.6984882
50
270.0593527
51
276.9729415
0
ARC
8
DEFAULT_255_2_778
10
3.7511222
20
4.8058491
40
1.51536
50
243.5510844
51
270.1711825
0
ARC
8
DEFAULT_255_2_778
10
3.8278341
20
4.9682087
40
1.6948969
50
237.14182
51
243.6738747
0
ARC
8
DEFAULT_255_2_778
10
13.7729056
20
1.8458561
40
1.6334486
50
91.9354355
51
111.5073997
0
ARC
8
DEFAULT_255_2_778
10
14.0033604
20
-1.6457814
40
5.1321083
50
90.7834281
51
93.1903814
0
ARC
8
DEFAULT_255_2_778
10
14.4247951
20
-24.2890127
40
27.7792102
50
90.8825821
51
91.0140105
0
ARC
8
DEFAULT_255_2_778
10
14.0349137
20
6.7409218
40
3.254242
50
269.3307328
51
278.7284172
0
ARC
8
DEFAULT_255_2_778
10
13.7460627
20
4.6997243
40
1.4121116
50
289.2310826
51
303.660184
0
ARC
8
DEFAULT_255_2_778
10
13.7391315
20
4.7492866
40
1.4612239
50
269.5762307
51
288.8475862
0
ARC
8
DEFAULT_255_2_778
10
13.7444147
20
5.3732106
40
2.08517
50
257.5963107
51
269.5578612
0
ARC
8
DEFAULT_255_2_778
10
13.8906198
20
6.1325808
40
2.8582923
50
255.4811126
51
258.0036177
0
LINE
8
DEFAULT_255_2_778
10
2.9082484
20
3.544468
11
2.9082484
21
3.544468
0
LINE
8
DEFAULT_255_2_778
10
13.1740484
20
3.365568
11
13.1740484
21
3.365568
0
ARC
8
DEFAULT_255_2_778
10
13.1376117
20
2.8558628
40
0.393293
50
145.8594757
51
165.6060213
0
ARC
8
DEFAULT_255_2_778
10
12.9584356
20
2.9785383
40
0.1761496
50
88.4957944
51
146.1769577
0
ARC
8
DEFAULT_255_2_778
10
12.9604298
20
2.8593478
40
0.2952912
50
76.9394056
51
89.4897436
0
ARC
8
DEFAULT_255_2_778
10
12.9415013
20
2.7630223
40
0.3934165
50
75.9268786
51
77.4242245
0
ARC
8
DEFAULT_255_2_778
10
13.6369307
20
6.0153909
40
2.9327434
50
258.1993646
51
270.5775458
0
ARC
8
DEFAULT_255_2_778
10
13.6452548
20
8.6189905
40
5.5362347
50
270.2197949
51
274.1153879
0
ARC
8
DEFAULT_255_2_778
10
13.6890059
20
3.4400599
40
0.4926182
50
292.8585794
51
315.8659979
0
ARC
8
DEFAULT_255_2_778
10
13.5403645
20
3.7766671
40
0.8605538
50
280.950979
51
293.27207
0
ARC
8
DEFAULT_255_2_778
10
13.4182392
20
4.381227
40
1.4773133
50
273.2866547
51
281.1469828
0
ARC
8
DEFAULT_255_2_778
10
13.3672113
20
5.1146706
40
2.212494
50
269.9139557
51
273.5169906
0
ARC
8
DEFAULT_255_2_778
10
13.3684184
20
5.8975796
40
2.9954038
50
266.6644048
51
269.9133569
0
ARC
8
DEFAULT_255_2_778
10
13.427094
20
6.9274063
40
4.0269
50
264.1170845
51
266.6835203
0
ARC
8
DEFAULT_255_2_778
10
13.5535702
20
8.166581
40
5.2725119
50
262.0636797
51
264.1301274
0
ARC
8
DEFAULT_255_2_778
10
13.683775
20
9.1312057
40
6.2458767
50
261.4878377
51
262.1024858
0
LINE
8
DEFAULT_255_2_778
10
12.7592645
20
2.9541307
11
12.7566645
21
2.9536307
0
ARC
8
DEFAULT_255_2_778
10
13.2266701
20
2.8015317
40
0.5871151
50
302.0903018
51
319.0238162
0
ARC
8
DEFAULT_255_2_778
10
13.2430633
20
2.8014689
40
0.5785189
50
268.215463
51
300.7179764
0
ARC
8
DEFAULT_255_2_778
10
13.2273267
20
3.2824925
40
1.0592644
50
265.66883
51
269.8767219
0
ARC
8
DEFAULT_255_2_778
10
13.3610168
20
4.7158111
40
2.4987119
50
260.6605939
51
265.0941394
0
ARC
8
DEFAULT_255_2_778
10
10.8963348
20
-11.2010614
40
13.6079846
50
81.2964654
51
81.5080518
0
ARC
8
DEFAULT_255_2_778
10
12.8179165
20
1.514224
40
0.7486894
50
83.2564671
51
87.4533086
0
ARC
8
DEFAULT_255_2_778
10
12.7098055
20
-0.7502367
40
3.0157263
50
87.3129768
51
88.4926712
0
ARC
8
DEFAULT_255_2_778
10
12.9401347
20
7.6660055
40
5.4036695
50
267.862296
51
268.398709
0
ARC
8
DEFAULT_255_2_778
10
12.7445737
20
2.9944199
40
0.7283478
50
256.8312481
51
269.5277644
0
ARC
8
DEFAULT_255_2_778
10
12.5996083
20
2.4011793
40
0.1178343
50
213.1472688
51
259.7505873
0
ARC
8
DEFAULT_255_2_778
10
12.566314
20
2.3696591
40
0.0731821
50
179.1386396
51
206.7250167
0
ARC
8
DEFAULT_255_2_778
10
12.5936164
20
2.370546
40
0.1004764
50
172.8030326
51
179.8783989
0
ARC
8
DEFAULT_255_2_778
10
12.6507743
20
2.3595252
40
0.1586096
50
150.6046328
51
171.4398926
0
ARC
8
DEFAULT_255_2_778
10
12.5929192
20
2.3883315
40
0.094122
50
85.1672438
51
148.5956194
0
ARC
8
DEFAULT_255_2_778
10
12.5907004
20
2.1464363
40
0.335836
50
74.4042994
51
88.2683656
0
ARC
8
DEFAULT_255_2_778
10
12.2817736
20
0.9499551
40
1.5715052
50
72.7104647
51
75.2836561
0
ARC
8
DEFAULT_255_2_778
10
17.891436
20
19.4467097
40
17.7572299
50
253.165597
51
253.1836507
0
ARC
8
DEFAULT_255_2_778
10
12.9852527
20
3.145513
40
0.7340012
50
251.6506264
51
260.8883958
0
ARC
8
DEFAULT_255_2_778
10
12.8996413
20
2.6552817
40
0.2364994
50
262.5600345
51
269.7174904
0
ARC
8
DEFAULT_255_2_778
10
12.89854
20
2.5979837
40
0.1791984
50
269.9792863
51
272.3320188
0
ARC
8
DEFAULT_255_2_778
10
5.3424012
20
-0.0892681
40
2.5982013
50
101.0820131
51
101.2924013
0
ARC
8
DEFAULT_255_2_778
10
4.9341708
20
2.0179697
40
0.4518111
50
96.0494334
51
101.6428248
0
ARC
8
DEFAULT_255_2_778
10
4.907459
20
2.2538175
40
0.2144686
50
90.1969748
51
95.5931516
0
ARC
8
DEFAULT_255_2_778
10
4.9169803
20
2.3943234
40
0.0746695
50
5.715322
51
97.8966658
0
ARC
8
DEFAULT_255_2_778
10
4.8528193
20
2.3791794
40
0.1402884
50
5.6264957
51
9.2622807
0
ARC
8
DEFAULT_255_2_778
10
4.8503198
20
2.366826
40
0.14449
50
1.4715774
51
10.4098916
0
ARC
8
DEFAULT_255_2_778
10
4.8853112
20
2.3684442
40
0.1094709
50
0.0056312
51
1.0952295
0
ARC
8
DEFAULT_255_2_778
10
4.9215486
20
2.3710314
40
0.0732788
50
262.4411862
51
357.9850754
0
ARC
8
DEFAULT_255_2_778
10
4.8130131
20
3.0349326
40
0.7431529
50
276.9359454
51
277.6473981
0
ARC
8
DEFAULT_255_2_778
10
4.5548644
20
5.1526954
40
2.8765915
50
276.7890785
51
276.9462882
0
ARC
8
DEFAULT_255_2_778
10
4.9395859
20
1.8744051
40
0.4242273
50
96.0437657
51
100.6435688
0
ARC
8
DEFAULT_255_2_778
10
5.6594038
20
-4.3007038
40
6.6401835
50
96.903838
51
98.4058794
0
ARC
8
DEFAULT_255_2_778
10
4.2194445
20
5.0611615
40
2.8321625
50
271.4205997
51
279.5374464
0
ARC
8
DEFAULT_255_2_778
10
4.2715596
20
3.1894887
40
0.9597898
50
247.6692605
51
271.0804912
0
ARC
8
DEFAULT_255_2_778
10
4.2468031
20
3.0999353
40
0.8676176
50
238.8986123
51
246.9344952
0
LINE
8
DEFAULT_255_2_778
10
12.9058316
20
2.4189337
11
13.6699316
21
2.4189337
0
LINE
8
DEFAULT_255_2_778
10
13.6699316
20
2.4189337
11
13.6699316
21
2.4165337
0
LINE
8
DEFAULT_255_2_778
10
3.8010316
20
2.3570337
11
4.8336316
21
2.4586337
0
LINE
8
DEFAULT_255_2_778
10
3.7986316
20
2.3570337
11
3.8010316
21
2.3570337
0
ARC
8
DEFAULT_255_2_778
10
13.4791944
20
3.632469
40
1.0498038
50
292.4342149
51
304.6340272
0
ARC
8
DEFAULT_255_2_778
10
13.4633618
20
3.7015077
40
1.1197208
50
270.4061575
51
291.8348889
0
ARC
8
DEFAULT_255_2_778
10
13.4402504
20
4.0926363
40
1.5111402
50
269.9942366
51
271.1773166
0
ARC
8
DEFAULT_255_2_778
10
13.4886849
20
5.2106597
40
2.6296126
50
259.6215503
51
268.9413042
0
ARC
8
DEFAULT_255_2_778
10
15.4473033
20
17.2720902
40
14.8485958
50
260.1036776
51
260.5719173
0
ARC
8
DEFAULT_255_2_778
10
11.8199216
20
-3.2667468
40
6.0082111
50
79.6890146
51
82.5828896
0
ARC
8
DEFAULT_255_2_778
10
12.852145
20
2.0196748
40
0.7188776
50
88.8256124
51
110.913823
0
ARC
8
DEFAULT_255_2_778
10
12.8248751
20
0.510131
40
2.2286661
50
82.6649453
51
88.9200827
0
ARC
8
DEFAULT_255_2_778
10
13.4372947
20
5.3925046
40
2.6919883
50
263.0040359
51
267.3318514
0
ARC
8
DEFAULT_255_2_778
10
13.356292
20
4.0099533
40
1.3072698
50
268.0574796
51
268.5684118
0
ARC
8
DEFAULT_255_2_778
10
13.3605072
20
4.2643429
40
1.5616868
50
268.6469833
51
270.0086501
0
ARC
8
DEFAULT_255_2_778
10
13.2971323
20
5.821062
40
3.1190547
50
271.1685841
51
278.5526059
0
ARC
8
DEFAULT_255_2_778
10
16.1653237
20
-15.8284508
40
18.7201858
50
97.1689918
51
97.3791869
0
ARC
8
DEFAULT_255_2_778
10
14.2544522
20
-0.4385156
40
3.2121882
50
93.1912632
51
97.6091005
0
LINE
8
DEFAULT_255_2_778
10
14.075632
20
2.7686916
11
14.075832
21
2.7686916
0
ARC
8
DEFAULT_255_2_778
10
3.9757099
20
4.7303927
40
2.0222787
50
253.3869588
51
271.2110701
0
ARC
8
DEFAULT_255_2_778
10
3.9382351
20
10.0580173
40
7.3498893
50
270.6253398
51
274.0791647
0
ARC
8
DEFAULT_255_2_778
10
5.038316
20
-5.7564964
40
8.5028607
50
91.1932076
51
93.8927326
0
ARC
8
DEFAULT_255_2_778
10
4.9202158
20
-1.5111939
40
4.2561228
50
90.0079222
51
90.7937764
0
ARC
8
DEFAULT_255_2_778
10
4.532894
20
3.3448179
40
0.7137432
50
290.1873534
51
302.8088511
0
ARC
8
DEFAULT_255_2_778
10
4.3451293
20
3.8444038
40
1.2474411
50
281.2121694
51
290.3631563
0
ARC
8
DEFAULT_255_2_778
10
4.2116858
20
4.5118052
40
1.9280518
50
272.0945204
51
281.245609
0
ARC
8
DEFAULT_255_2_778
10
4.1931419
20
4.799223
40
2.2159698
50
269.9967122
51
272.3020644
0
ARC
8
DEFAULT_255_2_778
10
4.1930147
20
4.7445173
40
2.1612643
50
269.9146114
51
270
0
ARC
8
DEFAULT_255_2_778
10
4.1858898
20
4.6347262
40
2.0514746
50
259.4847201
51
270.1090349
0
ARC
8
DEFAULT_255_2_778
10
4.0521283
20
3.9149055
40
1.3193312
50
250.2000843
51
259.4912126
0
ARC
8
DEFAULT_255_2_778
10
3.8508794
20
3.3637174
40
0.7325631
50
237.4622783
51
250.4068552
0
ARC
8
DEFAULT_255_2_778
10
3.6916671
20
3.1076313
40
0.4310541
50
226.9706408
51
236.9950474
0
LINE
8
DEFAULT_255_2_778
10
3.3975273
20
2.7925289
11
3.3975273
21
2.7925289
0
ARC
8
DEFAULT_255_2_778
10
14.0910753
20
5.6545828
40
2.712232
50
288.7090931
51
298.303191
0
ARC
8
DEFAULT_255_2_778
10
14.3375654
20
4.9154673
40
1.9331102
50
276.3183877
51
288.8162612
0
ARC
8
DEFAULT_255_2_778
10
14.3941072
20
4.4814973
40
1.4955777
50
270.0720399
51
275.9951041
0
ARC
8
DEFAULT_255_2_778
10
14.395913
20
4.3587886
40
1.3728679
50
268.853586
51
270.003116
0
ARC
8
DEFAULT_255_2_778
10
14.6359582
20
2.8483399
40
0.3009439
50
121.9795005
51
152.7368744
0
ARC
8
DEFAULT_255_2_778
10
14.7429533
20
2.6363077
40
0.5378952
50
100.2342631
51
119.6846594
0
ARC
8
DEFAULT_255_2_778
10
15.6097294
20
-1.1705471
40
4.4416966
50
102.018417
51
102.5130359
0
ARC
8
DEFAULT_255_2_778
10
14.4860835
20
4.1851469
40
1.0307038
50
281.1190156
51
287.2858284
0
ARC
8
DEFAULT_255_2_778
10
15.7398598
20
0.4027074
40
2.9543527
50
102.48119
51
108.7063557
0
LINE
8
DEFAULT_255_2_778
10
15.1013678
20
3.28724
11
15.1040322
21
3.2878812
0
ARC
8
DEFAULT_255_2_778
10
13.7382546
20
9.0727038
40
5.9438641
50
283.284085
51
284.8135211
0
ARC
8
DEFAULT_255_2_778
10
15.3709991
20
3.1049126
40
0.2486681
50
101.4627233
51
117.0415461
0
ARC
8
DEFAULT_255_2_778
10
15.3311809
20
3.2791366
40
0.0701442
50
90.236695
51
97.8660072
0
ARC
8
DEFAULT_255_2_778
10
15.331215
20
3.3074985
40
0.0417829
50
3.16684
51
90.4440232
0
ARC
8
DEFAULT_255_2_778
10
15.185693
20
3.2701902
40
0.1913863
50
358.9238029
51
11.9464793
0
ARC
8
DEFAULT_255_2_778
10
3.5797839
20
7.7941931
40
4.6720637
50
253.1043675
51
255.8371752
0
ARC
8
DEFAULT_255_2_778
10
-80.784919
20
-316.5103748
40
330.4263408
50
75.4109137
51
75.4123286
0
ARC
8
DEFAULT_255_2_778
10
2.1017176
20
1.5308267
40
1.7648721
50
58.3400651
51
78.7996225
0
ARC
8
DEFAULT_255_2_778
10
2.4778322
20
2.239042
40
0.9660192
50
52.6912813
51
55.2790357
0
ARC
8
DEFAULT_255_2_778
10
3.0105756
20
4.5292753
40
1.5227944
50
269.9999798
51
271.9858883
0
ARC
8
DEFAULT_255_2_778
10
3.0583093
20
4.9052134
40
1.8993323
50
239.7803904
51
268.5598848
0
ARC
8
DEFAULT_255_2_778
10
2.356484
20
3.2787835
40
0.2545683
50
180.0845626
51
183.330193
0
ARC
8
DEFAULT_255_2_778
10
2.2057475
20
3.2838489
40
0.1039741
50
156.3200632
51
182.9997844
0
ARC
8
DEFAULT_255_2_778
10
2.1441575
20
3.3091876
40
0.0374244
50
86.028759
51
153.9754606
0
ARC
8
DEFAULT_255_2_778
10
2.1341256
20
3.1814993
40
0.1655051
50
64.1860525
51
85.6255597
0
ARC
8
DEFAULT_255_2_778
10
1.9509716
20
2.7282721
40
0.6540674
50
65.5734768
51
67.0324759
0
LINE
8
DEFAULT_255_2_778
10
15.3770455
20
3.2665956
11
15.3770455
21
3.2665956
0
LINE
8
DEFAULT_255_2_778
10
2.2214455
20
3.3237956
11
2.2219455
21
3.3237956
0
ARC
8
DEFAULT_255_2_778
10
3.2548672
20
4.5452261
40
1.9258729
50
242.2784452
51
269.2750145
0
ARC
8
DEFAULT_255_2_778
10
2.4201633
20
1.1449873
40
1.696523
50
66.5917545
51
92.0661164
0
ARC
8
DEFAULT_255_2_778
10
2.657425
20
1.8250117
40
0.9796108
50
54.1968785
51
63.5239981
0
ARC
8
DEFAULT_255_2_778
10
14.3144402
20
4.0292437
40
1.4117796
50
280.794781
51
303.050759
0
ARC
8
DEFAULT_255_2_778
10
13.3660927
20
8.2302926
40
5.7179382
50
280.0889531
51
282.2453192
0
ARC
8
DEFAULT_255_2_778
10
16.5868017
20
-9.5919632
40
12.3930217
50
100.3148423
51
100.9015944
0
ARC
8
DEFAULT_255_2_778
10
14.5233631
20
2.3911765
40
0.3365797
50
122.7932771
51
146.4060397
0
ARC
8
DEFAULT_255_2_778
10
14.8051342
20
1.9768767
40
0.8375556
50
110.0311513
51
123.6468065
0
ARC
8
DEFAULT_255_2_778
10
15.0009003
20
1.4643382
40
1.3861699
50
96.273745
51
110.3768364
0
ARC
8
DEFAULT_255_2_778
10
14.9913727
20
1.5822049
40
1.2679727
50
90.1087251
51
96.4278228
0
ARC
8
DEFAULT_255_2_778
10
14.9905311
20
1.8160905
40
1.0340859
50
84.7918737
51
90.0866872
0
LINE
8
DEFAULT_255_2_778
10
3.2304991
20
2.6195074
11
3.2304991
21
2.6195074
0
LINE
8
DEFAULT_255_2_778
10
15.0843991
20
2.8459074
11
15.0843991
21
2.8459074
0
ARC
8
DEFAULT_255_2_778
10
2.6120266
20
6.0397548
40
2.3888336
50
245.4295098
51
254.9919362
0
ARC
8
DEFAULT_255_2_778
10
-72.7638381
20
-247.7676419
40
262.3755373
50
73.4439651
51
73.445654
0
ARC
8
DEFAULT_255_2_778
10
1.6053157
20
2.0655259
40
1.711019
50
57.5384422
51
76.6344699
0
ARC
8
DEFAULT_255_2_778
10
2.0032889
20
2.7785473
40
0.8970279
50
51.9703675
51
54.5406732
0
ARC
8
DEFAULT_255_2_778
10
2.7850696
20
5.3875926
40
1.9162141
50
232.5063154
51
263.1318726
0
LINE
8
DEFAULT_255_2_778
10
1.6187199
20
3.8672292
11
1.6187199
21
3.8672292
0
ARC
8
DEFAULT_255_2_778
10
14.7213356
20
5.1943544
40
1.7293728
50
286.3451021
51
301.3664427
0
ARC
8
DEFAULT_255_2_778
10
13.1054511
20
10.0022904
40
6.8006063
50
287.4332895
51
288.0094382
0
ARC
8
DEFAULT_255_2_778
10
6.8508663
20
29.8769042
40
27.6361543
50
287.4529368
51
287.46014
0
ARC
8
DEFAULT_255_2_778
10
12.184025
20
12.9173788
40
9.8578506
50
287.4265675
51
287.4465465
0
ARC
8
DEFAULT_255_2_778
10
21.9724137
20
-18.6329144
40
23.1760511
50
107.1554483
51
107.7136728
0
ARC
8
DEFAULT_255_2_778
10
16.5920792
20
-1.7169512
40
5.4251128
50
107.9419084
51
108.7805977
0
ARC
8
DEFAULT_255_2_778
10
15.3864012
20
3.0855769
40
0.6355849
50
132.4843628
51
148.3253555
0
ARC
8
DEFAULT_255_2_778
10
15.3702078
20
3.0861435
40
0.6243372
50
106.2776785
51
131.4235019
0
ARC
8
DEFAULT_255_2_778
10
15.605413
20
2.3688286
40
1.3790461
50
102.9891985
51
107.3047287
0
ARC
8
DEFAULT_255_2_778
10
16.4544297
20
-1.2522937
40
5.0983615
50
102.3270031
51
103.1395907
0
ARC
8
DEFAULT_255_2_778
10
15.0707564
20
5.2054371
40
1.5061284
50
281.3038687
51
288.5454459
0
ARC
8
DEFAULT_255_2_778
10
15.6775169
20
3.9925611
40
0.2501138
50
239.2913874
51
243.1914197
0
ARC
8
DEFAULT_255_2_778
10
16.5326037
20
5.6706333
40
2.1334873
50
243.0208533
51
243.3368446
0
ARC
8
DEFAULT_255_2_778
10
15.5547259
20
3.6975542
40
0.0695522
50
16.8536856
51
72.8689054
0
LINE
8
DEFAULT_255_2_778
10
15.6212907
20
3.7177194
11
15.6214907
21
3.7177194
0
ARC
8
DEFAULT_255_2_778
10
3.2927303
20
3.5683275
40
1.3185587
50
276.9457468
51
285.3723281
0
ARC
8
DEFAULT_255_2_778
10
3.3261935
20
3.3138274
40
1.0618825
50
270.071694
51
276.8140337
0
ARC
8
DEFAULT_255_2_778
10
3.3274064
20
3.2160225
40
0.9640767
50
246.8737552
51
270.0068828
0
ARC
8
DEFAULT_255_2_778
10
3.4337685
20
3.4760011
40
1.244946
50
238.673199
51
247.0713652
0
ARC
8
DEFAULT_255_2_778
10
3.6152529
20
3.7800376
40
1.5990188
50
234.2606383
51
238.7823967
0
ARC
8
DEFAULT_255_2_778
10
14.1084033
20
3.2259758
40
0.9873083
50
269.9978707
51
305.2744521
0
ARC
8
DEFAULT_255_2_778
10
14.1083638
20
3.2256616
40
0.9869941
50
266.0807655
51
270.0001636
0
ARC
8
DEFAULT_255_2_778
10
14.1084382
20
3.2264871
40
0.9878227
50
258.4863625
51
266.0797342
0
ARC
8
DEFAULT_255_2_778
10
14.4881623
20
1.1165801
40
1.2794079
50
91.3504533
51
116.8019285
0
ARC
8
DEFAULT_255_2_778
10
16.3866765
20
-19.4364785
40
21.9171355
50
94.9496661
51
95.0484511
0
LINE
8
DEFAULT_255_2_778
10
14.4956538
20
2.3989254
11
14.5001689
21
2.3993178
0
ARC
8
DEFAULT_255_2_778
10
14.1505757
20
6.7513304
40
4.3660313
50
274.5926559
51
276.9458808
0
LINE
8
DEFAULT_255_2_778
10
2.6812676
20
2.4821421
11
3.6422676
21
2.2969421
0
LINE
8
DEFAULT_255_2_778
10
2.6812676
20
2.4821421
11
2.6812676
21
2.4821421
0
LINE
8
DEFAULT_255_2_778
10
14.6785676
20
2.4173421
11
14.6785676
21
2.4199421
0
ARC
8
DEFAULT_255_2_778
10
3.7218202
20
2.7308731
40
1.2007225
50
321.6876638
51
325.9352468
0
ARC
8
DEFAULT_255_2_778
10
4.1767445
20
2.3694298
40
0.6196954
50
314.3913612
51
321.833236
0
ARC
8
DEFAULT_255_2_778
10
4.3505814
20
2.194116
40
0.3728147
50
307.6972702
51
314.1488088
0
ARC
8
DEFAULT_255_2_778
10
4.4371519
20
2.0768977
40
0.2271509
50
287.4823302
51
308.4990555
0
ARC
8
DEFAULT_255_2_778
10
4.453238
20
2.0346701
40
0.1820608
50
269.8764575
51
286.6459977
0
ARC
8
DEFAULT_255_2_778
10
4.4591948
20
2.1171824
40
0.264649
50
246.1553238
51
268.6252353
0
ARC
8
DEFAULT_255_2_778
10
4.5953964
20
2.4455943
40
0.620144
50
237.3192476
51
246.9117776
0
ARC
8
DEFAULT_255_2_778
10
5.0262798
20
3.1299964
40
1.4288752
50
232.8026777
51
237.5950038
0
ARC
8
DEFAULT_255_2_778
10
5.6067986
20
3.9153804
40
2.4054706
50
232.3546637
51
233.0979446
0
ARC
8
DEFAULT_255_2_778
10
12.1206561
20
3.5461484
40
1.9568072
50
305.1496056
51
308.5976265
0
ARC
8
DEFAULT_255_2_778
10
12.7861395
20
2.5947264
40
0.7957559
50
297.7325933
51
305.4097337
0
ARC
8
DEFAULT_255_2_778
10
13.0024976
20
2.1760004
40
0.3244653
50
280.6942923
51
298.3237361
0
ARC
8
DEFAULT_255_2_778
10
13.0284989
20
2.0593735
40
0.2050763
50
270.1131421
51
279.6025278
0
ARC
8
DEFAULT_255_2_778
10
13.0290924
20
2.0454164
40
0.1911187
50
250.6442193
51
269.9434746
0
ARC
8
DEFAULT_255_2_778
10
13.0676825
20
2.1417066
40
0.2947909
50
231.3782827
51
249.7704976
0
ARC
8
DEFAULT_255_2_778
10
13.3006085
20
2.4441149
40
0.6764784
50
223.8260215
51
231.9520837
0
ARC
8
DEFAULT_255_2_778
10
13.9209035
20
3.0489864
40
1.5428587
50
220.2566993
51
224.0802497
0
ARC
8
DEFAULT_255_2_778
10
14.6456767
20
3.6764238
40
2.5014546
50
220.1229045
51
220.4966319
0
LINE
8
DEFAULT_255_2_778
10
4.1376048
20
2.010713
11
4.7165048
21
2.058313
0
LINE
8
DEFAULT_255_2_778
10
4.1376048
20
2.010713
11
4.1376048
21
2.010713
0
LINE
8
DEFAULT_255_2_778
10
12.7329048
20
2.064413
11
13.3414048
21
2.016813
0
LINE
8
DEFAULT_255_2_778
10
12.7329048
20
2.064413
11
12.7329048
21
2.064413
0
ARC
8
DEFAULT_255_2_778
10
3.3290761
20
2.1155318
40
0.1620245
50
270.4095054
51
281.6746952
0
ARC
8
DEFAULT_255_2_778
10
3.3314401
20
2.0772088
40
0.1237032
50
220.9244038
51
269.4413847
0
ARC
8
DEFAULT_255_2_778
10
3.4508145
20
2.1995243
40
0.2943675
50
213.5688796
51
223.6934168
0
ARC
8
DEFAULT_255_2_778
10
3.5587926
20
2.2759374
40
0.4266075
50
213.5028748
51
214.1012484
0
ARC
8
DEFAULT_255_2_778
10
3.345096
20
1.4760174
40
0.5820378
50
89.9474227
51
104.1243944
0
ARC
8
DEFAULT_255_2_778
10
3.3338455
20
1.2639541
40
0.7941883
50
74.243296
51
89.149783
0
ARC
8
DEFAULT_255_2_778
10
3.1337429
20
0.4587696
40
1.6236645
50
73.3131708
51
75.1631839
0
ARC
8
DEFAULT_255_2_778
10
3.5213045
20
2.0681308
40
0.0954506
50
270.2808884
51
325.494316
0
ARC
8
DEFAULT_255_2_778
10
3.509521
20
2.1804148
40
0.2080944
50
269.8928068
51
273.3752146
0
ARC
8
DEFAULT_255_2_778
10
3.5150638
20
2.5092735
40
0.5369854
50
265.8385117
51
269.3670331
0
ARC
8
DEFAULT_255_2_778
10
3.4005265
20
0.7971772
40
1.1789511
50
86.3248869
51
87.0631263
0
ARC
8
DEFAULT_255_2_778
10
3.4414782
20
1.6030025
40
0.3720861
50
87.0032114
51
89.8199023
0
ARC
8
DEFAULT_255_2_778
10
3.4357849
20
1.8524258
40
0.1228529
50
86.7976406
51
124.013509
0
LINE
8
DEFAULT_255_2_778
10
3.3670625
20
1.9542592
11
3.3618625
21
1.9568592
0
ARC
8
DEFAULT_255_2_778
10
3.6299256
20
2.2793713
40
0.265177
50
262.3430778
51
270.4979678
0
ARC
8
DEFAULT_255_2_778
10
3.6235231
20
2.9209258
40
0.9067631
50
270.5501894
51
273.4054832
0
ARC
8
DEFAULT_255_2_778
10
3.7318768
20
1.0803127
40
0.9370368
50
90.4291846
51
93.3337239
0
ARC
8
DEFAULT_255_2_778
10
3.7339034
20
1.7486964
40
0.2687791
50
62.4615579
51
91.9286262
0
ARC
8
DEFAULT_255_2_778
10
3.7331618
20
1.7567226
40
0.2620417
50
54.0521136
51
61.5063418
0
ARC
8
DEFAULT_255_2_778
10
3.6667248
20
2.5584264
40
0.6293712
50
274.6453056
51
290.4861922
0
ARC
8
DEFAULT_255_2_778
10
3.6552383
20
2.6821164
40
0.7535866
50
269.9216276
51
274.7541409
0
ARC
8
DEFAULT_255_2_778
10
3.685591
20
3.4982762
40
1.5700593
50
261.305354
51
268.8546521
0
ARC
8
DEFAULT_255_2_778
10
2.9453218
20
-1.7631807
40
3.7433789
50
82.2789209
51
83.6123081
0
ARC
8
DEFAULT_255_2_778
10
14.8388768
20
-4.6994821
40
6.6958341
50
96.2338958
51
96.7989693
0
ARC
8
DEFAULT_255_2_778
10
12.49952
20
15.0390916
40
13.1808856
50
276.5762096
51
276.7386898
0
ARC
8
DEFAULT_255_2_778
10
13.7889636
20
3.6548344
40
1.7240102
50
270.7406314
51
277.3345912
0
ARC
8
DEFAULT_255_2_778
10
13.8057327
20
2.777945
40
0.8469946
50
256.8022362
51
270.3731115
0
ARC
8
DEFAULT_255_2_778
10
13.7969804
20
2.7274557
40
0.7958462
50
255.5577495
51
256.5858073
0
ARC
8
DEFAULT_255_2_778
10
13.7303578
20
1.8519763
40
0.168427
50
115.1232183
51
141.5285899
0
ARC
8
DEFAULT_255_2_778
10
13.7252661
20
1.8494575
40
0.1686414
50
88.5506049
51
113.1932868
0
ARC
8
DEFAULT_255_2_778
10
13.7294079
20
1.7231584
40
0.2948865
50
88.2932259
51
89.9759535
0
ARC
8
DEFAULT_255_2_778
10
13.7119434
20
1.3711843
40
0.6472622
50
83.776468
51
87.6759186
0
ARC
8
DEFAULT_255_2_778
10
13.8432498
20
2.5478088
40
0.5366708
50
263.4585819
51
269.005497
0
ARC
8
DEFAULT_255_2_778
10
13.8363968
20
2.1832204
40
0.1720192
50
269.1800341
51
284.3370519
0
ARC
8
DEFAULT_255_2_778
10
13.8385103
20
2.383169
40
0.3688386
50
276.3013395
51
286.5103464
0
ARC
8
DEFAULT_255_2_778
10
14.9213359
20
-1.7046202
40
3.8601081
50
104.5875233
51
104.6765664
0
ARC
8
DEFAULT_255_2_778
10
14.0313404
20
1.7584317
40
0.2847463
50
92.6413974
51
106.7800742
0
ARC
8
DEFAULT_255_2_778
10
14.0218041
20
1.9613348
40
0.0816195
50
28.1186953
51
92.5182792
0
ARC
8
DEFAULT_255_2_778
10
13.9355522
20
1.9083318
40
0.1827733
50
15.3643889
51
30.0302547
0
LINE
8
DEFAULT_255_2_778
10
3.3617931
20
1.9567588
11
3.5945931
21
2.0165588
0
LINE
8
DEFAULT_255_2_778
10
3.3617931
20
1.9569588
11
3.3617931
21
1.9567588
0
LINE
8
DEFAULT_255_2_778
10
14.1117931
20
1.9567588
11
14.1117931
21
1.9567588
0
ARC
8
DEFAULT_255_2_778
10
15.7774727
20
4.2123341
40
1.0272232
50
239.6195012
51
247.0581622
0
ARC
8
DEFAULT_255_2_778
10
14.8207703
20
4.1482819
40
0.9311381
50
298.0035937
51
300.2408109
0
ARC
8
DEFAULT_255_2_778
10
13.2171259
20
6.8963761
40
4.1129137
50
300.2599923
51
300.8207472
0
ARC
8
DEFAULT_255_2_778
10
15.5771798
20
3.0072896
40
0.4374534
50
93.2285473
51
125.3001521
0
ARC
8
DEFAULT_255_2_778
10
15.5520687
20
3.1190195
40
0.3250295
50
80.7946574
51
89.916404
0
ARC
8
DEFAULT_255_2_778
10
15.3881091
20
3.5079225
40
0.2264263
50
298.3621179
51
342.5075329
0
ARC
8
DEFAULT_255_2_778
10
15.2742751
20
3.7470731
40
0.4911297
50
282.1047412
51
296.7943513
0
LINE
8
DEFAULT_255_2_778
10
15.3772647
20
3.2668632
11
15.3770647
21
3.2663632
0
ARC
8
DEFAULT_255_2_778
10
14.1659244
20
1.9735476
40
0.0859289
50
90.149023
51
98.4431728
0
ARC
8
DEFAULT_255_2_778
10
14.1714484
20
2.0190082
40
0.0408742
50
359.7725146
51
98.0834186
0
ARC
8
DEFAULT_255_2_778
10
14.1374487
20
2.0204455
40
0.0748908
50
338.456649
51
358.7761311
0
ARC
8
DEFAULT_255_2_778
10
14.1588063
20
2.0018339
40
0.0491124
50
262.3368024
51
349.5728124
0
ARC
8
DEFAULT_255_2_778
10
14.1599314
20
2.2360801
40
0.2830241
50
260.4650349
51
268.4462295
0
LINE
8
DEFAULT_255_2_778
10
14.1130485
20
1.9569659
11
14.1118076
21
1.9571452
0
LINE
8
DEFAULT_255_2_778
10
14.1115076
20
1.9569452
11
13.8787076
21
2.0167452
0
LINE
8
DEFAULT_255_2_778
10
13.8787076
20
2.0167452
11
14.1533076
21
2.0585452
0
LINE
8
DEFAULT_255_2_778
10
14.1118076
20
1.9571452
11
14.1115076
21
1.9569452
0
ARC
8
DEFAULT_255_2_778
10
2.5258501
20
2.6434133
40
0.7451457
50
114.0669961
51
119.19756
0
LINE
8
DEFAULT_255_2_778
10
2.1623512
20
3.2938829
11
2.1613837
21
3.2933604
0
ARC
8
DEFAULT_255_2_778
10
1.7973057
20
3.9455029
40
0.7468886
50
294.1498536
51
299.1737478
0
ARC
8
DEFAULT_255_2_778
10
1.9308097
20
2.7591837
40
0.533319
50
71.177742
51
72.687696
0
ARC
8
DEFAULT_255_2_778
10
1.6253192
20
1.7652496
40
1.5731379
50
72.8378981
51
73.7983283
0
ARC
8
DEFAULT_255_2_778
10
2.0832208
20
3.436109
40
0.1613166
50
199.7977026
51
263.2481144
0
ARC
8
DEFAULT_255_2_778
10
2.149537
20
3.4508334
40
0.2288622
50
189.4434821
51
197.6423801
0
ARC
8
DEFAULT_255_2_778
10
1.9686383
20
3.1284251
40
0.2883689
50
89.99364
51
98.9499566
0
ARC
8
DEFAULT_255_2_778
10
1.9329056
20
2.9273397
40
0.4907593
50
53.883092
51
85.8207933
0
LINE
8
DEFAULT_255_2_778
10
2.2221762
20
3.3237829
11
2.2219762
21
3.3237829
0
ARC
8
DEFAULT_255_2_778
10
15.9877054
20
4.2298003
40
0.6294953
50
225.9179607
51
234.4236741
0
ARC
8
DEFAULT_255_2_778
10
15.5070262
20
4.0657693
40
0.3943988
50
316.7601449
51
335.6262217
0
ARC
8
DEFAULT_255_2_778
10
15.6099742
20
3.9791133
40
0.260143
50
276.8723515
51
315.1308205
0
ARC
8
DEFAULT_255_2_778
10
15.5201451
20
4.438482
40
0.7277648
50
278.0034093
51
279.5671692
0
LINE
8
DEFAULT_255_2_778
10
15.5497732
20
3.7776058
11
15.8662732
21
3.9030058
0
LINE
8
DEFAULT_255_2_778
10
15.6214732
20
3.7178058
11
15.6214732
21
3.7178058
0
ARC
8
DEFAULT_255_2_778
10
3.2596769
20
-0.1650179
40
0.5624256
50
119.9446234
51
146.8670534
0
ARC
8
DEFAULT_255_2_778
10
7.8074605
20
-7.1514093
40
8.8978321
50
122.5179987
51
122.8651151
0
ARC
8
DEFAULT_255_2_778
10
2.1444854
20
1.7324929
40
1.6374897
50
302.4997344
51
304.3824468
0
ARC
8
DEFAULT_255_2_778
10
8.8749669
20
3.5608568
40
0.6018047
50
115.5379934
51
126.2635614
0
ARC
8
DEFAULT_255_2_778
10
8.7534656
20
3.8149648
40
0.3201428
50
98.2397851
51
115.5232871
0
ARC
8
DEFAULT_255_2_778
10
8.7428781
20
3.8702757
40
0.2638978
50
90.0080179
51
97.6858602
0
ARC
8
DEFAULT_255_2_778
10
8.7372164
20
3.8132867
40
0.3209361
50
64.891532
51
88.9957719
0
ARC
8
DEFAULT_255_2_778
10
8.6024927
20
3.5049927
40
0.6573252
50
56.3530815
51
65.6608981
0
LINE
8
DEFAULT_255_2_778
10
14.7499991
20
0.1423947
11
2.7886991
21
0.1423947
0
LINE
8
DEFAULT_255_2_778
10
3.0691991
20
0.3810947
11
8.5189991
21
4.0460947
0
LINE
8
DEFAULT_255_2_778
10
8.9666991
20
4.0521947
11
14.3922991
21
0.3992947
0
LINE
8
DEFAULT_255_2_778
10
14.3922991
20
0.3992947
11
14.7504991
21
0.1426947
0
LINE
8
DEFAULT_255_2_778
10
14.7504991
20
0.1426947
11
14.7499991
21
0.1423947
0
ARC
8
DEFAULT_255_2_778
10
10.4139805
20
0.5854172
40
0.1808654
50
270.0011197
51
274.6946366
0
ARC
8
DEFAULT_255_2_778
10
10.4139238
20
0.5844561
40
0.1799045
50
212.1363407
51
270.0191987
0
ARC
8
DEFAULT_255_2_778
10
9.8651397
20
1.7839011
40
0.4003227
50
207.0143572
51
215.5130081
0
ARC
8
DEFAULT_255_2_778
10
9.5898753
20
1.6459713
40
0.092467
50
182.8754216
51
208.3455678
0
ARC
8
DEFAULT_255_2_778
10
9.5533778
20
1.6389372
40
0.0559044
50
120.6248038
51
177.544031
0
ARC
8
DEFAULT_255_2_778
10
9.6198628
20
1.5580345
40
0.1601922
50
120.8011676
51
126.3566591
0
ARC
8
DEFAULT_255_2_778
10
9.7031615
20
1.4139059
40
0.3266532
50
113.553129
51
120.4059531
0
ARC
8
DEFAULT_255_2_778
10
9.8620143
20
1.0615624
40
0.7131366
50
111.6352341
51
113.9405905
0
ARC
8
DEFAULT_255_2_778
10
8.9183191
20
3.408086
40
1.8160511
50
292.0156427
51
298.7718163
0
ARC
8
DEFAULT_255_2_778
10
9.2796789
20
2.7559437
40
1.0704931
50
298.6189117
51
309.161956
0
ARC
8
DEFAULT_255_2_778
10
9.5650365
20
2.4114569
40
0.6231942
50
308.8210858
51
328.1621516
0
ARC
8
DEFAULT_255_2_778
10
9.6831756
20
2.3309382
40
0.4803933
50
328.8877809
51
0.6370594
0
ARC
8
DEFAULT_255_2_778
10
9.4860445
20
2.3313784
40
0.6775124
50
0.4144759
51
13.3470743
0
ARC
8
DEFAULT_255_2_778
10
9.1518995
20
2.2544934
40
1.0203834
50
13.2163092
51
21.6176128
0
ARC
8
DEFAULT_255_2_778
10
8.6787621
20
2.0693748
40
1.5284429
50
21.5347393
51
27.3675852
0
ARC
8
DEFAULT_255_2_778
10
8.1752743
20
1.8140364
40
2.0929617
50
27.2391315
51
30.0518974
0
ARC
8
DEFAULT_255_2_778
10
9.7731475
20
2.7323145
40
0.2500851
50
31.2785673
51
37.1343548
0
ARC
8
DEFAULT_255_2_778
10
8.5426307
20
1.797322
40
1.7955242
50
37.2157522
51
38.2185526
0
ARC
8
DEFAULT_255_2_778
10
10.1044431
20
3.0423786
40
0.2021478
50
187.6621742
51
221.6080579
0
ARC
8
DEFAULT_255_2_778
10
10.0828132
20
3.0330353
40
0.1795784
50
179.9496913
51
185.627454
0
ARC
8
DEFAULT_255_2_778
10
10.1308349
20
3.0315772
40
0.227606
50
166.9715939
51
179.593265
0
ARC
8
DEFAULT_255_2_778
10
10.2153637
20
3.0140132
40
0.3139243
50
162.7970489
51
167.3263597
0
ARC
8
DEFAULT_255_2_778
10
11.9242223
20
0.9575935
40
1.4337945
50
118.4814138
51
129.7166014
0
ARC
8
DEFAULT_255_2_778
10
11.7488814
20
1.1670989
40
1.1605994
50
129.6670976
51
144.0474459
0
ARC
8
DEFAULT_255_2_778
10
11.5796467
20
1.2874339
40
0.9529547
50
143.930286
51
166.9663209
0
ARC
8
DEFAULT_255_2_778
10
11.5165906
20
1.3062114
40
0.8872977
50
167.2293311
51
180.0041211
0
ARC
8
DEFAULT_255_2_778
10
11.5318658
20
1.3064375
40
0.9025729
50
180.0184085
51
188.1141647
0
ARC
8
DEFAULT_255_2_778
10
11.6079002
20
1.3203592
40
0.9798159
50
188.292534
51
205.5874003
0
ARC
8
DEFAULT_255_2_778
10
11.7733621
20
1.3983436
40
1.1627317
50
205.5319824
51
217.7572245
0
ARC
8
DEFAULT_255_2_778
10
11.9617657
20
1.5433065
40
1.4004495
50
217.726409
51
227.5806237
0
ARC
8
DEFAULT_255_2_778
10
12.1287141
20
1.7220848
40
1.6450457
50
227.4883034
51
233.2865284
0
LINE
8
DEFAULT_255_2_778
10
11.1449835
20
0.4051585
11
10.4287835
21
0.4051585
0
LINE
8
DEFAULT_255_2_778
10
10.2615835
20
0.4887585
11
9.5392835
21
1.5513585
0
LINE
8
DEFAULT_255_2_778
10
9.9154835
20
3.1068585
11
11.2404835
21
2.2178585
0
LINE
8
DEFAULT_255_2_778
10
11.1452835
20
0.4033585
11
11.1449835
21
0.4051585
0
ARC
8
DEFAULT_255_2_778
10
8.4169544
20
0.5614848
40
0.2514817
50
336.9603268
51
3.1445954
0
ARC
8
DEFAULT_255_2_778
10
8.5525891
20
0.5148898
40
0.1089095
50
263.8267997
51
331.583837
0
ARC
8
DEFAULT_255_2_778
10
8.5382104
20
0.6570957
40
0.2504981
50
270.0023845
51
270.6100845
0
ARC
8
DEFAULT_255_2_778
10
8.5391368
20
0.7081801
40
0.301584
50
264.3141207
51
269.825981
0
ARC
8
DEFAULT_255_2_778
10
6.6254134
20
34.0455097
40
33.6884814
50
272.9803174
51
273.1546944
0
ARC
8
DEFAULT_255_2_778
10
7.7565829
20
12.3484769
40
11.961982
50
272.6351465
51
272.972903
0
ARC
8
DEFAULT_255_2_778
10
8.0229311
20
6.5083686
40
6.1158041
50
271.8662107
51
272.657977
0
ARC
8
DEFAULT_255_2_778
10
8.1129976
20
3.7273091
40
3.3332867
50
270.6183286
51
271.8756411
0
ARC
8
DEFAULT_255_2_778
10
8.1260062
20
2.7226938
40
2.3285906
50
270.0085121
51
270.5650234
0
ARC
8
DEFAULT_255_2_778
10
8.1183086
20
1.7115237
40
1.317445
50
265.5032645
51
270.3498174
0
ARC
8
DEFAULT_255_2_778
10
8.0521669
20
0.9090923
40
0.5123069
50
255.5977508
51
265.8416436
0
ARC
8
DEFAULT_255_2_778
10
7.9679948
20
0.5976902
40
0.1897988
50
229.3467439
51
256.8272456
0
ARC
8
DEFAULT_255_2_778
10
7.9509368
20
0.5630788
40
0.1527298
50
184.452576
51
225.7402441
0
ARC
8
DEFAULT_255_2_778
10
8.1329884
20
0.5933443
40
0.3369637
50
179.7019642
51
187.1811088
0
ARC
8
DEFAULT_255_2_778
10
8.4350073
20
0.5895384
40
0.6390021
50
172.3931633
51
179.5015781
0
ARC
8
DEFAULT_255_2_778
10
9.152423
20
0.4985777
40
1.3621537
50
168.9738596
51
172.5953765
0
ARC
8
DEFAULT_255_2_778
10
10.6890838
20
0.2021064
40
2.9271514
50
166.9683564
51
169.0305931
0
ARC
8
DEFAULT_255_2_778
10
14.7225437
20
-0.7252306
40
7.0658392
50
166.0665362
51
167.0173938
0
ARC
8
DEFAULT_255_2_778
10
33.4681338
20
-5.365235
40
26.377151
50
165.7976833
51
166.0890539
0
LINE
8
DEFAULT_255_2_778
10
7.8971891
20
1.1063088
11
7.8972575
21
1.1065801
0
ARC
8
DEFAULT_255_2_778
10
7.8489856
20
3.744246
40
0.6796312
50
347.3646748
51
350.157394
0
ARC
8
DEFAULT_255_2_778
10
9.2985438
20
3.4946726
40
0.7912559
50
167.2853082
51
170.2943047
0
ARC
8
DEFAULT_255_2_778
10
8.7106911
20
3.6348627
40
0.1871083
50
127.7326656
51
169.5421455
0
ARC
8
DEFAULT_255_2_778
10
8.7622789
20
3.5585384
40
0.2791044
50
109.0985775
51
126.5194944
0
LINE
8
DEFAULT_255_2_778
10
8.6680575
20
3.8222801
11
8.6680575
21
0.5752801
0
LINE
8
DEFAULT_255_2_778
10
8.5092575
20
0.4080801
11
8.4793575
21
0.4080801
0
LINE
8
DEFAULT_255_2_778
10
7.8972575
20
1.1065801
11
8.5121575
21
3.5955801
0
LINE
8
DEFAULT_255_2_778
10
8.6709575
20
3.8222801
11
8.6680575
21
3.8222801
0
ARC
8
DEFAULT_255_2_778
10
4.4027633
20
38.2658288
40
37.9607256
50
274.1215264
51
274.280088
0
ARC
8
DEFAULT_255_2_778
10
6.3656282
20
11.0371463
40
10.6613852
50
273.6984183
51
274.1172072
0
ARC
8
DEFAULT_255_2_778
10
6.7320981
20
5.3205427
40
4.9330488
50
272.6625554
51
273.7337438
0
ARC
8
DEFAULT_255_2_778
10
6.8427747
20
2.926314
40
2.5362637
50
270.8951636
51
272.6775446
0
ARC
8
DEFAULT_255_2_778
10
6.8577594
20
2.1243947
40
1.7342099
50
270.0125614
51
270.8140685
0
ARC
8
DEFAULT_255_2_778
10
6.8486818
20
1.3406554
40
0.9505177
50
262.9860423
51
270.5701087
0
ARC
8
DEFAULT_255_2_778
10
6.7732975
20
0.7671778
40
0.3721571
50
243.7370808
51
263.7238464
0
ARC
8
DEFAULT_255_2_778
10
6.7487082
20
0.691831
40
0.2939246
50
208.9226247
51
241.5358805
0
ARC
8
DEFAULT_255_2_778
10
7.1171711
20
0.9149759
40
0.7245517
50
201.0864558
51
210.2760673
0
ARC
8
DEFAULT_255_2_778
10
7.7197166
20
1.1624981
40
1.3758753
50
199.7921104
51
201.6763956
0
ARC
8
DEFAULT_255_2_778
10
8.4734515
20
1.4316292
40
2.1762161
50
197.6883351
51
199.7397667
0
ARC
8
DEFAULT_255_2_778
10
9.9915268
20
1.9194377
40
3.7707389
50
196.7545379
51
197.7414542
0
ARC
8
DEFAULT_255_2_778
10
13.3156032
20
2.918216
40
7.2416236
50
195.992973
51
196.7398235
0
ARC
8
DEFAULT_255_2_778
10
26.5935054
20
6.729492
40
21.0556926
50
195.7314895
51
196.0077813
0
ARC
8
DEFAULT_255_2_778
10
124.9437583
20
34.4982922
40
123.2509851
50
195.7439233
51
195.7607794
0
ARC
8
DEFAULT_255_2_778
10
6.6432685
20
2.0531036
40
0.5974025
50
192.6979045
51
200.5428184
0
ARC
8
DEFAULT_255_2_778
10
6.3710752
20
1.9922998
40
0.3185015
50
180.5632688
51
192.7904199
0
ARC
8
DEFAULT_255_2_778
10
6.2684971
20
1.9880445
40
0.215911
50
128.3245576
51
179.7016765
0
ARC
8
DEFAULT_255_2_778
10
6.4473144
20
1.8111094
40
0.466608
50
128.2855331
51
132.0802445
0
ARC
8
DEFAULT_255_2_778
10
6.576932
20
1.6450448
40
0.6772671
50
123.669968
51
128.1883076
0
ARC
8
DEFAULT_255_2_778
10
6.7029224
20
1.4606487
40
0.9005837
50
123.2411572
51
123.8369149
0
ARC
8
DEFAULT_255_2_778
10
21.3020114
20
-21.1072755
40
27.7788978
50
122.6483045
51
122.909751
0
ARC
8
DEFAULT_255_2_778
10
8.5193808
20
-1.1475871
40
4.0769014
50
121.1690032
51
122.7174729
0
ARC
8
DEFAULT_255_2_778
10
7.0739597
20
1.2488937
40
1.2782729
50
117.1850345
51
121.3288507
0
ARC
8
DEFAULT_255_2_778
10
6.6896926
20
2.0042154
40
0.4308411
50
107.5181945
51
117.6187206
0
ARC
8
DEFAULT_255_2_778
10
6.6101727
20
2.2562802
40
0.1665306
50
91.0774302
51
107.5325967
0
ARC
8
DEFAULT_255_2_778
10
6.6067631
20
2.322266
40
0.1005157
50
33.8004289
51
89.8413949
0
ARC
8
DEFAULT_255_2_778
10
6.4614696
20
2.2063581
40
0.2861511
50
25.3286328
51
36.9035181
0
ARC
8
DEFAULT_255_2_778
10
6.2107403
20
2.0800093
40
0.5668732
50
22.8317261
51
26.0299316
0
ARC
8
DEFAULT_255_2_778
10
5.7945837
20
1.9070273
40
1.0175468
50
19.2917309
51
22.7162396
0
ARC
8
DEFAULT_255_2_778
10
4.8676851
20
1.5781814
40
2.0010467
50
17.8956375
51
19.410664
0
ARC
8
DEFAULT_255_2_778
10
2.6917161
20
0.8769742
40
4.2872076
50
16.8148642
51
17.8774682
0
ARC
8
DEFAULT_255_2_778
10
-7.2194195
20
-2.1257253
40
14.6432105
50
16.4987251
51
16.8431252
0
ARC
8
DEFAULT_255_2_778
10
-234.1183285
20
-69.5246457
40
251.3407546
50
16.5338315
51
16.5411052
0
LINE
8
DEFAULT_255_2_778
10
7.2834546
20
0.4289707
11
7.2358546
21
0.4109707
0
LINE
8
DEFAULT_255_2_778
10
6.3166546
20
1.0555707
11
6.0838546
21
1.8434707
0
LINE
8
DEFAULT_255_2_778
10
6.8299546
20
2.0022707
11
7.2834546
21
0.4263707
0
LINE
8
DEFAULT_255_2_778
10
7.2834546
20
0.4263707
11
7.2834546
21
0.4289707
0
ARC
8
DEFAULT_255_2_778
10
10.9971363
20
1.4976361
40
1.3392937
50
305.338643
51
319.1472888
0
ARC
8
DEFAULT_255_2_778
10
11.2554778
20
1.2672794
40
0.9932197
50
319.450422
51
1.1669377
0
ARC
8
DEFAULT_255_2_778
10
10.901573
20
1.2936919
40
1.3469328
50
359.7368999
51
359.9983058
0
ARC
8
DEFAULT_255_2_778
10
10.7726135
20
1.2911897
40
1.4758944
50
0.0955918
51
5.7301717
0
ARC
8
DEFAULT_255_2_778
10
10.463187
20
1.2613726
40
1.7867523
50
5.6908505
51
9.5272649
0
ARC
8
DEFAULT_255_2_778
10
13.7961647
20
0.4625035
40
0.0707112
50
334.6783113
51
357.2495415
0
ARC
8
DEFAULT_255_2_778
10
13.4792934
20
0.5936347
40
0.4135717
50
335.6370125
51
337.0332614
0
ARC
8
DEFAULT_255_2_778
10
14.0411506
20
0.3366432
40
0.2042788
50
154.9830983
51
160.3280714
0
ARC
8
DEFAULT_255_2_778
10
5.0474482
20
0.5190772
40
0.1287916
50
312.0000525
51
349.0488343
0
ARC
8
DEFAULT_255_2_778
10
5.0494227
20
0.5436089
40
0.1467943
50
265.0149285
51
305.0029778
0
ARC
8
DEFAULT_255_2_778
10
5.0432381
20
1.3585279
40
0.9611805
50
267.3958061
51
269.6082832
0
ARC
8
DEFAULT_255_2_778
10
4.7124086
20
-6.9695143
40
7.3734481
50
87.768065
51
87.8059781
0
ARC
8
DEFAULT_255_2_778
10
4.9579517
20
-0.4522411
40
0.8515626
50
87.5273386
51
89.7078071
0
ARC
8
DEFAULT_255_2_778
10
3.3456275
20
0.3352063
40
0.2859451
50
12.9548354
51
13.482869
0
ARC
8
DEFAULT_255_2_778
10
3.5216901
20
0.3818118
40
0.1039563
50
11.1281083
51
31.9376066
0
ARC
8
DEFAULT_255_2_778
10
3.4536954
20
0.3326533
40
0.1877509
50
33.6920652
51
39.8699143
0
LINE
8
DEFAULT_255_2_778
10
13.8487944
20
0.4051103
11
11.7717944
21
0.4051103
0
LINE
8
DEFAULT_255_2_778
10
12.2252944
20
1.5571103
11
13.8667944
21
0.4591103
0
LINE
8
DEFAULT_255_2_778
10
13.8487944
20
0.4054103
11
13.8487944
21
0.4051103
0
LINE
8
DEFAULT_255_2_778
10
3.5977944
20
0.4528103
11
5.5080944
21
1.7360103
0
LINE
8
DEFAULT_255_2_778
10
5.5080944
20
1.7360103
11
5.1738944
21
0.4946103
0
LINE
8
DEFAULT_255_2_778
10
4.9622944
20
0.3993103
11
3.6242944
21
0.3993103
0
LINE
8
DEFAULT_255_2_778
10
3.5977944
20
0.4530103
11
3.5977944
21
0.4528103
0
ARC
8
DEFAULT_255_2_778
10
7.4498015
20
1.4628236
40
0.1742251
50
273.4130055
51
291.5772168
0
ARC
8
DEFAULT_255_2_778
10
7.1595625
20
2.7208704
40
0.1093875
50
180.3323243
51
195.7339494
0
ARC
8
DEFAULT_255_2_778
10
7.1880265
20
2.704915
40
0.1386984
50
116.7152745
51
173.6580671
0
LINE
8
DEFAULT_255_2_778
10
8.0414736
20
3.4373077
11
7.5138736
21
1.3008077
0
LINE
8
DEFAULT_255_2_778
10
7.4601736
20
1.2889077
11
7.0542736
21
2.6912077
0
LINE
8
DEFAULT_255_2_778
10
7.1256736
20
2.8288077
11
8.0390736
21
3.4373077
0
LINE
8
DEFAULT_255_2_778
10
8.0390736
20
3.4373077
11
8.0414736
21
3.4373077
0
ARC
8
DEFAULT_255_2_778
10
11.2043447
20
1.2876265
40
0.6389354
50
332.0999305
51
0.6063605
0
ARC
8
DEFAULT_255_2_778
10
11.4011896
20
1.1727906
40
0.4113424
50
287.7344364
51
333.4063271
0
ARC
8
DEFAULT_255_2_778
10
11.4399509
20
1.0891327
40
0.3200577
50
269.9922216
51
285.686644
0
ARC
8
DEFAULT_255_2_778
10
11.4399181
20
1.0926756
40
0.3236008
50
268.481778
51
269.9981204
0
ARC
8
DEFAULT_255_2_778
10
11.4601633
20
1.1476337
40
0.3795412
50
213.4402464
51
265.6452739
0
ARC
8
DEFAULT_255_2_778
10
11.6220097
20
1.279398
40
0.5875735
50
179.6986586
51
215.46541
0
ARC
8
DEFAULT_255_2_778
10
11.6355546
20
1.2955548
40
0.6012523
50
179.9991948
51
181.245265
0
ARC
8
DEFAULT_255_2_778
10
11.6495613
20
1.2957874
40
0.615259
50
141.938761
51
180.0208748
0
ARC
8
DEFAULT_255_2_778
10
11.4677708
20
1.4534344
40
0.3751295
50
98.4295756
51
143.7794292
0
ARC
8
DEFAULT_255_2_778
10
11.439171
20
1.5552294
40
0.270572
50
91.6575984
51
95.5975839
0
ARC
8
DEFAULT_255_2_778
10
11.4150688
20
1.4417433
40
0.3842897
50
29.6826253
51
87.5726618
0
ARC
8
DEFAULT_255_2_778
10
11.2173785
20
1.3018296
40
0.6257713
50
0.4833928
51
31.8493845
0
ARC
8
DEFAULT_255_2_778
10
11.1523384
20
1.2944054
40
0.6909059
50
359.9985778
51
1.0535529
0
ARC
8
DEFAULT_255_2_778
10
3.0138387
20
-3.2093351
40
8.8890709
50
45.4260182
51
47.0204976
0
ARC
8
DEFAULT_255_2_778
10
6.1560449
20
-0.0054456
40
4.4015154
50
43.8973042
51
45.2925875
0
ARC
8
DEFAULT_255_2_778
10
7.7709301
20
1.5072184
40
2.1892243
50
33.2509996
51
44.6748512
0
ARC
8
DEFAULT_255_2_778
10
8.4394081
20
1.9633574
40
1.3801679
50
22.0811041
51
32.6313282
0
ARC
8
DEFAULT_255_2_778
10
9.3380347
20
2.3276563
40
0.4105064
50
8.4129865
51
22.1134758
0
ARC
8
DEFAULT_255_2_778
10
9.4891463
20
2.3531771
40
0.2573061
50
0.1518315
51
7.7143303
0
ARC
8
DEFAULT_255_2_778
10
9.5638277
20
2.3512494
40
0.1826426
50
299.5437102
51
0.8186767
0
ARC
8
DEFAULT_255_2_778
10
9.4733584
20
2.4745683
40
0.3350153
50
295.3405826
51
302.6064094
0
ARC
8
DEFAULT_255_2_778
10
9.1851717
20
3.006414
40
0.9396037
50
273.3532485
51
297.3428164
0
ARC
8
DEFAULT_255_2_778
10
9.2384324
20
2.538411
40
0.4699949
50
253.3216259
51
270.2070455
0
ARC
8
DEFAULT_255_2_778
10
9.1216321
20
2.1170368
40
0.03405
50
190.83573
51
237.9127212
0
ARC
8
DEFAULT_255_2_778
10
9.2966088
20
2.1760238
40
0.2184362
50
186.209926
51
197.4183781
0
ARC
8
DEFAULT_255_2_778
10
9.3946961
20
2.1914869
40
0.3176565
50
180.3063936
51
187.0689077
0
LINE
8
DEFAULT_255_2_778
10
11.8432443
20
1.2943883
11
11.8432443
21
1.2943883
0
LINE
8
DEFAULT_255_2_778
10
9.0770443
20
2.1897883
11
9.0709443
21
3.2938883
0
LINE
8
DEFAULT_255_2_778
10
9.0709443
20
3.2938883
11
9.0738443
21
3.2938883
0
ARC
8
DEFAULT_255_2_778
10
9.1812451
20
0.6523681
40
0.2532868
50
266.6086345
51
270.0659239
0
ARC
8
DEFAULT_255_2_778
10
9.154958
20
0.4737578
40
0.0750886
50
182.4243817
51
278.6581512
0
ARC
8
DEFAULT_255_2_778
10
9.1151277
20
1.3066585
40
0.1124703
50
94.2531604
51
108.2336736
0
ARC
8
DEFAULT_255_2_778
10
9.129142
20
1.1047725
40
0.3148412
50
89.1820467
51
94.0717481
0
LINE
8
DEFAULT_255_2_778
10
9.1336365
20
1.4198815
11
9.8260365
21
0.3990815
0
LINE
8
DEFAULT_255_2_778
10
9.8260365
20
0.3990815
11
9.1815365
21
0.3990815
0
LINE
8
DEFAULT_255_2_778
10
9.0799365
20
0.4705815
11
9.0799365
21
1.4134815
0
LINE
8
DEFAULT_255_2_778
10
9.1336365
20
1.4195815
11
9.1336365
21
1.4198815
0
ARC
8
DEFAULT_255_2_778
10
5.8233774
20
0.079198
40
0.4256549
50
89.9873009
51
120.2943107
0
LINE
8
DEFAULT_255_2_778
10
5.8234718
20
0.5048529
11
5.8238258
21
0.5048527
0
ARC
8
DEFAULT_255_2_778
10
5.8235314
20
0.0787927
40
0.4260601
50
59.7204433
51
89.9604009
0
ARC
8
DEFAULT_255_2_778
10
5.8235177
20
0.9985122
40
0.5921342
50
269.9991806
51
291.2738381
0
ARC
8
DEFAULT_255_2_778
10
5.823501
20
0.9985092
40
0.5921313
50
248.7260372
51
270.0007991
0
LINE
8
DEFAULT_255_2_778
10
5.6086593
20
0.4467279
11
5.6086593
21
0.4467279
0
ARC
8
DEFAULT_255_2_778
10
6.4019691
20
1.4828955
40
0.6547914
50
207.4385753
51
212.572892
0
ARC
8
DEFAULT_255_2_778
10
3.5798605
20
-0.2787701
40
2.6720779
50
31.4260248
51
31.8271808
0
ARC
8
DEFAULT_255_2_778
10
5.6857085
20
0.9877353
40
0.2154679
50
4.9560556
51
36.0196835
0
ARC
8
DEFAULT_255_2_778
10
5.7816906
20
1.0074603
40
0.1186854
50
328.0337785
51
359.4640014
0
ARC
8
DEFAULT_255_2_778
10
5.727764
20
1.0372159
40
0.1802181
50
321.313588
51
329.0850006
0
ARC
8
DEFAULT_255_2_778
10
5.8361034
20
0.9604024
40
0.0482655
50
269.8749559
51
312.0622054
0
ARC
8
DEFAULT_255_2_778
10
5.817346
20
1.0744287
40
0.1633599
50
269.887678
51
276.5562104
0
ARC
8
DEFAULT_255_2_778
10
5.8170273
20
1.0902376
40
0.1791683
50
268.9171036
51
269.9995188
0
ARC
8
DEFAULT_255_2_778
10
5.8098505
20
1.0110315
40
0.100002
50
242.5743381
51
272.1723489
0
ARC
8
DEFAULT_255_2_778
10
5.7761637
20
0.9398655
40
0.0215117
50
225.3216109
51
234.885465
0
ARC
8
DEFAULT_255_2_778
10
5.8561766
20
1.0041948
40
0.1240626
50
194.273078
51
219.9274492
0
ARC
8
DEFAULT_255_2_778
10
5.8348235
20
0.9969304
40
0.1015933
50
179.9321667
51
193.2716082
0
ARC
8
DEFAULT_255_2_778
10
5.8751767
20
0.9935701
40
0.141989
50
155.3148137
51
178.59539
0
ARC
8
DEFAULT_255_2_778
10
6.2780108
20
0.8011654
40
0.5884018
50
145.7615341
51
154.6735256
0
ARC
8
DEFAULT_255_2_778
10
5.1397896
20
1.5550923
40
0.7769464
50
327.0251359
51
331.2314472
0
LINE
8
DEFAULT_255_2_778
10
5.8208383
20
1.1811693
11
5.8208383
21
1.1811693
0
ENDSEC
0
EOF