0
SECTION
2
HEADER
9
$MEASUREMENT
70
1
0
ENDSEC
0
SECTION
2
TABLES
0
TABLE
2
LTYPE
0
LTYPE
72
65
70
64
2
CONTINUOUS
3
______
73
0
40
0
0
ENDTAB
0
TABLE
2
LAYER
0
LAYER
2
DEFAULT_255_2_778
70
0
62
255
6
CONTINUOUS
0
ENDTAB
0
ENDSEC
0
SECTION
2
ENTITIES
0
ARC
8
DEFAULT_255_2_778
10
12.6277402
20
3.4347629
40
4.2409794
50
1.1386518
51
1.5967804
0
ARC
8
DEFAULT_255_2_778
10
12.6309009
20
3.4348471
40
4.2378175
50
359.9998101
51
1.1383621
0
ARC
8
DEFAULT_255_2_778
10
12.6185287
20
3.4350698
40
4.2501897
50
352.45011
51
359.9968091
0
ARC
8
DEFAULT_255_2_778
10
15.9223382
20
3.0271488
40
0.9219035
50
331.0666769
51
350.6038888
0
ARC
8
DEFAULT_255_2_778
10
15.9915701
20
3.0100995
40
0.8532667
50
298.1612099
51
329.8194579
0
ARC
8
DEFAULT_255_2_778
10
15.9229678
20
3.1786501
40
1.0344177
50
269.9959201
51
297.1050535
0
ARC
8
DEFAULT_255_2_778
10
15.922894
20
3.1790463
40
1.0348139
50
268.603407
51
270.0000092
0
ARC
8
DEFAULT_255_2_778
10
15.8842398
20
3.6645397
40
1.5200593
50
260.3377076
51
270.506338
0
ARC
8
DEFAULT_255_2_778
10
15.7560682
20
2.9510356
40
0.7951919
50
240.854388
51
260.8131401
0
ARC
8
DEFAULT_255_2_778
10
15.6432525
20
2.7348454
40
0.5514714
50
217.0939626
51
240.1520565
0
ARC
8
DEFAULT_255_2_778
10
15.8229841
20
2.8529777
40
0.7662133
50
200.228044
51
216.0341182
0
ARC
8
DEFAULT_255_2_778
10
16.4848637
20
3.1074495
40
1.4752898
50
190.9272225
51
200.6135838
0
ARC
8
DEFAULT_255_2_778
10
17.4660055
20
3.3038813
40
2.475888
50
184.2611871
51
191.0865089
0
ARC
8
DEFAULT_255_2_778
10
18.6069219
20
3.3967061
40
3.620556
50
179.8886907
51
184.3845348
0
ARC
8
DEFAULT_255_2_778
10
19.2746168
20
3.4263669
40
5.1317595
50
179.8596241
51
184.5998031
0
ARC
8
DEFAULT_255_2_778
10
17.6386663
20
3.2909109
40
3.4902173
50
184.5370309
51
191.1309636
0
ARC
8
DEFAULT_255_2_778
10
16.4851745
20
3.0603184
40
2.3139107
50
191.0425533
51
200.4213361
0
ARC
8
DEFAULT_255_2_778
10
15.7485489
20
2.7812033
40
1.5261982
50
200.2505526
51
215.243861
0
ARC
8
DEFAULT_255_2_778
10
15.5124526
20
2.6266282
40
1.244219
50
215.7043251
51
219.2597744
0
ARC
8
DEFAULT_255_2_778
10
15.5226598
20
2.647709
40
1.2655015
50
219.7063279
51
246.9084694
0
ARC
8
DEFAULT_255_2_778
10
15.7331178
20
3.1173075
40
1.7800424
50
246.6052936
51
260.2364876
0
ARC
8
DEFAULT_255_2_778
10
15.8651369
20
3.8547761
40
2.5292225
50
260.1221856
51
269.6993258
0
ARC
8
DEFAULT_255_2_778
10
15.8819297
20
4.3669974
40
3.0415576
50
269.4336283
51
270.0008106
0
ARC
8
DEFAULT_255_2_778
10
15.9259503
20
3.1497181
40
1.8248083
50
268.61905
51
270.0001508
0
ARC
8
DEFAULT_255_2_778
10
15.9258014
20
3.1520559
40
1.8271462
50
270.0048197
51
292.3559167
0
ARC
8
DEFAULT_255_2_778
10
16.0650569
20
2.6984172
40
1.355343
50
294.2060026
51
306.2808506
0
ARC
8
DEFAULT_255_2_778
10
7.0818841
20
3.4181632
40
1.2774234
50
303.3780636
51
332.1619569
0
ARC
8
DEFAULT_255_2_778
10
7.1263086
20
3.3678074
40
1.2109692
50
269.9986452
51
302.9336241
0
ARC
8
DEFAULT_255_2_778
10
7.1262875
20
3.3698868
40
1.2130487
50
268.9554009
51
269.9996476
0
ARC
8
DEFAULT_255_2_778
10
7.054559
20
3.4096188
40
1.2535612
50
270.0009452
51
272.26826
0
ARC
8
DEFAULT_255_2_778
10
7.0552877
20
3.3944024
40
1.2383452
50
195.6022501
51
269.9672392
0
ARC
8
DEFAULT_255_2_778
10
7.06472
20
3.3957044
40
1.2477807
50
189.3939323
51
195.5433419
0
ARC
8
DEFAULT_255_2_778
10
6.2780312
20
3.4167462
40
2.9952698
50
359.7512021
51
10.7560951
0
ARC
8
DEFAULT_255_2_778
10
6.9477815
20
3.5489595
40
2.3126171
50
10.6347982
51
29.0240999
0
ARC
8
DEFAULT_255_2_778
10
7.1165688
20
3.630616
40
2.1254349
50
29.3068837
51
42.6208034
0
ARC
8
DEFAULT_255_2_778
10
7.2222605
20
3.7417465
40
1.9724367
50
42.3243054
51
84.0344255
0
ARC
8
DEFAULT_255_2_778
10
7.1412828
20
3.2544858
40
2.465656
50
83.3396589
51
90.074594
0
ARC
8
DEFAULT_255_2_778
10
7.124794
20
3.2659651
40
2.4542106
50
89.6899932
51
104.7731188
0
ARC
8
DEFAULT_255_2_778
10
7.0259626
20
3.6489413
40
2.0586943
50
104.8313316
51
135.3186414
0
ARC
8
DEFAULT_255_2_778
10
7.039764
20
3.619262
40
2.0894079
50
135.006079
51
174.5801797
0
ARC
8
DEFAULT_255_2_778
10
7.6132665
20
3.5291359
40
2.6690959
50
173.8169348
51
180.0729029
0
ARC
8
DEFAULT_255_2_778
10
7.1093132
20
3.4916089
40
2.1654095
50
179.0968744
51
179.999976
0
ARC
8
DEFAULT_255_2_778
10
7.1055042
20
3.4915665
40
2.1616005
50
179.9988535
51
224.8818331
0
ARC
8
DEFAULT_255_2_778
10
7.0848656
20
3.3988079
40
2.0821506
50
223.4738409
51
270.0022062
0
ARC
8
DEFAULT_255_2_778
10
7.084931
20
3.4048928
40
2.0882354
50
270.0004079
51
270.9422929
0
ARC
8
DEFAULT_255_2_778
10
7.1419148
20
3.3707907
40
2.0539757
50
269.368387
51
269.999864
0
ARC
8
DEFAULT_255_2_778
10
7.1419857
20
3.3669357
40
2.0501208
50
269.9978801
51
305.5403726
0
ARC
8
DEFAULT_255_2_778
10
6.9112215
20
3.6222113
40
2.3923023
50
306.4837743
51
338.7240367
0
ARC
8
DEFAULT_255_2_778
10
7.0296214
20
3.7249876
40
1.1802088
50
90.0036272
51
131.8847905
0
ARC
8
DEFAULT_255_2_778
10
7.0295403
20
3.7240208
40
1.1811754
50
88.4071764
51
89.9996906
0
ARC
8
DEFAULT_255_2_778
10
7.075653
20
3.2294116
40
1.6753808
50
78.1635894
51
90.4541716
0
ARC
8
DEFAULT_255_2_778
10
7.2008553
20
3.7910577
40
1.1000201
50
49.3414783
51
78.5457157
0
ARC
8
DEFAULT_255_2_778
10
6.9665119
20
3.5984319
40
1.3998097
50
15.658282
51
47.2015464
0
ARC
8
DEFAULT_255_2_778
10
7.0834572
20
3.6730626
40
1.2572853
50
132.2763154
51
166.0463827
0
LINE
8
DEFAULT_255_2_778
10
14.9863728
20
3.4037398
11
14.9863728
21
5.6204398
0
LINE
8
DEFAULT_255_2_778
10
14.9863728
20
5.6204398
11
14.1428728
21
5.6204398
0
LINE
8
DEFAULT_255_2_778
10
14.1428728
20
5.6204398
11
14.1428728
21
3.4389398
0
LINE
8
DEFAULT_255_2_778
10
16.8670728
20
1.6058398
11
16.8670728
21
1.4317398
0
LINE
8
DEFAULT_255_2_778
10
16.8670728
20
1.4317398
11
17.7137728
21
1.4317398
0
LINE
8
DEFAULT_255_2_778
10
17.7137728
20
1.4317398
11
17.7137728
21
5.6174398
0
LINE
8
DEFAULT_255_2_778
10
17.7137728
20
5.6174398
11
16.8670728
21
5.6174398
0
LINE
8
DEFAULT_255_2_778
10
16.8670728
20
5.6174398
11
16.8670728
21
3.5529398
0
LINE
8
DEFAULT_255_2_778
10
5.8336728
20
3.1920398
11
9.2732728
21
3.1920398
0
LINE
8
DEFAULT_255_2_778
10
9.2732728
20
3.1920398
11
9.2732728
21
3.4037398
0
LINE
8
DEFAULT_255_2_778
10
9.1404728
20
2.7541398
11
9.1681728
21
2.8213398
0
LINE
8
DEFAULT_255_2_778
10
9.1681728
20
2.8213398
11
8.2114728
21
2.8216398
0
LINE
8
DEFAULT_255_2_778
10
8.3143728
20
3.9762398
11
5.8632728
21
3.9762398
0
ARC
8
DEFAULT_255_2_778
10
20.1113462
20
3.4272123
40
1.2953816
50
303.8617824
51
332.1342007
0
ARC
8
DEFAULT_255_2_778
10
20.1728193
20
3.3740657
40
1.2171857
50
269.9668912
51
302.8528068
0
ARC
8
DEFAULT_255_2_778
10
20.1721225
20
3.3835364
40
1.2266563
50
269.0517219
51
269.9996963
0
ARC
8
DEFAULT_255_2_778
10
20.1023898
20
3.4101474
40
1.2540739
50
270.0013628
51
272.2590074
0
ARC
8
DEFAULT_255_2_778
10
20.1031002
20
3.3946002
40
1.2385269
50
195.6048469
51
269.9685166
0
ARC
8
DEFAULT_255_2_778
10
20.1123957
20
3.3958189
40
1.2478082
50
189.3940103
51
195.5439294
0
ARC
8
DEFAULT_255_2_778
10
19.3251494
20
3.4167671
40
2.9958004
50
359.751007
51
10.755143
0
ARC
8
DEFAULT_255_2_778
10
19.9957669
20
3.5491496
40
2.3122644
50
10.6334372
51
29.0255351
0
ARC
8
DEFAULT_255_2_778
10
20.1650771
20
3.6310891
40
2.1244879
50
29.3087409
51
42.6272773
0
ARC
8
DEFAULT_255_2_778
10
20.2365868
20
3.7060307
40
2.0211314
50
42.4370071
51
90.0002346
0
ARC
8
DEFAULT_255_2_778
10
20.236595
20
3.7013209
40
2.0258412
50
90.0004639
51
91.4106857
0
ARC
8
DEFAULT_255_2_778
10
20.1730637
20
3.2770517
40
2.4495345
50
89.6805355
51
105.1100251
0
ARC
8
DEFAULT_255_2_778
10
20.0722224
20
3.6595638
40
2.0539617
50
105.1757415
51
135.353405
0
ARC
8
DEFAULT_255_2_778
10
20.1014343
20
3.620063
40
2.1025167
50
135.1469782
51
174.6681213
0
ARC
8
DEFAULT_255_2_778
10
20.662996
20
3.5309792
40
2.6701763
50
173.8845611
51
180.0671859
0
ARC
8
DEFAULT_255_2_778
10
20.1538706
20
3.4930467
40
2.1613293
50
179.0773926
51
179.9999568
0
ARC
8
DEFAULT_255_2_778
10
20.1511545
20
3.4931533
40
2.1586132
50
180.0027844
51
224.9375415
0
ARC
8
DEFAULT_255_2_778
10
20.1328623
20
3.3980862
40
2.0792263
50
223.4389866
51
269.9979562
0
ARC
8
DEFAULT_255_2_778
10
20.132785
20
3.4003501
40
2.0814901
50
270.0000842
51
270.9534602
0
ARC
8
DEFAULT_255_2_778
10
20.1924746
20
3.3729228
40
2.0539274
50
269.301111
51
269.9998341
0
ARC
8
DEFAULT_255_2_778
10
20.1926438
20
3.3714369
40
2.0524415
50
269.9951097
51
305.3909981
0
ARC
8
DEFAULT_255_2_778
10
19.9638333
20
3.6181011
40
2.3864427
50
306.439626
51
338.7702095
0
ARC
8
DEFAULT_255_2_778
10
20.0703634
20
3.7247793
40
1.1773664
50
89.9765602
51
131.7144717
0
ARC
8
DEFAULT_255_2_778
10
20.0708372
20
3.7195732
40
1.1825723
50
88.178727
51
89.9996179
0
ARC
8
DEFAULT_255_2_778
10
20.1218084
20
3.2379999
40
1.6636021
50
78.1263251
51
90.4610574
0
ARC
8
DEFAULT_255_2_778
10
20.2397081
20
3.7735592
40
1.1152554
50
49.5666534
51
78.3926187
0
ARC
8
DEFAULT_255_2_778
10
20.0069517
20
3.5920705
40
1.4056128
50
15.7304086
51
47.1422852
0
ARC
8
DEFAULT_255_2_778
10
20.1239711
20
3.6728469
40
1.2514153
50
132.1967932
51
166.1152726
0
ARC
8
DEFAULT_255_2_778
10
9.3733744
20
3.5757152
40
4.4639302
50
359.3547948
51
359.9174705
0
ARC
8
DEFAULT_255_2_778
10
9.4608925
20
3.57535
40
4.3764117
50
359.9206006
51
0.001802
0
ARC
8
DEFAULT_255_2_778
10
10.0797232
20
3.5839419
40
3.7575907
50
359.8710903
51
5.1137125
0
ARC
8
DEFAULT_255_2_778
10
11.0477168
20
3.672156
40
2.7855876
50
5.0811489
51
11.7536719
0
ARC
8
DEFAULT_255_2_778
10
11.7157085
20
3.8118794
40
2.1031399
50
11.734034
51
20.0530579
0
ARC
8
DEFAULT_255_2_778
10
12.1109814
20
3.9561164
40
1.6823728
50
20.0545064
51
30.8390199
0
ARC
8
DEFAULT_255_2_778
10
12.1983422
20
4.0026459
40
1.583519
50
31.0138845
51
43.4669564
0
ARC
8
DEFAULT_255_2_778
10
11.8794027
20
3.696697
40
2.0254711
50
43.5416038
51
50.3497663
0
ARC
8
DEFAULT_255_2_778
10
11.2408292
20
2.9426623
40
3.0135349
50
50.1496886
51
51.7686108
0
ARC
8
DEFAULT_255_2_778
10
12.184489
20
4.1057924
40
1.5160539
50
52.5801114
51
69.4954993
0
ARC
8
DEFAULT_255_2_778
10
11.8916355
20
3.3977654
40
2.2819561
50
68.8353587
51
74.4141403
0
ARC
8
DEFAULT_255_2_778
10
11.7382524
20
2.8411993
40
2.8592684
50
74.4501348
51
81.3480267
0
ARC
8
DEFAULT_255_2_778
10
11.7083935
20
2.681398
40
3.021748
50
81.2441226
51
85.3587769
0
ARC
8
DEFAULT_255_2_778
10
11.746609
20
3.17082
40
2.5308391
50
85.3245496
51
88.6628091
0
ARC
8
DEFAULT_255_2_778
10
11.7623165
20
3.7364437
40
1.9650046
50
88.7358117
51
89.9823591
0
ARC
8
DEFAULT_255_2_778
10
11.7105288
20
3.5882817
40
2.1138158
50
88.57973
51
89.9997669
0
ARC
8
DEFAULT_255_2_778
10
11.710657
20
3.5908117
40
2.1112857
50
90.0032443
51
135.548806
0
ARC
8
DEFAULT_255_2_778
10
11.8438646
20
3.5026986
40
2.2682848
50
136.316369
51
151.5120023
0
ARC
8
DEFAULT_255_2_778
10
11.8406158
20
3.5069034
40
2.2634249
50
151.5663272
51
178.0584457
0
ARC
8
DEFAULT_255_2_778
10
11.8546585
20
3.5051477
40
2.2775192
50
178.0262706
51
180.0000324
0
ARC
8
DEFAULT_255_2_778
10
11.948042
20
3.5051464
40
2.3709027
50
180
51
180.0665649
0
ARC
8
DEFAULT_255_2_778
10
11.8412128
20
3.5038304
40
2.2640723
50
180.0364034
51
207.21806
0
ARC
8
DEFAULT_255_2_778
10
11.8407013
20
3.5059765
40
2.2645999
50
207.2722643
51
222.0861921
0
ARC
8
DEFAULT_255_2_778
10
11.8728868
20
3.5332058
40
2.306737
50
222.052304
51
223.0464354
0
ARC
8
DEFAULT_255_2_778
10
11.6697646
20
3.3822202
40
2.0554289
50
223.8355808
51
270.0021284
0
ARC
8
DEFAULT_255_2_778
10
11.6698467
20
3.3852567
40
2.0584654
50
269.9998397
51
271.332678
0
ARC
8
DEFAULT_255_2_778
10
11.7692274
20
3.2240614
40
1.8974125
50
268.4444961
51
270.001237
0
ARC
8
DEFAULT_255_2_778
10
11.76074
20
3.3494553
40
2.0228244
50
270.2415648
51
293.6941787
0
ARC
8
DEFAULT_255_2_778
10
12.1603442
20
2.3839187
40
0.9783456
50
294.9877626
51
323.2279024
0
ARC
8
DEFAULT_255_2_778
10
11.7292656
20
3.2963174
40
1.1641709
50
270.096262
51
319.6680217
0
ARC
8
DEFAULT_255_2_778
10
11.7128978
20
3.3450707
40
1.213061
50
270.000331
51
270.865506
0
ARC
8
DEFAULT_255_2_778
10
11.7132754
20
3.345836
40
1.2138264
50
222.7976921
51
269.9825071
0
ARC
8
DEFAULT_255_2_778
10
11.7560842
20
3.4472944
40
1.3149523
50
180.0018688
51
224.7745795
0
ARC
8
DEFAULT_255_2_778
10
11.7580189
20
3.4472493
40
1.3168869
50
178.437901
51
179.9999009
0
ARC
8
DEFAULT_255_2_778
10
11.8387375
20
3.5283676
40
1.3978475
50
179.9999073
51
181.8538059
0
ARC
8
DEFAULT_255_2_778
10
11.8379336
20
3.5282524
40
1.3970437
50
136.4245185
51
179.9951822
0
ARC
8
DEFAULT_255_2_778
10
11.7256039
20
3.6836331
40
1.20907
50
90.0025377
51
138.089896
0
ARC
8
DEFAULT_255_2_778
10
11.7255294
20
3.6795379
40
1.2131652
50
89.0841002
51
89.9990088
0
ARC
8
DEFAULT_255_2_778
10
11.7383025
20
3.7309898
40
1.1615772
50
40.8821446
51
89.673507
0
ARC
8
DEFAULT_255_2_778
10
11.6847271
20
3.5597166
40
1.3175704
50
359.9994386
51
44.9919169
0
ARC
8
DEFAULT_255_2_778
10
11.6832681
20
3.5597075
40
1.3190294
50
359.384937
51
359.9998355
0
ARC
8
DEFAULT_255_2_778
10
11.5810546
20
3.5153689
40
1.4214874
50
359.9998633
51
1.2165229
0
ARC
8
DEFAULT_255_2_778
10
11.5815004
20
3.5154472
40
1.4210415
50
316.74858
51
359.9967073
0
ARC
8
DEFAULT_255_2_778
10
2.3274752
20
3.4918134
40
0.7845541
50
92.5880878
51
179.9390407
0
ARC
8
DEFAULT_255_2_778
10
2.3273403
20
3.4787804
40
0.797568
50
89.9981254
51
92.53613
0
LINE
8
DEFAULT_255_2_778
10
2.3273664
20
4.2763483
11
2.3279215
21
4.2763481
0
ARC
8
DEFAULT_255_2_778
10
2.327552
20
3.4917652
40
0.784583
50
2.9417128
51
89.9730111
0
ARC
8
DEFAULT_255_2_778
10
2.3137546
20
3.4916783
40
0.798367
50
359.9978359
51
2.8971295
0
ARC
8
DEFAULT_255_2_778
10
2.3273796
20
3.4915712
40
0.7847419
50
272.987308
51
0.0056138
0
ARC
8
DEFAULT_255_2_778
10
2.3274007
20
3.5046889
40
0.7978409
50
270.0374065
51
272.9367045
0
LINE
8
DEFAULT_255_2_778
10
2.3279215
20
2.7068481
11
2.3275514
21
2.706848
0
ARC
8
DEFAULT_255_2_778
10
2.3275816
20
3.4915264
40
0.7846784
50
182.6519399
51
269.9977937
0
ARC
8
DEFAULT_255_2_778
10
2.3407381
20
3.4914383
40
0.7978169
50
180.063928
51
182.6019004
0
ARC
8
DEFAULT_255_2_778
10
2.3685201
20
3.4973734
40
2.209383
50
59.1546206
51
75.9912417
0
ARC
8
DEFAULT_255_2_778
10
2.3689682
20
3.4975533
40
2.2091001
50
76.0013903
51
88.8264695
0
ARC
8
DEFAULT_255_2_778
10
2.3688314
20
3.4958384
40
2.2108173
50
88.823835
51
90.0001588
0
ARC
8
DEFAULT_255_2_778
10
2.3675249
20
3.507088
40
2.1995682
50
89.9661265
51
121.1941745
0
ARC
8
DEFAULT_255_2_778
10
2.3688341
20
3.5076264
40
2.1997861
50
121.2306077
51
129.4216148
0
ARC
8
DEFAULT_255_2_778
10
2.3653197
20
3.5097769
40
2.1958936
50
129.3864103
51
152.9907392
0
ARC
8
DEFAULT_255_2_778
10
2.3714067
20
3.5068004
40
2.2026683
50
152.9936635
51
179.9877692
0
ARC
8
DEFAULT_255_2_778
10
2.3623085
20
3.5072529
40
2.1935701
50
179.9995402
51
184.7374271
0
ARC
8
DEFAULT_255_2_778
10
2.3634293
20
3.5074902
40
2.1947068
50
184.7411831
51
196.7400818
0
ARC
8
DEFAULT_255_2_778
10
2.3789262
20
3.5118855
40
2.2108128
50
196.733485
51
199.8234484
0
ARC
8
DEFAULT_255_2_778
10
2.3632157
20
3.5049264
40
2.1936737
50
199.7916118
51
230.176125
0
ARC
8
DEFAULT_255_2_778
10
2.37424
20
3.5170661
40
2.2100576
50
230.1581785
51
267.1569783
0
ARC
8
DEFAULT_255_2_778
10
2.3759731
20
3.5380754
40
2.2311272
50
267.1392864
51
270.0012435
0
ARC
8
DEFAULT_255_2_778
10
2.3668393
20
3.5971417
40
2.290212
50
270.2297189
51
285.1329543
0
ARC
8
DEFAULT_255_2_778
10
2.9319735
20
1.5587875
40
0.1755214
50
280.7530345
51
287.4547554
0
ARC
8
DEFAULT_255_2_778
10
2.6495645
20
2.6760648
40
0.5343994
50
294.5171025
51
308.8275574
0
ARC
8
DEFAULT_255_2_778
10
2.3485231
20
3.3638486
40
1.2851441
50
270.0044211
51
294.004063
0
ARC
8
DEFAULT_255_2_778
10
2.3486137
20
3.3617992
40
1.2830947
50
268.6739992
51
270.0003842
0
ARC
8
DEFAULT_255_2_778
10
2.2924974
20
3.4053535
40
1.3265686
50
270.0005791
51
271.1413604
0
ARC
8
DEFAULT_255_2_778
10
2.2926301
20
3.4033881
40
1.3246032
50
223.6458764
51
269.9948381
0
ARC
8
DEFAULT_255_2_778
10
2.4031848
20
3.4876262
40
1.4628243
50
203.265241
51
223.0447014
0
ARC
8
DEFAULT_255_2_778
10
2.4072204
20
3.4879516
40
1.4666609
50
180.0303421
51
203.214648
0
ARC
8
DEFAULT_255_2_778
10
3.2595782
20
3.4888776
40
2.319019
50
180.0084135
51
180.0420674
0
ARC
8
DEFAULT_255_2_778
10
2.4042369
20
3.48965
40
1.4636781
50
148.4226595
51
180.0435676
0
ARC
8
DEFAULT_255_2_778
10
2.4091326
20
3.4849655
40
1.4703027
50
136.516489
51
148.3670409
0
ARC
8
DEFAULT_255_2_778
10
2.3174816
20
3.5455145
40
1.3622711
50
90.0041277
51
135.7115953
0
ARC
8
DEFAULT_255_2_778
10
2.3173934
20
3.544558
40
1.3632277
50
88.7252178
51
90.0004177
0
ARC
8
DEFAULT_255_2_778
10
2.342984
20
3.4020705
40
1.5053851
50
85.5675184
51
89.8196867
0
ARC
8
DEFAULT_255_2_778
10
2.3116132
20
2.9648658
40
1.9437082
50
80.4651032
51
85.6415676
0
ARC
8
DEFAULT_255_2_778
10
2.3334034
20
3.0760725
40
1.8304308
50
74.379699
51
80.5611376
0
ARC
8
DEFAULT_255_2_778
10
2.546611
20
3.7508319
40
1.1234326
50
53.5718371
51
75.5857875
0
ARC
8
DEFAULT_255_2_778
10
1.9879263
20
3.102421
40
1.9779518
50
50.071497
51
51.7036107
0
ARC
8
DEFAULT_255_2_778
10
2.5254118
20
3.7243599
40
1.1561185
50
35.997402
51
50.7152195
0
ARC
8
DEFAULT_255_2_778
10
2.6079317
20
3.7976764
40
1.0463204
50
21.1689833
51
35.4051561
0
ARC
8
DEFAULT_255_2_778
10
2.3229216
20
3.6882803
40
1.3516034
50
10.6636087
51
21.1304564
0
ARC
8
DEFAULT_255_2_778
10
1.7608077
20
3.5808369
40
1.9238921
50
2.862354
51
10.7104517
0
ARC
8
DEFAULT_255_2_778
10
1.1394591
20
3.5411727
40
2.5464607
50
359.9530239
51
3.0555559
0
ARC
8
DEFAULT_255_2_778
10
0.8341598
20
3.5392019
40
2.8517592
50
359.3258432
51
359.9976486
0
ARC
8
DEFAULT_255_2_778
10
2.9309363
20
2.8618217
40
1.3508106
50
304.2419121
51
309.8286189
0
ARC
8
DEFAULT_255_2_778
10
2.3835644
20
3.502642
40
2.1935479
50
310.0877463
51
358.4614988
0
LINE
8
DEFAULT_255_2_778
10
18.8813215
20
3.1921481
11
22.3209215
21
3.1921481
0
LINE
8
DEFAULT_255_2_778
10
22.3209215
20
3.1921481
11
22.3209215
21
3.4037481
0
LINE
8
DEFAULT_255_2_778
10
22.1883215
20
2.7539481
11
22.2161215
21
2.8211481
0
LINE
8
DEFAULT_255_2_778
10
22.2161215
20
2.8211481
11
21.2565215
21
2.8217481
0
LINE
8
DEFAULT_255_2_778
10
21.3599215
20
3.9731481
11
18.9091215
21
3.9731481
0
LINE
8
DEFAULT_255_2_778
10
13.8436215
20
-0.0897519
11
13.8436215
21
0.5399481
0
LINE
8
DEFAULT_255_2_778
10
13.8436215
20
0.5399481
11
13.8370215
21
3.5254481
0
LINE
8
DEFAULT_255_2_778
10
12.9440215
20
1.7982481
11
12.9440215
21
-0.1953519
0
LINE
8
DEFAULT_255_2_778
10
12.9440215
20
-0.1953519
11
13.8468215
21
-0.1953519
0
LINE
8
DEFAULT_255_2_778
10
13.8468215
20
-0.1953519
11
13.8468215
21
-0.0903519
0
LINE
8
DEFAULT_255_2_778
10
13.8468215
20
-0.0903519
11
13.8436215
21
-0.0897519
0
LINE
8
DEFAULT_255_2_778
10
4.5766215
20
3.5254481
11
4.5766215
21
7.6159481
0
LINE
8
DEFAULT_255_2_778
10
4.5766215
20
7.6159481
11
3.5013215
21
7.6159481
0
LINE
8
DEFAULT_255_2_778
10
3.5013215
20
7.6159481
11
3.5013215
21
5.3942481
0
LINE
8
DEFAULT_255_2_778
10
2.9846215
20
1.3913481
11
2.9846215
21
2.2597481
0
LINE
8
DEFAULT_255_2_778
10
3.6857215
20
3.5056481
11
3.6910215
21
1.7451481
0
LINE
8
DEFAULT_255_2_778
10
4.5763215
20
3.4437481
11
4.5763215
21
3.5225481
0
ENDSEC
0
EOF