0
SECTION
2
HEADER
9
$MEASUREMENT
70
1
0
ENDSEC
0
SECTION
2
TABLES
0
TABLE
2
LTYPE
0
LTYPE
72
65
70
64
2
CONTINUOUS
3
______
73
0
40
0
0
ENDTAB
0
TABLE
2
LAYER
0
LAYER
2
DEFAULT_255_2_778
70
0
62
255
6
CONTINUOUS
0
ENDTAB
0
ENDSEC
0
SECTION
2
ENTITIES
0
ARC
8
DEFAULT_255_2_778
10
8.5644398
20
5.0885701
40
2.2012967
50
90.0323104
51
138.8060412
0
ARC
8
DEFAULT_255_2_778
10
3.2115779
20
8.2493258
40
2.8328301
50
339.8368863
51
359.8491452
0
LINE
8
DEFAULT_255_2_778
10
6.0443984
20
8.2418672
11
6.0443984
21
8.2423664
0
ARC
8
DEFAULT_255_2_778
10
3.2131111
20
8.2356221
40
2.8312954
50
0.1364825
51
19.8253211
0
ARC
8
DEFAULT_255_2_778
10
8.5652905
20
11.3753673
40
2.2012014
50
221.3036115
51
269.9585588
0
ARC
8
DEFAULT_255_2_778
10
8.5623719
20
11.3790833
40
2.2049173
50
270.0344707
51
292.9547475
0
ARC
8
DEFAULT_255_2_778
10
8.5567496
20
11.3880255
40
2.2153448
50
292.998446
51
349.5078519
0
ARC
8
DEFAULT_255_2_778
10
8.5468222
20
11.3851017
40
2.2245786
50
349.6284591
51
359.9166731
0
ARC
8
DEFAULT_255_2_778
10
8.5664816
20
11.3805399
40
2.2049173
50
0.0344707
51
22.9547475
0
ARC
8
DEFAULT_255_2_778
10
8.5575394
20
11.3749176
40
2.2153448
50
22.998446
51
79.5078519
0
ARC
8
DEFAULT_255_2_778
10
8.5604632
20
11.3649902
40
2.2245786
50
79.6284591
51
89.9166731
0
ARC
8
DEFAULT_255_2_778
10
8.5650192
20
11.3847469
40
2.2048199
50
90.0343211
51
112.9552588
0
ARC
8
DEFAULT_255_2_778
10
8.5707714
20
11.3756356
40
2.2154538
50
113.0003402
51
169.5064863
0
ARC
8
DEFAULT_255_2_778
10
8.5810164
20
11.3784453
40
2.2250206
50
169.6256765
51
179.9119035
0
ARC
8
DEFAULT_255_2_778
10
8.5721889
20
11.3870374
40
2.2161965
50
180.1336868
51
196.5765159
0
ARC
8
DEFAULT_255_2_778
10
3.1890592
20
8.2357047
40
2.8557254
50
38.8683411
51
76.0647653
0
ARC
8
DEFAULT_255_2_778
10
3.1917488
20
8.238372
40
2.8524895
50
76.1042967
51
80.8124068
0
ARC
8
DEFAULT_255_2_778
10
3.1913112
20
14.4617118
40
2.2061621
50
281.9256762
51
308.3796618
0
ARC
8
DEFAULT_255_2_778
10
3.1881303
20
14.4671484
40
2.2123991
50
308.3568247
51
353.2368536
0
ARC
8
DEFAULT_255_2_778
10
3.1771794
20
14.4667023
40
2.2232219
50
353.2815046
51
359.9088745
0
ARC
8
DEFAULT_255_2_778
10
3.1953498
20
14.4596576
40
2.2050514
50
0.0911721
51
22.9996478
0
ARC
8
DEFAULT_255_2_778
10
3.1865784
20
14.454167
40
2.2152715
50
23.0417274
51
79.7946751
0
ARC
8
DEFAULT_255_2_778
10
3.1894635
20
14.4438054
40
2.2249628
50
79.9150715
51
89.9295721
0
ARC
8
DEFAULT_255_2_778
10
3.19351
20
14.463715
40
2.2050519
50
90.0340802
51
112.9540354
0
ARC
8
DEFAULT_255_2_778
10
3.1990592
20
14.4549959
40
2.2152453
50
112.9982481
51
169.5097047
0
ARC
8
DEFAULT_255_2_778
10
3.2092718
20
14.4578308
40
2.2247758
50
169.6293777
51
179.91667
0
ARC
8
DEFAULT_255_2_778
10
3.1757382
20
14.4584191
40
2.1912413
50
179.9307778
51
202.8663798
0
ARC
8
DEFAULT_255_2_778
10
3.1990564
20
14.4719473
40
2.2179864
50
202.9543132
51
256.9703171
0
ARC
8
DEFAULT_255_2_778
10
3.1756709
20
8.2575032
40
2.8240824
50
99.7173844
51
127.2416913
0
ARC
8
DEFAULT_255_2_778
10
3.1849486
20
8.2378476
40
2.845348
50
127.1508901
51
165.4545278
0
ARC
8
DEFAULT_255_2_778
10
3.182332
20
8.2437621
40
2.8413343
50
165.5567202
51
180.0402438
0
ARC
8
DEFAULT_255_2_778
10
3.1744274
20
8.2389554
40
2.8334304
50
179.9431572
51
199.3835769
0
ARC
8
DEFAULT_255_2_778
10
3.1988216
20
8.2534093
40
2.8612444
50
199.4944818
51
258.3768067
0
ARC
8
DEFAULT_255_2_778
10
3.1892342
20
8.2329242
40
2.8392527
50
258.4830254
51
260.4565414
0
ARC
8
DEFAULT_255_2_778
10
3.1885768
20
1.9482387
40
2.2004256
50
102.3352027
51
129.2811384
0
ARC
8
DEFAULT_255_2_778
10
3.1921414
20
1.9423278
40
2.2072579
50
129.2556167
51
173.4279674
0
ARC
8
DEFAULT_255_2_778
10
3.2031441
20
1.9427045
40
2.2181458
50
173.4701615
51
179.9906513
0
ARC
8
DEFAULT_255_2_778
10
3.1896336
20
1.9444021
40
2.2046356
50
180.0347119
51
202.9529018
0
ARC
8
DEFAULT_255_2_778
10
3.1988824
20
1.9501782
40
2.2154053
50
202.9971789
51
259.4961764
0
ARC
8
DEFAULT_255_2_778
10
3.1959835
20
1.960127
40
2.2246637
50
259.6162976
51
269.9025173
0
ARC
8
DEFAULT_255_2_778
10
3.1908846
20
1.940426
40
2.2049599
50
270.0341415
51
292.9534804
0
ARC
8
DEFAULT_255_2_778
10
3.185358
20
1.9491225
40
2.2151238
50
292.9973858
51
349.5095937
0
ARC
8
DEFAULT_255_2_778
10
3.1750591
20
1.9463014
40
2.2247417
50
349.6293263
51
359.9166875
0
ARC
8
DEFAULT_255_2_778
10
3.2071583
20
1.9457022
40
2.1926418
50
359.9311249
51
23.0033018
0
ARC
8
DEFAULT_255_2_778
10
3.1858818
20
1.9335801
40
2.2169653
50
23.0767948
51
77.484711
0
ARC
8
DEFAULT_255_2_778
10
3.19374
20
8.2428641
40
2.8493572
50
279.5464648
51
320.8020631
0
ARC
8
DEFAULT_255_2_778
10
8.5519286
20
5.0788676
40
2.1964326
50
163.4951511
51
179.9139484
0
ARC
8
DEFAULT_255_2_778
10
8.5604153
20
5.083493
40
2.2049173
50
180.0344707
51
202.9547475
0
ARC
8
DEFAULT_255_2_778
10
8.5693575
20
5.0891153
40
2.2153448
50
202.998446
51
259.5078519
0
ARC
8
DEFAULT_255_2_778
10
8.5664337
20
5.0990427
40
2.2245786
50
259.6284591
51
269.9166731
0
ARC
8
DEFAULT_255_2_778
10
8.5618777
20
5.0792859
40
2.2048199
50
270.0343211
51
292.9552588
0
ARC
8
DEFAULT_255_2_778
10
8.5561255
20
5.0883973
40
2.2154538
50
293.0003402
51
349.5064863
0
ARC
8
DEFAULT_255_2_778
10
8.5458805
20
5.0855876
40
2.2250206
50
349.6256765
51
359.9119035
0
ARC
8
DEFAULT_255_2_778
10
8.565691
20
5.080667
40
2.205208
50
0.0389578
51
22.95603
0
ARC
8
DEFAULT_255_2_778
10
8.5569355
20
5.075118
40
2.2154349
50
22.9998599
51
79.5056406
0
ARC
8
DEFAULT_255_2_778
10
8.559779
20
5.064903
40
2.224966
50
79.6255503
51
89.9119452
0
ARC
8
DEFAULT_255_2_778
10
8.5633766
20
11.3843233
40
1.0669432
50
50.7387769
51
90.0095693
0
ARC
8
DEFAULT_255_2_778
10
8.5635187
20
11.3807084
40
1.0696548
50
3.3424469
51
50.8672091
0
ARC
8
DEFAULT_255_2_778
10
8.5447251
20
11.3797261
40
1.0884737
50
0.0547625
51
3.3363886
0
ARC
8
DEFAULT_255_2_778
10
8.5659778
20
11.380796
40
1.0672207
50
320.5799395
51
359.9984141
0
ARC
8
DEFAULT_255_2_778
10
8.5627558
20
11.3802663
40
1.0693761
50
273.3513399
51
320.7114821
0
ARC
8
DEFAULT_255_2_778
10
8.5617796
20
11.3991911
40
1.0883257
50
270.0746988
51
273.3444034
0
ARC
8
DEFAULT_255_2_778
10
8.5630281
20
11.3778254
40
1.066959
50
230.7513598
51
270.0091453
0
ARC
8
DEFAULT_255_2_778
10
8.5628407
20
11.3814106
40
1.0696195
50
183.3723017
51
230.8806442
0
ARC
8
DEFAULT_255_2_778
10
8.5814541
20
11.382363
40
1.0882567
50
180.084057
51
183.3647087
0
ARC
8
DEFAULT_255_2_778
10
8.5604771
20
11.3813088
40
1.0672788
50
140.7692809
51
180.0291165
0
ARC
8
DEFAULT_255_2_778
10
8.563645
20
11.3818495
40
1.0693935
50
93.364057
51
140.8990652
0
ARC
8
DEFAULT_255_2_778
10
8.5646092
20
11.3631571
40
1.0881103
50
90.0742836
51
93.3569816
0
ARC
8
DEFAULT_255_2_778
10
3.189466
20
14.4610775
40
1.0672676
50
140.7414344
51
180.0005938
0
ARC
8
DEFAULT_255_2_778
10
3.1927508
20
14.4614859
40
1.0695554
50
93.3424354
51
140.8697298
0
ARC
8
DEFAULT_255_2_778
10
3.1937386
20
14.4426102
40
1.0884566
50
90.054752
51
93.3364105
0
ARC
8
DEFAULT_255_2_778
10
3.1926629
20
14.463806
40
1.0672604
50
50.5807033
51
89.9980909
0
ARC
8
DEFAULT_255_2_778
10
3.1930735
20
14.4604421
40
1.0696011
50
3.3603801
51
50.7121159
0
ARC
8
DEFAULT_255_2_778
10
3.1741571
20
14.4594625
40
1.0885426
50
0.0844235
51
3.3534924
0
ARC
8
DEFAULT_255_2_778
10
3.1955016
20
14.461081
40
1.0671968
50
320.748972
51
359.9992152
0
ARC
8
DEFAULT_255_2_778
10
3.192038
20
14.4607786
40
1.0696903
50
273.3729498
51
320.8789019
0
ARC
8
DEFAULT_255_2_778
10
3.1911019
20
14.4793221
40
1.0882568
50
270.0840571
51
273.3647088
0
ARC
8
DEFAULT_255_2_778
10
3.192147
20
14.4582299
40
1.0671636
50
230.7670791
51
270.0296092
0
ARC
8
DEFAULT_255_2_778
10
3.1918613
20
14.4616534
40
1.0696374
50
183.3708256
51
230.8949188
0
ARC
8
DEFAULT_255_2_778
10
3.2107668
20
14.4626653
40
1.0885697
50
180.0841561
51
183.3654843
0
ARC
8
DEFAULT_255_2_778
10
3.1951395
20
1.9418961
40
1.066959
50
320.7513598
51
0.0091453
0
ARC
8
DEFAULT_255_2_778
10
3.1915542
20
1.9417087
40
1.0696195
50
273.3723017
51
320.8806442
0
ARC
8
DEFAULT_255_2_778
10
3.1906019
20
1.9603221
40
1.0882567
50
270.084057
51
273.3647087
0
ARC
8
DEFAULT_255_2_778
10
3.1916621
20
1.9393849
40
1.0673186
50
230.7700447
51
270.0287942
0
ARC
8
DEFAULT_255_2_778
10
3.1912403
20
1.9426947
40
1.0696184
50
183.3731003
51
230.899676
0
ARC
8
DEFAULT_255_2_778
10
3.2099227
20
1.9436615
40
1.0883254
50
180.0839715
51
183.3660365
0
ARC
8
DEFAULT_255_2_778
10
3.1887778
20
1.94206
40
1.0671794
50
140.7363502
51
179.9996563
0
ARC
8
DEFAULT_255_2_778
10
3.1922727
20
1.9423168
40
1.0697255
50
93.3430949
51
140.8654681
0
ARC
8
DEFAULT_255_2_778
10
3.1932388
20
1.923593
40
1.0884737
50
90.0547625
51
93.3363886
0
ARC
8
DEFAULT_255_2_778
10
3.1921689
20
1.9448458
40
1.0672207
50
50.5799395
51
89.9984141
0
ARC
8
DEFAULT_255_2_778
10
3.1926985
20
1.9416238
40
1.0693761
50
3.3513399
51
50.7114821
0
ARC
8
DEFAULT_255_2_778
10
3.1737738
20
1.9406475
40
1.0883257
50
0.0746988
51
3.3444034
0
ARC
8
DEFAULT_255_2_778
10
3.189599
20
8.2315141
40
1.483549
50
239.7116743
51
270.0772196
0
ARC
8
DEFAULT_255_2_778
10
3.193828
20
8.2420346
40
1.4947673
50
187.3807423
51
239.7750847
0
ARC
8
DEFAULT_255_2_778
10
3.2007515
20
8.2398268
40
1.5013529
50
179.9870403
51
187.2632458
0
ARC
8
DEFAULT_255_2_778
10
3.1873696
20
8.2399539
40
1.4879711
50
150.0689493
51
179.9918175
0
ARC
8
DEFAULT_255_2_778
10
3.1946248
20
8.2368998
40
1.495783
50
97.9508725
51
150.1062307
0
ARC
8
DEFAULT_255_2_778
10
3.1939376
20
8.2242723
40
1.508196
50
90.0888639
51
97.8586609
0
ARC
8
DEFAULT_255_2_778
10
3.191213
20
8.2441592
40
1.4883073
50
60.0687155
51
89.9851623
0
ARC
8
DEFAULT_255_2_778
10
3.1883337
20
8.2371993
40
1.4957758
50
7.9494395
51
60.1061545
0
ARC
8
DEFAULT_255_2_778
10
3.1754206
20
8.237829
40
1.5084797
50
0.0887819
51
7.8579204
0
ARC
8
DEFAULT_255_2_778
10
3.1956898
20
8.2405735
40
1.4882087
50
330.0676987
51
359.9843276
0
ARC
8
DEFAULT_255_2_778
10
3.1887304
20
8.2433944
40
1.4956477
50
277.9462929
51
330.1070776
0
ARC
8
DEFAULT_255_2_778
10
3.1894442
20
8.2560648
40
1.5080998
50
270.0818456
51
277.8528879
0
ARC
8
DEFAULT_255_2_778
10
8.5627092
20
5.0782862
40
1.0672198
50
230.7378173
51
269.9994221
0
ARC
8
DEFAULT_255_2_778
10
8.5623441
20
5.0816859
40
1.0696238
50
183.3452929
51
230.8682119
0
ARC
8
DEFAULT_255_2_778
10
8.5808211
20
5.0826068
40
1.088123
50
180.0547805
51
183.3369251
0
ARC
8
DEFAULT_255_2_778
10
8.5599431
20
5.0815736
40
1.0672447
50
140.7525905
51
180.0003871
0
ARC
8
DEFAULT_255_2_778
10
8.5632921
20
5.0819186
40
1.0696227
50
93.3701071
51
140.880395
0
ARC
8
DEFAULT_255_2_778
10
8.5642949
20
5.0629772
40
1.0885903
50
90.0840234
51
93.3641899
0
ARC
8
DEFAULT_255_2_778
10
8.5626689
20
5.0843458
40
1.0672207
50
50.5799395
51
89.9984141
0
ARC
8
DEFAULT_255_2_778
10
8.5631985
20
5.0811238
40
1.0693761
50
3.3513399
51
50.7114821
0
ARC
8
DEFAULT_255_2_778
10
8.5442738
20
5.0801475
40
1.0883257
50
0.0746988
51
3.3444034
0
ARC
8
DEFAULT_255_2_778
10
8.5657044
20
5.0808951
40
1.0668943
50
320.5938561
51
0.0360535
0
ARC
8
DEFAULT_255_2_778
10
8.562029
20
5.0807028
40
1.0696149
50
273.363347
51
320.726796
0
ARC
8
DEFAULT_255_2_778
10
8.5610988
20
5.0992506
40
1.0881853
50
270.0842236
51
273.3549431
0
LINE
8
DEFAULT_255_2_778
10
6.9079984
20
6.5383664
11
5.8707984
21
7.2728664
0
LINE
8
DEFAULT_255_2_778
10
5.8765984
20
9.1958664
11
6.9116984
21
9.9224664
0
LINE
8
DEFAULT_255_2_778
10
6.4480984
20
10.7547664
11
5.4124984
21
10.0277664
0
LINE
8
DEFAULT_255_2_778
10
3.6471984
20
11.0542664
11
3.6471984
21
12.3031664
0
LINE
8
DEFAULT_255_2_778
10
2.6989984
20
12.3110664
11
2.6989984
21
11.0410664
0
LINE
8
DEFAULT_255_2_778
10
2.7184984
20
5.4329664
11
2.7184984
21
4.0978664
0
LINE
8
DEFAULT_255_2_778
10
3.6662984
20
4.0978664
11
3.6662984
21
5.4329664
0
LINE
8
DEFAULT_255_2_778
10
5.4018984
20
6.4420664
11
6.4459984
21
5.7028664
0
LINE
8
DEFAULT_255_2_778
10
8.5631984
20
7.2898664
11
8.5631984
21
7.2898664
0
LINE
8
DEFAULT_255_2_778
10
8.5631984
20
12.4512664
11
8.5631984
21
12.4512664
0
LINE
8
DEFAULT_255_2_778
10
2.1221984
20
14.4610664
11
2.1221984
21
14.4610664
0
LINE
8
DEFAULT_255_2_778
10
4.2620984
20
1.9420664
11
4.2620984
21
1.9420664
0
LINE
8
DEFAULT_255_2_778
10
3.1915984
20
6.7479664
11
3.1915984
21
6.7479664
0
LINE
8
DEFAULT_255_2_778
10
8.5626984
20
4.0110664
11
8.5626984
21
4.0110664
0
ENDSEC
0
EOF