0
SECTION
2
HEADER
9
$MEASUREMENT
70
1
0
ENDSEC
0
SECTION
2
TABLES
0
TABLE
2
LTYPE
0
LTYPE
72
65
70
64
2
CONTINUOUS
3
______
73
0
40
0
0
ENDTAB
0
TABLE
2
LAYER
0
LAYER
2
DEFAULT_255_2_778
70
0
62
255
6
CONTINUOUS
0
ENDTAB
0
ENDSEC
0
SECTION
2
ENTITIES
0
ARC
8
DEFAULT_255_2_778
10
2.5634362
20
2.0749452
40
1.8496137
50
133.5531554
51
135.6292615
0
ARC
8
DEFAULT_255_2_778
10
1.4901532
20
3.1225021
40
0.3498481
50
135.3475476
51
143.9365462
0
ARC
8
DEFAULT_255_2_778
10
1.3414029
20
3.232222
40
0.1650175
50
144.3279961
51
181.195661
0
ARC
8
DEFAULT_255_2_778
10
1.4834098
20
3.2225195
40
0.3070523
50
178.8319599
51
180.0072332
0
ARC
8
DEFAULT_255_2_778
10
1.6638182
20
3.2265555
40
0.4874777
50
180.4789359
51
186.7604544
0
ARC
8
DEFAULT_255_2_778
10
2.3605516
20
3.3048866
40
1.1885953
50
186.5564535
51
189.4093596
0
ARC
8
DEFAULT_255_2_778
10
3.2231114
20
3.4406797
40
2.0617623
50
189.2134048
51
189.4792905
0
ARC
8
DEFAULT_255_2_778
10
3.1190733
20
3.4282506
40
2.1276179
50
187.5284101
51
189.6083193
0
ARC
8
DEFAULT_255_2_778
10
1.996312
20
3.2812824
40
0.9952802
50
183.7206469
51
187.6090267
0
ARC
8
DEFAULT_255_2_778
10
1.5748845
20
3.2524778
40
0.5728735
50
180.1131078
51
183.580963
0
ARC
8
DEFAULT_255_2_778
10
1.3059857
20
3.2568204
40
0.3040228
50
165.0794711
51
181.031588
0
ARC
8
DEFAULT_255_2_778
10
1.2382393
20
3.2698701
40
0.2352503
50
144.0260199
51
163.9021571
0
ARC
8
DEFAULT_255_2_778
10
1.4665495
20
3.1031414
40
0.5179582
50
135.2198379
51
143.9356035
0
ARC
8
DEFAULT_255_2_778
10
2.5609061
20
2.0417783
40
2.0424355
50
133.6576237
51
135.7102343
0
ARC
8
DEFAULT_255_2_778
10
10.7922629
20
-6.4994462
40
13.9044438
50
133.7851293
51
133.8998873
0
ARC
8
DEFAULT_255_2_778
10
2.692553
20
3.3564726
40
1.5245865
50
189.6416785
51
207.8297441
0
ARC
8
DEFAULT_255_2_778
10
2.6936101
20
3.3546501
40
1.695806
50
189.5491814
51
207.7397837
0
ARC
8
DEFAULT_255_2_778
10
2.8102213
20
3.4194011
40
1.6580233
50
207.8545245
51
225.1113265
0
ARC
8
DEFAULT_255_2_778
10
2.8136267
20
3.4246239
40
1.834609
50
207.9293291
51
225.1252874
0
ARC
8
DEFAULT_255_2_778
10
3.0384351
20
3.639479
40
1.9729596
50
224.9860375
51
228.5516963
0
ARC
8
DEFAULT_255_2_778
10
3.2282144
20
3.8516314
40
2.2576033
50
228.5055927
51
230.8313821
0
ARC
8
DEFAULT_255_2_778
10
3.1966638
20
3.8030311
40
2.2000053
50
230.6689915
51
241.7422706
0
ARC
8
DEFAULT_255_2_778
10
2.9006519
20
3.2621107
40
1.5834115
50
241.9102682
51
249.0346501
0
ARC
8
DEFAULT_255_2_778
10
3.0747844
20
3.6274973
40
2.1578212
50
231.3677499
51
248.2189585
0
ARC
8
DEFAULT_255_2_778
10
3.2325851
20
3.8587049
40
2.4370426
50
230.9345861
51
231.8633158
0
ARC
8
DEFAULT_255_2_778
10
3.1174267
20
3.7196594
40
2.2565111
50
227.152279
51
230.9799013
0
ARC
8
DEFAULT_255_2_778
10
2.8440836
20
3.4240307
40
1.8538792
50
224.5131649
51
227.1325702
0
ARC
8
DEFAULT_255_2_778
10
2.7845661
20
2.9797687
40
1.2793426
50
249.2354171
51
252.0823579
0
ARC
8
DEFAULT_255_2_778
10
2.6759488
20
2.6048922
40
0.8893123
50
251.3104148
51
268.3698454
0
ARC
8
DEFAULT_255_2_778
10
2.6587731
20
2.3679615
40
0.6520722
50
269.2862172
51
270.0008925
0
ARC
8
DEFAULT_255_2_778
10
2.6658813
20
2.2374224
40
0.5215815
50
269.2202626
51
293.3133448
0
ARC
8
DEFAULT_255_2_778
10
2.6664327
20
2.2317692
40
0.6892376
50
269.410568
51
293.4851817
0
ARC
8
DEFAULT_255_2_778
10
2.6658999
20
2.5071396
40
0.9645937
50
256.5043045
51
269.6104767
0
ARC
8
DEFAULT_255_2_778
10
2.7453133
20
2.8570237
40
1.3233569
50
248.992462
51
256.6962203
0
ARC
8
DEFAULT_255_2_778
10
3.4859856
20
0.8901959
40
0.7310727
50
155.2621468
51
162.8952975
0
ARC
8
DEFAULT_255_2_778
10
3.2722264
20
0.955265
40
0.5076306
50
162.8186002
51
173.3466105
0
ARC
8
DEFAULT_255_2_778
10
3.1618474
20
0.9697622
40
0.3963188
50
173.5794687
51
179.9237533
0
ARC
8
DEFAULT_255_2_778
10
3.1204143
20
0.9784348
40
0.3549789
50
181.3148073
51
241.6005958
0
ARC
8
DEFAULT_255_2_778
10
3.4144788
20
1.3886601
40
0.8580543
50
237.3521671
51
245.8629002
0
ARC
8
DEFAULT_255_2_778
10
3.3717686
20
1.3285313
40
0.9567985
50
229.2362293
51
246.6602702
0
ARC
8
DEFAULT_255_2_778
10
3.0366641
20
0.9478782
40
0.4497159
50
179.8182533
51
229.9072256
0
ARC
8
DEFAULT_255_2_778
10
3.166859
20
0.9468213
40
0.5799138
50
168.9571732
51
179.7546363
0
ARC
8
DEFAULT_255_2_778
10
3.3647178
20
0.9088927
40
0.7813744
50
160.9478467
51
169.0064594
0
ARC
8
DEFAULT_255_2_778
10
3.6258062
20
0.8198359
40
1.057232
50
155.0547403
51
161.0046554
0
ARC
8
DEFAULT_255_2_778
10
4.0368175
20
2.8766031
40
2.4707258
50
246.8027
51
255.9856482
0
ARC
8
DEFAULT_255_2_778
10
6.5283125
20
12.0442629
40
11.9704892
50
255.0414835
51
255.6737628
0
ARC
8
DEFAULT_255_2_778
10
6.494468
20
11.828361
40
11.9235268
50
254.7347974
51
255.5711965
0
ARC
8
DEFAULT_255_2_778
10
3.9486776
20
2.6286003
40
2.3783227
50
246.368017
51
255.5488376
0
ARC
8
DEFAULT_255_2_778
10
1.9867288
20
-5.8781411
40
6.5181994
50
74.8626106
51
74.8940553
0
ARC
8
DEFAULT_255_2_778
10
1.629649
20
-7.2013519
40
7.8887439
50
74.8429718
51
74.8687549
0
ARC
8
DEFAULT_255_2_778
10
0.5191534
20
-11.2974307
40
12.1326878
50
74.8221749
51
74.8388069
0
ARC
8
DEFAULT_255_2_778
10
1.0843562
20
-9.2141836
40
9.9741297
50
74.8024559
51
74.8225229
0
ARC
8
DEFAULT_255_2_778
10
-1.1199192
20
-17.3247939
40
18.3789396
50
74.7885136
51
74.7993129
0
ARC
8
DEFAULT_255_2_778
10
0.0832178
20
-12.8955334
40
13.7891807
50
74.7693518
51
74.7836222
0
ARC
8
DEFAULT_255_2_778
10
-6.9099531
20
-38.5623805
40
40.3916518
50
74.7578194
51
74.7626483
0
ARC
8
DEFAULT_255_2_778
10
-0.554373
20
-15.2316142
40
16.2107079
50
74.7401108
51
74.7520348
0
ARC
8
DEFAULT_255_2_778
10
-0.4976786
20
-15.0262829
40
15.9976945
50
74.7304768
51
74.7424487
0
ARC
8
DEFAULT_255_2_778
10
14.6370517
20
40.1979814
40
41.2629436
50
254.6519132
51
254.8122205
0
ARC
8
DEFAULT_255_2_778
10
6.0165366
20
8.4529273
40
8.3682374
50
254.8310195
51
255.7338385
0
ARC
8
DEFAULT_255_2_778
10
5.127027
20
4.9218949
40
4.7269052
50
255.6361146
51
258.8166644
0
ARC
8
DEFAULT_255_2_778
10
4.8099806
20
3.3401867
40
3.1137432
50
258.8949689
51
261.918418
0
ARC
8
DEFAULT_255_2_778
10
4.6814298
20
2.4163401
40
2.1810009
50
261.8500374
51
266.7136687
0
ARC
8
DEFAULT_255_2_778
10
4.7063057
20
2.4963006
40
2.4336733
50
262.1870441
51
266.2185296
0
ARC
8
DEFAULT_255_2_778
10
4.9327704
20
4.0322722
40
3.9862026
50
256.5093479
51
261.9633475
0
ARC
8
DEFAULT_255_2_778
10
5.4120249
20
6.1509532
40
6.1582934
50
256.0093374
51
256.7719886
0
ARC
8
DEFAULT_255_2_778
10
6.027928
20
8.5991735
40
8.6827924
50
254.962767
51
255.9714512
0
ARC
8
DEFAULT_255_2_778
10
11.6319974
20
29.4712379
40
30.2941012
50
254.7673787
51
254.9684717
0
ARC
8
DEFAULT_255_2_778
10
-1.0743653
20
-17.2467858
40
18.1210385
50
74.8137809
51
74.9139011
0
ARC
8
DEFAULT_255_2_778
10
4.6638034
20
1.9050265
40
1.6695588
50
266.3116625
51
269.9089995
0
ARC
8
DEFAULT_255_2_778
10
4.6790705
20
1.1506509
40
0.9153565
50
268.8783226
51
285.0549896
0
ARC
8
DEFAULT_255_2_778
10
4.8514247
20
0.5770366
40
0.317142
50
281.9018223
51
343.6247686
0
ARC
8
DEFAULT_255_2_778
10
4.8809306
20
0.5536979
40
0.4532891
50
311.7310196
51
346.0245506
0
ARC
8
DEFAULT_255_2_778
10
4.7955663
20
0.6874163
40
0.6104262
50
278.2423459
51
309.3554348
0
ARC
8
DEFAULT_255_2_778
10
4.6651282
20
1.3476001
40
1.2829526
50
269.5429315
51
279.7808899
0
ARC
8
DEFAULT_255_2_778
10
4.6571663
20
1.9911467
40
1.9264599
50
266.6770776
51
269.9324128
0
ARC
8
DEFAULT_255_2_778
10
3.5433911
20
0.9533745
40
1.6782337
50
343.887565
51
354.0231529
0
ARC
8
DEFAULT_255_2_778
10
3.8483191
20
0.9062158
40
1.5416986
50
345.963768
51
354.7305168
0
ARC
8
DEFAULT_255_2_778
10
2.0291936
20
1.3257101
40
3.4084237
50
344.9561524
51
346.5392381
0
ARC
8
DEFAULT_255_2_778
10
3.7167519
20
0.8870456
40
1.4996745
50
355.8541554
51
359.2180214
0
ARC
8
DEFAULT_255_2_778
10
3.7180084
20
0.8870026
40
1.4984174
50
359.2190067
51
359.9977207
0
ARC
8
DEFAULT_255_2_778
10
3.7215405
20
0.8870563
40
1.4948854
50
359.9956577
51
6.8026683
0
ARC
8
DEFAULT_255_2_778
10
3.6832571
20
0.8799085
40
1.7038377
50
359.9959459
51
6.745012
0
ARC
8
DEFAULT_255_2_778
10
3.6741644
20
0.879801
40
1.7129304
50
359.0206988
51
359.999561
0
ARC
8
DEFAULT_255_2_778
10
3.6694111
20
0.8799237
40
1.7176852
50
356.1411567
51
359.0193191
0
ARC
8
DEFAULT_255_2_778
10
10.5422277
20
-1.2757494
40
5.8381972
50
154.704714
51
155.9100901
0
ARC
8
DEFAULT_255_2_778
10
8.0920365
20
-0.1158032
40
3.1273107
50
152.7420191
51
154.7377221
0
ARC
8
DEFAULT_255_2_778
10
6.8998984
20
0.5007558
40
1.7851742
50
148.6134677
51
152.8092789
0
ARC
8
DEFAULT_255_2_778
10
6.8145448
20
0.5498091
40
1.6867647
50
148.2623672
51
148.5259181
0
ARC
8
DEFAULT_255_2_778
10
7.0076418
20
0.4289194
40
1.9145792
50
146.6965752
51
148.2253285
0
ARC
8
DEFAULT_255_2_778
10
9.5729709
20
-1.2714057
40
4.9922341
50
145.5027982
51
146.5526989
0
ARC
8
DEFAULT_255_2_778
10
9.3561066
20
-1.1297175
40
4.5624583
50
145.4216627
51
146.4546347
0
ARC
8
DEFAULT_255_2_778
10
7.0149387
20
0.4276599
40
1.7506185
50
146.5944324
51
148.1140451
0
ARC
8
DEFAULT_255_2_778
10
6.8836451
20
0.5126309
40
1.5942551
50
148.2145218
51
152.5542139
0
ARC
8
DEFAULT_255_2_778
10
7.9084439
20
-0.0224507
40
2.7503352
50
152.5017663
51
154.6099978
0
ARC
8
DEFAULT_255_2_778
10
10.3151001
20
-1.1665069
40
5.4150787
50
154.5927304
51
155.9812146
0
ARC
8
DEFAULT_255_2_778
10
4.6621155
20
2.1896366
40
1.0146379
50
325.2314129
51
332.4864571
0
ARC
8
DEFAULT_255_2_778
10
5.2038548
20
1.9057692
40
0.4030365
50
332.6999117
51
345.0930485
0
ARC
8
DEFAULT_255_2_778
10
5.2669301
20
1.8860824
40
0.337031
50
345.5687406
51
352.025589
0
ARC
8
DEFAULT_255_2_778
10
5.2603556
20
1.8883663
40
0.5147549
50
344.3716895
51
351.9212662
0
ARC
8
DEFAULT_255_2_778
10
5.1248835
20
1.9357679
40
0.6580521
50
328.9225347
51
343.5746757
0
ARC
8
DEFAULT_255_2_778
10
4.466494
20
2.3101377
40
1.4153221
50
325.8448762
51
329.7007047
0
ARC
8
DEFAULT_255_2_778
10
5.1614115
20
1.8989368
40
0.4433167
50
352.2722613
51
0.3751707
0
ARC
8
DEFAULT_255_2_778
10
4.408814
20
1.8841497
40
1.1960355
50
0.8474607
51
6.8427222
0
ARC
8
DEFAULT_255_2_778
10
-2.1529297
20
1.1749769
40
7.7959203
50
6.271857
51
6.9745677
0
ARC
8
DEFAULT_255_2_778
10
0.9974812
20
1.550633
40
4.7937161
50
5.3298135
51
7.0744955
0
ARC
8
DEFAULT_255_2_778
10
4.6820956
20
1.8959561
40
1.0929565
50
0.3429734
51
5.2474526
0
ARC
8
DEFAULT_255_2_778
10
5.1612873
20
1.8998927
40
0.6137508
50
352.3650235
51
0.2432627
0
ARC
8
DEFAULT_255_2_778
10
5.2347899
20
1.8917357
40
0.5398187
50
351.8840474
51
352.1866029
0
ARC
8
DEFAULT_255_2_778
10
6.4076724
20
7.3530986
40
5.025175
50
261.4457873
51
269.6343393
0
ARC
8
DEFAULT_255_2_778
10
6.4055059
20
7.2772723
40
5.1202368
50
261.3462671
51
269.6597767
0
ARC
8
DEFAULT_255_2_778
10
6.4053127
20
7.753011
40
5.4221665
50
269.6860472
51
269.9996005
0
ARC
8
DEFAULT_255_2_778
10
6.4055953
20
7.7299296
40
5.399085
50
269.9965998
51
277.2344646
0
ARC
8
DEFAULT_255_2_778
10
6.4028525
20
7.7730052
40
5.6127474
50
269.9961577
51
277.192651
0
ARC
8
DEFAULT_255_2_778
10
6.4024765
20
7.7917469
40
5.631489
50
269.7184335
51
269.9999956
0
ARC
8
DEFAULT_255_2_778
10
6.7681055
20
1.7044655
40
0.2765906
50
115.8282252
51
151.6397736
0
ARC
8
DEFAULT_255_2_778
10
6.8229452
20
1.6867675
40
0.3334196
50
153.4402581
51
181.3964359
0
ARC
8
DEFAULT_255_2_778
10
7.1325013
20
1.6879212
40
0.6429437
50
180.8269328
51
195.222327
0
ARC
8
DEFAULT_255_2_778
10
7.4512429
20
1.7632781
40
0.9703503
50
194.5741284
51
198.13649
0
ARC
8
DEFAULT_255_2_778
10
7.3745001
20
1.7346027
40
1.0592249
50
186.3318938
51
197.8214095
0
ARC
8
DEFAULT_255_2_778
10
7.0372839
20
1.6910687
40
0.7192902
50
180.1001475
51
185.8477635
0
ARC
8
DEFAULT_255_2_778
10
6.7511722
20
1.7101873
40
0.4336564
50
127.3451936
51
182.6931033
0
ARC
8
DEFAULT_255_2_778
10
6.8182314
20
1.6184032
40
0.5473084
50
117.0536416
51
127.0975026
0
ARC
8
DEFAULT_255_2_778
10
7.8226384
20
1.8678619
40
1.3559459
50
197.4510609
51
201.0221112
0
ARC
8
DEFAULT_255_2_778
10
8.7176823
20
2.2384649
40
2.3244961
50
201.6348637
51
210.4006189
0
ARC
8
DEFAULT_255_2_778
10
10.202314
20
3.0728825
40
4.0273783
50
209.951117
51
211.9755667
0
ARC
8
DEFAULT_255_2_778
10
12.084742
20
4.2478582
40
6.2464103
50
211.9741667
51
213.034901
0
ARC
8
DEFAULT_255_2_778
10
15.9147755
20
6.7241967
40
10.8072575
50
212.971644
51
213.0083239
0
ARC
8
DEFAULT_255_2_778
10
12.5348556
20
4.5330986
40
6.9495415
50
212.0980344
51
213.0381629
0
ARC
8
DEFAULT_255_2_778
10
10.2245658
20
3.0855169
40
4.2232017
50
209.823482
51
212.1158475
0
ARC
8
DEFAULT_255_2_778
10
9.5115868
20
2.6718365
40
3.3989156
50
209.7029189
51
209.7508648
0
ARC
8
DEFAULT_255_2_778
10
8.5524442
20
2.1553668
40
2.3100398
50
199.7022079
51
210.3639123
0
ARC
8
DEFAULT_255_2_778
10
7.7094748
20
1.8301364
40
1.4069464
50
197.3307177
51
198.8062938
0
ARC
8
DEFAULT_255_2_778
10
13.0395121
20
4.8324757
40
7.3655778
50
212.852357
51
214.769871
0
ARC
8
DEFAULT_255_2_778
10
10.648248
20
3.1838533
40
4.4611068
50
214.8910432
51
215.9392537
0
ARC
8
DEFAULT_255_2_778
10
9.1875031
20
2.1044933
40
2.6449757
50
215.5809204
51
221.8586329
0
ARC
8
DEFAULT_255_2_778
10
8.1663616
20
1.1825787
40
1.2692579
50
221.6223878
51
233.6184104
0
ARC
8
DEFAULT_255_2_778
10
7.9089087
20
0.8503261
40
0.849117
50
234.3061744
51
238.1158408
0
ARC
8
DEFAULT_255_2_778
10
8.0682627
20
1.0824687
40
1.3009579
50
222.2550177
51
237.6170819
0
ARC
8
DEFAULT_255_2_778
10
9.1635397
20
2.0971065
40
2.7939495
50
215.1226717
51
222.5522601
0
ARC
8
DEFAULT_255_2_778
10
10.9333601
20
3.3921462
40
4.9867673
50
214.5654371
51
215.5938963
0
ARC
8
DEFAULT_255_2_778
10
13.1795867
20
4.92863
40
7.7082122
50
212.9830006
51
214.497585
0
ARC
8
DEFAULT_255_2_778
10
16.7565402
20
7.2707299
40
11.9837046
50
212.9994916
51
213.0660502
0
ARC
8
DEFAULT_255_2_778
10
7.7883406
20
0.6453262
40
0.6113919
50
237.5624369
51
269.9113312
0
ARC
8
DEFAULT_255_2_778
10
7.7825385
20
0.7630478
40
0.7291291
50
270.3815839
51
285.2237387
0
ARC
8
DEFAULT_255_2_778
10
7.6981923
20
1.0812496
40
1.0583152
50
285.1062616
51
294.7521326
0
ARC
8
DEFAULT_255_2_778
10
7.5469336
20
1.4237073
40
1.4326541
50
294.5112676
51
298.4210708
0
ARC
8
DEFAULT_255_2_778
10
7.5813248
20
1.3482589
40
1.521068
50
291.3353594
51
298.610916
0
ARC
8
DEFAULT_255_2_778
10
7.7387478
20
0.9409526
40
1.0844021
50
280.9670819
51
291.417482
0
ARC
8
DEFAULT_255_2_778
10
7.7872851
20
0.6985898
40
0.8372332
50
270.1537978
51
280.8615204
0
ARC
8
DEFAULT_255_2_778
10
7.7936403
20
0.6352372
40
0.7738886
50
236.9692546
51
269.6958735
0
ARC
8
DEFAULT_255_2_778
10
7.9757331
20
0.6621036
40
0.5589493
50
296.9207929
51
313.4757101
0
ARC
8
DEFAULT_255_2_778
10
7.8954394
20
0.717742
40
0.6548751
50
315.2244559
51
331.2496878
0
ARC
8
DEFAULT_255_2_778
10
4.6354448
20
2.6431308
40
4.4407121
50
329.7012328
51
330.4674754
0
ARC
8
DEFAULT_255_2_778
10
4.5162765
20
2.7155491
40
4.7511913
50
329.6179754
51
330.4192634
0
ARC
8
DEFAULT_255_2_778
10
7.9867075
20
0.648172
40
0.7123037
50
307.0120104
51
331.8911675
0
ARC
8
DEFAULT_255_2_778
10
7.8934952
20
0.7941402
40
0.8850749
50
298.0358806
51
306.1419689
0
ARC
8
DEFAULT_255_2_778
10
8.390124
20
1.0583626
40
0.4757832
50
300.1929809
51
307.935174
0
ARC
8
DEFAULT_255_2_778
10
6.8452003
20
3.1326121
40
3.0620548
50
306.8742898
51
308.6697731
0
ARC
8
DEFAULT_255_2_778
10
1.0529953
20
10.3804223
40
12.3400061
50
308.6403709
51
309.5330177
0
ARC
8
DEFAULT_255_2_778
10
-83.8100821
20
113.3980728
40
145.8105158
50
309.4851718
51
309.5729715
0
ARC
8
DEFAULT_255_2_778
10
57.9551303
20
-58.2357531
40
76.8002522
50
129.5135248
51
129.5233369
0
ARC
8
DEFAULT_255_2_778
10
42.2730915
20
-39.2228224
40
52.1544032
50
129.497878
51
129.5122967
0
ARC
8
DEFAULT_255_2_778
10
9.686996
20
1.4209046
40
0.2769604
50
223.6518634
51
258.4501423
0
ARC
8
DEFAULT_255_2_778
10
9.8056142
20
1.7865136
40
0.6603185
50
254.7151904
51
255.958265
0
ARC
8
DEFAULT_255_2_778
10
9.7002489
20
1.4588108
40
0.4888158
50
229.9005687
51
258.8475446
0
ARC
8
DEFAULT_255_2_778
10
9.619446
20
1.3431497
40
0.348528
50
219.9344614
51
227.813822
0
ARC
8
DEFAULT_255_2_778
10
9.9417056
20
2.4881777
40
1.3745676
50
257.5515418
51
265.1696875
0
ARC
8
DEFAULT_255_2_778
10
10.3771091
20
6.8763415
40
5.7841675
50
264.5322303
51
265.9661647
0
ARC
8
DEFAULT_255_2_778
10
11.1713635
20
17.4745269
40
16.4120368
50
265.8029512
51
265.8161949
0
ARC
8
DEFAULT_255_2_778
10
10.2004322
20
4.7030123
40
3.7753357
50
262.7601124
51
266.3760522
0
ARC
8
DEFAULT_255_2_778
10
9.8872801
20
2.188913
40
1.2418315
50
256.8945345
51
262.4749205
0
ARC
8
DEFAULT_255_2_778
10
10.0877826
20
2.7660188
40
1.6636883
50
266.078448
51
268.4651246
0
ARC
8
DEFAULT_255_2_778
10
10.2352927
20
7.5835596
40
6.483478
50
268.3023674
51
269.2848079
0
ARC
8
DEFAULT_255_2_778
10
10.4158174
20
22.0227454
40
20.9237924
50
269.2840444
51
269.9090765
0
ARC
8
DEFAULT_255_2_778
10
10.5263849
20
63.4563744
40
62.3575606
50
269.8678986
51
270.0135371
0
ARC
8
DEFAULT_255_2_778
10
10.5350676
20
260.7645568
40
259.6657412
50
270.001335
51
270.011544
0
ARC
8
DEFAULT_255_2_778
10
10.6389744
20
-249.0002123
40
250.0990383
50
90.0017806
51
90.0118187
0
LINE
8
DEFAULT_255_2_778
10
10.631202
20
0.9278258
11
10.6143681
21
0.9278256
0
LINE
8
DEFAULT_255_2_778
10
10.6143681
20
0.9278256
11
10.5971136
21
0.9278253
0
ARC
8
DEFAULT_255_2_778
10
10.585146
20
120.6605571
40
119.7327324
50
269.9550796
51
270.0057268
0
ARC
8
DEFAULT_255_2_778
10
10.5331291
20
54.7373483
40
53.809503
50
269.8359079
51
269.9554337
0
ARC
8
DEFAULT_255_2_778
10
10.4265066
20
23.6810223
40
22.753006
50
269.2921117
51
269.8804252
0
ARC
8
DEFAULT_255_2_778
10
10.2372049
20
8.2754146
40
7.3462352
50
268.4416995
51
269.2839699
0
ARC
8
DEFAULT_255_2_778
10
10.0867623
20
2.929685
40
1.9983978
50
266.5171474
51
268.5854727
0
ARC
8
DEFAULT_255_2_778
10
10.0142902
20
1.6631618
40
0.7298259
50
265.8757986
51
266.1557946
0
ARC
8
DEFAULT_255_2_778
10
10.8255183
20
6.2948126
40
5.1963995
50
269.6227266
51
269.9919055
0
ARC
8
DEFAULT_255_2_778
10
10.8494333
20
3.1179299
40
2.0196671
50
269.3007144
51
275.8986979
0
ARC
8
DEFAULT_255_2_778
10
11.0066379
20
1.6798907
40
0.5731506
50
275.0404509
51
294.4183698
0
ARC
8
DEFAULT_255_2_778
10
11.0983673
20
1.4511179
40
0.3271073
50
296.3541702
51
299.4314887
0
ARC
8
DEFAULT_255_2_778
10
11.0183547
20
1.6315015
40
0.6947932
50
274.9141098
51
297.8750793
0
ARC
8
DEFAULT_255_2_778
10
10.8444967
20
3.1718983
40
2.2448003
50
269.3143345
51
275.967408
0
ARC
8
DEFAULT_255_2_778
10
10.8181146
20
6.5334064
40
5.6061477
50
269.7198375
51
269.9950836
0
ARC
8
DEFAULT_255_2_778
10
11.1116156
20
1.4177307
40
0.2915595
50
300.3880309
51
341.5144142
0
ARC
8
DEFAULT_255_2_778
10
10.7642789
20
1.5499831
40
0.6630842
50
340.1922559
51
354.3802403
0
ARC
8
DEFAULT_255_2_778
10
10.3190936
20
1.6110324
40
1.1122404
50
353.4961967
51
355.8388355
0
ARC
8
DEFAULT_255_2_778
10
10.6269385
20
1.5762253
40
0.9740978
50
343.771025
51
356.5805974
0
ARC
8
DEFAULT_255_2_778
10
11.0758786
20
1.4398822
40
0.5049714
50
316.7143695
51
344.3884944
0
ARC
8
DEFAULT_255_2_778
10
11.1254776
20
1.4049707
40
0.4450122
50
299.3359162
51
315.6079053
0
ARC
8
DEFAULT_255_2_778
10
8.5052259
20
1.7448346
40
2.9310361
50
355.8030382
51
357.4768504
0
ARC
8
DEFAULT_255_2_778
10
10.3888082
20
1.6597534
40
1.0455363
50
357.5907104
51
359.8715493
0
ARC
8
DEFAULT_255_2_778
10
11.0259757
20
1.6651856
40
0.4084403
50
358.9091003
51
11.78794
0
ARC
8
DEFAULT_255_2_778
10
11.0860039
20
1.674741
40
0.5183961
50
11.4429865
51
12.3509934
0
ARC
8
DEFAULT_255_2_778
10
11.000906
20
1.662312
40
0.6042865
50
359.2966354
51
10.9972605
0
ARC
8
DEFAULT_255_2_778
10
10.0584766
20
1.6640551
40
1.5466974
50
356.0822791
51
359.660634
0
ARC
8
DEFAULT_255_2_778
10
7.8435468
20
1.79695
40
3.7655781
50
355.7978635
51
356.3675466
0
ARC
8
DEFAULT_255_2_778
10
10.9411957
20
1.6262917
40
0.499809
50
14.1677569
51
28.9505354
0
ARC
8
DEFAULT_255_2_778
10
9.2163443
20
0.7463145
40
2.435941
50
27.4236428
51
29.5323408
0
ARC
8
DEFAULT_255_2_778
10
9.8152494
20
1.0758453
40
1.9238892
50
25.6656039
51
29.7539436
0
ARC
8
DEFAULT_255_2_778
10
10.9650768
20
1.6308837
40
0.6471138
50
17.7094041
51
25.4649937
0
ARC
8
DEFAULT_255_2_778
10
11.107901
20
1.6794624
40
0.4962889
50
12.3518575
51
17.3825669
0
ARC
8
DEFAULT_255_2_778
10
9.815374
20
2.7061623
40
1.4903526
50
0.7405945
51
13.9609588
0
ARC
8
DEFAULT_255_2_778
10
9.8041829
20
2.7033046
40
1.6726231
50
0.89482
51
13.9744794
0
ARC
8
DEFAULT_255_2_778
10
9.8875713
20
2.7212306
40
1.4166553
50
14.0740089
51
16.10028
0
ARC
8
DEFAULT_255_2_778
10
9.1868329
20
2.5019885
40
2.1507713
50
16.5348997
51
22.4100596
0
ARC
8
DEFAULT_255_2_778
10
6.0113924
20
1.2387469
40
5.5681528
50
21.9702521
51
22.8282747
0
ARC
8
DEFAULT_255_2_778
10
8.2232945
20
2.7356274
40
3.1360036
50
20.3689691
51
26.5045002
0
ARC
8
DEFAULT_255_2_778
10
1.1290238
20
0.0150209
40
10.7339276
50
20.3189941
51
20.8025421
0
ARC
8
DEFAULT_255_2_778
10
-40.5835748
20
-15.479173
40
55.2312366
50
20.3423839
51
20.3661888
0
ARC
8
DEFAULT_255_2_778
10
15.2352719
20
7.8363884
40
5.3568456
50
225.5823121
51
228.237596
0
ARC
8
DEFAULT_255_2_778
10
12.6418552
20
4.9194312
40
1.4537452
50
227.9082766
51
238.5289627
0
ARC
8
DEFAULT_255_2_778
10
12.686823
20
4.986216
40
1.7053344
50
226.7172984
51
238.5163059
0
ARC
8
DEFAULT_255_2_778
10
16.5184864
20
9.1956278
40
7.3973148
50
225.8665726
51
227.4654818
0
ARC
8
DEFAULT_255_2_778
10
12.3016356
20
4.3790864
40
0.8153053
50
239.0966696
51
269.9992674
0
ARC
8
DEFAULT_255_2_778
10
12.3016259
20
4.3789761
40
0.8151951
50
269.9999476
51
273.9585
0
ARC
8
DEFAULT_255_2_778
10
12.3004476
20
4.3751692
40
0.9825194
50
270.0002365
51
273.8139694
0
ARC
8
DEFAULT_255_2_778
10
12.3004183
20
4.374861
40
0.9822112
50
239.0925103
51
270.0019502
0
ARC
8
DEFAULT_255_2_778
10
12.3121159
20
4.4986518
40
0.9340489
50
272.8097051
51
282.5626413
0
ARC
8
DEFAULT_255_2_778
10
12.2310834
20
4.8032777
40
1.2490727
50
283.1513721
51
306.8627348
0
ARC
8
DEFAULT_255_2_778
10
12.2149049
20
4.8390112
40
1.4584404
50
285.2958412
51
306.4796482
0
ARC
8
DEFAULT_255_2_778
10
12.3069624
20
4.5117794
40
1.1185179
50
273.0308265
51
285.1692297
0
ARC
8
DEFAULT_255_2_778
10
12.3557811
20
4.6842349
40
1.0793959
50
305.3575038
51
333.9136371
0
ARC
8
DEFAULT_255_2_778
10
12.651053
20
4.5188773
40
0.7417258
50
335.3563273
51
343.0087372
0
ARC
8
DEFAULT_255_2_778
10
12.4303927
20
4.6246234
40
1.1555253
50
309.5572591
51
341.2203545
0
ARC
8
DEFAULT_255_2_778
10
12.1846464
20
4.8668936
40
1.4992289
50
306.7943752
51
310.9017735
0
ARC
8
DEFAULT_255_2_778
10
14.3294281
20
8.7039859
40
3.9846094
50
259.2792619
51
269.7889178
0
ARC
8
DEFAULT_255_2_778
10
14.3255212
20
8.536906
40
3.8175176
50
269.8383159
51
269.9999997
0
ARC
8
DEFAULT_255_2_778
10
14.3291772
20
8.2965178
40
3.5771314
50
269.9414413
51
275.5285147
0
ARC
8
DEFAULT_255_2_778
10
14.3186894
20
8.1629992
40
3.615532
50
270.1829579
51
275.9010019
0
ARC
8
DEFAULT_255_2_778
10
14.3139861
20
8.3848658
40
3.8374145
50
270.0000008
51
270.242605
0
ARC
8
DEFAULT_255_2_778
10
14.3205765
20
8.6591419
40
4.1116958
50
259.2933376
51
269.9081643
0
ARC
8
DEFAULT_255_2_778
10
14.4415269
20
7.2467341
40
2.5214297
50
275.2856056
51
293.8737025
0
ARC
8
DEFAULT_255_2_778
10
14.6714344
20
6.661799
40
1.8936787
50
294.6755042
51
298.080191
0
ARC
8
DEFAULT_255_2_778
10
14.4887045
20
7.0837691
40
2.5230256
50
277.4837269
51
297.2236914
0
ARC
8
DEFAULT_255_2_778
10
14.3483577
20
7.8296483
40
3.2810997
50
275.9837765
51
278.2172456
0
ARC
8
DEFAULT_255_2_778
10
14.5218329
20
6.9276158
40
2.1986354
50
298.2592224
51
326.0229557
0
ARC
8
DEFAULT_255_2_778
10
14.2459422
20
7.134964
40
2.5433617
50
325.6228308
51
330.0245174
0
ARC
8
DEFAULT_255_2_778
10
14.4821628
20
6.9730014
40
2.4286206
50
300.3877429
51
330.5659665
0
ARC
8
DEFAULT_255_2_778
10
14.4952321
20
6.9689146
40
2.4185018
50
298.337319
51
300.169632
0
ARC
8
DEFAULT_255_2_778
10
13.5813181
20
7.4712053
40
3.2872367
50
330.7386962
51
349.6786133
0
ARC
8
DEFAULT_255_2_778
10
12.4298131
20
7.7304718
40
4.4668271
50
349.0532028
51
354.0408145
0
ARC
8
DEFAULT_255_2_778
10
13.0984531
20
7.6131528
40
3.9599598
50
337.4411419
51
354.7502296
0
ARC
8
DEFAULT_255_2_778
10
14.0050739
20
7.268902
40
2.9907921
50
330.0623611
51
336.868359
0
ARC
8
DEFAULT_255_2_778
10
13.1469203
20
7.6390859
40
3.7441436
50
354.2924238
51
357.0916805
0
ARC
8
DEFAULT_255_2_778
10
12.0161507
20
7.6971594
40
4.8764033
50
357.0843278
51
359.7055397
0
ARC
8
DEFAULT_255_2_778
10
11.3495393
20
7.7052269
40
5.5430493
50
359.6575629
51
0.0004257
0
ARC
8
DEFAULT_255_2_778
10
10.5566617
20
7.6978442
40
6.3359311
50
0.0671343
51
3.4987199
0
ARC
8
DEFAULT_255_2_778
10
9.6579161
20
7.6465334
40
7.2361337
50
3.4699625
51
7.5631103
0
ARC
8
DEFAULT_255_2_778
10
9.8033382
20
7.6668447
40
7.0893035
50
7.5550733
51
9.0030254
0
ARC
8
DEFAULT_255_2_778
10
9.8735239
20
7.6749915
40
7.1889671
50
7.4196068
51
9.024468
0
ARC
8
DEFAULT_255_2_778
10
9.7084873
20
7.6520134
40
7.3555894
50
2.9432645
51
7.4310862
0
ARC
8
DEFAULT_255_2_778
10
10.6217946
20
7.6982706
40
6.4411118
50
0.047581
51
2.9494865
0
ARC
8
DEFAULT_255_2_778
10
11.8255693
20
7.6994211
40
5.2373364
50
357.4588796
51
0.0459302
0
ARC
8
DEFAULT_255_2_778
10
12.9851872
20
7.6475782
40
4.0765604
50
354.7733357
51
357.4642022
0
ARC
8
DEFAULT_255_2_778
10
13.598378
20
7.5953366
40
3.4611623
50
354.2792216
51
354.7098538
0
ARC
8
DEFAULT_255_2_778
10
11.0423953
20
7.8826241
40
5.8317766
50
8.8141428
51
15.7447351
0
ARC
8
DEFAULT_255_2_778
10
13.2238354
20
8.4971552
40
3.5654294
50
15.7521926
51
22.8139644
0
ARC
8
DEFAULT_255_2_778
10
14.3662856
20
8.9674696
40
2.3300139
50
23.0464142
51
27.491005
0
ARC
8
DEFAULT_255_2_778
10
14.0531498
20
8.8236804
40
2.8451627
50
19.2689796
51
27.1462936
0
ARC
8
DEFAULT_255_2_778
10
12.2570257
20
8.1915664
40
4.7492689
50
12.7739978
51
19.3169447
0
ARC
8
DEFAULT_255_2_778
10
10.5127578
20
7.7779919
40
6.5418333
50
9.0138843
51
12.9287621
0
ARC
8
DEFAULT_255_2_778
10
16.1419543
20
9.8779001
40
0.3334777
50
29.1479332
51
47.1603555
0
ARC
8
DEFAULT_255_2_778
10
16.1285151
20
9.8681622
40
0.5207413
50
28.7867672
51
46.297573
0
ARC
8
DEFAULT_255_2_778
10
15.8053431
20
9.5268914
40
0.8178178
50
46.4603559
51
70.8440645
0
ARC
8
DEFAULT_255_2_778
10
15.799215
20
9.5177018
40
0.9957809
50
46.4256603
51
70.8056128
0
ARC
8
DEFAULT_255_2_778
10
15.8321305
20
9.596359
40
0.7436
50
71.0424494
51
71.467425
0
ARC
8
DEFAULT_255_2_778
10
15.8920793
20
9.8036443
40
0.5280871
50
70.4860963
51
88.7106881
0
ARC
8
DEFAULT_255_2_778
10
15.8975788
20
10.0817775
40
0.2499018
50
88.536418
51
116.0323993
0
ARC
8
DEFAULT_255_2_778
10
15.8963885
20
10.0848069
40
0.4174853
50
88.9741245
51
116.6542926
0
ARC
8
DEFAULT_255_2_778
10
15.8998613
20
9.87019
40
0.6320479
50
77.174297
51
89.6372247
0
ARC
8
DEFAULT_255_2_778
10
15.8635475
20
9.6960783
40
0.8098832
50
70.8890516
51
77.4037014
0
ARC
8
DEFAULT_255_2_778
10
15.8665368
20
10.1546044
40
0.1708883
50
117.3969861
51
135.667012
0
ARC
8
DEFAULT_255_2_778
10
15.8504353
20
10.1746762
40
0.3164185
50
116.4692457
51
136.2143771
0
ARC
8
DEFAULT_255_2_778
10
17.0374863
20
9.0803939
40
1.759853
50
137.2924426
51
147.007994
0
ARC
8
DEFAULT_255_2_778
10
196.3353794
20
-114.7101192
40
219.6394478
50
145.391156
51
145.3958932
0
ARC
8
DEFAULT_255_2_778
10
17.0373257
20
9.0796518
40
1.9313817
50
137.1306787
51
147.4069702
0
LINE
8
DEFAULT_255_2_778
10
15.551102
20
10.0237258
11
15.5494107
21
10.0212526
0
ARC
8
DEFAULT_255_2_778
10
14.1064869
20
10.922204
40
1.7011004
50
313.9219317
51
328.0196395
0
ARC
8
DEFAULT_255_2_778
10
14.1748332
20
10.8786512
40
1.451497
50
313.5775539
51
328.0758551
0
ARC
8
DEFAULT_255_2_778
10
-68.4703862
20
67.6436181
40
101.7121952
50
325.5532359
51
325.5591243
0
ARC
8
DEFAULT_255_2_778
10
14.5777569
20
10.5574089
40
1.1147874
50
292.8664817
51
309.4769053
0
ARC
8
DEFAULT_255_2_778
10
13.44798
20
13.0891136
40
3.8869679
50
291.4563359
51
293.7097929
0
ARC
8
DEFAULT_255_2_778
10
17.1004834
20
4.166536
40
5.9258058
50
112.6891738
51
112.777339
0
ARC
8
DEFAULT_255_2_778
10
10.204998
20
20.7821562
40
12.0638483
50
292.4644272
51
292.9492606
0
ARC
8
DEFAULT_255_2_778
10
14.5538043
20
10.5966529
40
0.9894083
50
291.0314256
51
308.9436076
0
ARC
8
DEFAULT_255_2_778
10
12.6386707
20
8.7338598
40
2.1924013
50
20.3374505
51
32.2521285
0
ARC
8
DEFAULT_255_2_778
10
12.6351539
20
8.7339504
40
2.3664112
50
20.2918167
51
32.1905876
0
ARC
8
DEFAULT_255_2_778
10
11.7328952
20
8.1437157
40
3.2733887
50
32.5273918
51
40.4244083
0
ARC
8
DEFAULT_255_2_778
10
11.7458028
20
8.1484676
40
3.4311367
50
32.5556522
51
40.4783342
0
ARC
8
DEFAULT_255_2_778
10
13.1640811
20
9.3848602
40
1.3791702
50
39.7267893
51
52.973176
0
ARC
8
DEFAULT_255_2_778
10
13.1839202
20
9.4054709
40
1.5228171
50
43.3747446
51
52.9986973
0
ARC
8
DEFAULT_255_2_778
10
13.0542229
20
9.2839926
40
1.7005185
50
39.9367313
51
43.3487326
0
ARC
8
DEFAULT_255_2_778
10
12.8403256
20
8.966013
40
1.9085306
50
52.7856572
51
55.5317818
0
ARC
8
DEFAULT_255_2_778
10
10.8744612
20
6.0443465
40
5.429948
50
55.8776354
51
58.2440171
0
ARC
8
DEFAULT_255_2_778
10
-78.3611901
20
-135.8360873
40
173.0396536
50
57.8450971
51
57.8505159
0
ARC
8
DEFAULT_255_2_778
10
16.8135413
20
15.4153493
40
5.6654243
50
227.6471901
51
236.8850301
0
ARC
8
DEFAULT_255_2_778
10
52.5687741
20
56.4855548
40
60.1177181
50
228.7309747
51
228.8340802
0
ARC
8
DEFAULT_255_2_778
10
51.5251324
20
55.2439832
40
58.3254068
50
228.696385
51
228.7936547
0
ARC
8
DEFAULT_255_2_778
10
16.8458051
20
15.459991
40
5.5496959
50
227.5763656
51
236.8259849
0
ARC
8
DEFAULT_255_2_778
10
9.7106768
20
8.123309
40
4.4981702
50
50.3903514
51
54.8179668
0
ARC
8
DEFAULT_255_2_778
10
10.2816726
20
8.9357541
40
3.5051442
50
54.7947238
51
60.6106674
0
ARC
8
DEFAULT_255_2_778
10
10.6262496
20
9.5491311
40
2.8016076
50
60.5947591
51
68.237558
0
ARC
8
DEFAULT_255_2_778
10
10.7837242
20
9.9446804
40
2.3758641
50
68.227858
51
80.4182524
0
ARC
8
DEFAULT_255_2_778
10
10.7912241
20
9.9674021
40
2.3522138
50
80.5062609
51
86.4199834
0
ARC
8
DEFAULT_255_2_778
10
10.7934664
20
9.9754721
40
2.5152487
50
69.1386736
51
86.4615805
0
ARC
8
DEFAULT_255_2_778
10
10.7181715
20
9.7618098
40
2.7417235
50
66.7331521
51
69.2583714
0
ARC
8
DEFAULT_255_2_778
10
10.5828957
20
9.4612453
40
3.0712855
50
59.4276646
51
66.6296652
0
ARC
8
DEFAULT_255_2_778
10
10.2125707
20
8.8316483
40
3.8017178
50
54.0325623
51
59.4485229
0
ARC
8
DEFAULT_255_2_778
10
9.6738256
20
8.0840909
40
4.7231737
50
50.3100109
51
54.069265
0
ARC
8
DEFAULT_255_2_778
10
10.7820347
20
9.8252648
40
2.4943358
50
86.417338
51
90.0178462
0
ARC
8
DEFAULT_255_2_778
10
10.7973582
20
9.3220785
40
2.9975652
50
90.3077459
51
101.3158515
0
ARC
8
DEFAULT_255_2_778
10
11.0637365
20
7.9430476
40
4.4020663
50
101.1936368
51
107.5941246
0
ARC
8
DEFAULT_255_2_778
10
11.738692
20
5.7954869
40
6.6531905
50
107.5444728
51
111.8454037
0
ARC
8
DEFAULT_255_2_778
10
12.6269427
20
3.5246495
40
9.0915062
50
111.7160837
51
113.0322242
0
ARC
8
DEFAULT_255_2_778
10
12.2179083
20
4.4623591
40
8.239509
50
109.3629292
51
112.9597689
0
ARC
8
DEFAULT_255_2_778
10
11.2783646
20
7.1505406
40
5.3918739
50
103.8892731
51
109.4146588
0
ARC
8
DEFAULT_255_2_778
10
10.8599182
20
8.8651652
40
3.6269399
50
95.0815621
51
103.9742254
0
ARC
8
DEFAULT_255_2_778
10
10.7833216
20
9.6001368
40
2.8880944
50
90.0432078
51
94.8594415
0
ARC
8
DEFAULT_255_2_778
10
10.781912
20
9.8227579
40
2.6654726
50
86.4188755
51
90.0165167
0
ARC
8
DEFAULT_255_2_778
10
10.2262496
20
9.1187279
40
3.0041627
50
112.6384689
51
120.216239
0
ARC
8
DEFAULT_255_2_778
10
10.0215746
20
9.4815342
40
2.5876507
50
120.3429235
51
132.5204621
0
ARC
8
DEFAULT_255_2_778
10
9.994522
20
9.5357664
40
2.7001499
50
120.0972982
51
132.8817997
0
ARC
8
DEFAULT_255_2_778
10
10.2146418
20
9.1439928
40
3.1494919
50
112.6099457
51
119.9877715
0
ARC
8
DEFAULT_255_2_778
10
10.7045972
20
8.7951242
40
3.555402
50
133.1570177
51
140.8853705
0
ARC
8
DEFAULT_255_2_778
10
12.2155795
20
7.5172056
40
5.5340888
50
140.4890559
51
141.2289577
0
ARC
8
DEFAULT_255_2_778
10
14.3221692
20
5.8465715
40
8.2226855
50
141.3449736
51
143.358971
0
ARC
8
DEFAULT_255_2_778
10
19.7140277
20
1.8009824
40
14.9634933
50
143.250676
51
143.6374588
0
ARC
8
DEFAULT_255_2_778
10
17.8248355
20
3.10154
40
12.8422206
50
142.0315291
51
143.3086141
0
ARC
8
DEFAULT_255_2_778
10
13.5029605
20
6.4580878
40
7.3700426
50
141.2200137
51
141.9319825
0
ARC
8
DEFAULT_255_2_778
10
10.82319
20
8.6627574
40
3.900363
50
133.0210292
51
141.811149
0
ARC
8
DEFAULT_255_2_778
10
7.617083
20
9.6799135
40
0.9585627
50
91.0150479
51
110.4224989
0
ARC
8
DEFAULT_255_2_778
10
7.5537996
20
9.8940362
40
0.9070027
50
109.4252953
51
111.6548762
0
ARC
8
DEFAULT_255_2_778
10
7.6245816
20
9.6291146
40
1.1805776
50
91.6104823
51
108.3888808
0
ARC
8
DEFAULT_255_2_778
10
7.6291576
20
9.736391
40
0.9103772
50
112.3753463
51
126.2474518
0
ARC
8
DEFAULT_255_2_778
10
8.0873256
20
9.0914557
40
1.7014426
50
125.8489331
51
131.8613204
0
ARC
8
DEFAULT_255_2_778
10
8.0207731
20
9.1648957
40
1.7733717
50
124.1800369
51
131.7939853
0
ARC
8
DEFAULT_255_2_778
10
7.6376309
20
9.7307284
40
1.0900246
50
112.5622847
51
124.2282708
0
ARC
8
DEFAULT_255_2_778
10
8.8632337
20
-6.1447181
40
16.1397939
50
98.9623046
51
100.8917463
0
ARC
8
DEFAULT_255_2_778
10
7.5111665
20
0.8450858
40
9.0204289
50
100.8475397
51
104.3541207
0
ARC
8
DEFAULT_255_2_778
10
6.6455834
20
4.19262
40
5.5628146
50
104.2649243
51
110.9663198
0
ARC
8
DEFAULT_255_2_778
10
6.6364071
20
4.2115762
40
5.7130202
50
104.2513719
51
110.9499667
0
ARC
8
DEFAULT_255_2_778
10
7.4863024
20
0.9334585
40
9.0994934
50
101.015526
51
104.3568038
0
ARC
8
DEFAULT_255_2_778
10
8.7671465
20
-5.6051718
40
15.7623916
50
99.0624026
51
101.0441563
0
ARC
8
DEFAULT_255_2_778
10
9.9253861
20
-12.6170829
40
22.8692439
50
99.0650595
51
99.160951
0
ARC
8
DEFAULT_255_2_778
10
6.1407839
20
5.5162971
40
4.1461507
50
110.9975477
51
125.8875206
0
ARC
8
DEFAULT_255_2_778
10
6.4362614
20
5.0962676
40
4.6596586
50
125.8035039
51
128.3937868
0
ARC
8
DEFAULT_255_2_778
10
6.7353657
20
4.7192351
40
5.1409245
50
128.3967442
51
130.84244
0
ARC
8
DEFAULT_255_2_778
10
7.0085786
20
4.400207
40
5.5609492
50
130.8223509
51
131.5960956
0
ARC
8
DEFAULT_255_2_778
10
6.8933573
20
4.5311924
40
5.5592867
50
129.2482466
51
131.5765623
0
ARC
8
DEFAULT_255_2_778
10
6.6456526
20
4.831538
40
5.1699775
50
128.4142899
51
129.2282725
0
ARC
8
DEFAULT_255_2_778
10
6.2731654
20
5.3169475
40
4.5582086
50
120.9835211
51
128.5368181
0
ARC
8
DEFAULT_255_2_778
10
6.1548775
20
5.491869
40
4.347367
50
111.042617
51
120.8337766
0
ARC
8
DEFAULT_255_2_778
10
5.6206724
20
5.9467298
40
3.4905789
50
131.4527393
51
142.5730778
0
ARC
8
DEFAULT_255_2_778
10
5.6172028
20
5.9534348
40
3.6558729
50
131.4549439
51
142.5979843
0
ARC
8
DEFAULT_255_2_778
10
5.6824286
20
5.9115893
40
3.5609908
50
142.7279609
51
153.2835065
0
ARC
8
DEFAULT_255_2_778
10
5.8935055
20
5.7796458
40
3.9798948
50
143.0483041
51
152.942699
0
ARC
8
DEFAULT_255_2_778
10
-0.4020793
20
9.976044
40
3.6391015
50
312.9272803
51
318.7477211
0
ARC
8
DEFAULT_255_2_778
10
106.4982407
20
-86.7093901
40
140.4992944
50
137.8324994
51
137.8497276
0
ARC
8
DEFAULT_255_2_778
10
1.3755331
20
8.0499743
40
1.1893445
50
292.2929614
51
313.2665552
0
ARC
8
DEFAULT_255_2_778
10
1.3722816
20
8.054752
40
1.0238631
50
292.5730038
51
313.4721888
0
ARC
8
DEFAULT_255_2_778
10
1.1916861
20
8.5354803
40
1.7082494
50
288.3582279
51
291.8118134
0
ARC
8
DEFAULT_255_2_778
10
1.6488359
20
7.1466177
40
0.2461146
50
271.846198
51
289.1843981
0
ARC
8
DEFAULT_255_2_778
10
1.656352
20
7.0346031
40
0.1339729
50
255.8227897
51
270.1766079
0
ARC
8
DEFAULT_255_2_778
10
1.6595207
20
7.0454796
40
0.1452948
50
246.8081735
51
255.6617579
0
ARC
8
DEFAULT_255_2_778
10
1.6687315
20
7.0705521
40
0.0009831
50
250.4227934
51
272.0739664
0
ARC
8
DEFAULT_255_2_778
10
1.6148797
20
7.2382582
40
0.1770867
50
287.7159939
51
296.7612503
0
ARC
8
DEFAULT_255_2_778
10
2.3602484
20
5.5641625
40
1.6556723
50
111.0800385
51
113.7051956
0
ARC
8
DEFAULT_255_2_778
10
2.3404682
20
5.6203389
40
1.5961419
50
111.1138635
51
111.1428062
0
ARC
8
DEFAULT_255_2_778
10
1.6661853
20
7.0541822
40
0.1557919
50
198.9656744
51
245.6706745
0
ARC
8
DEFAULT_255_2_778
10
2.396998
20
7.3994269
40
0.9632557
50
201.5174095
51
204.2663147
0
ARC
8
DEFAULT_255_2_778
10
-72.6615251
20
-22.3757799
40
79.7853987
50
21.6393463
51
21.6793754
0
ARC
8
DEFAULT_255_2_778
10
1.1433583
20
6.9689183
40
0.5318702
50
14.0002818
51
20.7581385
0
ARC
8
DEFAULT_255_2_778
10
2.0603291
20
7.187126
40
0.4107764
50
192.5894196
51
195.8981159
0
ARC
8
DEFAULT_255_2_778
10
1.6731472
20
7.075979
40
0.0080014
50
189.9020807
51
236.2522712
0
ARC
8
DEFAULT_255_2_778
10
1.2130148
20
7.5401579
40
0.4526317
50
310.4711098
51
352.9784622
0
ARC
8
DEFAULT_255_2_778
10
-0.322405
20
7.835702
40
2.0154345
50
349.9740646
51
357.3597929
0
ARC
8
DEFAULT_255_2_778
10
-18.0658793
20
9.0068556
40
19.7971618
50
356.3393371
51
356.4410155
0
ARC
8
DEFAULT_255_2_778
10
-9.2495846
20
8.4574687
40
11.1349946
50
356.0857555
51
356.4465513
0
ARC
8
DEFAULT_255_2_778
10
0.7071785
20
7.7097161
40
1.1523234
50
335.7805991
51
359.3854615
0
ARC
8
DEFAULT_255_2_778
10
1.2947911
20
7.4794688
40
0.5229013
50
306.9206297
51
332.3734959
0
ARC
8
DEFAULT_255_2_778
10
1.7603654
20
7.6369513
40
0.3031188
50
26.5818101
51
84.8067886
0
ARC
8
DEFAULT_255_2_778
10
0.4650254
20
6.7195859
40
1.8874538
50
32.9029659
51
33.9104405
0
ARC
8
DEFAULT_255_2_778
10
-3.2055297
20
4.3397049
40
6.262017
50
32.7274792
51
32.941552
0
ARC
8
DEFAULT_255_2_778
10
0.1850312
20
6.5295795
40
2.0548299
50
32.4665182
51
33.7177962
0
ARC
8
DEFAULT_255_2_778
10
1.667509
20
7.5394505
40
0.2617065
50
29.9791421
51
55.5087903
0
ARC
8
DEFAULT_255_2_778
10
1.7789686
20
7.6910187
40
0.0739117
50
60.1934143
51
89.3539251
0
ARC
8
DEFAULT_255_2_778
10
2.696245
20
8.0852062
40
0.8977467
50
214.6445816
51
218.0301621
0
ARC
8
DEFAULT_255_2_778
10
3.9109601
20
8.916711
40
2.3697918
50
212.787043
51
214.4881057
0
ARC
8
DEFAULT_255_2_778
10
0.3037319
20
7.9589292
40
1.7087392
50
347.9953197
51
355.2201248
0
ARC
8
DEFAULT_255_2_778
10
0.8782143
20
7.9013672
40
1.131498
50
355.700752
51
357.3363704
0
ARC
8
DEFAULT_255_2_778
10
1.025635
20
7.8948551
40
0.983934
50
357.3162219
51
359.9627339
0
ARC
8
DEFAULT_255_2_778
10
1.3404018
20
7.9011217
40
0.6692026
50
359.4086699
51
12.0323114
0
ARC
8
DEFAULT_255_2_778
10
1.3166109
20
7.8957509
40
0.8643639
50
359.9694578
51
12.1534396
0
ARC
8
DEFAULT_255_2_778
10
1.0693863
20
7.8872055
40
1.1116178
50
0.0014346
51
0.416708
0
ARC
8
DEFAULT_255_2_778
10
0.7246293
20
7.9006028
40
1.4564362
50
348.3746671
51
359.4740415
0
ARC
8
DEFAULT_255_2_778
10
0.4098337
20
7.9542852
40
1.7756248
50
347.3861506
51
348.7248923
0
ARC
8
DEFAULT_255_2_778
10
1.7114999
20
7.9961007
40
0.2868784
50
8.9287132
51
60.3538519
0
ARC
8
DEFAULT_255_2_778
10
1.7167586
20
8.0006989
40
0.4514218
50
10.1596454
51
61.6091857
0
ARC
8
DEFAULT_255_2_778
10
2.1302676
20
8.0571699
40
0.5268667
50
100.2514397
51
111.2970589
0
ARC
8
DEFAULT_255_2_778
10
2.3858265
20
7.3757646
40
1.2545938
50
110.8685906
51
117.694952
0
ARC
8
DEFAULT_255_2_778
10
2.7521746
20
6.6671486
40
2.0522983
50
117.556424
51
123.5618362
0
ARC
8
DEFAULT_255_2_778
10
2.9209475
20
6.4033343
40
2.3654416
50
123.4356524
51
126.0304735
0
ARC
8
DEFAULT_255_2_778
10
2.8171494
20
6.534726
40
2.1981391
50
125.8569986
51
135.7842248
0
ARC
8
DEFAULT_255_2_778
10
2.8006273
20
6.5325802
40
2.3589072
50
124.864976
51
135.501167
0
ARC
8
DEFAULT_255_2_778
10
2.8652842
20
6.459955
40
2.4554841
50
118.8462145
51
125.1341383
0
ARC
8
DEFAULT_255_2_778
10
2.5290535
20
7.0756246
40
1.753992
50
113.049115
51
118.9287214
0
ARC
8
DEFAULT_255_2_778
10
2.209888
20
7.8336054
40
0.9315667
50
105.3919226
51
113.2384418
0
ARC
8
DEFAULT_255_2_778
10
2.0832967
20
8.2822308
40
0.4654419
50
99.3221386
51
105.0255065
0
ARC
8
DEFAULT_255_2_778
10
2.1038368
20
7.2039102
40
1.220361
50
134.9475188
51
153.0992976
0
ARC
8
DEFAULT_255_2_778
10
1.7281685
20
7.4159159
40
0.789653
50
154.4849611
51
154.8968218
0
ARC
8
DEFAULT_255_2_778
10
2.1048976
20
7.2051939
40
1.3912586
50
135.176576
51
153.6675924
0
ARC
8
DEFAULT_255_2_778
10
1.6101918
20
7.4665163
40
0.6610564
50
154.5463316
51
167.1264808
0
ARC
8
DEFAULT_255_2_778
10
1.4438699
20
7.5059291
40
0.490136
50
167.2861292
51
179.7771791
0
ARC
8
DEFAULT_255_2_778
10
1.3770633
20
7.5073076
40
0.4233261
50
179.9285831
51
189.7900587
0
ARC
8
DEFAULT_255_2_778
10
1.3821725
20
7.5105598
40
0.599269
50
179.9667778
51
189.7740684
0
ARC
8
DEFAULT_255_2_778
10
1.5199244
20
7.4992787
40
0.7371124
50
153.842642
51
179.0960676
0
ARC
8
DEFAULT_255_2_778
10
1.3662589
20
7.5058635
40
0.4124336
50
189.8475932
51
192.7167713
0
ARC
8
DEFAULT_255_2_778
10
1.431319
20
7.527304
40
0.4806627
50
193.5026706
51
219.966981
0
ARC
8
DEFAULT_255_2_778
10
1.6106039
20
7.6628844
40
0.7052486
50
219.0527963
51
226.1810023
0
ARC
8
DEFAULT_255_2_778
10
1.5258358
20
7.5881943
40
0.7636755
50
207.045686
51
226.9067458
0
ARC
8
DEFAULT_255_2_778
10
1.3772826
20
7.5063514
40
0.5941774
50
189.7012733
51
206.5302116
0
ARC
8
DEFAULT_255_2_778
10
2.4747141
20
7.2712905
40
1.3219685
50
197.1023873
51
205.48764
0
ARC
8
DEFAULT_255_2_778
10
2.4741128
20
7.2687143
40
1.491273
50
197.0394767
51
205.4097457
0
ARC
8
DEFAULT_255_2_778
10
1.695362
20
6.8921608
40
0.4552871
50
204.6010619
51
240.8638189
0
ARC
8
DEFAULT_255_2_778
10
1.6891638
20
6.889128
40
0.4496375
50
241.36554
51
252.2789853
0
ARC
8
DEFAULT_255_2_778
10
1.6792558
20
6.8687845
40
0.5983762
50
210.309282
51
252.5884756
0
ARC
8
DEFAULT_255_2_778
10
1.759662
20
6.9214716
40
0.6943987
50
204.8980936
51
210.7141752
0
ARC
8
DEFAULT_255_2_778
10
1.7098529
20
6.960804
40
0.5242142
50
252.5095577
51
270.4439458
0
ARC
8
DEFAULT_255_2_778
10
1.71156
20
7.1212565
40
0.6846549
50
270.1970508
51
280.6552885
0
ARC
8
DEFAULT_255_2_778
10
1.6843403
20
7.2680621
40
0.8339623
50
280.6282209
51
290.5808534
0
ARC
8
DEFAULT_255_2_778
10
1.6996457
20
7.1952589
40
0.9310556
50
277.9041592
51
291.4221912
0
ARC
8
DEFAULT_255_2_778
10
1.7155198
20
7.0912064
40
0.8258099
50
270.0643223
51
277.8060328
0
ARC
8
DEFAULT_255_2_778
10
1.7127609
20
6.9737457
40
0.7083582
50
252.512593
51
270.2981403
0
ARC
8
DEFAULT_255_2_778
10
5.2745737
20
5.7031956
40
3.2557141
50
167.8320996
51
176.309429
0
ARC
8
DEFAULT_255_2_778
10
6.0104424
20
5.6437467
40
3.9939012
50
176.1378645
51
177.8694544
0
ARC
8
DEFAULT_255_2_778
10
5.3420294
20
5.6894977
40
3.4953219
50
167.8422621
51
178.2157875
0
ARC
8
DEFAULT_255_2_778
10
6.5793219
20
5.6256732
40
4.5687806
50
177.9372007
51
180.0313736
0
ARC
8
DEFAULT_255_2_778
10
7.9784838
20
5.6327423
40
5.9679494
50
180.0918856
51
183.1081907
0
ARC
8
DEFAULT_255_2_778
10
10.4212145
20
5.7594919
40
8.4139613
50
183.0681126
51
184.9237258
0
ARC
8
DEFAULT_255_2_778
10
9.9861613
20
5.7287889
40
8.1493515
50
182.7688893
51
184.9661269
0
ARC
8
DEFAULT_255_2_778
10
7.8328566
20
5.624885
40
5.9935415
50
180.0634399
51
182.7711642
0
ARC
8
DEFAULT_255_2_778
10
6.6698004
20
5.6205745
40
4.830482
50
177.9196494
51
180.0275869
0
LINE
8
DEFAULT_255_2_778
10
2.093602
20
4.5825258
11
2.010002
21
4.3550258
0
LINE
8
DEFAULT_255_2_778
10
2.010002
20
4.3550258
11
1.849702
21
4.4137258
0
LINE
8
DEFAULT_255_2_778
10
1.849702
20
4.4137258
11
1.933302
21
4.6413258
0
LINE
8
DEFAULT_255_2_778
10
1.933302
20
4.6413258
11
2.093602
21
4.5825258
0
LINE
8
DEFAULT_255_2_778
10
2.010002
20
4.3550258
11
1.885702
21
4.0163258
0
LINE
8
DEFAULT_255_2_778
10
1.885702
20
4.0163258
11
1.722402
21
4.0745258
0
LINE
8
DEFAULT_255_2_778
10
1.722402
20
4.0745258
11
1.846802
21
4.4132258
0
LINE
8
DEFAULT_255_2_778
10
1.846802
20
4.4132258
11
2.010002
21
4.3550258
0
LINE
8
DEFAULT_255_2_778
10
1.885702
20
4.0163258
11
1.865602
21
3.9854258
0
LINE
8
DEFAULT_255_2_778
10
1.865602
20
3.9854258
11
1.805502
21
4.0457258
0
LINE
8
DEFAULT_255_2_778
10
1.805502
20
4.0457258
11
1.885702
21
4.0163258
0
LINE
8
DEFAULT_255_2_778
10
1.865602
20
3.9854258
11
1.592202
21
3.7147258
0
LINE
8
DEFAULT_255_2_778
10
1.592202
20
3.7147258
11
1.472102
21
3.8356258
0
LINE
8
DEFAULT_255_2_778
10
1.472102
20
3.8356258
11
1.745402
21
4.1063258
0
LINE
8
DEFAULT_255_2_778
10
1.745402
20
4.1063258
11
1.865602
21
3.9854258
0
LINE
8
DEFAULT_255_2_778
10
1.592202
20
3.7147258
11
1.349902
21
3.4747258
0
LINE
8
DEFAULT_255_2_778
10
1.349902
20
3.4747258
11
1.229802
21
3.5956258
0
LINE
8
DEFAULT_255_2_778
10
1.229802
20
3.5956258
11
1.472102
21
3.8356258
0
LINE
8
DEFAULT_255_2_778
10
1.472102
20
3.8356258
11
1.592202
21
3.7147258
0
LINE
8
DEFAULT_255_2_778
10
1.349902
20
3.4747258
11
1.289002
21
3.4154258
0
LINE
8
DEFAULT_255_2_778
10
1.289002
20
3.4154258
11
1.170802
21
3.5390258
0
LINE
8
DEFAULT_255_2_778
10
1.170802
20
3.5390258
11
1.229002
21
3.5956258
0
LINE
8
DEFAULT_255_2_778
10
1.229002
20
3.5956258
11
1.349902
21
3.4747258
0
LINE
8
DEFAULT_255_2_778
10
1.189502
20
3.1011258
11
1.021302
21
3.0731258
0
LINE
8
DEFAULT_255_2_778
10
1.171002
20
3.5387258
11
1.289002
21
3.4154258
0
LINE
8
DEFAULT_255_2_778
10
1.344302
20
2.6447258
11
1.192702
21
2.5653258
0
LINE
8
DEFAULT_255_2_778
10
1.021302
20
3.0733258
11
1.189502
21
3.1011258
0
LINE
8
DEFAULT_255_2_778
10
1.640102
20
2.2447258
11
1.519202
21
2.1245258
0
LINE
8
DEFAULT_255_2_778
10
1.192702
20
2.5653258
11
1.344302
21
2.6447258
0
LINE
8
DEFAULT_255_2_778
10
2.334102
20
1.7835258
11
2.274102
21
1.6237258
0
LINE
8
DEFAULT_255_2_778
10
1.522102
20
2.1243258
11
1.643002
21
2.2447258
0
LINE
8
DEFAULT_255_2_778
10
2.872302
20
1.7584258
11
2.941102
21
1.5996258
0
LINE
8
DEFAULT_255_2_778
10
2.270902
20
1.6216258
11
2.331002
21
1.7835258
0
LINE
8
DEFAULT_255_2_778
10
2.872302
20
1.7584258
11
3.037402
21
1.8314258
0
LINE
8
DEFAULT_255_2_778
10
3.037402
20
1.8314258
11
2.989202
21
1.6576258
0
LINE
8
DEFAULT_255_2_778
10
2.989202
20
1.6576258
11
2.906702
21
1.6803258
0
LINE
8
DEFAULT_255_2_778
10
2.906702
20
1.6803258
11
2.872302
21
1.7584258
0
LINE
8
DEFAULT_255_2_778
10
2.989202
20
1.6578258
11
2.913802
21
1.4210258
0
LINE
8
DEFAULT_255_2_778
10
2.913802
20
1.4210258
11
2.755102
21
1.4792258
0
LINE
8
DEFAULT_255_2_778
10
2.755102
20
1.4792258
11
2.826502
21
1.7033258
0
LINE
8
DEFAULT_255_2_778
10
2.826502
20
1.7033258
11
2.989202
21
1.6578258
0
LINE
8
DEFAULT_255_2_778
10
2.913802
20
1.4210258
11
2.822002
21
1.1961258
0
LINE
8
DEFAULT_255_2_778
10
2.822002
20
1.1961258
11
2.666502
21
1.2670258
0
LINE
8
DEFAULT_255_2_778
10
2.666502
20
1.2670258
11
2.752702
21
1.4792258
0
LINE
8
DEFAULT_255_2_778
10
2.752702
20
1.4792258
11
2.913802
21
1.4210258
0
LINE
8
DEFAULT_255_2_778
10
3.063602
20
0.6056258
11
2.992702
21
0.4500258
0
LINE
8
DEFAULT_255_2_778
10
2.667202
20
1.2657258
11
2.822002
21
1.1961258
0
LINE
8
DEFAULT_255_2_778
10
3.566302
20
0.4460258
11
3.523402
21
0.2809258
0
LINE
8
DEFAULT_255_2_778
10
2.995302
20
0.4497258
11
3.063602
21
0.6056258
0
LINE
8
DEFAULT_255_2_778
10
3.566302
20
0.4460258
11
3.685402
21
0.4148258
0
LINE
8
DEFAULT_255_2_778
10
3.685402
20
0.4148258
11
3.642002
21
0.2497258
0
LINE
8
DEFAULT_255_2_778
10
3.642002
20
0.2497258
11
3.524002
21
0.2809258
0
LINE
8
DEFAULT_255_2_778
10
3.524002
20
0.2809258
11
3.566302
21
0.4460258
0
LINE
8
DEFAULT_255_2_778
10
4.556402
20
0.2389258
11
4.545802
21
0.0679258
0
LINE
8
DEFAULT_255_2_778
10
3.642002
20
0.2497258
11
3.685402
21
0.4148258
0
LINE
8
DEFAULT_255_2_778
10
5.155702
20
0.4876258
11
5.320802
21
0.4442258
0
LINE
8
DEFAULT_255_2_778
10
4.545502
20
0.0679258
11
4.556402
21
0.2389258
0
LINE
8
DEFAULT_255_2_778
10
5.212502
20
0.7786258
11
5.383502
21
0.7646258
0
LINE
8
DEFAULT_255_2_778
10
5.320802
20
0.4410258
11
5.155702
21
0.4876258
0
LINE
8
DEFAULT_255_2_778
10
5.205902
20
1.0641258
11
5.375302
21
1.0800258
0
LINE
8
DEFAULT_255_2_778
10
5.383202
20
0.7643258
11
5.212502
21
0.7786258
0
LINE
8
DEFAULT_255_2_778
10
5.205902
20
1.0644258
11
5.212502
21
1.1072258
0
LINE
8
DEFAULT_255_2_778
10
5.212502
20
1.1072258
11
5.290602
21
1.0728258
0
LINE
8
DEFAULT_255_2_778
10
5.290602
20
1.0728258
11
5.205902
21
1.0644258
0
LINE
8
DEFAULT_255_2_778
10
5.458602
20
1.5560258
11
5.599602
21
1.4596258
0
LINE
8
DEFAULT_255_2_778
10
5.368902
20
1.0376258
11
5.212502
21
1.1072258
0
LINE
8
DEFAULT_255_2_778
10
5.458602
20
1.5560258
11
5.495602
21
1.6110258
0
LINE
8
DEFAULT_255_2_778
10
5.495602
20
1.6110258
11
5.637202
21
1.5157258
0
LINE
8
DEFAULT_255_2_778
10
5.637202
20
1.5157258
11
5.599102
21
1.4628258
0
LINE
8
DEFAULT_255_2_778
10
5.599102
20
1.4628258
11
5.458602
21
1.5560258
0
LINE
8
DEFAULT_255_2_778
10
5.600702
20
1.8393258
11
5.770002
21
1.8160258
0
LINE
8
DEFAULT_255_2_778
10
5.637702
20
1.5155258
11
5.495602
21
1.6110258
0
LINE
8
DEFAULT_255_2_778
10
5.585302
20
2.1216258
11
5.754702
21
2.1410258
0
LINE
8
DEFAULT_255_2_778
10
5.769202
20
1.8155258
11
5.600702
21
1.8393258
0
LINE
8
DEFAULT_255_2_778
10
5.585302
20
2.1216258
11
5.575302
21
2.2023258
0
LINE
8
DEFAULT_255_2_778
10
5.575302
20
2.2023258
11
5.744602
21
2.2235258
0
LINE
8
DEFAULT_255_2_778
10
5.744602
20
2.2235258
11
5.755202
21
2.1407258
0
LINE
8
DEFAULT_255_2_778
10
5.755202
20
2.1407258
11
5.585302
21
2.1216258
0
LINE
8
DEFAULT_255_2_778
10
5.575302
20
2.2023258
11
5.563102
21
2.2870258
0
LINE
8
DEFAULT_255_2_778
10
5.563102
20
2.2870258
11
5.732402
21
2.3116258
0
LINE
8
DEFAULT_255_2_778
10
5.732402
20
2.3116258
11
5.744602
21
2.2243258
0
LINE
8
DEFAULT_255_2_778
10
5.744602
20
2.2243258
11
5.575302
21
2.2023258
0
LINE
8
DEFAULT_255_2_778
10
5.563102
20
2.2870258
11
5.546402
21
2.4008258
0
LINE
8
DEFAULT_255_2_778
10
5.546402
20
2.4008258
11
5.660202
21
2.3836258
0
LINE
8
DEFAULT_255_2_778
10
5.660202
20
2.3836258
11
5.647502
21
2.2989258
0
LINE
8
DEFAULT_255_2_778
10
5.647502
20
2.2989258
11
5.563102
21
2.2870258
0
LINE
8
DEFAULT_255_2_778
10
6.375602
20
2.3280258
11
6.375102
21
2.1571258
0
LINE
8
DEFAULT_255_2_778
10
5.635102
20
2.2153258
11
5.660202
21
2.3838258
0
LINE
8
DEFAULT_255_2_778
10
7.085502
20
2.3738258
11
7.105602
21
2.2044258
0
LINE
8
DEFAULT_255_2_778
10
6.374802
20
2.1603258
11
6.375602
21
2.3309258
0
LINE
8
DEFAULT_255_2_778
10
7.085502
20
2.3738258
11
7.138402
21
2.2150258
0
LINE
8
DEFAULT_255_2_778
10
7.138402
20
2.2150258
11
7.095602
21
2.2891258
0
LINE
8
DEFAULT_255_2_778
10
7.095602
20
2.2891258
11
7.085502
21
2.3738258
0
LINE
8
DEFAULT_255_2_778
10
7.138402
20
2.2150258
11
6.686802
21
1.9735258
0
LINE
8
DEFAULT_255_2_778
10
6.686802
20
1.9735258
11
6.608702
21
2.1259258
0
LINE
8
DEFAULT_255_2_778
10
6.608702
20
2.1259258
11
7.053202
21
2.3635258
0
LINE
8
DEFAULT_255_2_778
10
7.053202
20
2.3635258
11
7.138402
21
2.2150258
0
LINE
8
DEFAULT_255_2_778
10
6.686802
20
1.9735258
11
6.647602
21
1.9534258
0
LINE
8
DEFAULT_255_2_778
10
6.647602
20
1.9534258
11
6.569602
21
2.1058258
0
LINE
8
DEFAULT_255_2_778
10
6.569602
20
2.1058258
11
6.608702
21
2.1259258
0
LINE
8
DEFAULT_255_2_778
10
6.608702
20
2.1259258
11
6.686802
21
1.9735258
0
LINE
8
DEFAULT_255_2_778
10
6.529102
20
1.4612258
11
6.366102
21
1.4104258
0
LINE
8
DEFAULT_255_2_778
10
6.569302
20
2.1058258
11
6.647602
21
1.9534258
0
LINE
8
DEFAULT_255_2_778
10
6.851902
20
0.8368258
11
6.709002
21
0.7442258
0
LINE
8
DEFAULT_255_2_778
10
6.366402
20
1.4110258
11
6.529102
21
1.4612258
0
LINE
8
DEFAULT_255_2_778
10
7.460402
20
0.1293258
11
7.371502
21
-0.0161742
0
LINE
8
DEFAULT_255_2_778
10
6.706102
20
0.7440258
11
6.851902
21
0.8368258
0
LINE
8
DEFAULT_255_2_778
10
8.228802
20
0.1637258
11
8.309702
21
0.0129258
0
LINE
8
DEFAULT_255_2_778
10
7.371802
20
-0.0135742
11
7.460402
21
0.1293258
0
LINE
8
DEFAULT_255_2_778
10
8.499202
20
0.4542258
11
8.648202
21
0.3701258
0
LINE
8
DEFAULT_255_2_778
10
8.309502
20
0.0129258
11
8.228802
21
0.1637258
0
LINE
8
DEFAULT_255_2_778
10
8.499202
20
0.4542258
11
8.599702
21
0.6193258
0
LINE
8
DEFAULT_255_2_778
10
8.599702
20
0.6193258
11
8.741302
21
0.5246258
0
LINE
8
DEFAULT_255_2_778
10
8.741302
20
0.5246258
11
8.647902
21
0.3701258
0
LINE
8
DEFAULT_255_2_778
10
8.647902
20
0.3701258
11
8.499202
21
0.4542258
0
LINE
8
DEFAULT_255_2_778
10
8.599702
20
0.6193258
11
8.629402
21
0.6471258
0
LINE
8
DEFAULT_255_2_778
10
8.629402
20
0.6471258
11
8.670402
21
0.5720258
0
LINE
8
DEFAULT_255_2_778
10
8.670402
20
0.5720258
11
8.599702
21
0.6193258
0
LINE
8
DEFAULT_255_2_778
10
9.100302
20
1.0220258
11
9.209302
21
0.8905258
0
LINE
8
DEFAULT_255_2_778
10
9.209302
20
0.8905258
11
8.711902
21
0.4968258
0
LINE
8
DEFAULT_255_2_778
10
8.711902
20
0.4968258
11
8.629402
21
0.6471258
0
LINE
8
DEFAULT_255_2_778
10
9.100302
20
1.0220258
11
9.367002
21
1.2416258
0
LINE
8
DEFAULT_255_2_778
10
9.367002
20
1.2416258
11
9.474402
21
1.1080258
0
LINE
8
DEFAULT_255_2_778
10
9.474402
20
1.1080258
11
9.209102
21
0.8905258
0
LINE
8
DEFAULT_255_2_778
10
9.209102
20
0.8905258
11
9.100302
21
1.0220258
0
LINE
8
DEFAULT_255_2_778
10
9.367002
20
1.2416258
11
9.432602
21
1.2945258
0
LINE
8
DEFAULT_255_2_778
10
9.432602
20
1.2945258
11
9.486602
21
1.2297258
0
LINE
8
DEFAULT_255_2_778
10
9.486602
20
1.2297258
11
9.420502
21
1.1750258
0
LINE
8
DEFAULT_255_2_778
10
9.420502
20
1.1750258
11
9.367002
21
1.2416258
0
LINE
8
DEFAULT_255_2_778
10
9.645402
20
1.1459258
11
9.605702
21
0.9792258
0
LINE
8
DEFAULT_255_2_778
10
9.352202
20
1.1194258
11
9.486602
21
1.2297258
0
LINE
8
DEFAULT_255_2_778
10
9.974002
20
1.1062258
11
9.961802
21
0.9352258
0
LINE
8
DEFAULT_255_2_778
10
9.605702
20
0.9794258
11
9.645402
21
1.1459258
0
LINE
8
DEFAULT_255_2_778
10
10.631202
20
1.0988258
11
10.631202
21
0.9278258
0
LINE
8
DEFAULT_255_2_778
10
9.961802
20
0.9352258
11
9.974002
21
1.1062258
0
LINE
8
DEFAULT_255_2_778
10
10.631202
20
1.0988258
11
10.791302
21
1.0985258
0
LINE
8
DEFAULT_255_2_778
10
10.791302
20
1.0985258
11
10.790502
21
0.9276258
0
LINE
8
DEFAULT_255_2_778
10
10.790502
20
0.9276258
11
10.631202
21
0.9276258
0
LINE
8
DEFAULT_255_2_778
10
10.631202
20
0.9276258
11
10.631202
21
1.0985258
0
LINE
8
DEFAULT_255_2_778
10
10.631202
20
1.0985258
11
10.631202
21
1.0988258
0
LINE
8
DEFAULT_255_2_778
10
11.259102
20
1.1662258
11
11.343202
21
1.0173258
0
LINE
8
DEFAULT_255_2_778
10
10.790702
20
0.9273258
11
10.791502
21
1.0982258
0
LINE
8
DEFAULT_255_2_778
10
10.791502
20
1.0982258
11
10.791302
21
1.0985258
0
LINE
8
DEFAULT_255_2_778
10
11.428402
20
1.5303258
11
11.599302
21
1.5181258
0
LINE
8
DEFAULT_255_2_778
10
11.343502
20
1.0170258
11
11.259102
21
1.1662258
0
LINE
8
DEFAULT_255_2_778
10
11.425802
20
1.7486258
11
11.592402
21
1.7856258
0
LINE
8
DEFAULT_255_2_778
10
11.599002
20
1.5210258
11
11.428402
21
1.5303258
0
LINE
8
DEFAULT_255_2_778
10
11.335802
20
1.9470258
11
11.485502
21
2.0306258
0
LINE
8
DEFAULT_255_2_778
10
11.592702
20
1.7856258
11
11.425802
21
1.7486258
0
LINE
8
DEFAULT_255_2_778
10
11.335802
20
1.9470258
11
11.325202
21
1.9867258
0
LINE
8
DEFAULT_255_2_778
10
11.325202
20
1.9867258
11
11.410702
21
1.9888258
0
LINE
8
DEFAULT_255_2_778
10
11.410702
20
1.9888258
11
11.335802
21
1.9470258
0
LINE
8
DEFAULT_255_2_778
10
11.325202
20
1.9867258
11
11.315402
21
2.3550258
0
LINE
8
DEFAULT_255_2_778
10
11.315402
20
2.3550258
11
11.486302
21
2.3590258
0
LINE
8
DEFAULT_255_2_778
10
11.486302
20
2.3590258
11
11.496102
21
1.9907258
0
LINE
8
DEFAULT_255_2_778
10
11.496102
20
1.9907258
11
11.325202
21
1.9867258
0
LINE
8
DEFAULT_255_2_778
10
11.315402
20
2.3550258
11
11.305602
21
2.7254258
0
LINE
8
DEFAULT_255_2_778
10
11.305602
20
2.7254258
11
11.476602
21
2.7294258
0
LINE
8
DEFAULT_255_2_778
10
11.476602
20
2.7294258
11
11.486302
21
2.3590258
0
LINE
8
DEFAULT_255_2_778
10
11.486302
20
2.3590258
11
11.315402
21
2.3550258
0
LINE
8
DEFAULT_255_2_778
10
11.261702
20
3.0657258
11
11.427302
21
3.1072258
0
LINE
8
DEFAULT_255_2_778
10
11.476602
20
2.7294258
11
11.305602
21
2.7254258
0
LINE
8
DEFAULT_255_2_778
10
11.143402
20
3.3990258
11
11.301102
21
3.4652258
0
LINE
8
DEFAULT_255_2_778
10
11.301102
20
3.4652258
11
11.427302
21
3.1075258
0
LINE
8
DEFAULT_255_2_778
10
11.427302
20
3.1075258
11
11.261702
21
3.0657258
0
LINE
8
DEFAULT_255_2_778
10
11.143402
20
3.3990258
11
11.042902
21
3.6591258
0
LINE
8
DEFAULT_255_2_778
10
11.042902
20
3.6591258
11
11.203202
21
3.7179258
0
LINE
8
DEFAULT_255_2_778
10
11.203202
20
3.7179258
11
11.301102
21
3.4649258
0
LINE
8
DEFAULT_255_2_778
10
11.301102
20
3.4649258
11
11.143402
21
3.3990258
0
LINE
8
DEFAULT_255_2_778
10
11.203002
20
3.7184258
11
11.122802
21
3.6919258
0
LINE
8
DEFAULT_255_2_778
10
11.122802
20
3.6919258
11
11.203002
21
3.7184258
0
LINE
8
DEFAULT_255_2_778
10
11.042602
20
3.6589258
11
10.876702
21
4.0557258
0
LINE
8
DEFAULT_255_2_778
10
10.876702
20
4.0557258
11
11.029702
21
4.1351258
0
LINE
8
DEFAULT_255_2_778
10
11.203002
20
3.7208258
11
11.042602
21
3.6589258
0
LINE
8
DEFAULT_255_2_778
10
10.876702
20
4.0557258
11
10.868802
21
4.1087258
0
LINE
8
DEFAULT_255_2_778
10
10.868802
20
4.1087258
11
10.952902
21
4.0938258
0
LINE
8
DEFAULT_255_2_778
10
10.952902
20
4.0938258
11
10.876702
21
4.0557258
0
LINE
8
DEFAULT_255_2_778
10
10.868802
20
4.1087258
11
10.890002
21
4.2410258
0
LINE
8
DEFAULT_255_2_778
10
10.890002
20
4.2410258
11
11.059302
21
4.2198258
0
LINE
8
DEFAULT_255_2_778
10
11.059302
20
4.2198258
11
11.038102
21
4.0796258
0
LINE
8
DEFAULT_255_2_778
10
11.038102
20
4.0796258
11
10.868802
21
4.1087258
0
LINE
8
DEFAULT_255_2_778
10
10.890002
20
4.2410258
11
10.904802
21
4.3785258
0
LINE
8
DEFAULT_255_2_778
10
10.904802
20
4.3785258
11
11.075702
21
4.3645258
0
LINE
8
DEFAULT_255_2_778
10
11.075702
20
4.3645258
11
11.059002
21
4.2195258
0
LINE
8
DEFAULT_255_2_778
10
11.059002
20
4.2195258
11
10.890002
21
4.2410258
0
LINE
8
DEFAULT_255_2_778
10
10.904802
20
4.3785258
11
10.920702
21
4.5574258
0
LINE
8
DEFAULT_255_2_778
10
10.920702
20
4.5574258
11
11.049502
21
4.4330258
0
LINE
8
DEFAULT_255_2_778
10
11.049502
20
4.4330258
11
10.990202
21
4.3711258
0
LINE
8
DEFAULT_255_2_778
10
10.990202
20
4.3711258
11
10.904802
21
4.3785258
0
LINE
8
DEFAULT_255_2_778
10
11.049502
20
4.4333258
11
11.300902
21
4.1912258
0
LINE
8
DEFAULT_255_2_778
10
11.300902
20
4.1912258
11
11.182602
21
4.0676258
0
LINE
8
DEFAULT_255_2_778
10
11.182602
20
4.0676258
11
10.931202
21
4.3097258
0
LINE
8
DEFAULT_255_2_778
10
10.931202
20
4.3097258
11
11.049502
21
4.4333258
0
LINE
8
DEFAULT_255_2_778
10
11.300902
20
4.1912258
11
11.486102
21
4.0102258
0
LINE
8
DEFAULT_255_2_778
10
11.486102
20
4.0102258
11
11.367802
21
3.8867258
0
LINE
8
DEFAULT_255_2_778
10
11.367802
20
3.8867258
11
11.182602
21
4.0676258
0
LINE
8
DEFAULT_255_2_778
10
11.182602
20
4.0676258
11
11.300902
21
4.1912258
0
LINE
8
DEFAULT_255_2_778
10
11.882902
20
3.6795258
11
11.796202
21
3.5319258
0
LINE
8
DEFAULT_255_2_778
10
11.367502
20
3.8864258
11
11.486102
21
4.0102258
0
LINE
8
DEFAULT_255_2_778
10
12.357902
20
3.5657258
11
12.365802
21
3.3948258
0
LINE
8
DEFAULT_255_2_778
10
11.795902
20
3.5321258
11
11.882902
21
3.6795258
0
LINE
8
DEFAULT_255_2_778
10
12.980402
20
3.8039258
11
13.082002
21
3.6663258
0
LINE
8
DEFAULT_255_2_778
10
12.366102
20
3.3948258
11
12.357902
21
3.5657258
0
LINE
8
DEFAULT_255_2_778
10
13.360402
20
4.3021258
11
13.524402
21
4.2526258
0
LINE
8
DEFAULT_255_2_778
10
13.082602
20
3.6663258
11
12.980402
21
3.8039258
0
LINE
8
DEFAULT_255_2_778
10
13.360402
20
4.3021258
11
13.420402
21
4.4997258
0
LINE
8
DEFAULT_255_2_778
10
13.420402
20
4.4997258
11
13.584502
21
4.4502258
0
LINE
8
DEFAULT_255_2_778
10
13.584502
20
4.4502258
11
13.524402
21
4.2526258
0
LINE
8
DEFAULT_255_2_778
10
13.524402
20
4.2526258
11
13.360402
21
4.3021258
0
LINE
8
DEFAULT_255_2_778
10
13.420402
20
4.4997258
11
13.490302
21
4.7299258
0
LINE
8
DEFAULT_255_2_778
10
13.490302
20
4.7299258
11
13.654302
21
4.6804258
0
LINE
8
DEFAULT_255_2_778
10
13.654302
20
4.6804258
11
13.584502
21
4.4502258
0
LINE
8
DEFAULT_255_2_778
10
13.584502
20
4.4502258
11
13.420402
21
4.4997258
0
LINE
8
DEFAULT_255_2_778
10
13.490302
20
4.7299258
11
13.512502
21
4.8032258
0
LINE
8
DEFAULT_255_2_778
10
13.512502
20
4.8032258
11
13.587702
21
4.7889258
0
LINE
8
DEFAULT_255_2_778
10
13.587702
20
4.7889258
11
13.571802
21
4.7050258
0
LINE
8
DEFAULT_255_2_778
10
13.571802
20
4.7050258
11
13.490302
21
4.7299258
0
LINE
8
DEFAULT_255_2_778
10
14.673802
20
4.7360258
11
14.690402
21
4.5666258
0
LINE
8
DEFAULT_255_2_778
10
13.556702
20
4.6190258
11
13.588202
21
4.7889258
0
LINE
8
DEFAULT_255_2_778
10
15.562802
20
4.9910258
11
15.642902
21
4.8402258
0
LINE
8
DEFAULT_255_2_778
10
14.690402
20
4.5664258
11
14.673802
21
4.7360258
0
LINE
8
DEFAULT_255_2_778
10
16.449102
20
5.8642258
11
16.597302
21
5.7795258
0
LINE
8
DEFAULT_255_2_778
10
15.643202
20
4.8402258
11
15.562802
21
4.9910258
0
LINE
8
DEFAULT_255_2_778
10
16.449102
20
5.8642258
11
16.523202
21
5.8218258
0
LINE
8
DEFAULT_255_2_778
10
16.523202
20
5.8218258
11
16.449102
21
5.8642258
0
LINE
8
DEFAULT_255_2_778
10
16.449102
20
5.8642258
11
16.449102
21
5.8642258
0
LINE
8
DEFAULT_255_2_778
10
16.872502
20
7.2667258
11
17.041802
21
7.2508258
0
LINE
8
DEFAULT_255_2_778
10
16.596802
20
5.7763258
11
16.449102
21
5.8644258
0
LINE
8
DEFAULT_255_2_778
10
16.805302
20
8.7762258
11
16.973502
21
8.8026258
0
LINE
8
DEFAULT_255_2_778
10
17.042302
20
7.2503258
11
16.872502
21
7.2667258
0
LINE
8
DEFAULT_255_2_778
10
16.433202
20
10.0430258
11
16.584902
21
10.1218258
0
LINE
8
DEFAULT_255_2_778
10
16.973802
20
8.8029258
11
16.805302
21
8.7762258
0
LINE
8
DEFAULT_255_2_778
10
16.368702
20
10.1224258
11
16.488302
21
10.2446258
0
LINE
8
DEFAULT_255_2_778
10
16.584902
20
10.1189258
11
16.433202
21
10.0403258
0
LINE
8
DEFAULT_255_2_778
10
16.073702
20
10.2994258
11
16.126602
21
10.4581258
0
LINE
8
DEFAULT_255_2_778
10
16.485602
20
10.2391258
11
16.368702
21
10.1197258
0
LINE
8
DEFAULT_255_2_778
10
15.787902
20
10.3063258
11
15.709102
21
10.4579258
0
LINE
8
DEFAULT_255_2_778
10
16.128702
20
10.4613258
11
16.073702
21
10.2996258
0
LINE
8
DEFAULT_255_2_778
10
15.744302
20
10.2740258
11
15.622002
21
10.3936258
0
LINE
8
DEFAULT_255_2_778
10
15.709402
20
10.4579258
11
15.787902
21
10.3063258
0
LINE
8
DEFAULT_255_2_778
10
15.551102
20
10.0237258
11
15.410102
21
10.1200258
0
LINE
8
DEFAULT_255_2_778
10
15.621802
20
10.3936258
11
15.744302
21
10.2740258
0
LINE
8
DEFAULT_255_2_778
10
15.286502
20
9.6969258
11
15.175402
21
9.8271258
0
LINE
8
DEFAULT_255_2_778
10
15.412702
20
10.1197258
11
15.551102
21
10.0237258
0
LINE
8
DEFAULT_255_2_778
10
14.869802
20
9.4715258
11
14.806302
21
9.6302258
0
LINE
8
DEFAULT_255_2_778
10
15.175702
20
9.8271258
11
15.286502
21
9.6969258
0
LINE
8
DEFAULT_255_2_778
10
14.869802
20
9.4715258
11
14.806902
21
9.4461258
0
LINE
8
DEFAULT_255_2_778
10
14.806902
20
9.4461258
11
14.742002
21
9.6043258
0
LINE
8
DEFAULT_255_2_778
10
14.742002
20
9.6043258
11
14.806302
21
9.6302258
0
LINE
8
DEFAULT_255_2_778
10
14.806302
20
9.6302258
11
14.869802
21
9.4715258
0
LINE
8
DEFAULT_255_2_778
10
14.806902
20
9.4461258
11
14.727502
21
9.4125258
0
LINE
8
DEFAULT_255_2_778
10
14.727502
20
9.4125258
11
14.696502
21
9.4958258
0
LINE
8
DEFAULT_255_2_778
10
14.696502
20
9.4958258
11
14.776702
21
9.5223258
0
LINE
8
DEFAULT_255_2_778
10
14.776702
20
9.5223258
11
14.806902
21
9.4461258
0
LINE
8
DEFAULT_255_2_778
10
14.492802
20
9.9038258
11
14.637802
21
9.9946258
0
LINE
8
DEFAULT_255_2_778
10
14.854702
20
9.5546258
11
14.694402
21
9.4958258
0
LINE
8
DEFAULT_255_2_778
10
14.224802
20
10.2663258
11
14.355702
21
10.3758258
0
LINE
8
DEFAULT_255_2_778
10
14.637802
20
9.9948258
11
14.492802
21
9.9038258
0
LINE
8
DEFAULT_255_2_778
10
13.994602
20
10.4859258
11
14.100402
21
10.6216258
0
LINE
8
DEFAULT_255_2_778
10
14.358102
20
10.3756258
11
14.224802
21
10.2663258
0
LINE
8
DEFAULT_255_2_778
10
13.718402
20
10.6701258
11
13.809102
21
10.8150258
0
LINE
8
DEFAULT_255_2_778
10
13.809102
20
10.8150258
11
14.098002
21
10.6219258
0
LINE
8
DEFAULT_255_2_778
10
14.098002
20
10.6219258
11
13.994602
21
10.4859258
0
LINE
8
DEFAULT_255_2_778
10
12.915402
20
11.2998258
11
13.027502
21
11.4286258
0
LINE
8
DEFAULT_255_2_778
10
13.809102
20
10.8148258
11
13.718402
21
10.6701258
0
LINE
8
DEFAULT_255_2_778
10
12.915402
20
11.2998258
11
12.578502
21
11.5887258
0
LINE
8
DEFAULT_255_2_778
10
12.578502
20
11.5887258
11
12.687502
21
11.7210258
0
LINE
8
DEFAULT_255_2_778
10
12.687502
20
11.7210258
11
13.027502
21
11.4286258
0
LINE
8
DEFAULT_255_2_778
10
13.027502
20
11.4286258
11
12.915402
21
11.2998258
0
LINE
8
DEFAULT_255_2_778
10
10.938102
20
12.3150258
11
10.948702
21
12.4859258
0
LINE
8
DEFAULT_255_2_778
10
12.690202
20
11.7186258
11
12.578502
21
11.5887258
0
LINE
8
DEFAULT_255_2_778
10
9.069902
20
11.8914258
11
9.003802
21
12.0491258
0
LINE
8
DEFAULT_255_2_778
10
10.948402
20
12.4830258
11
10.937902
21
12.3147258
0
LINE
8
DEFAULT_255_2_778
10
8.272702
20
11.3887258
11
8.157102
21
11.5143258
0
LINE
8
DEFAULT_255_2_778
10
9.003802
20
12.0514258
11
9.069902
21
11.8914258
0
LINE
8
DEFAULT_255_2_778
10
7.664202
20
10.6727258
11
7.527102
21
10.7748258
0
LINE
8
DEFAULT_255_2_778
10
8.162102
20
11.5143258
11
8.272702
21
11.3887258
0
LINE
8
DEFAULT_255_2_778
10
7.664202
20
10.6727258
11
7.637702
21
10.6404258
0
LINE
8
DEFAULT_255_2_778
10
7.637702
20
10.6404258
11
7.598002
21
10.6383258
0
LINE
8
DEFAULT_255_2_778
10
7.598002
20
10.6383258
11
7.593802
21
10.7238258
0
LINE
8
DEFAULT_255_2_778
10
7.593802
20
10.7238258
11
7.664202
21
10.6727258
0
LINE
8
DEFAULT_255_2_778
10
7.282602
20
10.5782258
11
7.219102
21
10.7370258
0
LINE
8
DEFAULT_255_2_778
10
7.591402
20
10.8092258
11
7.600102
21
10.6383258
0
LINE
8
DEFAULT_255_2_778
10
6.951902
20
10.3586258
11
6.838902
21
10.4870258
0
LINE
8
DEFAULT_255_2_778
10
7.219402
20
10.7373258
11
7.282602
21
10.5782258
0
LINE
8
DEFAULT_255_2_778
10
6.951902
20
10.3586258
11
6.669602
21
10.0972258
0
LINE
8
DEFAULT_255_2_778
10
6.669602
20
10.0972258
11
6.550502
21
10.2203258
0
LINE
8
DEFAULT_255_2_778
10
6.550502
20
10.2203258
11
6.843202
21
10.4907258
0
LINE
8
DEFAULT_255_2_778
10
6.843202
20
10.4907258
11
6.951902
21
10.3586258
0
LINE
8
DEFAULT_255_2_778
10
6.669602
20
10.0972258
11
6.669302
21
10.0972258
0
LINE
8
DEFAULT_255_2_778
10
6.669302
20
10.0972258
11
6.610102
21
10.1591258
0
LINE
8
DEFAULT_255_2_778
10
6.610102
20
10.1591258
11
6.669602
21
10.0978258
0
LINE
8
DEFAULT_255_2_778
10
6.669602
20
10.0978258
11
6.669602
21
10.0972258
0
LINE
8
DEFAULT_255_2_778
10
6.669302
20
10.0970258
11
6.397302
21
9.8231258
0
LINE
8
DEFAULT_255_2_778
10
6.397302
20
9.8231258
11
6.273802
21
9.9414258
0
LINE
8
DEFAULT_255_2_778
10
6.273802
20
9.9414258
11
6.551602
21
10.2205258
0
LINE
8
DEFAULT_255_2_778
10
6.551602
20
10.2205258
11
6.669302
21
10.0970258
0
LINE
8
DEFAULT_255_2_778
10
6.397302
20
9.8231258
11
6.348902
21
9.7980258
0
LINE
8
DEFAULT_255_2_778
10
6.348902
20
9.7980258
11
6.335702
21
9.8821258
0
LINE
8
DEFAULT_255_2_778
10
6.335702
20
9.8821258
11
6.397302
21
9.8231258
0
LINE
8
DEFAULT_255_2_778
10
4.655102
20
9.3871258
11
4.593702
21
9.5469258
0
LINE
8
DEFAULT_255_2_778
10
6.322202
20
9.9665258
11
6.348902
21
9.7980258
0
LINE
8
DEFAULT_255_2_778
10
3.316802
20
8.5589258
11
3.204102
21
8.6899258
0
LINE
8
DEFAULT_255_2_778
10
4.593902
20
9.5493258
11
4.655102
21
9.3871258
0
LINE
8
DEFAULT_255_2_778
10
2.848702
20
8.0681258
11
2.713002
21
8.1740258
0
LINE
8
DEFAULT_255_2_778
10
3.196902
20
8.6934258
11
3.309902
21
8.5629258
0
LINE
8
DEFAULT_255_2_778
10
2.501602
20
7.5125258
11
2.349202
21
7.5900258
0
LINE
8
DEFAULT_255_2_778
10
2.713002
20
8.1721258
11
2.848702
21
8.0681258
0
LINE
8
DEFAULT_255_2_778
10
2.501602
20
7.5125258
11
2.488902
21
7.4940258
0
LINE
8
DEFAULT_255_2_778
10
2.488902
20
7.4940258
11
2.425402
21
7.5511258
0
LINE
8
DEFAULT_255_2_778
10
2.425402
20
7.5511258
11
2.501602
21
7.5125258
0
LINE
8
DEFAULT_255_2_778
10
2.488902
20
7.4940258
11
2.190702
21
7.1839258
0
LINE
8
DEFAULT_255_2_778
10
2.190702
20
7.1839258
11
2.076402
21
7.3114258
0
LINE
8
DEFAULT_255_2_778
10
2.362202
20
7.6078258
11
2.488902
21
7.4940258
0
LINE
8
DEFAULT_255_2_778
10
1.826702
20
6.9495258
11
1.765302
21
7.1093258
0
LINE
8
DEFAULT_255_2_778
10
2.076702
20
7.3117258
11
2.190702
21
7.1839258
0
LINE
8
DEFAULT_255_2_778
10
1.826702
20
6.9495258
11
1.828302
21
6.9495258
0
LINE
8
DEFAULT_255_2_778
10
1.828302
20
6.9495258
11
1.797802
21
7.0294258
0
LINE
8
DEFAULT_255_2_778
10
1.797802
20
7.0294258
11
1.826702
21
6.9495258
0
LINE
8
DEFAULT_255_2_778
10
1.602302
20
6.9119258
11
1.668402
21
7.0696258
0
LINE
8
DEFAULT_255_2_778
10
1.765502
20
7.1093258
11
1.826402
21
6.9495258
0
LINE
8
DEFAULT_255_2_778
10
1.602302
20
6.9119258
11
1.602002
21
6.9119258
0
LINE
8
DEFAULT_255_2_778
10
1.602002
20
6.9119258
11
1.635402
21
6.9905258
0
LINE
8
DEFAULT_255_2_778
10
1.635402
20
6.9905258
11
1.602302
21
6.9117258
0
LINE
8
DEFAULT_255_2_778
10
1.602302
20
6.9117258
11
1.602302
21
6.9119258
0
LINE
8
DEFAULT_255_2_778
10
1.480302
20
7.0979258
11
1.640702
21
7.1574258
0
LINE
8
DEFAULT_255_2_778
10
1.668702
20
7.0693258
11
1.602002
21
6.9122258
0
LINE
8
DEFAULT_255_2_778
10
1.480302
20
7.0979258
11
1.457802
21
7.1574258
0
LINE
8
DEFAULT_255_2_778
10
1.457802
20
7.1574258
11
1.509202
21
7.1961258
0
LINE
8
DEFAULT_255_2_778
10
1.509202
20
7.1961258
11
1.560202
21
7.1273258
0
LINE
8
DEFAULT_255_2_778
10
1.560202
20
7.1273258
11
1.480302
21
7.0979258
0
LINE
8
DEFAULT_255_2_778
10
1.693102
20
7.7779258
11
1.864002
21
7.7673258
0
LINE
8
DEFAULT_255_2_778
10
1.608902
20
7.0614258
11
1.506802
21
7.1958258
0
LINE
8
DEFAULT_255_2_778
10
1.693102
20
7.7779258
11
1.698302
21
7.8594258
0
LINE
8
DEFAULT_255_2_778
10
1.698302
20
7.8594258
11
1.869302
21
7.8472258
0
LINE
8
DEFAULT_255_2_778
10
1.869302
20
7.8472258
11
1.864002
21
7.7671258
0
LINE
8
DEFAULT_255_2_778
10
1.864002
20
7.7671258
11
1.693102
21
7.7779258
0
LINE
8
DEFAULT_255_2_778
10
1.698302
20
7.8594258
11
1.704402
21
7.9427258
0
LINE
8
DEFAULT_255_2_778
10
1.704402
20
7.9427258
11
1.787802
21
7.9388258
0
LINE
8
DEFAULT_255_2_778
10
1.787802
20
7.9388258
11
1.783802
21
7.8533258
0
LINE
8
DEFAULT_255_2_778
10
1.783802
20
7.8533258
11
1.698302
21
7.8594258
0
LINE
8
DEFAULT_255_2_778
10
2.062402
20
7.7252258
11
1.918702
21
7.6326258
0
LINE
8
DEFAULT_255_2_778
10
1.779802
20
7.7649258
11
1.787802
21
7.9388258
0
LINE
8
DEFAULT_255_2_778
10
2.062402
20
7.7252258
11
2.122702
21
7.6379258
0
LINE
8
DEFAULT_255_2_778
10
2.122702
20
7.6379258
11
1.989102
21
7.5321258
0
LINE
8
DEFAULT_255_2_778
10
1.918702
20
7.6334258
11
2.062402
21
7.7252258
0
LINE
8
DEFAULT_255_2_778
10
2.141802
20
7.5665258
11
2.102602
21
7.3919258
0
LINE
8
DEFAULT_255_2_778
10
2.102602
20
7.3919258
11
1.991502
21
7.5321258
0
LINE
8
DEFAULT_255_2_778
10
1.991502
20
7.5321258
11
2.058202
21
7.5850258
0
LINE
8
DEFAULT_255_2_778
10
2.058202
20
7.5850258
11
2.141802
21
7.5665258
0
LINE
8
DEFAULT_255_2_778
10
1.994902
20
8.0406258
11
2.161602
21
8.0777258
0
LINE
8
DEFAULT_255_2_778
10
2.142602
20
7.5665258
11
1.975102
21
7.6035258
0
LINE
8
DEFAULT_255_2_778
10
1.853402
20
8.2454258
11
1.931402
21
8.3978258
0
LINE
8
DEFAULT_255_2_778
10
2.161102
20
8.0803258
11
1.994902
21
8.0406258
0
LINE
8
DEFAULT_255_2_778
10
1.853402
20
8.2454258
11
1.785702
21
8.2803258
0
LINE
8
DEFAULT_255_2_778
10
1.785702
20
8.2803258
11
1.812102
21
8.3512258
0
LINE
8
DEFAULT_255_2_778
10
1.812102
20
8.3512258
11
1.892302
21
8.3216258
0
LINE
8
DEFAULT_255_2_778
10
1.892302
20
8.3216258
11
1.853402
21
8.2454258
0
LINE
8
DEFAULT_255_2_778
10
1.812402
20
8.3512258
11
1.865302
21
8.4801258
0
LINE
8
DEFAULT_255_2_778
10
1.865302
20
8.4801258
11
2.024002
21
8.4179258
0
LINE
8
DEFAULT_255_2_778
10
2.024002
20
8.4179258
11
1.975602
21
8.2917258
0
LINE
8
DEFAULT_255_2_778
10
1.975602
20
8.2917258
11
1.812402
21
8.3512258
0
LINE
8
DEFAULT_255_2_778
10
1.865302
20
8.4801258
11
1.943602
21
8.6878258
0
LINE
8
DEFAULT_255_2_778
10
1.943602
20
8.6878258
11
2.102402
21
8.6317258
0
LINE
8
DEFAULT_255_2_778
10
2.102402
20
8.6317258
11
2.021402
21
8.4179258
0
LINE
8
DEFAULT_255_2_778
10
2.021402
20
8.4179258
11
1.865302
21
8.4801258
0
LINE
8
DEFAULT_255_2_778
10
2.010002
20
8.7439258
11
2.153402
21
8.7688258
0
LINE
8
DEFAULT_255_2_778
10
2.153402
20
8.7688258
11
2.105302
21
8.6317258
0
LINE
8
DEFAULT_255_2_778
10
2.105302
20
8.6317258
11
2.024302
21
8.6598258
0
LINE
8
DEFAULT_255_2_778
10
2.024302
20
8.6598258
11
2.010002
21
8.7439258
0
LINE
8
DEFAULT_255_2_778
10
1.241702
20
8.0676258
11
1.118102
21
8.1859258
0
LINE
8
DEFAULT_255_2_778
10
2.007902
20
8.7415258
11
2.036502
21
8.5756258
0
LINE
8
DEFAULT_255_2_778
10
1.013102
20
7.7509258
11
0.858002
21
7.8223258
0
LINE
8
DEFAULT_255_2_778
10
1.118102
20
8.1859258
11
1.241702
21
8.0676258
0
LINE
8
DEFAULT_255_2_778
10
0.959902
20
7.4353258
11
0.791602
21
7.4088258
0
LINE
8
DEFAULT_255_2_778
10
0.858302
20
7.8242258
11
1.013302
21
7.7506258
0
LINE
8
DEFAULT_255_2_778
10
1.122302
20
7.1540258
11
1.004102
21
7.0305258
0
LINE
8
DEFAULT_255_2_778
10
0.791602
20
7.4062258
11
0.959902
21
7.4353258
0
LINE
8
DEFAULT_255_2_778
10
1.122302
20
7.1540258
11
1.148802
21
7.1127258
0
LINE
8
DEFAULT_255_2_778
10
1.148802
20
7.1127258
11
1.066002
21
7.0924258
0
LINE
8
DEFAULT_255_2_778
10
1.066002
20
7.0924258
11
1.122302
21
7.1540258
0
LINE
8
DEFAULT_255_2_778
10
1.148802
20
7.1127258
11
1.211202
21
6.8825258
0
LINE
8
DEFAULT_255_2_778
10
1.211202
20
6.8825258
11
1.048302
21
6.8317258
0
LINE
8
DEFAULT_255_2_778
10
1.048302
20
6.8317258
11
0.983202
21
7.0699258
0
LINE
8
DEFAULT_255_2_778
10
0.983202
20
7.0699258
11
1.148802
21
7.1127258
0
LINE
8
DEFAULT_255_2_778
10
1.281402
20
6.7024258
11
1.127102
21
6.6288258
0
LINE
8
DEFAULT_255_2_778
10
1.048302
20
6.8317258
11
1.211202
21
6.8825258
0
LINE
8
DEFAULT_255_2_778
10
1.552302
20
6.4608258
11
1.500202
21
6.2978258
0
LINE
8
DEFAULT_255_2_778
10
1.129802
20
6.6291258
11
1.281402
21
6.7026258
0
LINE
8
DEFAULT_255_2_778
10
1.977502
20
6.4873258
11
2.039702
21
6.3285258
0
LINE
8
DEFAULT_255_2_778
10
1.499902
20
6.2981258
11
1.552302
21
6.4608258
0
LINE
8
DEFAULT_255_2_778
10
1.977502
20
6.4873258
11
2.125602
21
6.5455258
0
LINE
8
DEFAULT_255_2_778
10
2.125602
20
6.5455258
11
2.091802
21
6.3902258
0
LINE
8
DEFAULT_255_2_778
10
2.091802
20
6.3902258
11
2.008202
21
6.4081258
0
LINE
8
DEFAULT_255_2_778
10
2.008202
20
6.4081258
11
1.977502
21
6.4873258
0
LINE
8
DEFAULT_255_2_778
10
2.019302
20
5.7922258
11
1.848402
21
5.7983258
0
LINE
8
DEFAULT_255_2_778
10
1.925102
20
6.4256258
11
2.092002
21
6.3894258
0
LINE
8
DEFAULT_255_2_778
10
2.038302
20
5.0373258
11
1.867402
21
5.0233258
0
LINE
8
DEFAULT_255_2_778
10
1.842502
20
5.7959258
11
2.013502
21
5.7901258
0
LINE
8
DEFAULT_255_2_778
10
2.038302
20
5.0373258
11
2.060802
21
4.8344258
0
LINE
8
DEFAULT_255_2_778
10
2.060802
20
4.8344258
11
1.891502
21
4.8117258
0
LINE
8
DEFAULT_255_2_778
10
1.891502
20
4.8117258
11
1.866902
21
5.0233258
0
LINE
8
DEFAULT_255_2_778
10
1.866902
20
5.0233258
11
2.038302
21
5.0373258
0
LINE
8
DEFAULT_255_2_778
10
2.060802
20
4.8344258
11
2.095702
21
4.6227258
0
LINE
8
DEFAULT_255_2_778
10
2.095702
20
4.6227258
11
1.928002
21
4.5910258
0
LINE
8
DEFAULT_255_2_778
10
1.928002
20
4.5910258
11
1.891802
21
4.8090258
0
LINE
8
DEFAULT_255_2_778
10
1.891802
20
4.8090258
11
2.060802
21
4.8344258
0
LINE
8
DEFAULT_255_2_778
10
2.095702
20
4.6227258
11
2.092002
21
4.5772258
0
LINE
8
DEFAULT_255_2_778
10
2.092002
20
4.5772258
11
2.011902
21
4.6037258
0
LINE
8
DEFAULT_255_2_778
10
6.3754342
20
9.7497934
11
5.2496342
21
9.5645934
0
LINE
8
DEFAULT_255_2_778
10
5.2496342
20
9.5645934
11
4.2222342
21
9.1142934
0
LINE
8
DEFAULT_255_2_778
10
4.2222342
20
9.1142934
11
3.3496342
21
8.5655934
0
LINE
8
DEFAULT_255_2_778
10
3.3496342
20
8.5655934
11
2.5194342
21
7.5521934
0
LINE
8
DEFAULT_255_2_778
10
2.5194342
20
7.5521934
11
2.0502342
21
7.0552934
0
LINE
8
DEFAULT_255_2_778
10
2.0502342
20
7.0552934
11
1.5967342
21
6.8880934
0
LINE
8
DEFAULT_255_2_778
10
1.5967342
20
6.8880934
11
1.4769342
21
7.1812934
0
LINE
8
DEFAULT_255_2_778
10
1.4769342
20
7.1812934
11
1.6867342
21
7.4839934
0
LINE
8
DEFAULT_255_2_778
10
1.6867342
20
7.4839934
11
1.7338342
21
7.9109934
0
LINE
8
DEFAULT_255_2_778
10
1.7338342
20
7.9109934
11
1.8740342
21
7.9056934
0
LINE
8
DEFAULT_255_2_778
10
1.8740342
20
7.9056934
11
2.0275342
21
7.7654934
0
LINE
8
DEFAULT_255_2_778
10
2.0275342
20
7.7654934
11
1.9862342
21
8.2004934
0
LINE
8
DEFAULT_255_2_778
10
1.9862342
20
8.2004934
11
1.8161342
21
8.3141934
0
LINE
8
DEFAULT_255_2_778
10
1.8161342
20
8.3141934
11
1.8214342
21
8.4798934
0
LINE
8
DEFAULT_255_2_778
10
1.8214342
20
8.4798934
11
1.4184342
21
8.2517934
0
LINE
8
DEFAULT_255_2_778
10
1.4184342
20
8.2517934
11
1.0533342
21
7.8209934
0
LINE
8
DEFAULT_255_2_778
10
1.0533342
20
7.8209934
11
0.9771342
21
7.4360934
0
LINE
8
DEFAULT_255_2_778
10
0.9771342
20
7.4360934
11
1.1358342
21
7.1277934
0
LINE
8
DEFAULT_255_2_778
10
1.1358342
20
7.1277934
11
1.2814342
21
6.6039934
0
LINE
8
DEFAULT_255_2_778
10
1.2814342
20
6.6039934
11
1.5777342
21
6.4636934
0
LINE
8
DEFAULT_255_2_778
10
1.5777342
20
6.4636934
11
1.8891342
21
6.4790934
0
LINE
8
DEFAULT_255_2_778
10
1.8891342
20
6.4790934
11
2.1844342
21
6.6509934
0
LINE
8
DEFAULT_255_2_778
10
2.1844342
20
6.6509934
11
1.9870342
21
5.6545934
0
LINE
8
DEFAULT_255_2_778
10
1.9870342
20
5.6545934
11
2.1841342
21
4.5428934
0
LINE
8
DEFAULT_255_2_778
10
2.1841342
20
4.5428934
11
1.9672342
21
4.0295934
0
LINE
8
DEFAULT_255_2_778
10
1.9672342
20
4.0295934
11
1.2568342
21
3.2643934
0
LINE
8
DEFAULT_255_2_778
10
1.2568342
20
3.2643934
11
1.3830342
21
2.8071934
0
LINE
8
DEFAULT_255_2_778
10
1.3830342
20
2.8071934
11
1.7224342
21
2.2771934
0
LINE
8
DEFAULT_255_2_778
10
1.7224342
20
2.2771934
11
2.3569342
21
1.8305934
0
LINE
8
DEFAULT_255_2_778
10
2.3569342
20
1.8305934
11
2.6935342
21
1.7845934
0
LINE
8
DEFAULT_255_2_778
10
2.6935342
20
1.7845934
11
3.0676342
21
1.7718934
0
LINE
8
DEFAULT_255_2_778
10
3.0676342
20
1.7718934
11
2.8342342
21
0.8134934
0
LINE
8
DEFAULT_255_2_778
10
2.8342342
20
0.8134934
11
3.6925342
21
0.4616934
0
LINE
8
DEFAULT_255_2_778
10
3.6925342
20
0.4616934
11
4.7620342
21
0.3208934
0
LINE
8
DEFAULT_255_2_778
10
4.7620342
20
0.3208934
11
5.1279342
21
0.5600934
0
LINE
8
DEFAULT_255_2_778
10
5.1279342
20
0.5600934
11
5.1559342
21
1.2074934
0
LINE
8
DEFAULT_255_2_778
10
5.1559342
20
1.2074934
11
5.5642342
21
1.8829934
0
LINE
8
DEFAULT_255_2_778
10
5.5642342
20
1.8829934
11
5.5922342
21
2.4173934
0
LINE
8
DEFAULT_255_2_778
10
5.5922342
20
2.4173934
11
6.5773342
21
2.3470934
0
LINE
8
DEFAULT_255_2_778
10
6.5773342
20
2.3470934
11
7.4919342
21
2.4316934
0
LINE
8
DEFAULT_255_2_778
10
7.4919342
20
2.4316934
11
6.5773342
21
1.8829934
0
LINE
8
DEFAULT_255_2_778
10
6.5773342
20
1.8829934
11
6.7320342
21
1.2214934
0
LINE
8
DEFAULT_255_2_778
10
6.7320342
20
1.2214934
11
7.3088342
21
0.3208934
0
LINE
8
DEFAULT_255_2_778
10
7.3088342
20
0.3208934
11
7.8719342
21
0.0816934
0
LINE
8
DEFAULT_255_2_778
10
7.8719342
20
0.0816934
11
8.3222342
21
0.2668934
0
LINE
8
DEFAULT_255_2_778
10
8.3222342
20
0.2668934
11
8.5074342
21
0.6327934
0
LINE
8
DEFAULT_255_2_778
10
8.5074342
20
0.6327934
11
9.4504342
21
1.3506934
0
LINE
8
DEFAULT_255_2_778
10
9.4504342
20
1.3506934
11
9.6356342
21
1.1958934
0
LINE
8
DEFAULT_255_2_778
10
9.6356342
20
1.1958934
11
11.1133342
21
1.1394934
0
LINE
8
DEFAULT_255_2_778
10
11.1133342
20
1.1394934
11
11.4088342
21
1.3786934
0
LINE
8
DEFAULT_255_2_778
10
11.4088342
20
1.3786934
11
11.4369342
21
1.8009934
0
LINE
8
DEFAULT_255_2_778
10
11.4369342
20
1.8009934
11
11.3384342
21
1.9861934
0
LINE
8
DEFAULT_255_2_778
10
11.3384342
20
1.9861934
11
11.2681342
21
3.1259934
0
LINE
8
DEFAULT_255_2_778
10
11.2681342
20
3.1259934
11
10.7754342
21
4.1109934
0
LINE
8
DEFAULT_255_2_778
10
10.7754342
20
4.1109934
11
10.8601342
21
4.5475934
0
LINE
8
DEFAULT_255_2_778
10
10.8601342
20
4.5475934
11
11.1556342
21
4.3927934
0
LINE
8
DEFAULT_255_2_778
10
11.1556342
20
4.3927934
11
11.9859342
21
3.6188934
0
LINE
8
DEFAULT_255_2_778
10
11.9859342
20
3.6188934
11
12.3939342
21
3.5908934
0
LINE
8
DEFAULT_255_2_778
10
12.3939342
20
3.5908934
11
12.8442342
21
3.7760934
0
LINE
8
DEFAULT_255_2_778
10
12.8442342
20
3.7760934
11
13.2945342
21
4.1136934
0
LINE
8
DEFAULT_255_2_778
10
13.2945342
20
4.1136934
11
13.5194342
21
4.8454934
0
LINE
8
DEFAULT_255_2_778
10
13.5194342
20
4.8454934
11
14.8423342
21
4.7608934
0
LINE
8
DEFAULT_255_2_778
10
14.8423342
20
4.7608934
11
15.6445342
21
5.0703934
0
LINE
8
DEFAULT_255_2_778
10
15.6445342
20
5.0703934
11
16.2920342
21
5.6754934
0
LINE
8
DEFAULT_255_2_778
10
16.2920342
20
5.6754934
11
16.7563342
21
6.5480934
0
LINE
8
DEFAULT_255_2_778
10
16.7563342
20
6.5480934
11
16.8690342
21
7.5754934
0
LINE
8
DEFAULT_255_2_778
10
16.8690342
20
7.5754934
11
16.7706342
21
8.7713934
0
LINE
8
DEFAULT_255_2_778
10
16.7706342
20
8.7713934
11
16.5174342
21
9.8408934
0
LINE
8
DEFAULT_255_2_778
10
16.5174342
20
9.8408934
11
16.2642342
21
10.1786934
0
LINE
8
DEFAULT_255_2_778
10
16.2642342
20
10.1786934
11
15.9123342
21
10.2913934
0
LINE
8
DEFAULT_255_2_778
10
15.9123342
20
10.2913934
11
15.2932342
21
9.6159934
0
LINE
8
DEFAULT_255_2_778
10
15.2932342
20
9.6159934
11
14.7304342
21
9.4188934
0
LINE
8
DEFAULT_255_2_778
10
14.7304342
20
9.4188934
11
14.2377342
21
10.2350934
0
LINE
8
DEFAULT_255_2_778
10
14.2377342
20
10.2350934
11
13.7451342
21
10.6853934
0
LINE
8
DEFAULT_255_2_778
10
13.7451342
20
10.6853934
11
13.4805342
21
10.8541934
0
LINE
8
DEFAULT_255_2_778
10
13.4805342
20
10.8541934
11
12.4111342
21
11.7405934
0
LINE
8
DEFAULT_255_2_778
10
12.4111342
20
11.7405934
11
11.5528342
21
12.2048934
0
LINE
8
DEFAULT_255_2_778
10
11.5528342
20
12.2048934
11
10.6944342
21
12.2752934
0
LINE
8
DEFAULT_255_2_778
10
10.6944342
20
12.2752934
11
9.6954342
21
12.1064934
0
LINE
8
DEFAULT_255_2_778
10
9.6954342
20
12.1064934
11
8.8228342
21
11.7828934
0
LINE
8
DEFAULT_255_2_778
10
8.8228342
20
11.7828934
11
8.2177342
21
11.2902934
0
LINE
8
DEFAULT_255_2_778
10
8.2177342
20
11.2902934
11
7.7393342
21
10.7134934
0
LINE
8
DEFAULT_255_2_778
10
7.7393342
20
10.7134934
11
7.2467342
21
10.5726934
0
LINE
8
DEFAULT_255_2_778
10
7.2467342
20
10.5726934
11
6.3754342
21
9.7497934
0
ARC
8
DEFAULT_255_2_778
10
5.3557516
20
5.2786558
40
2.9614125
50
139.3111411
51
147.6313013
0
ARC
8
DEFAULT_255_2_778
10
5.2063798
20
5.3755756
40
2.7833632
50
147.6702476
51
158.8626283
0
ARC
8
DEFAULT_255_2_778
10
5.7741569
20
5.2057294
40
3.374505
50
159.6492002
51
180.958273
0
ARC
8
DEFAULT_255_2_778
10
8.2183788
20
5.1769667
40
5.8183208
50
180.2725141
51
186.9073819
0
ARC
8
DEFAULT_255_2_778
10
12.8629814
20
5.7343289
40
10.4962445
50
186.8786408
51
190.6342669
0
ARC
8
DEFAULT_255_2_778
10
26.117347
20
8.1599331
40
23.9706678
50
190.4860598
51
191.4931679
0
ARC
8
DEFAULT_255_2_778
10
15.8967656
20
-24.6848221
40
34.8070299
50
107.9444052
51
108.2075265
0
ARC
8
DEFAULT_255_2_778
10
10.9731724
20
-9.7114483
40
19.0449333
50
108.2120453
51
108.5970262
0
ARC
8
DEFAULT_255_2_778
10
9.0129821
20
-3.8866825
40
12.8991835
50
108.5958619
51
109.1451116
0
ARC
8
DEFAULT_255_2_778
10
7.091081
20
1.5838724
40
7.1009217
50
108.9718772
51
112.0543372
0
ARC
8
DEFAULT_255_2_778
10
5.5942658
20
5.1690653
40
3.2162938
50
111.3221222
51
127.9998239
0
ARC
8
DEFAULT_255_2_778
10
5.5557261
20
5.2561635
40
3.1240186
50
128.4262979
51
131.7879977
0
ARC
8
DEFAULT_255_2_778
10
5.7980191
20
4.9855434
40
3.4872553
50
131.793299
51
134.8436965
0
ARC
8
DEFAULT_255_2_778
10
6.1497947
20
4.6310949
40
3.9866345
50
134.836111
51
137.1820909
0
ARC
8
DEFAULT_255_2_778
10
6.6091832
20
4.2055418
40
4.6128399
50
137.183113
51
139.3248296
0
LINE
8
DEFAULT_255_2_778
10
2.6273276
20
3.3837516
11
2.1995276
21
4.4645516
0
LINE
8
DEFAULT_255_2_778
10
2.1995276
20
4.4645516
11
2.0418276
21
5.4556516
0
LINE
8
DEFAULT_255_2_778
10
2.0418276
20
5.4556516
11
2.0868276
21
6.4690516
0
LINE
8
DEFAULT_255_2_778
10
2.0868276
20
6.4690516
11
2.4921276
21
7.4374516
0
LINE
8
DEFAULT_255_2_778
10
2.4921276
20
7.4374516
11
3.1007276
21
8.3383516
0
LINE
8
DEFAULT_255_2_778
10
3.1007276
20
8.3383516
11
4.0465276
21
9.1267516
0
LINE
8
DEFAULT_255_2_778
10
4.0465276
20
9.1267516
11
5.0827276
21
9.5551516
0
LINE
8
DEFAULT_255_2_778
10
5.0827276
20
9.5551516
11
6.2989276
21
9.7128516
0
LINE
8
DEFAULT_255_2_778
10
6.2989276
20
9.7128516
11
5.1729276
21
8.4290516
0
ARC
8
DEFAULT_255_2_778
10
16.0085752
20
2.0610421
40
11.9753688
50
134.2674586
51
135.4763754
0
ARC
8
DEFAULT_255_2_778
10
14.3066057
20
3.7337046
40
9.589054
50
135.4711006
51
137.0688409
0
ARC
8
DEFAULT_255_2_778
10
13.0148561
20
4.9336179
40
7.8259866
50
137.0593838
51
139.3664814
0
ARC
8
DEFAULT_255_2_778
10
12.4273547
20
5.4428487
40
7.048518
50
139.3978478
51
140.2236403
0
ARC
8
DEFAULT_255_2_778
10
12.2399715
20
5.6046678
40
6.8009761
50
140.2613767
51
148.0801119
0
ARC
8
DEFAULT_255_2_778
10
13.92098
20
4.5233982
40
8.7995467
50
147.8915188
51
148.7903067
0
ARC
8
DEFAULT_255_2_778
10
15.1594241
20
3.7751964
40
10.2464563
50
148.8004123
51
149.937044
0
ARC
8
DEFAULT_255_2_778
10
17.2415685
20
2.5695238
40
12.6524844
50
149.9351097
51
150.8349387
0
ARC
8
DEFAULT_255_2_778
10
18.5073135
20
1.8581765
40
14.1044171
50
150.8173481
51
150.8724648
0
ARC
8
DEFAULT_255_2_778
10
6.3632401
20
6.4258662
40
1.3328439
50
149.2182177
51
156.1747602
0
ARC
8
DEFAULT_255_2_778
10
6.319139
20
6.4474184
40
1.2837965
50
156.2596017
51
162.1509109
0
ARC
8
DEFAULT_255_2_778
10
7.2121041
20
6.2020427
40
2.2093556
50
163.1918889
51
172.6681885
0
ARC
8
DEFAULT_255_2_778
10
15.8105494
20
4.8623493
40
10.9109182
50
171.452718
51
171.5880144
0
ARC
8
DEFAULT_255_2_778
10
18.745591
20
4.4278719
40
13.8779434
50
171.5862142
51
171.5914757
0
ARC
8
DEFAULT_255_2_778
10
18.5441066
20
4.4552872
40
13.6746162
50
171.5816605
51
171.5869618
0
ARC
8
DEFAULT_255_2_778
10
18.3646932
20
4.4831226
40
13.4930608
50
171.5924236
51
171.5977575
0
ARC
8
DEFAULT_255_2_778
10
18.1956214
20
4.5100405
40
13.3218706
50
171.6060322
51
171.6113957
0
LINE
8
DEFAULT_255_2_778
10
5.0162764
20
6.4535185
11
5.0160956
21
6.4522937
0
ARC
8
DEFAULT_255_2_778
10
19.4197661
20
4.326023
40
14.5597648
50
171.6026404
51
171.6098969
0
ARC
8
DEFAULT_255_2_778
10
-12.9971593
20
9.1035806
40
18.2073243
50
351.6135622
51
351.6212165
0
LINE
8
DEFAULT_255_2_778
10
5.015472
20
6.4480631
11
5.00413
21
6.3706795
0
ARC
8
DEFAULT_255_2_778
10
-5.5624568
20
7.9203086
40
10.6796117
50
351.2184364
51
351.6568353
0
ARC
8
DEFAULT_255_2_778
10
10.0603104
20
14.6802298
40
2.5860483
50
287.46995
51
290.374689
0
ARC
8
DEFAULT_255_2_778
10
9.225104
20
17.3428586
40
5.3765962
50
285.5863189
51
287.4416688
0
ARC
8
DEFAULT_255_2_778
10
7.0773027
20
24.927488
40
13.2594425
50
285.4610111
51
285.7198718
0
ARC
8
DEFAULT_255_2_778
10
20.4974955
20
-23.9207526
40
37.398774
50
105.3268886
51
105.6405726
0
ARC
8
DEFAULT_255_2_778
10
11.2477497
20
8.9316669
40
3.2694541
50
104.7612598
51
113.4294038
0
ARC
8
DEFAULT_255_2_778
10
10.3912171
20
10.9159414
40
1.1082125
50
113.5882669
51
130.3381706
0
ARC
8
DEFAULT_255_2_778
10
10.0478447
20
11.3166684
40
0.580504
50
130.1070622
51
172.9863235
0
ARC
8
DEFAULT_255_2_778
10
10.1115829
20
11.3077253
40
0.6448582
50
172.8891868
51
174.2550936
0
ARC
8
DEFAULT_255_2_778
10
11.9219974
20
11.1221371
40
2.4647593
50
174.1752582
51
176.7067997
0
ARC
8
DEFAULT_255_2_778
10
11.2752382
20
11.1592709
40
1.8169349
50
176.7042489
51
179.9273734
0
ARC
8
DEFAULT_255_2_778
10
10.7912777
20
11.1566942
40
1.3329818
50
179.7902509
51
187.5506362
0
ARC
8
DEFAULT_255_2_778
10
10.6342593
20
11.1392033
40
1.1750312
50
187.7112233
51
194.2866061
0
ARC
8
DEFAULT_255_2_778
10
10.9133198
20
11.218439
40
1.465036
50
194.5963788
51
203.7043561
0
ARC
8
DEFAULT_255_2_778
10
12.0324925
20
11.7009864
40
2.6837908
50
203.5316204
51
207.6355596
0
ARC
8
DEFAULT_255_2_778
10
14.3597253
20
12.9079506
40
5.3053787
50
207.5253093
51
209.3706668
0
ARC
8
DEFAULT_255_2_778
10
17.4313913
20
14.6203646
40
8.8221061
50
209.2783579
51
209.6820592
0
ARC
8
DEFAULT_255_2_778
10
5.8675048
20
6.4909512
40
5.4174531
50
43.9639172
51
45.5623374
0
ARC
8
DEFAULT_255_2_778
10
7.3078982
20
7.9616725
40
3.358873
50
45.541164
51
47.9471587
0
ARC
8
DEFAULT_255_2_778
10
8.1035134
20
8.8447769
40
2.1702284
50
47.9273289
51
51.332188
0
ARC
8
DEFAULT_255_2_778
10
8.5663117
20
9.4261696
40
1.4271307
50
51.2554194
51
56.9587886
0
ARC
8
DEFAULT_255_2_778
10
8.7797242
20
9.7513977
40
1.0381388
50
57.0454986
51
62.6539879
0
ARC
8
DEFAULT_255_2_778
10
8.8636325
20
9.9125546
40
0.856447
50
62.6875611
51
86.6733909
0
ARC
8
DEFAULT_255_2_778
10
8.8256874
20
9.5072725
40
1.2633299
50
86.0219457
51
90.0896746
0
ARC
8
DEFAULT_255_2_778
10
8.8308231
20
8.8999336
40
1.8706808
50
90.2178572
51
94.9720236
0
ARC
8
DEFAULT_255_2_778
10
8.9603074
20
7.376567
40
3.3995387
50
94.9209214
51
97.7378201
0
ARC
8
DEFAULT_255_2_778
10
9.4163521
20
3.9715727
40
6.8349342
50
97.6828528
51
99.1015395
0
ARC
8
DEFAULT_255_2_778
10
10.6652256
20
-3.9016007
40
14.8065385
50
99.054078
51
99.5999984
0
ARC
8
DEFAULT_255_2_778
10
13.4266989
20
-20.3428619
40
31.4780903
50
99.5652579
51
99.5715607
0
ARC
8
DEFAULT_255_2_778
10
13.3826047
20
-20.0749579
40
31.2065838
50
99.5735188
51
99.5798401
0
ARC
8
DEFAULT_255_2_778
10
13.3388439
20
-19.8090705
40
30.9371216
50
99.5818753
51
99.5882151
0
ARC
8
DEFAULT_255_2_778
10
11.9613901
20
-11.6538532
40
22.6663931
50
99.5886455
51
99.5972491
0
ARC
8
DEFAULT_255_2_778
10
13.2503738
20
-19.2754097
40
30.3961798
50
99.5977514
51
99.6041301
0
ARC
8
DEFAULT_255_2_778
10
11.8878092
20
-11.2216693
40
22.2279905
50
99.6046913
51
99.6133636
0
ARC
8
DEFAULT_255_2_778
10
11.8509265
20
-11.006401
40
22.0095859
50
99.6122827
51
99.6209903
0
ARC
8
DEFAULT_255_2_778
10
11.8143001
20
-10.7926729
40
21.7927426
50
99.6199627
51
99.6287059
0
ARC
8
DEFAULT_255_2_778
10
1.6784906
20
48.9418999
40
38.795654
50
279.6262639
51
279.6311467
0
ARC
8
DEFAULT_255_2_778
10
11.7336469
20
-10.33702
40
21.3300187
50
99.6287135
51
99.6375425
0
ARC
8
DEFAULT_255_2_778
10
11.6968664
20
-10.1250235
40
21.1148564
50
99.635453
51
99.6443198
0
ARC
8
DEFAULT_255_2_778
10
11.6612864
20
-9.9175314
40
20.904336
50
99.6434544
51
99.6523579
0
ARC
8
DEFAULT_255_2_778
10
11.6250221
20
-9.7086102
40
20.692292
50
99.650361
51
99.6593027
0
ARC
8
DEFAULT_255_2_778
10
2.0864698
20
46.3280011
40
36.1503485
50
279.6557768
51
279.6608648
0
ARC
8
DEFAULT_255_2_778
10
2.1672309
20
45.8081704
40
35.624337
50
279.6628249
51
279.6679574
0
ARC
8
DEFAULT_255_2_778
10
11.5097664
20
-9.0588702
40
20.0324246
50
99.6644485
51
99.6735217
0
ARC
8
DEFAULT_255_2_778
10
10.7697359
20
-4.7234521
40
15.6343007
50
99.669816
51
99.6813726
0
ARC
8
DEFAULT_255_2_778
10
2.3905096
20
44.3934218
40
34.1921855
50
279.6760528
51
279.6813055
0
ARC
8
DEFAULT_255_2_778
10
-2.5020747
20
73.0176101
40
63.2314945
50
279.6840148
51
279.6868382
0
ARC
8
DEFAULT_255_2_778
10
10.6758076
20
-4.2088756
40
15.1112567
50
99.6821142
51
99.6938576
0
ARC
8
DEFAULT_255_2_778
10
10.6464162
20
-4.0453587
40
14.9451256
50
99.6883442
51
99.7001468
0
ARC
8
DEFAULT_255_2_778
10
-2.0701256
20
70.3596701
40
60.5387717
50
279.6954418
51
279.698338
0
ARC
8
DEFAULT_255_2_778
10
-1.923693
20
69.4529762
40
59.620368
50
279.7005491
51
279.7034722
0
ARC
8
DEFAULT_255_2_778
10
-65.7939587
20
442.7482088
40
438.3402395
50
279.7076346
51
279.7080298
0
ARC
8
DEFAULT_255_2_778
10
10.5252074
20
-3.3848241
40
14.2736116
50
99.7039352
51
99.715997
0
ARC
8
DEFAULT_255_2_778
10
-1.5235072
20
67.0026011
40
57.1376001
50
279.7099819
51
279.7129768
0
ARC
8
DEFAULT_255_2_778
10
-1.3824486
20
66.1296557
40
56.2533701
50
279.7153045
51
279.7183279
0
ARC
8
DEFAULT_255_2_778
10
-58.6481265
20
400.345052
40
395.3393308
50
279.7213491
51
279.7217767
0
ARC
8
DEFAULT_255_2_778
10
-56.5074192
20
387.6162625
40
382.4318481
50
279.7268086
51
279.7272479
0
ARC
8
DEFAULT_255_2_778
10
9.9765859
20
-0.2463932
40
11.0876086
50
99.7198273
51
99.7348868
0
ARC
8
DEFAULT_255_2_778
10
-53.9086116
20
372.2230044
40
366.820807
50
279.7315787
51
279.7324843
0
ARC
8
DEFAULT_255_2_778
10
-1212.8930664
20
7105.6464571
40
7199.2607436
50
279.762984
51
279.7645188
0
ARC
8
DEFAULT_255_2_778
10
0.7509105
20
52.2653762
40
42.2280925
50
279.46507
51
279.7552381
0
LINE
8
DEFAULT_255_2_778
10
6.1865637
20
8.7235754
11
5.2181637
21
7.1079754
0
LINE
8
DEFAULT_255_2_778
10
4.9919637
20
6.2898754
11
4.5188637
21
6.8529754
0
LINE
8
DEFAULT_255_2_778
10
4.5188637
20
6.8529754
11
4.7437637
21
7.5286754
0
LINE
8
DEFAULT_255_2_778
10
4.7437637
20
7.5286754
11
5.5094637
21
8.9026754
0
LINE
8
DEFAULT_255_2_778
10
5.5094637
20
8.9026754
11
7.1313637
21
10.5018754
0
LINE
8
DEFAULT_255_2_778
10
7.1313637
20
10.5018754
11
7.6494637
21
10.6340754
0
LINE
8
DEFAULT_255_2_778
10
7.6951637
20
10.6121754
11
8.2357637
21
11.3778754
0
LINE
8
DEFAULT_255_2_778
10
8.2357637
20
11.3778754
11
9.1816637
21
11.9633754
0
LINE
8
DEFAULT_255_2_778
10
9.1816637
20
11.9633754
11
10.3978637
21
12.2337754
0
LINE
8
DEFAULT_255_2_778
10
10.3978637
20
12.2337754
11
10.9609637
21
12.2562754
0
ARC
8
DEFAULT_255_2_778
10
12.1215015
20
3.3888407
40
0.6222395
50
49.0538902
51
58.9955227
0
ARC
8
DEFAULT_255_2_778
10
12.3680441
20
3.6675347
40
0.2501887
50
29.0944199
51
49.8733883
0
ARC
8
DEFAULT_255_2_778
10
12.4691111
20
3.7260076
40
0.1334561
50
0.1964623
51
28.2568294
0
ARC
8
DEFAULT_255_2_778
10
12.4106098
20
3.7321687
40
0.1920413
50
336.7232237
51
358.2981247
0
ARC
8
DEFAULT_255_2_778
10
14.6775227
20
-2.2746423
40
8.4719108
50
106.0417072
51
106.5748508
0
ARC
8
DEFAULT_255_2_778
10
13.6098262
20
1.3080133
40
4.7335431
50
106.5589269
51
107.5313641
0
ARC
8
DEFAULT_255_2_778
10
13.0200093
20
3.1725036
40
2.7779853
50
107.5151761
51
109.0643846
0
ARC
8
DEFAULT_255_2_778
10
12.7298526
20
4.0161612
40
1.8858269
50
109.1045538
51
110.3578231
0
ARC
8
DEFAULT_255_2_778
10
12.422229
20
4.8198471
40
1.0253618
50
109.864908
51
117.3527132
0
ARC
8
DEFAULT_255_2_778
10
12.1513292
20
5.330914
40
0.447003
50
116.6100939
51
139.7765393
0
ARC
8
DEFAULT_255_2_778
10
12.2368788
20
5.2789415
40
0.5461068
50
141.4095574
51
157.6055638
0
ARC
8
DEFAULT_255_2_778
10
12.8643833
20
4.9988806
40
1.2331447
50
156.6821825
51
160.5856638
0
ARC
8
DEFAULT_255_2_778
10
14.0617407
20
4.5737021
40
2.5037498
50
160.5169098
51
162.5385333
0
ARC
8
DEFAULT_255_2_778
10
17.1241596
20
3.6041464
40
5.7159815
50
162.4788427
51
163.3062282
0
ARC
8
DEFAULT_255_2_778
10
28.0135501
20
0.3298385
40
17.0869926
50
163.2785276
51
163.5343354
0
ARC
8
DEFAULT_255_2_778
10
-97.1577843
20
37.3400662
40
113.4412418
50
343.4850743
51
343.5273765
0
ARC
8
DEFAULT_255_2_778
10
15.6482667
20
2.5742522
40
4.7647086
50
146.4514112
51
148.0918953
0
ARC
8
DEFAULT_255_2_778
10
14.3037076
20
3.467151
40
3.1506745
50
143.8971404
51
146.4713233
0
ARC
8
DEFAULT_255_2_778
10
13.3603498
20
4.171134
40
1.9737086
50
129.4173036
51
144.2724777
0
ARC
8
DEFAULT_255_2_778
10
13.8402341
20
3.5978515
40
2.7213107
50
126.6810708
51
129.5587273
0
ARC
8
DEFAULT_255_2_778
10
14.5048747
20
2.7063582
40
3.8332942
50
124.5968342
51
126.688263
0
ARC
8
DEFAULT_255_2_778
10
14.9927344
20
2.0084868
40
4.6847683
50
124.5420403
51
124.6621458
0
ARC
8
DEFAULT_255_2_778
10
-45.3298477
20
27.9484554
40
55.7620642
50
339.7032725
51
339.9476949
0
ARC
8
DEFAULT_255_2_778
10
-19.1925602
20
18.2952975
40
27.8991689
50
339.5173512
51
339.6770358
0
ARC
8
DEFAULT_255_2_778
10
-1.8621487
20
11.7047997
40
9.3588866
50
333.640367
51
340.1878118
0
ARC
8
DEFAULT_255_2_778
10
1.1422459
20
10.2812806
40
6.0351096
50
329.8069019
51
333.0854031
0
ARC
8
DEFAULT_255_2_778
10
1.255228
20
10.2172645
40
5.9052607
50
328.5432866
51
329.7924535
0
ARC
8
DEFAULT_255_2_778
10
2.6277701
20
10.6416998
40
5.0718841
50
316.268035
51
335.4274209
0
ARC
8
DEFAULT_255_2_778
10
6.1496497
20
9.0410899
40
1.2033892
50
335.0033311
51
338.308099
0
ARC
8
DEFAULT_255_2_778
10
1.3946652
20
10.9147376
40
6.3141994
50
338.4582807
51
339.2832921
0
ARC
8
DEFAULT_255_2_778
10
7.9780751
20
8.4465188
40
0.7169458
50
148.0700491
51
160.900973
0
ARC
8
DEFAULT_255_2_778
10
7.5174499
20
8.7382168
40
0.1717868
50
89.3800639
51
149.3863807
0
ARC
8
DEFAULT_255_2_778
10
7.5177086
20
8.6477868
40
0.2622116
50
79.0823841
51
89.6503977
0
ARC
8
DEFAULT_255_2_778
10
7.4936279
20
8.5194143
40
0.392822
50
71.8265645
51
79.179893
0
ARC
8
DEFAULT_255_2_778
10
7.4627905
20
8.4189751
40
0.4978732
50
71.0197121
51
72.0598761
0
ARC
8
DEFAULT_255_2_778
10
11.9277719
20
9.192998
40
4.3137218
50
184.0307426
51
188.1491082
0
ARC
8
DEFAULT_255_2_778
10
82.3189877
20
18.4391934
40
75.3093301
50
187.521352
51
187.5331117
0
ARC
8
DEFAULT_255_2_778
10
2.7114576
20
7.8623518
40
4.9979841
50
4.7161028
51
8.0957336
0
ARC
8
DEFAULT_255_2_778
10
11.4864562
20
7.7578969
40
3.8287816
50
166.7206884
51
172.2640849
0
ARC
8
DEFAULT_255_2_778
10
10.1683873
20
8.0737571
40
2.4734073
50
157.7704471
51
166.8285542
0
ARC
8
DEFAULT_255_2_778
10
9.4788492
20
8.3598183
40
1.7269012
50
124.787631
51
157.9010042
0
ARC
8
DEFAULT_255_2_778
10
10.1748159
20
7.4128709
40
2.9018462
50
117.0861005
51
125.4058525
0
ARC
8
DEFAULT_255_2_778
10
11.145521
20
5.5449569
40
5.0069024
50
112.85771
51
117.243173
0
ARC
8
DEFAULT_255_2_778
10
37.7670011
20
15.1581896
40
29.5476989
50
192.3106237
51
194.322392
0
ARC
8
DEFAULT_255_2_778
10
-173.6365206
20
-37.7606532
40
188.3789328
50
13.9511332
51
14.0114142
0
ARC
8
DEFAULT_255_2_778
10
-5.5070911
20
3.7707565
40
15.1977717
50
8.3920109
51
14.8135022
0
ARC
8
DEFAULT_255_2_778
10
1.0662894
20
4.8677583
40
8.5356011
50
7.4560029
51
7.5468465
0
ARC
8
DEFAULT_255_2_778
10
-2.4717788
20
4.3949635
40
12.1051101
50
6.7356027
51
7.5018218
0
ARC
8
DEFAULT_255_2_778
10
3.8546206
20
5.1391067
40
5.7350976
50
5.1047146
51
6.7656011
0
ARC
8
DEFAULT_255_2_778
10
6.4691261
20
5.3688298
40
3.1105243
50
1.6927942
51
5.1750233
0
ARC
8
DEFAULT_255_2_778
10
7.3478273
20
5.4005511
40
2.2312771
50
0.0179875
51
1.5451374
0
ARC
8
DEFAULT_255_2_778
10
7.8999557
20
5.3938679
40
1.6791649
50
352.2333757
51
0.2519455
0
ARC
8
DEFAULT_255_2_778
10
8.1306637
20
5.3673833
40
1.4470028
50
348.9856049
51
352.0379339
0
ARC
8
DEFAULT_255_2_778
10
8.0654254
20
5.383323
40
1.5140881
50
339.2580684
51
348.8651938
0
ARC
8
DEFAULT_255_2_778
10
7.5920635
20
5.5609899
40
2.0196921
50
333.8156766
51
339.3004559
0
ARC
8
DEFAULT_255_2_778
10
6.8668822
20
5.9139739
40
2.8262143
50
330.6063732
51
333.8812244
0
ARC
8
DEFAULT_255_2_778
10
6.2358286
20
6.2638928
40
3.5477771
50
329.7530682
51
330.6847342
0
ARC
8
DEFAULT_255_2_778
10
9.1051755
20
1.4890164
40
2.9941483
50
86.2573256
51
88.4362426
0
ARC
8
DEFAULT_255_2_778
10
9.1218597
20
2.0472253
40
2.4356924
50
88.4702282
51
89.9827663
0
ARC
8
DEFAULT_255_2_778
10
9.1175944
20
2.5448322
40
1.9380919
50
89.8522468
51
96.0588157
0
ARC
8
DEFAULT_255_2_778
10
9.1060523
20
2.6850035
40
1.7974884
50
96.1645607
51
99.091754
0
ARC
8
DEFAULT_255_2_778
10
9.1825487
20
2.2646118
40
2.2247048
50
99.3262918
51
105.8089413
0
ARC
8
DEFAULT_255_2_778
10
9.7254314
20
0.3081318
40
4.255093
50
105.6654524
51
108.263104
0
ARC
8
DEFAULT_255_2_778
10
11.5214393
20
-5.2191035
40
10.0667773
50
108.1117536
51
108.1210112
0
ARC
8
DEFAULT_255_2_778
10
11.1432254
20
-4.039597
40
8.8281413
50
108.1690435
51
109.3173178
0
ARC
8
DEFAULT_255_2_778
10
11.9357179
20
-6.3000701
40
11.2235082
50
109.3178907
51
110.1643814
0
ARC
8
DEFAULT_255_2_778
10
12.9027101
20
-8.9462923
40
14.0408741
50
110.1461457
51
110.3674396
0
ARC
8
DEFAULT_255_2_778
10
13.4289561
20
-10.3666675
40
15.5556015
50
110.3637512
51
110.3770293
0
ARC
8
DEFAULT_255_2_778
10
12.0509378
20
-6.6575794
40
11.5988011
50
110.3755785
51
110.39334
0
ARC
8
DEFAULT_255_2_778
10
13.3664211
20
-10.1971612
40
15.374928
50
110.3919183
51
110.4052828
0
ARC
8
DEFAULT_255_2_778
10
13.3350572
20
-10.1113617
40
15.2835771
50
110.4072281
51
110.4206376
0
ARC
8
DEFAULT_255_2_778
10
13.3043733
20
-10.0291433
40
15.1958198
50
110.4203782
51
110.4338301
0
ARC
8
DEFAULT_255_2_778
10
58.0198123
20
-130.0284474
40
143.2555852
50
110.4366138
51
110.438037
0
ARC
8
DEFAULT_255_2_778
10
13.2426023
20
-9.8665866
40
15.0219261
50
110.4430867
51
110.4566238
0
ARC
8
DEFAULT_255_2_778
10
13.212277
20
-9.7854334
40
14.9352919
50
110.4564319
51
110.4700123
0
ARC
8
DEFAULT_255_2_778
10
13.1820696
20
-9.7046344
40
14.8490309
50
110.4698458
51
110.4834696
0
ARC
8
DEFAULT_255_2_778
10
13.1519797
20
-9.6241882
40
14.7631415
50
110.4833288
51
110.4969965
0
ARC
8
DEFAULT_255_2_778
10
13.1218018
20
-9.5480157
40
14.6812247
50
110.490772
51
110.5044803
0
ARC
8
DEFAULT_255_2_778
10
13.0919459
20
-9.4682546
40
14.5960588
50
110.5043797
51
110.5181323
0
ARC
8
DEFAULT_255_2_778
10
13.0622061
20
-9.3888421
40
14.5112601
50
110.5180581
51
110.5318553
0
ARC
8
DEFAULT_255_2_778
10
53.922179
20
-118.4690839
40
130.9931751
50
110.5348877
51
110.5364122
0
ARC
8
DEFAULT_255_2_778
10
15.5208073
20
-15.9540969
40
21.521773
50
110.5406151
51
110.5498698
0
ARC
8
DEFAULT_255_2_778
10
12.9740168
20
-9.1596152
40
14.2656635
50
110.5510162
51
110.5649422
0
ARC
8
DEFAULT_255_2_778
10
12.9447358
20
-9.0815569
40
14.182294
50
110.5649598
51
110.5789315
0
ARC
8
DEFAULT_255_2_778
10
12.9159047
20
-9.010726
40
14.1058492
50
110.5704242
51
110.5844353
0
ARC
8
DEFAULT_255_2_778
10
12.8868499
20
-8.9333239
40
14.0231733
50
110.5844917
51
110.598549
0
ARC
8
DEFAULT_255_2_778
10
12.8584434
20
-8.85931
40
13.9438974
50
110.5962848
51
110.6103854
0
ARC
8
DEFAULT_255_2_778
10
12.8299457
20
-8.7893885
40
13.8684199
50
110.6018726
51
110.6160134
0
ARC
8
DEFAULT_255_2_778
10
15.2296222
20
-15.166875
40
20.6824333
50
110.6173162
51
110.6267737
0
ARC
8
DEFAULT_255_2_778
10
12.773149
20
-8.6398946
40
13.7085008
50
110.6280997
51
110.6423317
0
ARC
8
DEFAULT_255_2_778
10
12.7449809
20
-8.5708714
40
13.6339791
50
110.6338142
51
110.6480871
0
ARC
8
DEFAULT_255_2_778
10
12.7171206
20
-8.4984146
40
13.5563523
50
110.6458878
51
110.6602054
0
ARC
8
DEFAULT_255_2_778
10
48.9079288
20
-104.470457
40
116.1253901
50
110.661198
51
110.6628651
0
ARC
8
DEFAULT_255_2_778
10
15.0279994
20
-14.6315923
40
20.110437
50
110.665062
51
110.6746637
0
ARC
8
DEFAULT_255_2_778
10
14.9882651
20
-14.5236806
40
19.9954461
50
110.6773115
51
110.6869436
0
ARC
8
DEFAULT_255_2_778
10
47.8215927
20
-101.4618874
40
112.9270295
50
110.6892005
51
110.6909016
0
ARC
8
DEFAULT_255_2_778
10
12.5795514
20
-8.1510335
40
13.1827719
50
110.691959
51
110.7064935
0
ARC
8
DEFAULT_255_2_778
10
14.8704767
20
-14.2125922
40
19.6628052
50
110.7055885
51
110.715308
0
ARC
8
DEFAULT_255_2_778
10
12.5255353
20
-8.0166133
40
13.0379355
50
110.7079747
51
110.7225951
0
ARC
8
DEFAULT_255_2_778
10
14.7928754
20
-14.0106474
40
19.4464669
50
110.7217177
51
110.7314948
0
ARC
8
DEFAULT_255_2_778
10
46.1126864
20
-96.7458973
40
107.9114438
50
110.7338696
51
110.7356269
0
ARC
8
DEFAULT_255_2_778
10
12.4456426
20
-7.8167469
40
12.8227293
50
110.7343275
51
110.7490789
0
ARC
8
DEFAULT_255_2_778
10
-13.2934921
20
60.1166894
40
59.8233637
50
290.7483496
51
290.7515033
0
ARC
8
DEFAULT_255_2_778
10
14.6402462
20
-13.616133
40
19.0234678
50
110.75201
51
110.7619021
0
ARC
8
DEFAULT_255_2_778
10
14.6027958
20
-13.5169464
40
18.9174465
50
110.7623315
51
110.7722534
0
ARC
8
DEFAULT_255_2_778
10
44.545341
20
-92.443739
40
103.3330529
50
110.774741
51
110.7765527
0
ARC
8
DEFAULT_255_2_778
10
12.3147953
20
-7.4922805
40
12.4729496
50
110.7753119
51
110.7902832
0
ARC
8
DEFAULT_255_2_778
10
-12.9469117
20
59.0435138
40
58.6970283
50
290.7871473
51
290.7903205
0
ARC
8
DEFAULT_255_2_778
10
14.4538662
20
-13.1348668
40
18.5073839
50
110.790936
51
110.800974
0
ARC
8
DEFAULT_255_2_778
10
-12.8044436
20
58.6085009
40
58.2397743
50
290.801623
51
290.8048047
0
ARC
8
DEFAULT_255_2_778
10
12.212742
20
-7.2440534
40
12.2046612
50
110.8016764
51
110.8168203
0
ARC
8
DEFAULT_255_2_778
10
12.1874422
20
-7.1801965
40
12.1359816
50
110.8123131
51
110.8275036
0
ARC
8
DEFAULT_255_2_778
10
-12.5996685
20
57.9777847
40
57.5774557
50
290.8244198
51
290.8276134
0
ARC
8
DEFAULT_255_2_778
10
12.1374418
20
-7.0595454
40
12.0054368
50
110.8245178
51
110.8397948
0
ARC
8
DEFAULT_255_2_778
10
-12.4514802
20
57.5356866
40
57.1115587
50
290.8367259
51
290.8399291
0
ARC
8
DEFAULT_255_2_778
10
12.0878225
20
-6.9398862
40
11.8759537
50
110.8368484
51
110.8522129
0
ARC
8
DEFAULT_255_2_778
10
-12.3045992
20
57.0973214
40
56.6496195
50
290.8491594
51
290.8523721
0
ARC
8
DEFAULT_255_2_778
10
14.1302302
20
-12.3121598
40
17.6233654
50
110.8505951
51
110.8608959
0
ARC
8
DEFAULT_255_2_778
10
-105.5481438
20
301.6969919
40
318.4192815
50
290.8626384
51
290.8634912
0
ARC
8
DEFAULT_255_2_778
10
14.042989
20
-12.0920905
40
17.3866554
50
110.8661162
51
110.8764906
0
ARC
8
DEFAULT_255_2_778
10
-11.9707089
20
56.1109074
40
55.6089705
50
290.8747629
51
290.8779983
0
ARC
8
DEFAULT_255_2_778
10
13.9740489
20
-11.9203313
40
17.201605
50
110.8762674
51
110.8866999
0
ARC
8
DEFAULT_255_2_778
10
-11.8189877
20
55.6678836
40
55.1409657
50
290.88499
51
290.8882362
0
ARC
8
DEFAULT_255_2_778
10
13.9056394
20
-11.7499694
40
17.0180486
50
110.8865233
51
110.8970144
0
ARC
8
DEFAULT_255_2_778
10
-106.2226986
20
302.8692256
40
319.7549542
50
290.8971391
51
290.8979744
0
ARC
8
DEFAULT_255_2_778
10
13.8212848
20
-11.539729
40
16.7915488
50
110.899901
51
110.9104659
0
ARC
8
DEFAULT_255_2_778
10
38.9956853
20
-77.4389684
40
87.335579
50
110.9080969
51
110.9101229
0
ARC
8
DEFAULT_255_2_778
10
-106.5195714
20
303.3404282
40
320.3010717
50
290.9147529
51
290.9155794
0
ARC
8
DEFAULT_255_2_778
10
18.9245967
20
-24.9092874
40
31.1019948
50
110.9163638
51
110.924842
0
ARC
8
DEFAULT_255_2_778
10
-10.6418663
20
52.064423
40
51.3548874
50
290.6961219
51
291.0653328
0
ARC
8
DEFAULT_255_2_778
10
4.8087531
20
11.1529587
40
7.6230983
50
288.4118384
51
290.7338803
0
ARC
8
DEFAULT_255_2_778
10
6.1415153
20
7.1367693
40
3.3915505
50
283.4725805
51
288.4786466
0
ARC
8
DEFAULT_255_2_778
10
6.4967352
20
5.6340879
40
1.8474673
50
273.9443801
51
283.6167873
0
ARC
8
DEFAULT_255_2_778
10
6.5395126
20
5.1543244
40
1.3659321
50
270.0317629
51
273.5385856
0
ARC
8
DEFAULT_255_2_778
10
6.5315001
20
4.8939056
40
1.1055478
50
248.5116678
51
270.4545008
0
ARC
8
DEFAULT_255_2_778
10
6.5553262
20
4.9409619
40
1.1580715
50
239.1270328
51
248.2676201
0
ARC
8
DEFAULT_255_2_778
10
6.6456136
20
5.0944975
40
1.3361825
50
233.9265574
51
239.1823648
0
ARC
8
DEFAULT_255_2_778
10
6.7788516
20
5.2767305
40
1.5619281
50
228.7954413
51
233.9123025
0
ARC
8
DEFAULT_255_2_778
10
6.9827591
20
5.5101899
40
1.8718982
50
224.611443
51
228.8070405
0
ARC
8
DEFAULT_255_2_778
10
7.2529622
20
5.7772587
40
2.2518131
50
221.1063822
51
224.6206052
0
ARC
8
DEFAULT_255_2_778
10
7.5991529
20
6.0797379
40
2.7115323
50
218.0970298
51
221.1129081
0
ARC
8
DEFAULT_255_2_778
10
8.0325879
20
6.4200091
40
3.2625769
50
215.5117476
51
218.1032635
0
ARC
8
DEFAULT_255_2_778
10
8.3797018
20
6.6704835
40
3.69062
50
214.7474126
51
215.5467918
0
ARC
8
DEFAULT_255_2_778
10
13.3450304
20
2.5528489
40
2.133925
50
171.7628143
51
174.9088678
0
ARC
8
DEFAULT_255_2_778
10
13.2757751
20
2.5591232
40
2.0643861
50
174.9117487
51
178.121877
0
ARC
8
DEFAULT_255_2_778
10
13.2466746
20
2.5602651
40
2.0352639
50
178.127157
51
179.9991489
0
ARC
8
DEFAULT_255_2_778
10
13.257604
20
2.5606465
40
2.0461933
50
180.0098349
51
185.3756523
0
ARC
8
DEFAULT_255_2_778
10
13.4273703
20
2.5777974
40
2.21682
50
185.4059124
51
190.0818574
0
ARC
8
DEFAULT_255_2_778
10
13.9869378
20
2.6789672
40
2.7854576
50
190.1158495
51
193.5016001
0
ARC
8
DEFAULT_255_2_778
10
15.2460001
20
2.9756304
40
4.0789902
50
193.4244571
51
194.3968716
0
ARC
8
DEFAULT_255_2_778
10
16.0436252
20
3.1777554
40
4.9018235
50
194.3671652
51
194.401776
0
ARC
8
DEFAULT_255_2_778
10
16.050673
20
3.1794773
40
4.9090782
50
194.4007813
51
194.4407652
0
ARC
8
DEFAULT_255_2_778
10
15.9495092
20
3.1530985
40
4.8045323
50
194.4369822
51
194.4774487
0
ARC
8
DEFAULT_255_2_778
10
16.264361
20
3.2341418
40
5.1296472
50
194.4747369
51
194.5122795
0
ARC
8
DEFAULT_255_2_778
10
18.7891904
20
3.8876812
40
7.7376882
50
194.5122569
51
194.53691
0
ARC
8
DEFAULT_255_2_778
10
18.6201227
20
3.8452347
40
7.5633788
50
194.5471291
51
194.5721118
0
ARC
8
DEFAULT_255_2_778
10
15.9598017
20
3.1533828
40
4.8145671
50
194.5689694
51
194.6078449
0
ARC
8
DEFAULT_255_2_778
10
15.8622452
20
3.127418
40
4.7136157
50
194.6015053
51
194.6408387
0
ARC
8
DEFAULT_255_2_778
10
18.1991803
20
3.7374985
40
7.1288722
50
194.6375376
51
194.6651372
0
ARC
8
DEFAULT_255_2_778
10
18.0419951
20
3.6963339
40
6.9663863
50
194.6648985
51
194.6928569
0
ARC
8
DEFAULT_255_2_778
10
17.8894112
20
3.6561086
40
6.8085892
50
194.6910983
51
194.7194162
0
ARC
8
DEFAULT_255_2_778
10
17.7370601
20
3.6164833
40
6.6511697
50
194.7227365
51
194.7514328
0
ARC
8
DEFAULT_255_2_778
10
17.2895602
20
3.498002
40
6.1882513
50
194.7455904
51
194.7771393
0
ARC
8
DEFAULT_255_2_778
10
21.561113
20
4.6244908
40
10.6058458
50
194.7756718
51
194.794182
0
ARC
8
DEFAULT_255_2_778
10
18.1051621
20
3.711897
40
7.0314335
50
194.7952244
51
194.8232332
0
ARC
8
DEFAULT_255_2_778
10
-12.5056896
20
-4.4786811
40
24.656292
50
14.7258764
51
15.0244289
0
ARC
8
DEFAULT_255_2_778
10
9.5879983
20
1.3237059
40
1.8133829
50
11.2167388
51
14.8618497
0
ARC
8
DEFAULT_255_2_778
10
10.7663792
20
1.5542257
40
0.6126778
50
1.8723705
51
11.5069536
0
ARC
8
DEFAULT_255_2_778
10
10.9984935
20
1.5671375
40
0.3803029
50
0.0033943
51
1.0706951
0
ARC
8
DEFAULT_255_2_778
10
11.1119778
20
1.5632638
40
0.266847
50
343.6203196
51
0.8365994
0
ARC
8
DEFAULT_255_2_778
10
11.1834058
20
1.5443465
40
0.1929937
50
323.9895264
51
343.0285641
0
ARC
8
DEFAULT_255_2_778
10
14.7351581
20
-0.9215799
40
4.1309103
50
145.2862268
51
146.4576197
0
ARC
8
DEFAULT_255_2_778
10
10.0059376
20
2.2361757
40
1.5557304
50
325.2812302
51
325.7663341
0
ARC
8
DEFAULT_255_2_778
10
10.9445166
20
1.5607546
40
0.4001036
50
306.9881286
51
328.2326365
0
ARC
8
DEFAULT_255_2_778
10
11.1177249
20
1.3471202
40
0.1256346
50
294.1474032
51
302.5056467
0
ARC
8
DEFAULT_255_2_778
10
10.9602501
20
1.727816
40
0.5375736
50
274.0316348
51
292.8638326
0
ARC
8
DEFAULT_255_2_778
10
10.9253288
20
2.0561268
40
0.8676068
50
269.8753588
51
274.8077595
0
ARC
8
DEFAULT_255_2_778
10
10.9318223
20
2.6107265
40
1.4222293
50
264.5823985
51
269.6623668
0
ARC
8
DEFAULT_255_2_778
10
11.0916815
20
4.4736404
40
3.291957
50
264.2022902
51
264.8737619
0
ARC
8
DEFAULT_255_2_778
10
10.0343512
20
-5.7075152
40
6.9439667
50
84.0087439
51
84.5793364
0
ARC
8
DEFAULT_255_2_778
10
10.6214273
20
0.49669
40
0.7120494
50
84.4470355
51
88.4112431
0
ARC
8
DEFAULT_255_2_778
10
10.6350459
20
0.8808253
40
0.3276976
50
88.9293319
51
89.9843121
0
ARC
8
DEFAULT_255_2_778
10
10.6319213
20
1.0572648
40
0.1512924
50
88.7826098
51
101.0061269
0
ARC
8
DEFAULT_255_2_778
10
10.6068253
20
1.1748483
40
0.0311573
50
96.9828211
51
143.5295649
0
ARC
8
DEFAULT_255_2_778
10
10.5973309
20
1.1841183
40
0.0181028
50
149.2710495
51
159.0904785
0
LINE
8
DEFAULT_255_2_778
10
12.5870202
20
3.6562791
11
13.0103202
21
3.8255791
0
LINE
8
DEFAULT_255_2_778
10
13.0103202
20
3.8255791
11
13.2844202
21
4.1959791
0
LINE
8
DEFAULT_255_2_778
10
13.2844202
20
4.1959791
11
13.4882202
21
4.7204791
0
LINE
8
DEFAULT_255_2_778
10
13.4882202
20
4.7204791
11
13.2283202
21
4.9161791
0
LINE
8
DEFAULT_255_2_778
10
13.2283202
20
4.9161791
11
12.0922202
21
4.7712791
0
LINE
8
DEFAULT_255_2_778
10
12.0922202
20
4.7712791
11
12.0075202
21
4.5415791
0
LINE
8
DEFAULT_255_2_778
10
12.0075202
20
4.5415791
11
12.0340202
21
4.2153791
0
LINE
8
DEFAULT_255_2_778
10
12.0340202
20
4.2153791
11
12.1398202
21
4.0221791
0
LINE
8
DEFAULT_255_2_778
10
12.1398202
20
4.0221791
11
12.3092202
21
3.9375791
0
LINE
8
DEFAULT_255_2_778
10
12.3092202
20
3.9375791
11
12.4423202
21
3.9253791
0
LINE
8
DEFAULT_255_2_778
10
9.2006202
20
10.1586791
11
8.3910202
21
10.0620791
0
LINE
8
DEFAULT_255_2_778
10
8.3910202
20
10.0620791
11
7.6295202
21
9.8927791
0
LINE
8
DEFAULT_255_2_778
10
7.6295202
20
9.8927791
11
7.2522202
21
9.3514791
0
LINE
8
DEFAULT_255_2_778
10
7.2522202
20
9.3514791
11
7.0466202
21
8.8317791
0
LINE
8
DEFAULT_255_2_778
10
5.3472202
20
4.5669791
11
6.2211202
21
4.1552791
0
LINE
8
DEFAULT_255_2_778
10
6.2211202
20
4.1552791
11
6.8439202
21
4.2777791
0
LINE
8
DEFAULT_255_2_778
10
6.8439202
20
4.2777791
11
7.9438202
21
4.9180791
0
LINE
8
DEFAULT_255_2_778
10
7.9438202
20
4.9180791
11
8.8019202
21
5.0873791
0
LINE
8
DEFAULT_255_2_778
10
8.8019202
20
5.0873791
11
9.0797202
21
6.2475791
0
LINE
8
DEFAULT_255_2_778
10
9.0797202
20
6.2475791
11
8.8741202
21
7.7826791
0
LINE
8
DEFAULT_255_2_778
10
8.8741202
20
7.7826791
11
8.8476202
21
8.5076791
0
LINE
8
DEFAULT_255_2_778
10
8.8476202
20
8.5076791
11
8.8960202
21
8.8582791
0
LINE
8
DEFAULT_255_2_778
10
10.5804202
20
1.1905791
11
9.7922202
21
1.1905791
0
LINE
8
DEFAULT_255_2_778
10
9.7922202
20
1.1905791
11
9.4779202
21
1.3236791
0
LINE
8
DEFAULT_255_2_778
10
9.4779202
20
1.3236791
11
9.9613202
21
1.8917791
0
LINE
8
DEFAULT_255_2_778
10
9.9613202
20
1.8917791
11
10.4328202
21
2.9191791
0
LINE
8
DEFAULT_255_2_778
10
10.4328202
20
2.9191791
11
10.7349202
21
3.9583791
0
LINE
8
DEFAULT_255_2_778
10
10.7349202
20
3.9583791
11
10.8921202
21
3.9583791
0
LINE
8
DEFAULT_255_2_778
10
10.8921202
20
3.9583791
11
11.2307202
21
2.8585791
0
ARC
8
DEFAULT_255_2_778
10
11.5610275
20
5.4343652
40
1.6733323
50
189.9094763
51
194.7686491
0
ARC
8
DEFAULT_255_2_778
10
11.1085751
20
5.3155159
40
1.2055308
50
194.788364
51
201.9640922
0
ARC
8
DEFAULT_255_2_778
10
11.2561304
20
5.381791
40
1.3671793
50
202.2270786
51
207.9419651
0
ARC
8
DEFAULT_255_2_778
10
11.8563021
20
5.6893588
40
2.0415259
50
207.6749452
51
207.7941236
0
ARC
8
DEFAULT_255_2_778
10
11.9751849
20
5.752232
40
2.1760106
50
207.7989918
51
207.9096329
0
ARC
8
DEFAULT_255_2_778
10
11.9635287
20
5.7462041
40
2.1628888
50
207.9130562
51
208.0415895
0
ARC
8
DEFAULT_255_2_778
10
11.9884163
20
5.7593807
40
2.1910492
50
208.0397533
51
208.1651174
0
ARC
8
DEFAULT_255_2_778
10
12.1644762
20
5.8535243
40
2.3906992
50
208.1625626
51
208.2760989
0
ARC
8
DEFAULT_255_2_778
10
12.1197088
20
5.8294279
40
2.3398587
50
208.2757578
51
208.3904041
0
ARC
8
DEFAULT_255_2_778
10
12.340524
20
5.9486481
40
2.5908024
50
208.387947
51
208.49029
0
ARC
8
DEFAULT_255_2_778
10
12.6310224
20
6.1064829
40
2.9214096
50
208.4932335
51
208.5829541
0
ARC
8
DEFAULT_255_2_778
10
12.4959462
20
6.0331064
40
2.7676902
50
208.5869054
51
208.6872297
0
ARC
8
DEFAULT_255_2_778
10
12.5567645
20
6.0660622
40
2.836863
50
208.6814942
51
208.778192
0
ARC
8
DEFAULT_255_2_778
10
13.0741556
20
6.3502058
40
3.4271435
50
208.7776332
51
208.8593595
0
ARC
8
DEFAULT_255_2_778
10
12.8829348
20
6.2448381
40
3.208814
50
208.8595936
51
208.9458117
0
ARC
8
DEFAULT_255_2_778
10
13.4667921
20
6.5677195
40
3.8760034
50
208.9453662
51
209.0175849
0
ARC
8
DEFAULT_255_2_778
10
13.2842579
20
6.4664115
40
3.6672403
50
209.0168415
51
209.0928235
0
ARC
8
DEFAULT_255_2_778
10
13.5974862
20
6.6403198
40
4.0255083
50
209.088085
51
209.1564494
0
ARC
8
DEFAULT_255_2_778
10
14.001307
20
6.8653902
40
4.4878154
50
209.1540549
51
209.2146242
0
ARC
8
DEFAULT_255_2_778
10
14.6276914
20
7.2154928
40
5.2054011
50
209.2128792
51
209.2644617
0
ARC
8
DEFAULT_255_2_778
10
14.5347702
20
7.1635198
40
5.0989325
50
209.2654041
51
209.3174248
0
ARC
8
DEFAULT_255_2_778
10
15.3112493
20
7.5991643
40
5.9892729
50
209.3140403
51
209.3577933
0
ARC
8
DEFAULT_255_2_778
10
-2.9329028
20
-2.7528602
40
14.9872841
50
29.0612497
51
29.6565823
0
ARC
8
DEFAULT_255_2_778
10
6.8479622
20
2.6968769
40
3.7906629
50
26.7740026
51
28.8704873
0
ARC
8
DEFAULT_255_2_778
10
7.0904092
20
2.8216801
40
3.5179888
50
25.8919285
51
26.7380532
0
ARC
8
DEFAULT_255_2_778
10
-0.9117288
20
6.5741576
40
11.38479
50
347.0626552
51
348.7746432
0
ARC
8
DEFAULT_255_2_778
10
-0.8665502
20
6.5610131
40
11.3378156
50
345.2845072
51
347.0762798
0
ARC
8
DEFAULT_255_2_778
10
1.366126
20
5.9531079
40
9.0239775
50
340.8939554
51
345.4167125
0
ARC
8
DEFAULT_255_2_778
10
4.4935532
20
4.8790668
40
5.7172808
50
337.2540861
51
340.8059164
0
ARC
8
DEFAULT_255_2_778
10
5.6671151
20
4.3978009
40
4.4489205
50
336.5070225
51
337.1263955
0
ARC
8
DEFAULT_255_2_778
10
7.145252
20
3.7508206
40
2.8354008
50
334.9219648
51
336.5901112
0
ARC
8
DEFAULT_255_2_778
10
7.7904702
20
3.4512852
40
2.124049
50
334.1646421
51
334.8631997
0
ARC
8
DEFAULT_255_2_778
10
8.5455456
20
3.0691057
40
1.2779819
50
322.345411
51
334.8339654
0
ARC
8
DEFAULT_255_2_778
10
8.3581621
20
3.2266176
40
1.5225931
50
316.868697
51
321.9604143
0
ARC
8
DEFAULT_255_2_778
10
7.7770285
20
3.7623501
40
2.3129722
50
315.3271901
51
317.0255871
0
ARC
8
DEFAULT_255_2_778
10
3.4752819
20
8.0388538
40
8.3787311
50
307.4296093
51
315.2123807
0
ARC
8
DEFAULT_255_2_778
10
8.2135901
20
1.8386052
40
0.5752596
50
297.697982
51
308.0005808
0
ARC
8
DEFAULT_255_2_778
10
8.2926565
20
1.6875375
40
0.4047519
50
279.8501409
51
297.7279576
0
ARC
8
DEFAULT_255_2_778
10
8.2943645
20
1.684115
40
0.4010891
50
277.2794275
51
279.6933823
0
ARC
8
DEFAULT_255_2_778
10
8.2896147
20
1.7281589
40
0.4453807
50
269.8629366
51
277.1676083
0
ARC
8
DEFAULT_255_2_778
10
8.3058288
20
2.1375084
40
0.8549036
50
258.6456578
51
268.841846
0
ARC
8
DEFAULT_255_2_778
10
10.1411259
20
12.0689701
40
10.9544259
50
258.9271754
51
259.4610501
0
ARC
8
DEFAULT_255_2_778
10
7.5027032
20
-1.45251
40
2.8220729
50
79.0811287
51
80.8961238
0
ARC
8
DEFAULT_255_2_778
10
7.6495734
20
-0.5592116
40
1.9167924
50
81.0060667
51
81.9510792
0
ARC
8
DEFAULT_255_2_778
10
10.4390754
20
-0.0535994
40
2.8800201
50
151.0901259
51
151.1522272
0
ARC
8
DEFAULT_255_2_778
10
10.9690997
20
-0.3454342
40
3.4850765
50
151.1540179
51
151.204415
0
ARC
8
DEFAULT_255_2_778
10
10.4813057
20
-0.0770421
40
2.9283204
50
151.2091129
51
151.268018
0
ARC
8
DEFAULT_255_2_778
10
10.6620248
20
-0.1763933
40
3.1345485
50
151.2635424
51
151.3175906
0
ARC
8
DEFAULT_255_2_778
10
10.3829511
20
-0.0239944
40
2.8165744
50
151.3126269
51
151.3759191
0
ARC
8
DEFAULT_255_2_778
10
10.7564342
20
-0.2278489
40
3.2420697
50
151.3755904
51
151.4313278
0
ARC
8
DEFAULT_255_2_778
10
11.6132307
20
-0.69429
40
4.2176043
50
151.4324243
51
151.4754481
0
ARC
8
DEFAULT_255_2_778
10
10.6865541
20
-0.1903525
40
3.1627667
50
151.479888
51
151.5365617
0
ARC
8
DEFAULT_255_2_778
10
10.8736562
20
-0.2921278
40
3.3757582
50
151.5314631
51
151.5835011
0
ARC
8
DEFAULT_255_2_778
10
10.7454374
20
-0.223101
40
3.23014
50
151.578063
51
151.6313658
0
ARC
8
DEFAULT_255_2_778
10
10.9792795
20
-0.3497752
40
3.4960881
50
151.6255747
51
151.6738478
0
ARC
8
DEFAULT_255_2_778
10
11.2886814
20
-0.5164199
40
3.8475136
50
151.6755937
51
151.7185926
0
ARC
8
DEFAULT_255_2_778
10
11.8283075
20
-0.806459
40
4.4601464
50
151.7219165
51
151.7582807
0
ARC
8
DEFAULT_255_2_778
10
12.4908925
20
-1.1618546
40
5.2120274
50
151.7631298
51
151.7936393
0
ARC
8
DEFAULT_255_2_778
10
12.2922824
20
-1.0545659
40
4.9862923
50
151.8014007
51
151.8326698
0
ARC
8
DEFAULT_255_2_778
10
11.2548175
20
-0.4990815
40
3.8094762
50
151.8321671
51
151.8723012
0
ARC
8
DEFAULT_255_2_778
10
11.1163319
20
-0.425709
40
3.6527554
50
151.8631995
51
151.9042457
0
ARC
8
DEFAULT_255_2_778
10
11.6398652
20
-0.7057368
40
4.2464744
50
151.8978546
51
151.9324815
0
ARC
8
DEFAULT_255_2_778
10
11.4858638
20
-0.6239149
40
4.0720863
50
151.928818
51
151.9642343
0
ARC
8
DEFAULT_255_2_778
10
14.1896167
20
-2.0634914
40
7.135199
50
151.9656528
51
151.9854782
0
ARC
8
DEFAULT_255_2_778
10
12.0862543
20
-0.94403
40
4.7524847
50
151.9897343
51
152.0189318
0
ARC
8
DEFAULT_255_2_778
10
11.9174881
20
-0.8548484
40
4.5616046
50
152.0135909
51
152.0434322
0
ARC
8
DEFAULT_255_2_778
10
16.8612225
20
-3.4769659
40
10.1576753
50
152.0519402
51
152.0650875
0
ARC
8
DEFAULT_255_2_778
10
10.7405876
20
-0.231885
40
3.2299974
50
152.0587397
51
152.0993047
0
ARC
8
DEFAULT_255_2_778
10
12.7480495
20
-1.2956523
40
5.5018918
50
152.0915765
51
152.1149429
0
ARC
8
DEFAULT_255_2_778
10
12.5544405
20
-1.1934677
40
5.2829717
50
152.1124363
51
152.1363146
0
ARC
8
DEFAULT_255_2_778
10
12.3737189
20
-1.0990333
40
5.0790671
50
152.1252829
51
152.1496554
0
ARC
8
DEFAULT_255_2_778
10
1.4674446
20
4.6175296
40
7.2346273
50
331.5999572
51
332.4711759
0
ARC
8
DEFAULT_255_2_778
10
6.3371113
20
1.9966976
40
1.7045345
50
330.7524115
51
331.239467
0
ARC
8
DEFAULT_255_2_778
10
7.3268068
20
1.4118552
40
0.555907
50
302.9816669
51
333.5089571
0
ARC
8
DEFAULT_255_2_778
10
7.2149703
20
1.5936184
40
0.7692757
50
296.2705618
51
302.5993506
0
ARC
8
DEFAULT_255_2_778
10
7.3727037
20
1.2657075
40
0.4054359
50
283.6897926
51
296.7927635
0
ARC
8
DEFAULT_255_2_778
10
7.3823124
20
1.2303476
40
0.3688079
50
269.9752855
51
283.5395105
0
ARC
8
DEFAULT_255_2_778
10
7.4026732
20
1.3885534
40
0.527413
50
236.8782224
51
267.770253
0
ARC
8
DEFAULT_255_2_778
10
8.1226867
20
2.5339655
40
1.8802773
50
227.3690873
51
237.574741
0
ARC
8
DEFAULT_255_2_778
10
-0.2639252
20
-6.8581555
40
10.7115287
50
48.3893695
51
49.3347804
0
ARC
8
DEFAULT_255_2_778
10
5.2539409
20
-0.4558341
40
2.2595641
50
49.6763629
51
51.093611
0
ARC
8
DEFAULT_255_2_778
10
5.6141932
20
12.1056466
40
9.4769209
50
269.7761023
51
272.9539198
0
ARC
8
DEFAULT_255_2_778
10
5.9864641
20
6.3622915
40
3.7227849
50
271.7871547
51
290.2752279
0
ARC
8
DEFAULT_255_2_778
10
6.3686478
20
5.1490908
40
2.4530986
50
291.7213237
51
294.6085879
0
ARC
8
DEFAULT_255_2_778
10
11.4601789
20
0.2114021
40
4.8882561
50
136.776611
51
146.3679614
0
ARC
8
DEFAULT_255_2_778
10
11.4019208
20
1.6960237
40
3.9682977
50
151.9988318
51
154.384452
0
ARC
8
DEFAULT_255_2_778
10
9.8961521
20
2.4146638
40
2.2998351
50
154.3101886
51
159.0647927
0
ARC
8
DEFAULT_255_2_778
10
9.4640126
20
2.5854166
40
1.8352183
50
159.2231381
51
161.1644753
0
ARC
8
DEFAULT_255_2_778
10
9.5854976
20
2.5520541
40
1.9609838
50
161.3878728
51
170.1420358
0
ARC
8
DEFAULT_255_2_778
10
11.2655621
20
2.2426459
40
3.6692556
50
169.8734209
51
172.4496704
0
ARC
8
DEFAULT_255_2_778
10
13.4321762
20
1.9433607
40
5.8564222
50
172.3322336
51
172.9239086
0
ARC
8
DEFAULT_255_2_778
10
12.7891992
20
2.267131
40
7.4442701
50
170.5966883
51
172.1367511
0
ARC
8
DEFAULT_255_2_778
10
17.7426313
20
1.5822058
40
12.4448313
50
172.1330215
51
172.8555648
0
ARC
8
DEFAULT_255_2_778
10
94.505054
20
-8.0265931
40
89.806311
50
172.8637488
51
172.9594358
0
ARC
8
DEFAULT_255_2_778
10
-2.5784485
20
3.9322104
40
8.0110203
50
351.0435948
51
353.1818026
0
ARC
8
DEFAULT_255_2_778
10
1.8137633
20
3.2519683
40
3.56648
50
348.031312
51
350.8533123
0
ARC
8
DEFAULT_255_2_778
10
2.8040581
20
3.038434
40
2.5534333
50
340.8734256
51
348.1104734
0
ARC
8
DEFAULT_255_2_778
10
2.9150493
20
3.0058576
40
2.4379015
50
335.0935513
51
340.7420754
0
ARC
8
DEFAULT_255_2_778
10
2.704808
20
3.1020442
40
2.669098
50
332.5993267
51
335.121449
0
ARC
8
DEFAULT_255_2_778
10
3.4313588
20
3.2135624
40
2.1201456
50
293.8657716
51
320.8045272
0
ARC
8
DEFAULT_255_2_778
10
2.0201997
20
0.8828345
40
2.3025501
50
6.1841949
51
9.7986772
0
ARC
8
DEFAULT_255_2_778
10
3.2703325
20
1.0201252
40
1.0449043
50
0.2097292
51
6.0843406
0
ARC
8
DEFAULT_255_2_778
10
3.4697534
20
1.0237953
40
0.8454764
50
357.4248328
51
0.0104876
0
ARC
8
DEFAULT_255_2_778
10
3.4428876
20
1.0257977
40
0.8724055
50
352.4650336
51
357.3727335
0
ARC
8
DEFAULT_255_2_778
10
4.0543632
20
0.9437443
40
0.2554528
50
290.5937554
51
352.7254945
0
ARC
8
DEFAULT_255_2_778
10
3.9007202
20
1.2769886
40
0.6220139
50
277.5331933
51
293.0456106
0
ARC
8
DEFAULT_255_2_778
10
3.7951994
20
2.0053974
40
1.3580002
50
269.525659
51
277.9177827
0
ARC
8
DEFAULT_255_2_778
10
3.7902583
20
3.1474151
40
2.4999792
50
266.5057933
51
269.8555803
0
ARC
8
DEFAULT_255_2_778
10
3.9259535
20
5.3082736
40
4.6650922
50
264.0648115
51
266.4598131
0
ARC
8
DEFAULT_255_2_778
10
4.5130035
20
11.2196526
40
10.6055215
50
263.8748105
51
264.2125886
0
ARC
8
DEFAULT_255_2_778
10
4.862613
20
14.5114289
40
13.9158097
50
263.8807602
51
263.8897272
0
ARC
8
DEFAULT_255_2_778
10
4.8365116
20
14.2712815
40
13.6742484
50
263.8731895
51
263.882241
0
ARC
8
DEFAULT_255_2_778
10
4.8107119
20
14.0340998
40
13.435668
50
263.8654939
51
263.8746313
0
ARC
8
DEFAULT_255_2_778
10
2.3103939
20
-9.2247876
40
9.9572245
50
83.8626819
51
83.8749114
0
ARC
8
DEFAULT_255_2_778
10
2.3234778
20
-9.0724471
40
9.8043582
50
83.8559453
51
83.8682646
0
ARC
8
DEFAULT_255_2_778
10
2.5007535
20
-7.3960826
40
8.1186491
50
83.8485108
51
83.8632672
0
ARC
8
DEFAULT_255_2_778
10
2.3493233
20
-8.7735518
40
9.5044136
50
83.8433201
51
83.8558225
0
ARC
8
DEFAULT_255_2_778
10
4.6879049
20
12.9470184
40
12.3416876
50
263.8445092
51
263.854059
0
ARC
8
DEFAULT_255_2_778
10
-0.728197
20
-36.790497
40
37.6898574
50
83.7659618
51
83.929204
0
ARC
8
DEFAULT_255_2_778
10
2.7637085
20
-3.9586153
40
4.6728033
50
83.9305989
51
84.9204507
0
ARC
8
DEFAULT_255_2_778
10
3.0130826
20
-1.1337537
40
1.8369572
50
84.8669589
51
87.067514
0
ARC
8
DEFAULT_255_2_778
10
-8.0766943
20
7.2992758
40
12.6851258
50
356.7406632
51
356.8087086
0
ARC
8
DEFAULT_255_2_778
10
-8.4603416
20
7.3203176
40
13.0693489
50
356.7340481
51
356.7441908
0
ARC
8
DEFAULT_255_2_778
10
-8.1221744
20
7.3021553
40
12.7306961
50
356.7186489
51
356.7289496
0
ARC
8
DEFAULT_255_2_778
10
-9.3832672
20
7.3733503
40
13.9937966
50
356.7139046
51
356.7231753
0
ARC
8
DEFAULT_255_2_778
10
-9.0687675
20
7.3541376
40
13.6787127
50
356.7093532
51
356.7187361
0
ARC
8
DEFAULT_255_2_778
10
-8.7181109
20
7.335249
40
13.3275499
50
356.6943633
51
356.7038909
0
ARC
8
DEFAULT_255_2_778
10
-8.3949568
20
7.3152677
40
13.0037816
50
356.6856723
51
356.7001538
0
ARC
8
DEFAULT_255_2_778
10
-8.6818344
20
7.3311111
40
13.2910953
50
356.675042
51
356.6889856
0
ARC
8
DEFAULT_255_2_778
10
24.9098094
20
5.339157
40
20.359573
50
176.5615663
51
176.8731233
0
ARC
8
DEFAULT_255_2_778
10
6.9444062
20
6.3136318
40
2.3677721
50
176.7052227
51
179.6806107
0
ARC
8
DEFAULT_255_2_778
10
5.5340954
20
6.3198728
40
0.9574499
50
179.5836291
51
187.515465
0
ARC
8
DEFAULT_255_2_778
10
5.3679088
20
6.3041959
40
0.7906648
50
187.9643148
51
199.8215598
0
ARC
8
DEFAULT_255_2_778
10
5.764267
20
6.4454772
40
1.2114484
50
199.7510421
51
205.6749284
0
ARC
8
DEFAULT_255_2_778
10
6.214685
20
6.654123
40
1.7078087
50
205.4365695
51
206.5264144
0
ARC
8
DEFAULT_255_2_778
10
12.0687586
20
9.6511722
40
8.2844
50
206.9901833
51
210.8186406
0
ARC
8
DEFAULT_255_2_778
10
98.55874
20
60.3053296
40
108.5156852
50
210.3913319
51
210.4729263
0
ARC
8
DEFAULT_255_2_778
10
-5.5232697
20
-0.9986511
40
12.2786335
50
28.637036
51
30.7191349
0
ARC
8
DEFAULT_255_2_778
10
11.4249985
20
6.7671834
40
9.8853702
50
196.5295531
51
196.9565408
0
ARC
8
DEFAULT_255_2_778
10
9.8543562
20
6.2882625
40
8.2433339
50
196.9563429
51
197.4523114
0
ARC
8
DEFAULT_255_2_778
10
7.4909762
20
5.534898
40
5.7628131
50
197.3540913
51
199.9109206
0
ARC
8
DEFAULT_255_2_778
10
5.6400224
20
4.8600717
40
3.7926875
50
199.8485467
51
205.8766591
0
ARC
8
DEFAULT_255_2_778
10
5.6700185
20
4.884553
40
3.8303709
50
206.0103163
51
209.842189
0
ARC
8
DEFAULT_255_2_778
10
6.5882894
20
5.410315
40
4.8885042
50
209.8316661
51
212.2658089
0
ARC
8
DEFAULT_255_2_778
10
7.5642793
20
6.0201011
40
6.0393177
50
212.2145141
51
212.9124296
0
ARC
8
DEFAULT_255_2_778
10
0.1374346
20
3.3888791
40
2.4448907
50
343.3594657
51
344.5750748
0
ARC
8
DEFAULT_255_2_778
10
0.7981796
20
3.1929229
40
1.755703
50
342.7846892
51
343.3116405
0
ARC
8
DEFAULT_255_2_778
10
1.5449995
20
2.9518923
40
0.9710485
50
335.5874289
51
343.3275925
0
ARC
8
DEFAULT_255_2_778
10
1.7764207
20
2.8530505
40
0.7194883
50
330.5653859
51
335.138074
0
ARC
8
DEFAULT_255_2_778
10
1.5548738
20
2.9847711
40
0.9771863
50
323.371119
51
330.2227938
0
ARC
8
DEFAULT_255_2_778
10
0.7492682
20
3.5692637
40
1.9724579
50
321.8856639
51
323.7075782
0
ARC
8
DEFAULT_255_2_778
10
1.7126481
20
-1.4674775
40
3.8643515
50
81.2401954
51
86.1593309
0
ARC
8
DEFAULT_255_2_778
10
1.6370798
20
-2.804501
40
5.2034531
50
86.3152275
51
90.2164179
0
ARC
8
DEFAULT_255_2_778
10
1.6174476
20
-5.5938147
40
7.9927296
50
90.0001595
51
90.1174751
0
ARC
8
DEFAULT_255_2_778
10
40.4384792
20
15.6928721
40
24.9157632
50
192.6157141
51
193.5074245
0
ARC
8
DEFAULT_255_2_778
10
-8.7012528
20
3.8151868
40
25.6391341
50
12.3777314
51
13.6672289
0
ARC
8
DEFAULT_255_2_778
10
10.9324396
20
8.0605538
40
5.5521402
50
1.8918186
51
13.0166081
0
ARC
8
DEFAULT_255_2_778
10
12.5866447
20
8.1702502
40
3.8956042
50
0.0021906
51
1.0824622
0
ARC
8
DEFAULT_255_2_778
10
12.690408
20
8.1701527
40
3.7918408
50
358.5061089
51
0.0037239
0
ARC
8
DEFAULT_255_2_778
10
8.5185495
20
8.2929384
40
7.9654945
50
356.2049325
51
358.4055359
0
ARC
8
DEFAULT_255_2_778
10
10.2400663
20
8.1736448
40
6.2398589
50
352.2884086
51
356.2516539
0
ARC
8
DEFAULT_255_2_778
10
11.1891115
20
8.0533433
40
5.2832602
50
351.1021896
51
352.2001791
0
ARC
8
DEFAULT_255_2_778
10
12.943929
20
7.713273
40
3.4975567
50
333.3618414
51
352.1597766
0
ARC
8
DEFAULT_255_2_778
10
14.3360657
20
7.0262606
40
1.9451883
50
303.6758329
51
333.0649128
0
ARC
8
DEFAULT_255_2_778
10
14.2011725
20
7.2690274
40
2.2221258
50
293.0510542
51
303.0993873
0
ARC
8
DEFAULT_255_2_778
10
14.1171552
20
7.5365686
40
2.5013532
50
270.0184212
51
292.422344
0
ARC
8
DEFAULT_255_2_778
10
14.069912
20
8.3367209
40
3.301855
50
269.9977405
51
270.833776
0
ARC
8
DEFAULT_255_2_778
10
14.0918263
20
9.184877
40
4.1500697
50
261.8637456
51
269.6956526
0
ARC
8
DEFAULT_255_2_778
10
14.337337
20
11.0811252
40
6.0620303
50
259.6273487
51
262.1031747
0
ARC
8
DEFAULT_255_2_778
10
15.7838147
20
18.2880326
40
13.4121816
50
255.1842876
51
259.092336
0
ARC
8
DEFAULT_255_2_778
10
127.301866
20
457.9269337
40
466.9736755
50
255.7380497
51
255.7499261
0
ARC
8
DEFAULT_255_2_778
10
9.8986891
20
-4.4140245
40
14.8997122
50
123.2275537
51
123.6385276
0
ARC
8
DEFAULT_255_2_778
10
4.2034184
20
4.1360075
40
4.6264914
50
123.5730349
51
125.150121
0
ARC
8
DEFAULT_255_2_778
10
2.7064349
20
6.2571504
40
2.030304
50
125.0706158
51
128.6791476
0
ARC
8
DEFAULT_255_2_778
10
2.3109737
20
6.7597112
40
1.3908393
50
128.8999465
51
129.60447
0
ARC
8
DEFAULT_255_2_778
10
1.9366809
20
7.1898071
40
0.8209832
50
128.6134387
51
143.3594619
0
ARC
8
DEFAULT_255_2_778
10
1.7414727
20
7.3474108
40
0.5703792
50
144.3601837
51
170.1966425
0
ARC
8
DEFAULT_255_2_778
10
2.1070738
20
7.2788459
40
0.9423309
50
169.8735508
51
179.9286027
0
ARC
8
DEFAULT_255_2_778
10
2.4634653
20
7.2678521
40
1.2987786
50
179.4631948
51
180.0028117
0
ARC
8
DEFAULT_255_2_778
10
2.6657509
20
7.2692574
40
1.5010651
50
180.0560724
51
182.738418
0
ARC
8
DEFAULT_255_2_778
10
3.060082
20
7.2875211
40
1.8958184
50
182.7203819
51
184.6623693
0
ARC
8
DEFAULT_255_2_778
10
3.3608484
20
7.3108548
40
2.1974866
50
184.6313174
51
185.215523
0
ARC
8
DEFAULT_255_2_778
10
17.0679094
20
18.2289929
40
8.1622682
50
227.5180771
51
230.5870738
0
ARC
8
DEFAULT_255_2_778
10
266.365886
20
317.5379791
40
397.6943137
50
230.2164526
51
230.2344905
0
ARC
8
DEFAULT_255_2_778
10
9.1800555
20
8.2551746
40
4.5520604
50
40.0894008
51
52.0113627
0
ARC
8
DEFAULT_255_2_778
10
10.9329299
20
9.8234793
40
2.2022252
50
35.2409216
51
38.241937
0
ARC
8
DEFAULT_255_2_778
10
13.7458499
20
11.8100975
40
1.2414896
50
215.2149554
51
216.1534711
0
ARC
8
DEFAULT_255_2_778
10
13.886183
20
11.9121186
40
1.4149874
50
216.1367234
51
216.2606026
0
ARC
8
DEFAULT_255_2_778
10
14.0634704
20
12.042224
40
1.6348926
50
216.2623648
51
216.3675937
0
ARC
8
DEFAULT_255_2_778
10
14.0113872
20
12.0039173
40
1.5702393
50
216.3689728
51
216.4765066
0
ARC
8
DEFAULT_255_2_778
10
14.0753973
20
12.0513304
40
1.6498965
50
216.4789833
51
216.5794341
0
ARC
8
DEFAULT_255_2_778
10
14.0237558
20
12.0127369
40
1.5854276
50
216.5716
51
216.6742068
0
ARC
8
DEFAULT_255_2_778
10
14.3183168
20
12.2319236
40
1.952591
50
216.6702975
51
216.7520754
0
ARC
8
DEFAULT_255_2_778
10
9.8334874
20
8.8072551
40
3.6904562
50
35.9404157
51
37.6904796
0
ARC
8
DEFAULT_255_2_778
10
12.422952
20
10.6926077
40
0.4874024
50
29.7824756
51
35.1687423
0
ARC
8
DEFAULT_255_2_778
10
12.674908
20
10.8292955
40
0.2009369
50
1.5987991
51
31.6405048
0
ARC
8
DEFAULT_255_2_778
10
12.6851556
20
10.8379465
40
0.1906355
50
333.2457979
51
359.08487
0
ARC
8
DEFAULT_255_2_778
10
12.5218638
20
10.9162374
40
0.3717073
50
321.4183238
51
333.8005011
0
ARC
8
DEFAULT_255_2_778
10
12.2477279
20
11.1300202
40
0.7193363
50
314.7238049
51
321.7242619
0
ARC
8
DEFAULT_255_2_778
10
11.9888305
20
11.3830567
40
1.0813201
50
313.2301606
51
315.0358554
0
ARC
8
DEFAULT_255_2_778
10
13.3671884
20
8.3894074
40
2.2961294
50
102.7664155
51
106.1254063
0
ARC
8
DEFAULT_255_2_778
10
13.1220541
20
9.4834755
40
1.1749418
50
96.2039233
51
102.8975638
0
ARC
8
DEFAULT_255_2_778
10
13.0871688
20
9.7665692
40
0.8897455
50
89.9712595
51
95.9406854
0
ARC
8
DEFAULT_255_2_778
10
13.0875677
20
9.7058564
40
0.9504582
50
89.7562484
51
89.997143
0
ARC
8
DEFAULT_255_2_778
10
13.0729299
20
9.2456011
40
1.4108288
50
83.2199163
51
89.2413055
0
ARC
8
DEFAULT_255_2_778
10
12.6028237
20
4.8860788
40
5.7955611
50
82.923947
51
83.6930869
0
ARC
8
DEFAULT_255_2_778
10
13.2245041
20
10.0231194
40
0.6212666
50
52.5209869
51
81.4602029
0
ARC
8
DEFAULT_255_2_778
10
12.8768796
20
9.5536767
40
1.2053643
50
32.6884726
51
52.9856703
0
ARC
8
DEFAULT_255_2_778
10
12.6836215
20
9.4070447
40
1.4473309
50
21.2415542
51
33.4420435
0
ARC
8
DEFAULT_255_2_778
10
12.936836
20
9.5052862
40
1.1757266
50
12.8772268
51
21.2499695
0
ARC
8
DEFAULT_255_2_778
10
13.2398781
20
9.573792
40
0.8650388
50
3.6524159
51
12.9271606
0
ARC
8
DEFAULT_255_2_778
10
14.0254736
20
9.6524745
40
0.0811851
50
304.8330578
51
343.1178582
0
ARC
8
DEFAULT_255_2_778
10
13.7991584
20
9.9182472
40
0.429948
50
296.654136
51
309.3630878
0
ARC
8
DEFAULT_255_2_778
10
13.495495
20
10.4968135
40
1.0833199
50
290.2184703
51
297.280688
0
ARC
8
DEFAULT_255_2_778
10
13.1718365
20
11.3563118
40
2.001725
50
285.793722
51
290.4094447
0
ARC
8
DEFAULT_255_2_778
10
12.9859005
20
11.9822823
40
2.6546846
50
285.3662344
51
285.9781064
0
ARC
8
DEFAULT_255_2_778
10
13.6852914
20
9.4260154
40
0.0053781
50
272.4096218
51
319.1551774
0
ARC
8
DEFAULT_255_2_778
10
13.6781672
20
9.4670469
40
0.0469834
50
268.8586448
51
279.0006635
0
ARC
8
DEFAULT_255_2_778
10
13.6844108
20
9.7272968
40
0.3073079
50
262.8350906
51
268.6613107
0
ARC
8
DEFAULT_255_2_778
10
13.8472288
20
11.1531982
40
1.7424587
50
262.0259481
51
263.3710691
0
ARC
8
DEFAULT_255_2_778
10
14.6850467
20
17.3193257
40
7.9652333
50
262.1802824
51
262.2106465
0
ARC
8
DEFAULT_255_2_778
10
13.3827331
20
7.9292826
40
1.5147334
50
81.7026555
51
83.8783271
0
ARC
8
DEFAULT_255_2_778
10
13.5269882
20
9.2679482
40
0.1683192
50
84.1087768
51
89.130904
0
ARC
8
DEFAULT_255_2_778
10
13.5281235
20
9.4183865
40
0.0179178
50
85.4614599
51
109.3003169
0
ARC
8
DEFAULT_255_2_778
10
13.522648
20
9.4342159
40
0.0011701
50
112.4432888
51
175.6720707
0
ARC
8
DEFAULT_255_2_778
10
13.5226609
20
9.4343212
40
0.0011796
50
180.8268738
51
201.0224689
0
ARC
8
DEFAULT_255_2_778
10
13.7176911
20
9.4984002
40
0.2064655
50
198.2046158
51
222.8736761
0
ARC
8
DEFAULT_255_2_778
10
13.730468
20
9.5237999
40
0.2333215
50
225.3106948
51
239.5554127
0
ARC
8
DEFAULT_255_2_778
10
10.2240686
20
3.6844267
40
6.5779384
50
58.5109518
51
58.9970987
0
ARC
8
DEFAULT_255_2_778
10
11.9740447
20
9.0505275
40
1.7033619
50
7.3781746
51
8.2075404
0
ARC
8
DEFAULT_255_2_778
10
16.2843229
20
9.5742906
40
2.6387085
50
186.6379344
51
189.5381809
0
ARC
8
DEFAULT_255_2_778
10
14.6453877
20
9.310493
40
0.9787853
50
190.2072124
51
192.1561412
0
ARC
8
DEFAULT_255_2_778
10
14.1869259
20
9.1989608
40
0.5072711
50
190.7452588
51
210.2124622
0
ARC
8
DEFAULT_255_2_778
10
13.7779641
20
6.2785424
40
2.6653178
50
90.0004536
51
90.632109
0
ARC
8
DEFAULT_255_2_778
10
13.778493
20
6.3002012
40
2.6436591
50
78.2963182
51
90.0119214
0
ARC
8
DEFAULT_255_2_778
10
13.9770185
20
8.6929108
40
0.3904872
50
357.5814946
51
30.1260757
0
ARC
8
DEFAULT_255_2_778
10
12.7785892
20
8.6904854
40
1.5886307
50
356.4605033
51
359.4931724
0
ARC
8
DEFAULT_255_2_778
10
21.8806038
20
8.1910901
40
7.5271201
50
176.9437485
51
177.0795069
0
ARC
8
DEFAULT_255_2_778
10
11.1093791
20
9.8388765
40
1.2564933
50
327.3042525
51
331.1345066
0
ARC
8
DEFAULT_255_2_778
10
11.8382591
20
9.3709391
40
0.3903343
50
315.9403905
51
327.3142818
0
ARC
8
DEFAULT_255_2_778
10
10.5548625
20
7.4377235
40
2.2819443
50
43.8599576
51
46.7380024
0
ARC
8
DEFAULT_255_2_778
10
11.3240465
20
8.1802066
40
1.2128726
50
40.4154906
51
43.7470294
0
ARC
8
DEFAULT_255_2_778
10
11.6763114
20
8.472885
40
0.7549404
50
17.501839
51
40.83655
0
ARC
8
DEFAULT_255_2_778
10
11.2170739
20
8.3111807
40
1.2416536
50
14.7590647
51
18.2452118
0
ARC
8
DEFAULT_255_2_778
10
12.0070088
20
9.0325379
40
1.2742032
50
238.6694935
51
241.7886067
0
ARC
8
DEFAULT_255_2_778
10
11.8192462
20
8.7218325
40
0.9111732
50
236.2280639
51
238.5955936
0
ARC
8
DEFAULT_255_2_778
10
11.6175703
20
8.4346099
40
0.560365
50
219.9169355
51
237.0441008
0
ARC
8
DEFAULT_255_2_778
10
11.7239411
20
8.5078442
40
0.6890475
50
208.1930878
51
218.9118424
0
ARC
8
DEFAULT_255_2_778
10
12.4990927
20
8.9412147
40
1.5770576
50
206.2828605
51
208.7649292
0
ARC
8
DEFAULT_255_2_778
10
14.577951
20
9.9700743
40
3.8965839
50
205.1738626
51
206.3118317
0
ARC
8
DEFAULT_255_2_778
10
10.7777746
20
9.1822103
40
0.9116628
50
273.2405825
51
287.4698854
0
LINE
8
DEFAULT_255_2_778
10
10.8293097
20
8.2720054
11
10.8289011
21
8.2720051
0
ARC
8
DEFAULT_255_2_778
10
10.8250379
20
8.5483354
40
0.2763573
50
250.5817995
51
270.8009742
0
ARC
8
DEFAULT_255_2_778
10
10.7360261
20
8.629971
40
0.342285
50
269.5202101
51
269.9985497
0
ARC
8
DEFAULT_255_2_778
10
10.740004
20
8.5110157
40
0.2233652
50
268.9773442
51
288.724938
0
ARC
8
DEFAULT_255_2_778
10
10.6805805
20
8.6512635
40
0.375435
50
290.4428609
51
302.9351492
0
ARC
8
DEFAULT_255_2_778
10
10.3508253
20
9.2071942
40
1.0216227
50
301.5051872
51
301.8715989
0
ARC
8
DEFAULT_255_2_778
10
11.6234783
20
10.1169571
40
1.0549505
50
293.9580678
51
298.4903179
0
ARC
8
DEFAULT_255_2_778
10
4.561888
20
23.6192408
40
16.292213
50
297.6662708
51
297.6880689
0
LINE
8
DEFAULT_255_2_778
10
12.1321896
20
9.1926426
11
12.1326339
21
9.1928757
0
ARC
8
DEFAULT_255_2_778
10
12.7331413
20
8.0862297
40
1.2590768
50
114.5083774
51
118.4859067
0
ARC
8
DEFAULT_255_2_778
10
12.3406958
20
8.9286263
40
0.3298714
50
112.9896004
51
113.1815902
0
LINE
8
DEFAULT_255_2_778
10
6.6730599
20
1.3024981
11
7.2326599
21
0.4282981
0
LINE
8
DEFAULT_255_2_778
10
7.2326599
20
0.4282981
11
7.6195599
21
0.0657981
0
LINE
8
DEFAULT_255_2_778
10
7.6195599
20
0.0657981
11
7.9457599
21
0.0173981
0
LINE
8
DEFAULT_255_2_778
10
7.9457599
20
0.0173981
11
8.3807599
21
0.2832981
0
LINE
8
DEFAULT_255_2_778
10
8.3807599
20
0.2832981
11
8.6103599
21
0.7182981
0
LINE
8
DEFAULT_255_2_778
10
8.6103599
20
0.7182981
11
9.0937599
21
1.0807981
0
LINE
8
DEFAULT_255_2_778
10
9.0937599
20
1.0807981
11
9.6859599
21
1.5887981
0
LINE
8
DEFAULT_255_2_778
10
9.6859599
20
1.5887981
11
10.0605599
21
2.1178981
0
LINE
8
DEFAULT_255_2_778
10
10.0605599
20
2.1178981
11
10.3992599
21
2.7462981
0
LINE
8
DEFAULT_255_2_778
10
10.3992599
20
2.7462981
11
10.8344599
21
4.0514981
0
LINE
8
DEFAULT_255_2_778
10
10.8344599
20
4.0514981
11
10.8707599
21
4.5470981
0
LINE
8
DEFAULT_255_2_778
10
10.8707599
20
4.5470981
11
10.3267599
21
4.7888981
0
LINE
8
DEFAULT_255_2_778
10
10.3267599
20
4.7888981
11
9.9126599
21
5.1433981
0
LINE
8
DEFAULT_255_2_778
10
7.6203599
20
2.6647981
11
7.4390599
21
2.3988981
0
LINE
8
DEFAULT_255_2_778
10
7.4390599
20
2.3988981
11
6.0613599
21
2.3626981
0
LINE
8
DEFAULT_255_2_778
10
6.0613599
20
2.3626981
11
5.6115599
21
2.4110981
0
LINE
8
DEFAULT_255_2_778
10
5.6115599
20
2.4110981
11
5.5631599
21
2.4594981
0
LINE
8
DEFAULT_255_2_778
10
5.5631599
20
2.4594981
11
5.5753599
21
2.6287981
0
LINE
8
DEFAULT_255_2_778
10
5.4925599
20
3.0542981
11
5.4449599
21
3.4833981
0
LINE
8
DEFAULT_255_2_778
10
3.1070599
20
0.7007981
11
4.7162599
21
0.2864981
0
LINE
8
DEFAULT_255_2_778
10
4.7162599
20
0.2864981
11
5.0787599
21
0.4314981
0
LINE
8
DEFAULT_255_2_778
10
5.0787599
20
0.4314981
11
5.1996599
21
1.1325981
0
LINE
8
DEFAULT_255_2_778
10
5.1996599
20
1.1325981
11
5.5382599
21
1.7609981
0
LINE
8
DEFAULT_255_2_778
10
5.5382599
20
1.7609981
11
5.5986599
21
2.1477981
0
LINE
8
DEFAULT_255_2_778
10
5.5986599
20
2.1477981
11
5.4927599
21
3.0542981
0
LINE
8
DEFAULT_255_2_778
10
5.2533599
20
4.8859981
11
5.3136599
21
5.5627981
0
LINE
8
DEFAULT_255_2_778
10
5.3136599
20
5.5627981
11
4.5887599
21
6.5901981
0
LINE
8
DEFAULT_255_2_778
10
2.1050599
20
4.2887981
11
1.9481599
21
3.9546981
0
LINE
8
DEFAULT_255_2_778
10
1.6010599
20
2.3988981
11
2.4106599
21
1.7704981
0
LINE
8
DEFAULT_255_2_778
10
2.4106599
20
1.7704981
11
2.8093599
21
1.8429981
0
LINE
8
DEFAULT_255_2_778
10
2.8093599
20
1.8429981
11
3.2081599
21
2.2417981
0
LINE
8
DEFAULT_255_2_778
10
3.2081599
20
2.2417981
11
2.6400599
21
3.1240981
0
LINE
8
DEFAULT_255_2_778
10
2.6400599
20
3.1240981
11
2.1048599
21
4.2887981
0
LINE
8
DEFAULT_255_2_778
10
12.2603599
20
5.3455981
11
13.5535599
21
4.8163981
0
LINE
8
DEFAULT_255_2_778
10
13.5535599
20
4.8163981
11
14.7622599
21
4.7560981
0
LINE
8
DEFAULT_255_2_778
10
14.7622599
20
4.7560981
11
15.5840599
21
4.9978981
0
LINE
8
DEFAULT_255_2_778
10
15.5840599
20
4.9978981
11
16.2242599
21
5.5270981
0
LINE
8
DEFAULT_255_2_778
10
16.2242599
20
5.5270981
11
16.7076599
21
6.5422981
0
LINE
8
DEFAULT_255_2_778
10
16.7076599
20
6.5422981
11
16.8889599
21
7.7143981
0
LINE
8
DEFAULT_255_2_778
10
16.8889599
20
7.7143981
11
16.7439599
21
8.8626981
0
LINE
8
DEFAULT_255_2_778
10
16.7439599
20
8.8626981
11
16.4780599
21
9.9987981
0
LINE
8
DEFAULT_255_2_778
10
16.4780599
20
9.9987981
11
16.1234599
21
10.2506981
0
LINE
8
DEFAULT_255_2_778
10
1.1724599
20
7.1110981
11
1.3033599
21
6.6367981
0
LINE
8
DEFAULT_255_2_778
10
1.3033599
20
6.6367981
11
1.4885599
21
6.5112981
0
LINE
8
DEFAULT_255_2_778
10
1.4885599
20
6.5112981
11
1.7177599
21
6.4350981
0
LINE
8
DEFAULT_255_2_778
10
1.7177599
20
6.4350981
11
2.1323599
21
6.5329981
0
LINE
8
DEFAULT_255_2_778
10
2.1323599
20
6.5329981
11
2.3450599
21
7.1928981
0
LINE
8
DEFAULT_255_2_778
10
2.3450599
20
7.1928981
11
1.7560599
21
6.9036981
0
LINE
8
DEFAULT_255_2_778
10
1.7560599
20
6.9036981
11
1.6198599
21
6.9036981
0
LINE
8
DEFAULT_255_2_778
10
1.6198599
20
6.9036981
11
1.4671599
21
7.1380981
0
LINE
8
DEFAULT_255_2_778
10
1.4671599
20
7.1380981
11
1.6523599
21
7.4106981
0
LINE
8
DEFAULT_255_2_778
10
1.6523599
20
7.4106981
11
1.7502599
21
7.9286981
0
LINE
8
DEFAULT_255_2_778
10
1.7502599
20
7.9286981
11
1.8756599
21
7.8905981
0
LINE
8
DEFAULT_255_2_778
10
1.8756599
20
7.8905981
11
2.0283599
21
7.7704981
0
LINE
8
DEFAULT_255_2_778
10
2.0283599
20
7.7704981
11
2.0063599
21
8.0429981
0
LINE
8
DEFAULT_255_2_778
10
2.0063599
20
8.0429981
11
1.9026599
21
8.2175981
0
LINE
8
DEFAULT_255_2_778
10
1.9026599
20
8.2175981
11
1.7989599
21
8.3048981
0
LINE
8
DEFAULT_255_2_778
10
1.7989599
20
8.3048981
11
1.7335599
21
8.0482981
0
LINE
8
DEFAULT_255_2_778
10
14.3632599
20
8.5745981
11
14.5807599
21
8.6107981
0
LINE
8
DEFAULT_255_2_778
10
14.5807599
20
8.6107981
11
14.5203599
21
9.1063981
0
LINE
8
DEFAULT_255_2_778
10
14.5203599
20
9.1063981
11
14.7135599
21
9.4325981
0
LINE
8
DEFAULT_255_2_778
10
14.7135599
20
9.4325981
11
14.4357599
21
10.0609981
0
LINE
8
DEFAULT_255_2_778
10
14.4357599
20
10.0609981
11
13.9065599
21
10.5689981
0
LINE
8
DEFAULT_255_2_778
10
13.9065599
20
10.5689981
11
13.8552599
21
10.5715981
0
LINE
8
DEFAULT_255_2_778
10
13.8552599
20
10.5715981
11
13.2572599
21
10.9385981
0
LINE
8
DEFAULT_255_2_778
10
13.2572599
20
10.9385981
11
12.2817599
21
11.7365981
0
LINE
8
DEFAULT_255_2_778
10
12.2817599
20
11.7365981
11
11.5575599
21
12.2093981
0
LINE
8
DEFAULT_255_2_778
10
12.4177599
20
8.6274981
11
11.8689599
21
8.3549981
0
LINE
8
DEFAULT_255_2_778
10
11.8689599
20
8.3549981
11
11.4046599
21
7.9096981
0
LINE
8
DEFAULT_255_2_778
10
10.8902599
20
8.3395981
11
11.1858599
21
8.6464981
0
LINE
8
DEFAULT_255_2_778
10
11.1858599
20
8.6464981
11
11.7078599
21
9.0417981
0
LINE
8
DEFAULT_255_2_778
10
11.7078599
20
9.0417981
11
12.0518599
21
9.1528981
0
ARC
8
DEFAULT_255_2_778
10
15.5150041
20
3.1998781
40
6.1592117
50
117.0329895
51
125.7787597
0
ARC
8
DEFAULT_255_2_778
10
13.1440109
20
6.4913887
40
2.1026556
50
125.8022961
51
152.5006749
0
ARC
8
DEFAULT_255_2_778
10
12.2595526
20
7.4696769
40
0.9806594
50
159.61388
51
180.4330497
0
ARC
8
DEFAULT_255_2_778
10
12.3816743
20
7.3812797
40
1.1266466
50
119.5806154
51
157.5629582
0
ARC
8
DEFAULT_255_2_778
10
13.1030675
20
6.1964774
40
2.5134974
50
103.395733
51
120.549308
0
ARC
8
DEFAULT_255_2_778
10
13.4621339
20
4.9475247
40
3.8121281
50
101.2837666
51
104.2967444
0
ARC
8
DEFAULT_255_2_778
10
12.0523028
20
8.9015386
40
1.5513578
50
124.9981637
51
147.7318482
0
ARC
8
DEFAULT_255_2_778
10
12.1995368
20
8.7822775
40
1.7396663
50
146.9994683
51
179.3469251
0
ARC
8
DEFAULT_255_2_778
10
11.9800431
20
8.802107
40
1.5200595
50
180.0000256
51
180.7318456
0
ARC
8
DEFAULT_255_2_778
10
11.9536294
20
8.8015923
40
1.4936416
50
180.7250444
51
183.7706989
0
ARC
8
DEFAULT_255_2_778
10
12.3398097
20
9.2374271
40
1.9511039
50
187.460234
51
195.8859285
0
ARC
8
DEFAULT_255_2_778
10
11.8797497
20
9.1741878
40
1.4867304
50
180.127633
51
187.3457483
0
ARC
8
DEFAULT_255_2_778
10
11.4291921
20
9.1948602
40
1.0364467
50
140.6852711
51
181.3259923
0
ARC
8
DEFAULT_255_2_778
10
11.53782
20
9.0940633
40
1.184388
50
128.0870308
51
140.2421546
0
LINE
8
DEFAULT_255_2_778
10
10.8072212
20
10.026265
11
11.0260212
21
10.132665
0
LINE
8
DEFAULT_255_2_778
10
11.0260212
20
10.132665
11
11.1652212
21
10.172365
0
ARC
8
DEFAULT_255_2_778
10
12.1021906
20
4.9930598
40
0.8139003
50
98.5954674
51
108.1452906
0
ARC
8
DEFAULT_255_2_778
10
11.909649
20
5.5573997
40
0.217782
50
106.246664
51
171.3879404
0
ARC
8
DEFAULT_255_2_778
10
12.8305158
20
5.3051396
40
1.1713612
50
165.9246905
51
171.2474888
0
ARC
8
DEFAULT_255_2_778
10
15.1537589
20
4.9114474
40
3.5276361
50
170.6694716
51
171.1261508
0
ARC
8
DEFAULT_255_2_778
10
12.4970617
20
5.1654057
40
0.7957048
50
152.3409442
51
156.0889886
0
ARC
8
DEFAULT_255_2_778
10
12.1837491
20
5.328463
40
0.4425044
50
148.5824658
51
152.2090579
0
ARC
8
DEFAULT_255_2_778
10
12.0142966
20
5.4365471
40
0.2415857
50
120.7037008
51
149.509213
0
ARC
8
DEFAULT_255_2_778
10
12.3161079
20
4.9592304
40
0.8062507
50
118.304969
51
121.8255967
0
ARC
8
DEFAULT_255_2_778
10
26.472611
20
-21.1521582
40
30.5082879
50
118.3442558
51
118.4604765
0
ARC
8
DEFAULT_255_2_778
10
10.2846492
20
10.0258905
40
3.4209368
50
144.4535314
51
146.3374294
0
ARC
8
DEFAULT_255_2_778
10
9.1448565
20
10.8428136
40
2.0186232
50
141.029997
51
144.5117595
0
ARC
8
DEFAULT_255_2_778
10
8.7497098
20
11.1580777
40
1.5131364
50
139.4585265
51
140.9011387
0
ARC
8
DEFAULT_255_2_778
10
8.5474779
20
11.3341208
40
1.2450275
50
126.548128
51
139.5657991
0
ARC
8
DEFAULT_255_2_778
10
9.0999525
20
10.6023572
40
2.1619074
50
123.3473271
51
126.762023
0
ARC
8
DEFAULT_255_2_778
10
10.2401203
20
8.881484
40
4.2262151
50
121.9434575
51
123.4348637
0
ARC
8
DEFAULT_255_2_778
10
11.7879976
20
6.4166738
40
7.1367408
50
121.698068
51
122.0188931
0
ARC
8
DEFAULT_255_2_778
10
8.9913857
20
8.5282931
40
4.0736491
50
103.5341943
51
104.087792
0
ARC
8
DEFAULT_255_2_778
10
8.7552817
20
9.4689328
40
3.1038304
50
104.0869917
51
104.7777223
0
ARC
8
DEFAULT_255_2_778
10
8.3359565
20
11.0055264
40
1.5111666
50
104.2652462
51
110.508396
0
ARC
8
DEFAULT_255_2_778
10
7.9855429
20
11.918521
40
0.5333364
50
109.6121907
51
129.7036309
0
ARC
8
DEFAULT_255_2_778
10
7.9707657
20
11.9676098
40
0.4865403
50
132.0583269
51
156.4010741
0
ARC
8
DEFAULT_255_2_778
10
8.6370914
20
11.6444298
40
1.2268729
50
155.0278916
51
160.7339014
0
ARC
8
DEFAULT_255_2_778
10
9.6864555
20
11.2643419
40
2.3429147
50
160.4268022
51
161.9877037
0
ARC
8
DEFAULT_255_2_778
10
11.038991
20
10.8238428
40
3.7653744
50
161.9773893
51
163.0328795
0
ARC
8
DEFAULT_255_2_778
10
8.7724082
20
11.5140344
40
1.3960373
50
162.9798728
51
163.0033293
0
ARC
8
DEFAULT_255_2_778
10
12.9684199
20
8.5056506
40
6.2478641
50
152.3969398
51
153.5646948
0
ARC
8
DEFAULT_255_2_778
10
11.5928789
20
9.2253318
40
4.6954294
50
150.8818595
51
152.4020464
0
ARC
8
DEFAULT_255_2_778
10
10.8170834
20
9.6558031
40
3.8082082
50
149.788696
51
150.860136
0
ARC
8
DEFAULT_255_2_778
10
9.848869
20
10.2328499
40
2.6811609
50
143.8889603
51
150.0338841
0
ARC
8
DEFAULT_255_2_778
10
9.1747388
20
10.7224456
40
1.8480036
50
122.2538826
51
143.8341661
0
ARC
8
DEFAULT_255_2_778
10
9.8171833
20
9.7691928
40
2.9972157
50
119.294878
51
122.9150518
0
ARC
8
DEFAULT_255_2_778
10
10.369691
20
8.7940664
40
4.1179832
50
117.5723482
51
119.3604859
0
ARC
8
DEFAULT_255_2_778
10
10.9428045
20
7.6992874
40
5.3537012
50
116.3682245
51
117.586099
0
ARC
8
DEFAULT_255_2_778
10
11.6634393
20
6.2460724
40
6.9757827
50
115.3793955
51
116.3701146
0
ARC
8
DEFAULT_255_2_778
10
11.1585663
20
2.396767
40
10.4515745
50
103.7546681
51
104.1834247
0
ARC
8
DEFAULT_255_2_778
10
10.4160341
20
5.3335246
40
7.4223999
50
104.1810133
51
104.7762843
0
ARC
8
DEFAULT_255_2_778
10
9.9976731
20
6.925735
40
5.7761446
50
104.7917667
51
104.8158683
0
ARC
8
DEFAULT_255_2_778
10
9.453116
20
8.9058878
40
3.7226304
50
104.5065003
51
108.6435931
0
ARC
8
DEFAULT_255_2_778
10
8.7560439
20
10.9455149
40
1.5672142
50
108.3341256
51
118.6741623
0
ARC
8
DEFAULT_255_2_778
10
8.4632317
20
11.4906233
40
0.9484686
50
118.9554068
51
148.9761109
0
ARC
8
DEFAULT_255_2_778
10
9.0583589
20
11.1141649
40
1.6525655
50
148.4254916
51
156.9329076
0
ARC
8
DEFAULT_255_2_778
10
10.3227684
20
10.5666642
40
3.0304083
50
156.7756111
51
161.4780081
0
ARC
8
DEFAULT_255_2_778
10
11.8430003
20
10.039487
40
4.6393934
50
161.2687961
51
162.4163397
0
ARC
8
DEFAULT_255_2_778
10
12.7770009
20
9.7422967
40
5.6195354
50
162.4046666
51
163.1032491
0
ARC
8
DEFAULT_255_2_778
10
13.7059555
20
9.459934
40
6.5904552
50
163.1017334
51
163.6995301
0
ARC
8
DEFAULT_255_2_778
10
14.4658294
20
9.2368387
40
7.3824018
50
163.6929311
51
163.8755084
0
ARC
8
DEFAULT_255_2_778
10
4.1953277
20
6.8700403
40
4.1471346
50
167.1916158
51
167.7026494
0
ARC
8
DEFAULT_255_2_778
10
2.6721911
20
7.2251467
40
2.5831886
50
163.9158488
51
167.3824607
0
ARC
8
DEFAULT_255_2_778
10
1.4912331
20
7.5704152
40
1.3528098
50
155.306831
51
164.1094133
0
ARC
8
DEFAULT_255_2_778
10
1.3650115
20
7.6218823
40
1.2166439
50
151.3723119
51
155.0257109
0
ARC
8
DEFAULT_255_2_778
10
1.7429931
20
7.4078593
40
1.6509736
50
145.5075825
51
151.1376441
0
ARC
8
DEFAULT_255_2_778
10
3.2488025
20
6.3832031
40
3.4723332
50
143.3341175
51
145.6430988
0
ARC
8
DEFAULT_255_2_778
10
5.7987785
20
4.5048133
40
6.6394442
50
143.003372
51
143.4721633
0
ARC
8
DEFAULT_255_2_778
10
2.2855979
20
5.9277517
40
3.1337003
50
124.8246144
51
126.8363186
0
ARC
8
DEFAULT_255_2_778
10
1.3192714
20
7.2144673
40
1.524534
50
126.762098
51
130.6122079
0
ARC
8
DEFAULT_255_2_778
10
0.8548797
20
7.7542644
40
0.8124679
50
130.5302912
51
137.1243773
0
ARC
8
DEFAULT_255_2_778
10
0.5731491
20
8.0067292
40
0.4342785
50
136.2433328
51
175.1404186
0
ARC
8
DEFAULT_255_2_778
10
1.0745657
20
7.9417555
40
0.9396605
50
173.7828013
51
180.3663805
0
ARC
8
DEFAULT_255_2_778
10
1.8692393
20
7.9389702
40
1.7343178
50
180.1064887
51
182.556549
0
ARC
8
DEFAULT_255_2_778
10
3.0971619
20
7.9925501
40
2.9634084
50
182.5324694
51
184.0768495
0
ARC
8
DEFAULT_255_2_778
10
4.5587732
20
8.0917099
40
4.4283738
50
184.0121125
51
184.3824921
0
ARC
8
DEFAULT_255_2_778
10
9.6159948
20
2.551396
40
1.9525935
50
179.9957353
51
186.9738703
0
ARC
8
DEFAULT_255_2_778
10
9.6194373
20
2.5515413
40
1.9560359
50
179.6409802
51
179.9999983
0
ARC
8
DEFAULT_255_2_778
10
9.6264939
20
2.5514747
40
1.9630929
50
174.6205044
51
179.6403261
0
ARC
8
DEFAULT_255_2_778
10
5.8999513
20
3.733973
40
1.8918828
50
335.5223512
51
342.7204275
0
ARC
8
DEFAULT_255_2_778
10
13.0947231
20
0.5848092
40
5.9621713
50
156.627006
51
157.3986427
0
ARC
8
DEFAULT_255_2_778
10
8.8717694
20
2.3308038
40
1.3925638
50
156.9440108
51
163.413928
0
ARC
8
DEFAULT_255_2_778
10
6.4783218
20
7.5466525
40
5.0732148
50
270.8081079
51
281.5978567
0
ARC
8
DEFAULT_255_2_778
10
6.4868522
20
7.3793609
40
4.9058235
50
270.0000281
51
270.736046
0
ARC
8
DEFAULT_255_2_778
10
6.4868407
20
7.3760686
40
4.9025313
50
269.2094982
51
270.0001623
0
ARC
8
DEFAULT_255_2_778
10
6.4915837
20
7.4742135
40
5.0007333
50
259.7932157
51
269.1706745
0
ARC
8
DEFAULT_255_2_778
10
7.9300075
20
3.0579028
40
2.4597358
50
176.5431128
51
178.3656703
0
ARC
8
DEFAULT_255_2_778
10
11.9805802
20
2.9351693
40
6.5121651
50
178.3026844
51
179.2972578
0
ARC
8
DEFAULT_255_2_778
10
18.8200094
20
2.8419611
40
13.3522263
50
179.2572795
51
179.7274925
0
ARC
8
DEFAULT_255_2_778
10
28.8315288
20
2.7913764
40
23.3638732
50
179.7202139
51
180.0125592
0
ARC
8
DEFAULT_255_2_778
10
51.1875635
20
2.7992845
40
45.7199093
50
180.0163283
51
180.2295269
0
ARC
8
DEFAULT_255_2_778
10
143.921563
20
3.152911
40
138.4545825
50
180.2221328
51
180.2754627
0
ARC
8
DEFAULT_255_2_778
10
-152.5185419
20
1.7180594
40
157.988995
50
0.2267228
51
0.2789574
0
ARC
8
DEFAULT_255_2_778
10
-32.6510671
20
2.1919424
40
38.1205834
50
0.0534766
51
0.2273873
0
ARC
8
DEFAULT_255_2_778
10
-17.7330808
20
2.2116875
40
23.2025859
50
0.0009368
51
0.0391011
0
ARC
8
DEFAULT_255_2_778
10
-12.6650802
20
2.2108542
40
18.1345852
50
359.874014
51
0.0038312
0
ARC
8
DEFAULT_255_2_778
10
-7.1797817
20
2.1989895
40
12.649274
50
359.847485
51
359.8731227
0
ARC
8
DEFAULT_255_2_778
10
2.4139077
20
2.1607796
40
3.055543
50
357.8116668
51
0.0851137
0
ARC
8
DEFAULT_255_2_778
10
4.676569
20
2.0658588
40
0.7909526
50
347.6714866
51
358.4240286
0
ARC
8
DEFAULT_255_2_778
10
4.9085829
20
2.0228292
40
0.5551521
50
343.6032948
51
346.8972549
0
ARC
8
DEFAULT_255_2_778
10
4.7966547
20
2.0607846
40
0.6732598
50
332.820667
51
343.1934405
0
ARC
8
DEFAULT_255_2_778
10
4.1414363
20
2.3899001
40
1.4064773
50
328.9296119
51
333.0860215
0
ARC
8
DEFAULT_255_2_778
10
3.3692133
20
2.8430182
40
2.301786
50
328.7792723
51
329.1891384
0
ARC
8
DEFAULT_255_2_778
10
1.4248877
20
4.03083
40
4.5802213
50
327.5538861
51
328.6795184
0
ARC
8
DEFAULT_255_2_778
10
-11.2532262
20
12.1342378
40
19.6267981
50
327.1590347
51
327.4471859
0
ARC
8
DEFAULT_255_2_778
10
10.89629
20
-2.1415478
40
6.724673
50
147.3095615
51
147.439999
0
ARC
8
DEFAULT_255_2_778
10
7.8339899
20
-0.1958387
40
3.096544
50
147.2886854
51
149.973728
0
ARC
8
DEFAULT_255_2_778
10
8.3453437
20
-0.4833128
40
3.6831299
50
150.0824035
51
151.9738285
0
ARC
8
DEFAULT_255_2_778
10
10.3471978
20
-1.5524517
40
5.952595
50
151.9435725
51
153.0640708
0
ARC
8
DEFAULT_255_2_778
10
12.3648434
20
-2.5838588
40
8.2185764
50
153.0255015
51
153.3381155
0
ARC
8
DEFAULT_255_2_778
10
1.562865
20
0.8637876
40
3.4656186
50
1.8573807
51
3.974837
0
ARC
8
DEFAULT_255_2_778
10
3.1785629
20
0.9212271
40
1.8489146
50
0.0411321
51
1.7011426
0
ARC
8
DEFAULT_255_2_778
10
3.7125141
20
0.9195185
40
1.3149664
50
355.6417871
51
0.1322813
0
ARC
8
DEFAULT_255_2_778
10
3.8683044
20
0.9111169
40
1.1589932
50
346.0635606
51
355.4706636
0
ARC
8
DEFAULT_255_2_778
10
3.5386988
20
0.9874278
40
1.4972852
50
344.3459773
51
346.2671181
0
ARC
8
DEFAULT_255_2_778
10
4.8043645
20
0.6370726
40
0.1840759
50
290.256364
51
343.0535609
0
ARC
8
DEFAULT_255_2_778
10
4.6976869
20
0.8698154
40
0.4397908
50
278.2263628
51
292.7975698
0
ARC
8
DEFAULT_255_2_778
10
4.6286958
20
1.3170944
40
0.8923492
50
269.5446435
51
278.5013414
0
ARC
8
DEFAULT_255_2_778
10
4.6270389
20
1.9846799
40
1.5599159
50
264.9521348
51
269.8003744
0
ARC
8
DEFAULT_255_2_778
10
4.6950213
20
2.7812734
40
2.3594029
50
261.5875642
51
265.0097333
0
ARC
8
DEFAULT_255_2_778
10
4.8733661
20
3.9669529
40
3.5584176
50
257.9378594
51
261.5398432
0
ARC
8
DEFAULT_255_2_778
10
5.1095148
20
5.1125936
40
4.7281206
50
256.8813
51
258.0405291
0
ARC
8
DEFAULT_255_2_778
10
5.2698004
20
5.8019516
40
5.4358677
50
255.9966791
51
256.8851012
0
ARC
8
DEFAULT_255_2_778
10
5.4775762
20
6.634434
40
6.2938875
50
255.2273252
51
255.9952359
0
ARC
8
DEFAULT_255_2_778
10
5.8977541
20
8.2280661
40
7.9419812
50
254.7971707
51
255.2277782
0
ARC
8
DEFAULT_255_2_778
10
8.6066834
20
18.1822353
40
18.2581711
50
254.6342816
51
254.7853193
0
ARC
8
DEFAULT_255_2_778
10
3.1360009
20
-1.7247543
40
2.3868429
50
74.6297342
51
74.6790614
0
ARC
8
DEFAULT_255_2_778
10
2.6484062
20
-3.5039796
40
4.2316713
50
74.6770407
51
74.7047735
0
ARC
8
DEFAULT_255_2_778
10
3.0537669
20
-2.0216918
40
2.6949558
50
74.7044734
51
74.7478756
0
ARC
8
DEFAULT_255_2_778
10
2.3476352
20
-4.6119048
40
5.3796951
50
74.7493607
51
74.771029
0
ARC
8
DEFAULT_255_2_778
10
3.0578853
20
-2.0032699
40
2.6760991
50
74.7727458
51
74.8161531
0
ARC
8
DEFAULT_255_2_778
10
2.3507298
20
-4.6085981
40
5.3756924
50
74.8152051
51
74.8367368
0
ARC
8
DEFAULT_255_2_778
10
2.9527271
20
-2.3874042
40
3.074366
50
74.8374805
51
74.8749923
0
ARC
8
DEFAULT_255_2_778
10
1.8159469
20
-6.5959333
40
7.4337222
50
74.8804902
51
74.8959461
0
ARC
8
DEFAULT_255_2_778
10
1.8197059
20
-6.5861111
40
7.4232599
50
74.9042027
51
74.9196215
0
ARC
8
DEFAULT_255_2_778
10
2.9623094
20
-2.3462565
40
3.0321427
50
74.9225488
51
74.9601503
0
ARC
8
DEFAULT_255_2_778
10
2.8176485
20
-2.8817338
40
3.5868158
50
74.9481041
51
74.9797651
0
ARC
8
DEFAULT_255_2_778
10
0.5847885
20
-11.2083894
40
12.2076543
50
74.9861694
51
74.9954345
0
ARC
8
DEFAULT_255_2_778
10
0.5857729
20
-11.2147742
40
12.2135668
50
75.0076493
51
75.016872
0
ARC
8
DEFAULT_255_2_778
10
0.5866061
20
-11.2219191
40
12.2202537
50
75.0293066
51
75.0384858
0
ARC
8
DEFAULT_255_2_778
10
-5.6195482
20
-34.4807576
40
36.2928499
50
75.0526563
51
75.055734
0
ARC
8
DEFAULT_255_2_778
10
2.3667241
20
-4.5628306
40
5.3273385
50
75.0658303
51
75.0971729
0
ARC
8
DEFAULT_255_2_778
10
2.3786234
20
-4.5151266
40
5.2781789
50
75.0888198
51
75.1202456
0
ARC
8
DEFAULT_255_2_778
10
2.189872
20
-5.2249267
40
6.0126468
50
75.1188018
51
75.1462031
0
ARC
8
DEFAULT_255_2_778
10
-1.6174275
20
-19.5901294
40
20.8738236
50
75.1530585
51
75.1608971
0
ARC
8
DEFAULT_255_2_778
10
1.9519524
20
-6.1206827
40
6.9394608
50
75.1669833
51
75.1903968
0
ARC
8
DEFAULT_255_2_778
10
1.5929286
20
-7.4761467
40
8.3416665
50
75.1860693
51
75.2054082
0
ARC
8
DEFAULT_255_2_778
10
1.0349651
20
-9.5887756
40
10.5267349
50
75.205428
51
75.2206416
0
ARC
8
DEFAULT_255_2_778
10
1.0619043
20
-9.4875661
40
10.4220018
50
75.2219041
51
75.2371574
0
ARC
8
DEFAULT_255_2_778
10
7.5579586
20
15.328837
40
15.2305575
50
254.951669
51
255.3954263
0
ARC
8
DEFAULT_255_2_778
10
4.4641859
20
3.8260749
40
3.3190103
50
252.4436672
51
254.971922
0
ARC
8
DEFAULT_255_2_778
10
3.819727
20
1.865692
40
1.2557562
50
239.5943775
51
253.4978864
0
ARC
8
DEFAULT_255_2_778
10
3.3958193
20
1.1459982
40
0.4205009
50
213.9457877
51
239.7789892
0
ARC
8
DEFAULT_255_2_778
10
3.2521524
20
1.0414337
40
0.2430173
50
179.9061935
51
212.4087716
0
ARC
8
DEFAULT_255_2_778
10
3.291976
20
1.040895
40
0.2828423
50
168.3441541
51
179.8102692
0
ARC
8
DEFAULT_255_2_778
10
3.3656905
20
1.025921
40
0.358062
50
159.8934266
51
168.3805742
0
ARC
8
DEFAULT_255_2_778
10
3.4225266
20
1.0064486
40
0.4181301
50
158.6288384
51
160.0650825
0
ARC
8
DEFAULT_255_2_778
10
-0.7274424
20
2.6180786
40
4.0337917
50
338.7917447
51
347.2715664
0
ARC
8
DEFAULT_255_2_778
10
-2.6613462
20
3.0649848
40
6.0186454
50
347.1780259
51
351.0452934
0
ARC
8
DEFAULT_255_2_778
10
-5.3055834
20
3.499358
40
8.6982833
50
350.9300612
51
352.2694922
0
ARC
8
DEFAULT_255_2_778
10
9.2622665
20
6.4508504
40
7.2369257
50
210.6996539
51
214.7163546
0
ARC
8
DEFAULT_255_2_778
10
9.0231516
20
6.3478779
40
6.9788308
50
197.7520679
51
210.9749813
0
ARC
8
DEFAULT_255_2_778
10
7.0758627
20
5.6866212
40
4.9227782
50
192.2137137
51
197.3325388
0
ARC
8
DEFAULT_255_2_778
10
6.1108788
20
5.4776734
40
3.9354316
50
186.8097195
51
192.21273
0
ARC
8
DEFAULT_255_2_778
10
5.6295954
20
5.4139752
40
3.4499964
50
185.8469539
51
186.7070536
0
ARC
8
DEFAULT_255_2_778
10
9.7418439
20
5.8346463
40
7.5837057
50
184.3123167
51
185.8436405
0
ARC
8
DEFAULT_255_2_778
10
8.1346072
20
5.7143721
40
5.9719753
50
182.3419444
51
184.321137
0
ARC
8
DEFAULT_255_2_778
10
6.9172282
20
5.6646775
40
4.7535823
50
180.0414224
51
182.3430656
0
ARC
8
DEFAULT_255_2_778
10
5.7931601
20
5.6694373
40
3.6295223
50
175.1596447
51
180.1293891
0
ARC
8
DEFAULT_255_2_778
10
4.9765879
20
5.7391624
40
2.809979
50
167.3546255
51
175.1713552
0
ARC
8
DEFAULT_255_2_778
10
4.9633145
20
5.734784
40
2.7979953
50
160.6206369
51
167.2076384
0
ARC
8
DEFAULT_255_2_778
10
7.0260188
20
5.0457846
40
4.9725757
50
148.9987812
51
161.0180139
0
ARC
8
DEFAULT_255_2_778
10
5.8662615
20
5.7254595
40
3.6284415
50
131.3659637
51
148.7658253
0
ARC
8
DEFAULT_255_2_778
10
6.9888249
20
4.4394854
40
5.3354392
50
129.5686926
51
131.286833
0
ARC
8
DEFAULT_255_2_778
10
6.6701377
20
4.8250384
40
4.8352267
50
127.7265891
51
129.5679191
0
ARC
8
DEFAULT_255_2_778
10
6.1801771
20
5.4789425
40
4.0182438
50
118.5565141
51
127.9061213
0
ARC
8
DEFAULT_255_2_778
10
6.1688941
20
5.4492774
40
4.0389784
50
106.0490823
51
118.2147631
0
ARC
8
DEFAULT_255_2_778
10
6.700779
20
3.6811661
40
5.8852655
50
101.7422863
51
106.2665876
0
ARC
8
DEFAULT_255_2_778
10
7.3204687
20
0.7148898
40
8.9155797
50
98.7019081
51
101.7619171
0
ARC
8
DEFAULT_255_2_778
10
7.7423996
20
-1.8881766
40
11.5525406
50
98.6513625
51
98.8172001
0
ARC
8
DEFAULT_255_2_778
10
16.655956
20
-0.0767088
40
14.3455678
50
137.9431726
51
138.4595662
0
ARC
8
DEFAULT_255_2_778
10
24.7721336
20
-7.2014468
40
25.145236
50
138.572243
51
139.8023781
0
ARC
8
DEFAULT_255_2_778
10
-429.9918669
20
377.2589192
40
570.3546129
50
319.7309509
51
319.7880031
0
ARC
8
DEFAULT_255_2_778
10
7.7998051
20
6.3932308
40
3.407452
50
139.759883
51
148.6434843
0
ARC
8
DEFAULT_255_2_778
10
10.4891677
20
4.8020578
40
6.5321345
50
149.0001784
51
154.1864288
0
ARC
8
DEFAULT_255_2_778
10
37.0861706
20
-8.4687922
40
36.2557277
50
153.6094231
51
153.7852136
0
ARC
8
DEFAULT_255_2_778
10
7.8833826
20
5.8980642
40
3.7102483
50
153.6181442
51
156.091468
0
ARC
8
DEFAULT_255_2_778
10
6.2268917
20
6.6291301
40
1.8996123
50
156.0008878
51
160.6560332
0
ARC
8
DEFAULT_255_2_778
10
5.3910603
20
6.9192281
40
1.0148793
50
160.4788505
51
169.4564473
0
ARC
8
DEFAULT_255_2_778
10
5.046899
20
6.9856169
40
0.6643847
50
169.6541297
51
179.7998904
0
ARC
8
DEFAULT_255_2_778
10
4.9645727
20
6.9876404
40
0.5820545
50
179.9707731
51
189.3580402
0
ARC
8
DEFAULT_255_2_778
10
5.0744472
20
7.0114156
40
0.6943552
50
189.8195457
51
204.5894696
0
ARC
8
DEFAULT_255_2_778
10
5.529299
20
7.214234
40
1.1923631
50
204.3566713
51
211.6259042
0
ARC
8
DEFAULT_255_2_778
10
6.3823589
20
7.7341522
40
2.1913698
50
211.5052482
51
215.5850712
0
ARC
8
DEFAULT_255_2_778
10
7.5008795
20
8.5214772
40
3.5591784
50
215.4146636
51
216.6900438
0
ARC
8
DEFAULT_255_2_778
10
19.2903055
20
17.3022548
40
18.2592675
50
216.6809771
51
216.6967478
0
ARC
8
DEFAULT_255_2_778
10
18.9308338
20
17.0349521
40
17.8113049
50
216.6983148
51
216.714314
0
ARC
8
DEFAULT_255_2_778
10
25.855833
20
22.2017103
40
26.451386
50
216.7183617
51
216.7290233
0
ARC
8
DEFAULT_255_2_778
10
16.8336345
20
15.4699547
40
15.1945393
50
216.7299174
51
216.7482858
0
ARC
8
DEFAULT_255_2_778
10
24.7985665
20
21.4168288
40
25.1346326
50
216.7474612
51
216.758451
0
ARC
8
DEFAULT_255_2_778
10
21.3689013
20
18.8570353
40
20.855013
50
216.7629566
51
216.7760655
0
ARC
8
DEFAULT_255_2_778
10
21.0519011
20
18.6199938
40
20.4591876
50
216.7758377
51
216.7900063
0
ARC
8
DEFAULT_255_2_778
10
30.477687
20
25.6713041
40
32.2306112
50
216.7935446
51
216.8024401
0
ARC
8
DEFAULT_255_2_778
10
18.468037
20
16.6862988
40
17.2318775
50
216.8028621
51
216.8193189
0
ARC
8
DEFAULT_255_2_778
10
15.4236801
20
14.405877
40
13.4281382
50
216.8147058
51
216.8362898
0
ARC
8
DEFAULT_255_2_778
10
20.9547481
20
18.5476419
40
20.3380534
50
216.8329776
51
216.8472957
0
ARC
8
DEFAULT_255_2_778
10
21.0413878
20
18.6118494
40
20.4458899
50
216.8456838
51
216.859988
0
ARC
8
DEFAULT_255_2_778
10
20.60487
20
18.2849391
40
19.9005293
50
216.8608172
51
216.8753447
0
ARC
8
DEFAULT_255_2_778
10
25.3532655
20
21.8464506
40
25.8361528
50
216.8744746
51
216.8855365
0
ARC
8
DEFAULT_255_2_778
10
28.7884517
20
24.4253029
40
30.1316135
50
216.8870533
51
216.8964301
0
ARC
8
DEFAULT_255_2_778
10
24.2934414
20
21.0506511
40
24.5108135
50
216.8961674
51
216.9075635
0
ARC
8
DEFAULT_255_2_778
10
42.4279575
20
34.6719535
40
47.1912137
50
216.9092904
51
216.9151424
0
ARC
8
DEFAULT_255_2_778
10
41.3603539
20
33.8741357
40
45.8584424
50
216.9193408
51
216.9252949
0
ARC
8
DEFAULT_255_2_778
10
31.6975049
20
26.6159362
40
33.7732407
50
216.9301037
51
216.9380973
0
ARC
8
DEFAULT_255_2_778
10
30.9903031
20
26.0853166
40
32.8891079
50
216.9396266
51
216.947743
0
ARC
8
DEFAULT_255_2_778
10
30.3239451
20
25.5838684
40
32.0551517
50
216.9473664
51
216.9556008
0
ARC
8
DEFAULT_255_2_778
10
95.2659994
20
74.4477851
40
113.3272427
50
216.9577919
51
216.9600951
0
ARC
8
DEFAULT_255_2_778
10
-1247.1784528
20
-937.2466992
40
1567.6495414
50
37.0004972
51
37.0055127
0
ARC
8
DEFAULT_255_2_778
10
-2.2535969
20
0.8703508
40
8.8354217
50
35.9031526
51
37.0940032
0
ARC
8
DEFAULT_255_2_778
10
2.2652846
20
4.1408713
40
3.2571968
50
32.994902
51
35.9171606
0
ARC
8
DEFAULT_255_2_778
10
3.419888
20
4.8846561
40
1.8837768
50
22.5587872
51
33.1448323
0
ARC
8
DEFAULT_255_2_778
10
3.1123418
20
4.761184
40
2.2151628
50
18.3433283
51
22.4563759
0
ARC
8
DEFAULT_255_2_778
10
6.6578861
20
4.7536457
40
1.6058132
50
153.9709863
51
159.3820311
0
ARC
8
DEFAULT_255_2_778
10
6.8134111
20
4.7123862
40
1.7659795
50
159.9059828
51
171.1437472
0
ARC
8
DEFAULT_255_2_778
10
9.6093539
20
4.2364166
40
4.6020392
50
170.6476954
51
173.3102956
0
ARC
8
DEFAULT_255_2_778
10
14.2075844
20
13.1330274
40
12.4083646
50
222.3594868
51
223.5154616
0
ARC
8
DEFAULT_255_2_778
10
8.6487338
20
7.8472585
40
4.7376353
50
223.4473613
51
226.4535306
0
ARC
8
DEFAULT_255_2_778
10
7.0423318
20
6.154419
40
2.4039201
50
226.4076801
51
231.7473543
0
ARC
8
DEFAULT_255_2_778
10
6.4073136
20
5.3410693
40
1.3720558
50
231.5428605
51
242.468845
0
ARC
8
DEFAULT_255_2_778
10
6.2209851
20
4.9917442
40
0.9761688
50
242.6895201
51
256.3819201
0
ARC
8
DEFAULT_255_2_778
10
6.4145517
20
5.7984265
40
1.8057486
50
256.4392761
51
263.6106141
0
ARC
8
DEFAULT_255_2_778
10
6.3607596
20
5.3481765
40
1.3523132
50
263.7526296
51
269.9083234
0
ARC
8
DEFAULT_255_2_778
10
6.3621365
20
5.1327318
40
1.1368723
50
269.8215605
51
285.7122462
0
ARC
8
DEFAULT_255_2_778
10
6.3305445
20
5.2336452
40
1.2425741
50
285.8544296
51
294.9060212
0
ARC
8
DEFAULT_255_2_778
10
6.2528435
20
5.4089849
40
1.4343334
50
294.7715548
51
297.0820783
0
ARC
8
DEFAULT_255_2_778
10
0.3717147
20
16.771733
40
14.2288368
50
297.3366337
51
299.0524668
0
ARC
8
DEFAULT_255_2_778
10
34.588826
20
-45.2428653
40
56.599346
50
118.6654374
51
118.846794
0
ARC
8
DEFAULT_255_2_778
10
9.9983501
20
-0.0093879
40
5.1154151
50
109.3708056
51
120.0284506
0
ARC
8
DEFAULT_255_2_778
10
9.0086934
20
2.6977205
40
2.2335874
50
91.7894091
51
108.4539927
0
ARC
8
DEFAULT_255_2_778
10
5.3297012
20
6.4027113
40
3.8980626
50
337.8056251
51
343.2384965
0
ARC
8
DEFAULT_255_2_778
10
5.7742121
20
6.2685938
40
3.4337596
50
343.2422929
51
350.5092504
0
ARC
8
DEFAULT_255_2_778
10
5.7892403
20
6.259905
40
3.4175099
50
350.6113835
51
0.1103455
0
ARC
8
DEFAULT_255_2_778
10
6.3155529
20
6.266867
40
2.8911909
50
359.992465
51
0.0226049
0
ARC
8
DEFAULT_255_2_778
10
4.6930136
20
6.2420804
40
4.5138044
50
0.3291081
51
8.5844154
0
ARC
8
DEFAULT_255_2_778
10
1.7004218
20
5.8172811
40
7.5363255
50
8.3817816
51
11.538297
0
ARC
8
DEFAULT_255_2_778
10
17.7535839
20
9.0634591
40
8.8417842
50
187.3302123
51
191.3411523
0
ARC
8
DEFAULT_255_2_778
10
19.2474401
20
9.2692435
40
10.3496961
50
186.9223329
51
187.4049759
0
ARC
8
DEFAULT_255_2_778
10
24.7159009
20
9.8564343
40
15.8492478
50
183.3263217
51
186.6469767
0
ARC
8
DEFAULT_255_2_778
10
44.6738457
20
11.1981012
40
35.8518748
50
183.515816
51
183.6162125
0
ARC
8
DEFAULT_255_2_778
10
13.7954495
20
7.8235707
40
5.0449689
50
166.5207497
51
171.2295016
0
ARC
8
DEFAULT_255_2_778
10
12.777372
20
7.9816727
40
4.0146889
50
171.2440588
51
177.6403101
0
ARC
8
DEFAULT_255_2_778
10
12.5199633
20
7.9968758
40
3.7568754
50
177.7103418
51
179.9985232
0
ARC
8
DEFAULT_255_2_778
10
12.6337692
20
8.0002889
40
3.8706826
50
180.0490885
51
187.1289452
0
ARC
8
DEFAULT_255_2_778
10
13.1624314
20
8.0624374
40
4.4029725
50
187.0776693
51
190.0297404
0
ARC
8
DEFAULT_255_2_778
10
0.4776597
20
5.759252
40
8.4892689
50
5.906304
51
10.4267014
0
ARC
8
DEFAULT_255_2_778
10
4.7401734
20
6.2192858
40
4.2020872
50
0.2002042
51
5.6476365
0
ARC
8
DEFAULT_255_2_778
10
6.4757723
20
6.1994407
40
2.4667042
50
344.1745772
51
0.8020344
0
ARC
8
DEFAULT_255_2_778
10
7.1793478
20
6.020166
40
1.7410148
50
330.8762623
51
343.5364378
0
ARC
8
DEFAULT_255_2_778
10
8.9952028
20
2.4539173
40
2.7348534
50
96.1914243
51
118.4939246
0
ARC
8
DEFAULT_255_2_778
10
12.6261322
20
-4.8751288
40
10.912579
50
116.8906057
51
119.4860177
0
ARC
8
DEFAULT_255_2_778
10
90.3520552
20
-144.5568118
40
170.7631816
50
119.1188327
51
119.1360634
0
ARC
8
DEFAULT_255_2_778
10
0.168052
20
17.0890103
40
14.338369
50
297.6725563
51
299.4145334
0
ARC
8
DEFAULT_255_2_778
10
6.3761075
20
5.2481201
40
0.9687538
50
269.8792364
51
297.7415781
0
ARC
8
DEFAULT_255_2_778
10
6.3811022
20
5.4584754
40
1.179128
50
255.8849942
51
269.6580786
0
ARC
8
DEFAULT_255_2_778
10
6.4374111
20
5.7202822
40
1.4467917
50
254.5729161
51
256.2508316
0
ARC
8
DEFAULT_255_2_778
10
6.2820089
20
5.1538674
40
0.8594467
50
231.4988384
51
254.5149137
0
ARC
8
DEFAULT_255_2_778
10
6.7089046
20
5.7138282
40
1.5634925
50
225.380388
51
232.0304331
0
ARC
8
DEFAULT_255_2_778
10
7.7884855
20
6.8187657
40
3.1082747
50
222.3141269
51
225.5218508
0
ARC
8
DEFAULT_255_2_778
10
10.9328605
20
9.6892511
40
7.3658288
50
220.7974135
51
222.3596068
0
ARC
8
DEFAULT_255_2_778
10
7.3056752
20
4.9032862
40
1.9491116
50
180.0064416
51
180.7868813
0
ARC
8
DEFAULT_255_2_778
10
6.7905862
20
4.9093801
40
1.4340365
50
173.9779884
51
180.252232
0
ARC
8
DEFAULT_255_2_778
10
6.3828792
20
4.9512393
40
1.0241886
50
160.4812722
51
173.9139606
0
ARC
8
DEFAULT_255_2_778
10
6.974053
20
4.7354939
40
1.6534829
50
154.4990685
51
160.2793554
0
ARC
8
DEFAULT_255_2_778
10
9.9608716
20
3.3302353
40
4.9543517
50
153.0496512
51
154.7019889
0
ARC
8
DEFAULT_255_2_778
10
25.582648
20
-4.5386494
40
22.4460151
50
153.0830777
51
153.2174921
0
ARC
8
DEFAULT_255_2_778
10
17.6813937
20
-0.5668935
40
13.6027921
50
149.2927268
51
152.9339223
0
ARC
8
DEFAULT_255_2_778
10
28.7194082
20
-7.0899074
40
26.4241439
50
147.9744661
51
149.3538285
0
ARC
8
DEFAULT_255_2_778
10
46.1983872
20
-17.9293479
40
46.9912209
50
148.0182383
51
148.0710904
0
ARC
8
DEFAULT_255_2_778
10
-15.8773198
20
25.4421907
40
28.8998754
50
319.4577497
51
320.242355
0
ARC
8
DEFAULT_255_2_778
10
27.102651
20
-11.3313611
40
27.6648845
50
139.4414737
51
140.2278534
0
ARC
8
DEFAULT_255_2_778
10
10.792998
20
2.1842214
40
6.4831289
50
139.8224616
51
146.3555471
0
ARC
8
DEFAULT_255_2_778
10
4.0400402
20
5.3045559
40
1.4354735
50
19.1781632
51
26.8865354
0
ARC
8
DEFAULT_255_2_778
10
3.9255324
20
5.2390326
40
1.5672489
50
27.1299118
51
33.8666944
0
ARC
8
DEFAULT_255_2_778
10
2.3569147
20
4.1747046
40
3.4628528
50
34.0258383
51
37.5683259
0
ARC
8
DEFAULT_255_2_778
10
-5.11261
20
-1.4617389
40
12.8202705
50
37.1811788
51
37.2018479
0
ARC
8
DEFAULT_255_2_778
10
-2.6521361
20
0.4053986
40
9.7315597
50
37.2046098
51
37.2315079
0
ARC
8
DEFAULT_255_2_778
10
-2.4902788
20
0.528474
40
9.5282241
50
37.2311312
51
37.2582684
0
ARC
8
DEFAULT_255_2_778
10
-5.4904197
20
-1.7535558
40
13.2976413
50
37.2582214
51
37.2774287
0
ARC
8
DEFAULT_255_2_778
10
-5.2744031
20
-1.5900817
40
13.026742
50
37.2807606
51
37.3001273
0
ARC
8
DEFAULT_255_2_778
10
-5.0575394
20
-1.4250259
40
12.7542108
50
37.3006661
51
37.320204
0
ARC
8
DEFAULT_255_2_778
10
-5.9707194
20
-2.1209301
40
13.9023313
50
37.3193467
51
37.3370507
0
ARC
8
DEFAULT_255_2_778
10
423.2414038
20
326.3492893
40
526.5750045
50
217.4130769
51
217.4286977
0
ARC
8
DEFAULT_255_2_778
10
13.544252
20
12.9568723
40
10.7586013
50
216.5158516
51
217.3830435
0
ARC
8
DEFAULT_255_2_778
10
6.8540254
20
8.0103662
40
2.4383297
50
213.4228756
51
216.6455207
0
ARC
8
DEFAULT_255_2_778
10
5.7509251
20
7.2858859
40
1.1186014
50
206.9462234
51
213.5730295
0
ARC
8
DEFAULT_255_2_778
10
5.2640491
20
7.0414345
40
0.5738166
50
193.1162052
51
207.2176194
0
ARC
8
DEFAULT_255_2_778
10
5.1368134
20
7.0075379
40
0.4422276
50
179.9611988
51
192.5799288
0
ARC
8
DEFAULT_255_2_778
10
5.256159
20
7.0021823
40
0.5616015
50
164.8656262
51
179.4230477
0
ARC
8
DEFAULT_255_2_778
10
5.716781
20
6.883313
40
1.0372968
50
158.3397613
51
165.1702221
0
ARC
8
DEFAULT_255_2_778
10
6.614744
20
6.531863
40
2.0015805
50
154.8156659
51
158.4773364
0
ARC
8
DEFAULT_255_2_778
10
7.5166792
20
6.1187925
40
2.9935721
50
154.6237725
51
155.0069989
0
ARC
8
DEFAULT_255_2_778
10
37.8082325
20
-8.1939699
40
36.4963058
50
154.4233951
51
154.7022482
0
ARC
8
DEFAULT_255_2_778
10
8.2497006
20
6.0585761
40
3.6823996
50
142.8149841
51
155.9015159
0
ARC
8
DEFAULT_255_2_778
10
7.3863367
20
6.6485076
40
2.6385275
50
137.1145118
51
141.6896843
0
ARC
8
DEFAULT_255_2_778
10
-9.8461201
20
22.482145
40
20.7636873
50
317.4615033
51
319.5535736
0
ARC
8
DEFAULT_255_2_778
10
652.1859461
20
-545.7484392
40
851.6884117
50
139.3317264
51
139.3553688
0
ARC
8
DEFAULT_255_2_778
10
17.2545413
20
-0.0363215
40
14.4678324
50
134.8494947
51
139.9215423
0
ARC
8
DEFAULT_255_2_778
10
8.6708292
20
8.5637574
40
2.317158
50
131.3847548
51
134.3464296
0
ARC
8
DEFAULT_255_2_778
10
8.0755311
20
9.2414135
40
1.4151634
50
126.7836604
51
131.4399102
0
ARC
8
DEFAULT_255_2_778
10
7.7658292
20
9.6586152
40
0.8955793
50
118.429846
51
126.8973757
0
ARC
8
DEFAULT_255_2_778
10
7.6929143
20
9.7865481
40
0.7483684
50
116.030833
51
118.1837116
0
ARC
8
DEFAULT_255_2_778
10
7.7456555
20
9.6511805
40
0.8932306
50
99.6542421
51
115.2600741
0
ARC
8
DEFAULT_255_2_778
10
8.1119273
20
7.7982677
40
2.7817821
50
98.4463846
51
100.6912869
0
ARC
8
DEFAULT_255_2_778
10
8.3717908
20
6.1555544
40
4.4448758
50
98.6306538
51
98.6494962
0
ARC
8
DEFAULT_255_2_778
10
8.585093
20
4.7430599
40
5.8733845
50
98.6059622
51
98.6201355
0
ARC
8
DEFAULT_255_2_778
10
8.5758121
20
4.8069115
40
5.8088632
50
98.5954497
51
98.6096935
0
ARC
8
DEFAULT_255_2_778
10
8.3521343
20
6.2891545
40
4.3098383
50
98.5812309
51
98.6003123
0
ARC
8
DEFAULT_255_2_778
10
8.5577262
20
4.9299038
40
5.6845493
50
98.5716364
51
98.5860152
0
ARC
8
DEFAULT_255_2_778
10
8.5489175
20
4.9890789
40
5.6247221
50
98.5583079
51
98.5727511
0
ARC
8
DEFAULT_255_2_778
10
8.5399527
20
5.0508937
40
5.5622615
50
98.5472326
51
98.5617489
0
ARC
8
DEFAULT_255_2_778
10
8.5312974
20
5.1090893
40
5.5034257
50
98.533589
51
98.5481709
0
ARC
8
DEFAULT_255_2_778
10
8.5227175
20
5.1668055
40
5.4450752
50
98.5197782
51
98.534426
0
ARC
8
DEFAULT_255_2_778
10
8.5142125
20
5.2240444
40
5.3872078
50
98.5057969
51
98.5205112
0
ARC
8
DEFAULT_255_2_778
10
8.5057822
20
5.2808083
40
5.3298214
50
98.491642
51
98.5064234
0
ARC
8
DEFAULT_255_2_778
10
8.8865934
20
2.7272064
40
7.9116618
50
98.4785488
51
98.4884453
0
ARC
8
DEFAULT_255_2_778
10
7.0993097
20
14.7227262
40
4.2162761
50
278.4668878
51
278.4853437
0
ARC
8
DEFAULT_255_2_778
10
8.4811901
20
5.4552971
40
5.1536137
50
98.4623911
51
98.477397
0
ARC
8
DEFAULT_255_2_778
10
8.848021
20
2.9865454
40
7.6494702
50
98.4488618
51
98.4589091
0
ARC
8
DEFAULT_255_2_778
10
7.1299356
20
14.5589593
40
4.0497853
50
278.4367498
51
278.4556102
0
ARC
8
DEFAULT_255_2_778
10
8.4574631
20
5.6225026
40
4.9847367
50
98.429495
51
98.4447229
0
ARC
8
DEFAULT_255_2_778
10
1.2504402
20
54.2964109
40
44.2198417
50
278.4216516
51
278.4242115
0
ARC
8
DEFAULT_255_2_778
10
8.438131
20
5.7608821
40
4.845018
50
98.4044498
51
98.419874
0
ARC
8
DEFAULT_255_2_778
10
1.589085
20
52.1336752
40
42.0308326
50
278.4012505
51
278.4039019
0
ARC
8
DEFAULT_255_2_778
10
7.1870863
20
14.2513618
40
3.7371352
50
278.3827924
51
278.4024781
0
ARC
8
DEFAULT_255_2_778
10
8.7514129
20
3.6478605
40
6.981137
50
98.3763289
51
98.386801
0
ARC
8
DEFAULT_255_2_778
10
2.0480703
20
49.2037456
40
39.0652903
50
278.3697484
51
278.372539
0
ARC
8
DEFAULT_255_2_778
10
8.6252569
20
4.5119929
40
6.107845
50
98.3508533
51
98.3685334
0
ARC
8
DEFAULT_255_2_778
10
8.6103999
20
4.6213267
40
5.9975128
50
98.3442864
51
98.3621215
0
ARC
8
DEFAULT_255_2_778
10
5.3953981
20
26.5580566
40
16.1735575
50
278.3353846
51
278.3419355
0
ARC
8
DEFAULT_255_2_778
10
5.4490117
20
26.2179577
40
15.829279
50
278.3285261
51
278.3351559
0
ARC
8
DEFAULT_255_2_778
10
5.503224
20
25.876745
40
15.4838123
50
278.3197022
51
278.3264154
0
ARC
8
DEFAULT_255_2_778
10
1.2621352
20
54.9582084
40
44.8728966
50
278.307298
51
278.3099753
0
ARC
8
DEFAULT_255_2_778
10
1.4444214
20
53.7549829
40
43.655959
50
278.3014814
51
278.3042025
0
ARC
8
DEFAULT_255_2_778
10
5.6771214
20
24.7822878
40
14.3757138
50
278.2889377
51
278.2959403
0
ARC
8
DEFAULT_255_2_778
10
1.8065567
20
51.3851412
40
41.2586648
50
278.284333
51
278.2871527
0
ARC
8
DEFAULT_255_2_778
10
1.994447
20
50.1552047
40
40.0144906
50
278.2747636
51
278.2776382
0
ARC
8
DEFAULT_255_2_778
10
2.1781846
20
48.9518375
40
38.7972082
50
278.2649752
51
278.2679066
0
ARC
8
DEFAULT_255_2_778
10
8.6421015
20
4.4682411
40
6.1535713
50
98.2513902
51
98.2670504
0
ARC
8
DEFAULT_255_2_778
10
5.2668776
20
27.7450745
40
17.3666988
50
278.2503031
51
278.2567151
0
ARC
8
DEFAULT_255_2_778
10
-178.2010353
20
1298.5853642
40
1301.3820823
50
278.2154435
51
278.2186723
0
ARC
8
DEFAULT_255_2_778
10
6.1088825
20
22.4958787
40
12.0510462
50
278.2276572
51
278.6091723
0
ARC
8
DEFAULT_255_2_778
10
5.9959632
20
23.1750001
40
12.7394226
50
278.6540883
51
280.5541714
0
ARC
8
DEFAULT_255_2_778
10
4.8947859
20
28.9323674
40
18.6011061
50
280.6404154
51
282.8929292
0
ARC
8
DEFAULT_255_2_778
10
7.668293
20
26.8257396
40
16.084568
50
270.9994297
51
274.9109404
0
ARC
8
DEFAULT_255_2_778
10
29.7584463
20
-6.3250737
40
27.7035379
50
141.7173626
51
141.9674711
0
ARC
8
DEFAULT_255_2_778
10
15.2180007
20
5.1610007
40
9.1737166
50
140.7090803
51
141.7657769
0
ARC
8
DEFAULT_255_2_778
10
11.6315374
20
8.096359
40
4.5391673
50
138.7250944
51
140.7171024
0
ARC
8
DEFAULT_255_2_778
10
9.8369035
20
9.7148855
40
2.1229562
50
122.3596828
51
139.6032818
0
ARC
8
DEFAULT_255_2_778
10
10.0349209
20
9.3733118
40
2.5175186
50
116.1695007
51
122.0056662
0
ARC
8
DEFAULT_255_2_778
10
10.4537343
20
8.5350329
40
3.4545823
50
113.3947028
51
116.2719583
0
ARC
8
DEFAULT_255_2_778
10
13.1227642
20
2.4244527
40
10.1226199
50
111.6491346
51
113.5267379
0
ARC
8
DEFAULT_255_2_778
10
12.0609807
20
5.1025645
40
7.2417058
50
109.1696701
51
111.6580583
0
ARC
8
DEFAULT_255_2_778
10
11.4188028
20
6.9555448
40
5.2806033
50
105.7323675
51
109.1901521
0
ARC
8
DEFAULT_255_2_778
10
11.0420432
20
8.3010204
40
3.8833753
50
100.8257071
51
105.7644163
0
ARC
8
DEFAULT_255_2_778
10
10.8576594
20
9.2812968
40
2.8859152
50
93.2040051
51
100.8855707
0
ARC
8
DEFAULT_255_2_778
10
10.8264647
20
9.7178783
40
2.4482819
50
90.0170151
51
93.0461589
0
ARC
8
DEFAULT_255_2_778
10
10.8327242
20
9.9889288
40
2.1772425
50
71.0121646
51
90.1838554
0
ARC
8
DEFAULT_255_2_778
10
10.7942481
20
9.8697988
40
2.3024104
50
69.661685
51
71.0713546
0
ARC
8
DEFAULT_255_2_778
10
10.7248528
20
9.6920629
40
2.4931872
50
63.0531395
51
69.5859731
0
ARC
8
DEFAULT_255_2_778
10
10.5273722
20
9.3011719
40
2.9311294
50
58.3572461
51
63.074604
0
ARC
8
DEFAULT_255_2_778
10
10.2273459
20
8.8139922
40
3.5032829
50
54.3279006
51
58.3598907
0
ARC
8
DEFAULT_255_2_778
10
9.7956735
20
8.2113376
40
4.2445879
50
51.0650903
51
54.3381424
0
ARC
8
DEFAULT_255_2_778
10
9.4045312
20
7.7211445
40
4.8716995
50
49.9439681
51
51.1097995
0
ARC
8
DEFAULT_255_2_778
10
-13.6307889
20
-19.4095019
40
40.4623497
50
49.0455501
51
49.7003676
0
ARC
8
DEFAULT_255_2_778
10
25.0625515
20
25.3153456
40
18.6773601
50
229.3305048
51
229.528199
0
ARC
8
DEFAULT_255_2_778
10
17.2710074
20
16.1023683
40
6.6117367
50
229.0717233
51
233.9402206
0
ARC
8
DEFAULT_255_2_778
10
13.4618332
20
9.6954041
40
1.0652285
50
94.4519276
51
112.2638626
0
ARC
8
DEFAULT_255_2_778
10
13.1885067
20
9.9677316
40
0.7252801
50
89.5590634
51
100.3463829
0
ARC
8
DEFAULT_255_2_778
10
13.1852771
20
9.4036549
40
1.2893652
50
82.7869343
51
89.6084538
0
ARC
8
DEFAULT_255_2_778
10
12.9275053
20
7.3987903
40
3.3107316
50
79.4511089
51
82.717674
0
LINE
8
DEFAULT_255_2_778
10
13.5336157
20
10.6535673
11
13.5344473
21
10.6534186
0
ARC
8
DEFAULT_255_2_778
10
15.1687336
20
13.1571242
40
2.9898885
50
236.8656279
51
239.8617827
0
ARC
8
DEFAULT_255_2_778
10
7.4589896
20
-0.0135723
40
12.2714393
50
59.1310202
51
59.6065219
0
ARC
8
DEFAULT_255_2_778
10
12.3268758
20
8.1275662
40
2.7859533
50
57.2740341
51
59.1574976
0
ARC
8
DEFAULT_255_2_778
10
13.2940696
20
9.6027463
40
1.0221764
50
42.1882177
51
58.1794829
0
ARC
8
DEFAULT_255_2_778
10
13.1938431
20
9.5217743
40
1.1508399
50
37.3869618
51
41.8241116
0
ARC
8
DEFAULT_255_2_778
10
12.9722312
20
9.3500047
40
1.4312212
50
35.6969107
51
37.4637577
0
ARC
8
DEFAULT_255_2_778
10
10.7410545
20
7.7341065
40
4.1860786
50
25.5888785
51
35.8393854
0
ARC
8
DEFAULT_255_2_778
10
14.1651488
20
9.2456628
40
0.3964722
50
65.2163152
51
89.0359703
0
ARC
8
DEFAULT_255_2_778
10
14.1650988
20
9.2459315
40
0.3962042
50
89.0280983
51
90.0016476
0
ARC
8
DEFAULT_255_2_778
10
14.1650303
20
9.2452035
40
0.3969322
50
89.9917472
51
121.8368914
0
ARC
8
DEFAULT_255_2_778
10
13.2911036
20
10.9281992
40
1.5006794
50
293.6121194
51
295.9146147
0
ARC
8
DEFAULT_255_2_778
10
13.0838785
20
11.4053133
40
2.0208515
50
288.6518574
51
293.5772789
0
ARC
8
DEFAULT_255_2_778
10
13.2643119
20
10.8442469
40
1.4315721
50
282.2898871
51
288.9913201
0
ARC
8
DEFAULT_255_2_778
10
13.4118082
20
10.1967431
40
0.7675371
50
279.1715939
51
281.820349
0
ARC
8
DEFAULT_255_2_778
10
13.6400683
20
9.7760995
40
0.353331
50
252.5557122
51
264.764136
0
ARC
8
DEFAULT_255_2_778
10
13.6774514
20
10.0681796
40
0.64769
50
263.8287846
51
268.9396874
0
ARC
8
DEFAULT_255_2_778
10
13.6779618
20
10.0744183
40
0.6539374
50
268.9050917
51
269.9964803
0
ARC
8
DEFAULT_255_2_778
10
13.6846799
20
9.8574821
40
0.4370534
50
269.11398
51
282.045051
0
ARC
8
DEFAULT_255_2_778
10
13.7355749
20
9.5994792
40
0.1741575
50
283.382742
51
289.4084175
0
ARC
8
DEFAULT_255_2_778
10
13.8496278
20
9.2988824
40
0.1474579
50
101.8102781
51
112.3952169
0
ARC
8
DEFAULT_255_2_778
10
14.1556498
20
9.2440255
40
0.3907812
50
149.3541184
51
174.847757
0
ARC
8
DEFAULT_255_2_778
10
14.1620731
20
9.2402236
40
0.3975331
50
174.385137
51
176.5211522
0
ARC
8
DEFAULT_255_2_778
10
14.1623914
20
9.2401933
40
0.3978527
50
176.5195842
51
179.9999868
0
ARC
8
DEFAULT_255_2_778
10
14.1624102
20
9.2401878
40
0.3978715
50
179.9991876
51
207.2976618
0
ARC
8
DEFAULT_255_2_778
10
14.0038862
20
9.1363487
40
0.2104075
50
202.1792835
51
223.5732849
0
ARC
8
DEFAULT_255_2_778
10
14.9881925
20
5.9451925
40
3.2513188
50
110.4644341
51
113.6554521
0
ARC
8
DEFAULT_255_2_778
10
14.134104
20
6.0666779
40
2.8919383
50
90.5487334
51
98.9610439
0
ARC
8
DEFAULT_255_2_778
10
14.1198093
20
6.4501021
40
2.5084173
50
90.0008666
51
90.3061124
0
LINE
8
DEFAULT_255_2_778
10
14.1197714
20
8.9585194
11
14.1215033
21
8.9585188
0
ARC
8
DEFAULT_255_2_778
10
14.1189095
20
6.4616155
40
2.4969047
50
82.3882813
51
89.9404815
0
ARC
8
DEFAULT_255_2_778
10
14.1929967
20
8.4149652
40
0.328585
50
51.3881371
51
92.0178186
0
ARC
8
DEFAULT_255_2_778
10
14.1946602
20
7.9191143
40
0.8243384
50
90.9198098
51
100.6434276
0
ARC
8
DEFAULT_255_2_778
10
14.4938611
20
6.1759999
40
2.5928749
50
100.0270413
51
102.147441
0
ARC
8
DEFAULT_255_2_778
10
14.199191
20
7.6006755
40
1.1381523
50
102.737426
51
110.6611069
0
ARC
8
DEFAULT_255_2_778
10
14.0270443
20
8.0506156
40
0.6564144
50
110.4587675
51
123.7910018
0
ARC
8
DEFAULT_255_2_778
10
13.9844316
20
8.1487747
40
0.5514709
50
125.7839748
51
163.6457157
0
ARC
8
DEFAULT_255_2_778
10
15.5814957
20
7.528682
40
2.2631888
50
159.9645017
51
161.7986117
0
ARC
8
DEFAULT_255_2_778
10
17.3117898
20
6.9496848
40
4.0877723
50
161.6646754
51
161.7096042
0
ARC
8
DEFAULT_255_2_778
10
17.2774605
20
6.9606083
40
4.0517494
50
161.7039188
51
161.7490016
0
ARC
8
DEFAULT_255_2_778
10
17.2443472
20
6.9712965
40
4.0169545
50
161.7458648
51
161.7910914
0
ARC
8
DEFAULT_255_2_778
10
3.475152
20
11.4209922
40
10.4534543
50
341.3359429
51
342.2063592
0
ARC
8
DEFAULT_255_2_778
10
11.2709389
20
8.7959422
40
2.227587
50
337.2459995
51
341.1354218
0
ARC
8
DEFAULT_255_2_778
10
11.7362278
20
8.6036033
40
1.7241198
50
331.871666
51
337.1598526
0
ARC
8
DEFAULT_255_2_778
10
11.7895837
20
8.5761597
40
1.6641276
50
331.4495258
51
331.8388818
0
ARC
8
DEFAULT_255_2_778
10
12.3172593
20
8.5440693
40
1.2062637
50
320.7474738
51
324.1987243
0
ARC
8
DEFAULT_255_2_778
10
12.3574919
20
8.5156443
40
1.1570051
50
324.1749033
51
324.2884463
0
ARC
8
DEFAULT_255_2_778
10
12.0492544
20
8.7286656
40
1.5316409
50
324.5485739
51
331.2767517
0
ARC
8
DEFAULT_255_2_778
10
7.6068605
20
11.129278
40
6.5811556
50
331.5353469
51
333.1624868
0
ARC
8
DEFAULT_255_2_778
10
14.2045611
20
7.8445022
40
0.7902975
50
127.6063033
51
156.618157
0
ARC
8
DEFAULT_255_2_778
10
14.059993
20
7.9736276
40
0.600845
50
108.1795242
51
124.1967786
0
ARC
8
DEFAULT_255_2_778
10
14.1306296
20
7.7757986
40
0.8108553
50
103.1726198
51
108.5603134
0
ARC
8
DEFAULT_255_2_778
10
13.6314793
20
9.9296656
40
1.4000964
50
282.9754291
51
284.6891467
0
ARC
8
DEFAULT_255_2_778
10
14.5060682
20
6.7931666
40
1.8563538
50
102.2755391
51
106.253158
0
ARC
8
DEFAULT_255_2_778
10
14.1625151
20
8.3374792
40
0.2744046
50
90.5050844
51
100.7392162
0
ARC
8
DEFAULT_255_2_778
10
14.160265
20
8.4118796
40
0.1999936
50
84.929389
51
90.0483818
0
ARC
8
DEFAULT_255_2_778
10
14.1612766
20
8.4244496
40
0.1873835
50
81.3844378
51
84.8977874
0
ARC
8
DEFAULT_255_2_778
10
14.4255023
20
8.1050426
40
0.5571957
50
115.0764782
51
157.3054805
0
ARC
8
DEFAULT_255_2_778
10
15.144766
20
7.8884054
40
1.3066618
50
160.7119534
51
171.3163973
0
ARC
8
DEFAULT_255_2_778
10
16.9862706
20
7.6246895
40
3.1669203
50
171.6299979
51
175.9545544
0
ARC
8
DEFAULT_255_2_778
10
9.8609502
20
8.1515796
40
3.9778834
50
353.2376985
51
355.6246773
0
ARC
8
DEFAULT_255_2_778
10
12.5746424
20
7.8222117
40
1.2443094
50
341.4870927
51
353.5847784
0
ARC
8
DEFAULT_255_2_778
10
12.8255111
20
7.7484133
40
0.9830378
50
337.1714085
51
340.9231296
0
ARC
8
DEFAULT_255_2_778
10
12.5701414
20
8.0346776
40
1.3396388
50
330.1066393
51
337.6655857
0
ARC
8
DEFAULT_255_2_778
10
12.3058557
20
8.1471967
40
1.6268609
50
337.537163
51
339.2155455
0
ARC
8
DEFAULT_255_2_778
10
10.8212135
20
8.6703432
40
3.2007481
50
339.8909392
51
344.6108995
0
ARC
8
DEFAULT_255_2_778
10
16.9362044
20
7.0021626
40
3.1377178
50
158.9470263
51
164.8735249
0
ARC
8
DEFAULT_255_2_778
10
15.4705916
20
7.5420315
40
1.5761618
50
153.9254236
51
158.1232163
0
ARC
8
DEFAULT_255_2_778
10
14.3568288
20
8.0784747
40
0.3400533
50
142.7800663
51
152.6281813
0
ARC
8
DEFAULT_255_2_778
10
14.5912827
20
7.9049414
40
0.6317299
50
136.7414982
51
143.1090852
0
ARC
8
DEFAULT_255_2_778
10
14.7208337
20
7.7874086
40
0.8066283
50
122.9434482
51
136.9676999
0
ARC
8
DEFAULT_255_2_778
10
14.5141351
20
8.1095579
40
0.4238768
50
109.7182898
51
123.1766629
0
ARC
8
DEFAULT_255_2_778
10
14.4340906
20
8.3323454
40
0.1871461
50
92.4632529
51
109.6621555
0
ARC
8
DEFAULT_255_2_778
10
10.8578213
20
7.9679029
40
3.7092578
50
2.5206149
51
8.582044
0
ARC
8
DEFAULT_255_2_778
10
12.8183251
20
8.0785485
40
1.7459545
50
0.0271546
51
1.7225644
0
ARC
8
DEFAULT_255_2_778
10
13.2489865
20
8.076513
40
1.315296
50
355.9806114
51
0.1247149
0
ARC
8
DEFAULT_255_2_778
10
10.7141314
20
8.2702013
40
3.857524
50
353.456073
51
355.7498893
0
ARC
8
DEFAULT_255_2_778
10
8.530284
20
8.5161472
40
6.055174
50
351.8141567
51
353.4990181
0
ARC
8
DEFAULT_255_2_778
10
7.1764612
20
8.7072186
40
7.4224099
50
350.1372808
51
351.8422436
0
ARC
8
DEFAULT_255_2_778
10
7.733417
20
8.610241
40
6.8570743
50
349.559716
51
350.1384884
0
ARC
8
DEFAULT_255_2_778
10
9.0409401
20
8.3665895
40
5.5270465
50
348.3874761
51
349.5875035
0
ARC
8
DEFAULT_255_2_778
10
11.0486627
20
7.9531366
40
3.4771947
50
347.0425244
51
348.4015061
0
ARC
8
DEFAULT_255_2_778
10
12.753936
20
7.558559
40
1.7268693
50
344.9211994
51
347.1142153
0
ARC
8
DEFAULT_255_2_778
10
13.8447656
20
7.5385614
40
0.7188156
50
323.3337425
51
337.3924895
0
ARC
8
DEFAULT_255_2_778
10
12.8220484
20
7.973126
40
1.8300185
50
337.1412866
51
345.0241518
0
ARC
8
DEFAULT_255_2_778
10
10.6971655
20
8.5735754
40
4.0380113
50
344.5848507
51
346.8675929
0
ARC
8
DEFAULT_255_2_778
10
4.7099457
20
9.9681144
40
10.1854934
50
346.880198
51
347.8964798
0
ARC
8
DEFAULT_255_2_778
10
28.6836672
20
4.8338401
40
14.3318499
50
167.2492785
51
167.9230091
0
ARC
8
DEFAULT_255_2_778
10
12.9351834
20
8.391406
40
1.8134685
50
347.4391203
51
357.630084
0
ARC
8
DEFAULT_255_2_778
10
12.3869953
20
8.4270336
40
2.3626963
50
357.3165543
51
0.0252603
0
ARC
8
DEFAULT_255_2_778
10
12.0653297
20
8.4261024
40
2.6843624
50
0.0421084
51
3.5645236
0
ARC
8
DEFAULT_255_2_778
10
11.5946951
20
8.3930246
40
3.1561454
50
3.6326598
51
10.642793
0
ARC
8
DEFAULT_255_2_778
10
15.3090109
20
9.0870904
40
0.6224715
50
186.1985462
51
190.2880758
0
ARC
8
DEFAULT_255_2_778
10
15.1826295
20
9.0734714
40
0.4953584
50
181.3173987
51
186.2108687
0
ARC
8
DEFAULT_255_2_778
10
15.118791
20
9.0713439
40
0.4314883
50
180.005139
51
181.229861
0
ARC
8
DEFAULT_255_2_778
10
14.9966285
20
9.0769095
40
0.3093765
50
158.9701014
51
181.0379461
0
ARC
8
DEFAULT_255_2_778
10
14.9972356
20
9.0525954
40
0.3194601
50
110.2451985
51
154.9355356
0
ARC
8
DEFAULT_255_2_778
10
15.506551
20
7.9631582
40
1.5211826
50
108.887235
51
114.0470171
0
ARC
8
DEFAULT_255_2_778
10
12.6754373
20
16.0570693
40
7.053626
50
289.3634588
51
290.1018742
0
ARC
8
DEFAULT_255_2_778
10
14.8349899
20
10.2308518
40
0.8404961
50
288.357562
51
306.2131428
0
ARC
8
DEFAULT_255_2_778
10
14.1588036
20
10.9127056
40
1.7957986
50
310.7718497
51
324.3902792
0
ARC
8
DEFAULT_255_2_778
10
383.6780064
20
-276.7676771
40
466.5051672
50
142.0879132
51
142.0894869
0
ARC
8
DEFAULT_255_2_778
10
17.5265757
20
8.4649602
40
2.3672896
50
135.5711079
51
143.3760493
0
ARC
8
DEFAULT_255_2_778
10
15.9791306
20
9.977883
40
0.2031668
50
112.2886858
51
134.7701851
0
ARC
8
DEFAULT_255_2_778
10
15.9724153
20
9.9890764
40
0.1902728
50
89.6750374
51
111.6960134
0
ARC
8
DEFAULT_255_2_778
10
15.9721645
20
9.9388624
40
0.2404876
50
75.9437978
51
89.683135
0
ARC
8
DEFAULT_255_2_778
10
15.9075512
20
9.7443209
40
0.4451643
50
47.0035698
51
73.9575004
0
ARC
8
DEFAULT_255_2_778
10
15.7800805
20
9.5818885
40
0.6511321
50
35.7398404
51
48.5471383
0
ARC
8
DEFAULT_255_2_778
10
15.9023768
20
9.6692238
40
0.5008542
50
27.6376914
51
35.8022906
0
ARC
8
DEFAULT_255_2_778
10
16.0306783
20
9.7376588
40
0.3554484
50
22.5934878
51
27.4587442
0
ARC
8
DEFAULT_255_2_778
10
13.0120768
20
8.5009054
40
3.6175769
50
17.4196588
51
22.3102962
0
ARC
8
DEFAULT_255_2_778
10
11.6579514
20
8.0738089
40
5.0374585
50
13.1368998
51
17.4438477
0
ARC
8
DEFAULT_255_2_778
10
10.1075693
20
7.715342
40
6.6287394
50
7.3591044
51
13.1085256
0
ARC
8
DEFAULT_255_2_778
10
9.7607967
20
7.6588459
40
6.9799017
50
3.468715
51
7.4544351
0
ARC
8
DEFAULT_255_2_778
10
10.5636533
20
7.7082087
40
6.1755293
50
0.9404918
51
3.462251
0
ARC
8
DEFAULT_255_2_778
10
11.2082657
20
7.7214293
40
5.5307873
50
0.0048482
51
0.913161
0
ARC
8
DEFAULT_255_2_778
10
11.786764
20
7.7195897
40
4.9522895
50
357.9749818
51
0.026698
0
ARC
8
DEFAULT_255_2_778
10
12.6156286
20
7.6896931
40
4.1228863
50
355.6689341
51
357.983171
0
ARC
8
DEFAULT_255_2_778
10
13.3145614
20
7.6377793
40
3.422029
50
353.8423758
51
355.6518987
0
ARC
8
DEFAULT_255_2_778
10
13.2205871
20
7.6505057
40
3.5168273
50
349.0651678
51
353.8004592
0
ARC
8
DEFAULT_255_2_778
10
13.1796842
20
7.6577835
40
3.558368
50
348.3859623
51
349.0750433
0
ARC
8
DEFAULT_255_2_778
10
13.666594
20
7.5110852
40
3.0522361
50
321.1992728
51
349.2433198
0
ARC
8
DEFAULT_255_2_778
10
14.5359531
20
6.8521807
40
1.9620885
50
299.5978693
51
320.2867401
0
ARC
8
DEFAULT_255_2_778
10
14.4926712
20
6.960108
40
2.0773692
50
287.3500445
51
299.1656141
0
ARC
8
DEFAULT_255_2_778
10
14.4030912
20
7.3048173
40
2.4331695
50
269.4868561
51
286.9428721
0
ARC
8
DEFAULT_255_2_778
10
14.3870052
20
8.1601954
40
3.2884549
50
264.3486577
51
269.9005944
0
ARC
8
DEFAULT_255_2_778
10
14.7200719
20
10.5825871
40
5.7326242
50
252.023816
51
263.4200753
0
ARC
8
DEFAULT_255_2_778
10
17.4973833
20
19.87073
40
15.4261416
50
251.4838298
51
252.8587432
0
ARC
8
DEFAULT_255_2_778
10
21.5788229
20
32.204108
40
28.4172609
50
251.5217988
51
251.5777436
0
ARC
8
DEFAULT_255_2_778
10
13.0432407
20
6.6263742
40
1.4529477
50
239.5817832
51
251.0808976
0
ARC
8
DEFAULT_255_2_778
10
13.5779039
20
7.5783855
40
2.5447077
50
238.5897284
51
240.0533257
0
ARC
8
DEFAULT_255_2_778
10
19.6150243
20
17.2594287
40
13.9537977
50
237.2580574
51
238.1502602
0
LINE
8
DEFAULT_255_2_778
10
12.0680265
20
5.5226791
11
12.0676473
21
5.5229186
0
ARC
8
DEFAULT_255_2_778
10
10.3447035
20
5.1240943
40
1.7685011
50
2.7023872
51
13.0331915
0
ARC
8
DEFAULT_255_2_778
10
10.8463739
20
5.1602574
40
1.2657452
50
0.0140448
51
2.1378974
0
ARC
8
DEFAULT_255_2_778
10
11.1191549
20
5.1518713
40
0.9930022
50
343.9493198
51
0.5017842
0
ARC
8
DEFAULT_255_2_778
10
27.1142493
20
0.4127531
40
15.6894254
50
163.4675165
51
163.6444116
0
ARC
8
DEFAULT_255_2_778
10
18.3446216
20
2.9866654
40
6.5498742
50
163.6465542
51
164.0899255
0
ARC
8
DEFAULT_255_2_778
10
15.128136
20
3.8932986
40
3.2080833
50
163.914419
51
167.0193747
0
ARC
8
DEFAULT_255_2_778
10
13.8751894
20
4.185974
40
1.9214167
50
167.131424
51
170.3321759
0
ARC
8
DEFAULT_255_2_778
10
13.1776077
20
4.2993317
40
1.2147173
50
170.0774109
51
178.0656612
0
ARC
8
DEFAULT_255_2_778
10
12.8414295
20
4.3167617
40
0.8781632
50
178.4618774
51
179.9890642
0
ARC
8
DEFAULT_255_2_778
10
12.5143039
20
4.3030389
40
0.5512126
50
178.5560086
51
201.4576255
0
ARC
8
DEFAULT_255_2_778
10
12.3047186
20
4.2265846
40
0.3282324
50
202.4201738
51
242.8046173
0
ARC
8
DEFAULT_255_2_778
10
12.3643674
20
4.3418437
40
0.4580113
50
242.7572746
51
258.0135324
0
ARC
8
DEFAULT_255_2_778
10
12.5002966
20
4.897725
40
1.0301513
50
257.0390649
51
262.1353534
0
ARC
8
DEFAULT_255_2_778
10
12.4240598
20
4.3604848
40
0.4875367
50
262.3712514
51
269.7692851
0
ARC
8
DEFAULT_255_2_778
10
12.4221221
20
4.2812889
40
0.408337
50
269.9964227
51
271.5036128
0
ARC
8
DEFAULT_255_2_778
10
12.4161002
20
4.3286826
40
0.4558973
50
272.1038931
51
290.0433015
0
ARC
8
DEFAULT_255_2_778
10
12.2033664
20
4.9439857
40
1.1068992
50
289.4721612
51
295.6990513
0
ARC
8
DEFAULT_255_2_778
10
11.5865731
20
6.2613342
40
2.5614567
50
295.3528369
51
297.3846936
0
ARC
8
DEFAULT_255_2_778
10
12.5304721
20
4.8663018
40
0.9100547
50
269.9987104
51
284.9176138
0
ARC
8
DEFAULT_255_2_778
10
12.5304274
20
4.8600049
40
0.9037579
50
269.5285042
51
270.0015321
0
ARC
8
DEFAULT_255_2_778
10
12.5304482
20
4.8666098
40
0.9103627
50
257.386372
51
269.5306197
0
ARC
8
DEFAULT_255_2_778
10
12.3739768
20
4.2482879
40
0.2733664
50
217.4941206
51
261.0921923
0
ARC
8
DEFAULT_255_2_778
10
12.4323668
20
4.2879777
40
0.3438761
50
199.8133139
51
216.819251
0
ARC
8
DEFAULT_255_2_778
10
12.2588746
20
4.3950385
40
0.2692843
50
236.1422142
51
252.406232
0
ARC
8
DEFAULT_255_2_778
10
12.3999051
20
4.7760228
40
0.6753514
50
250.7707605
51
252.2441668
0
ARC
8
DEFAULT_255_2_778
10
12.6468115
20
5.5724778
40
1.5091838
50
252.5381265
51
255.1198172
0
ARC
8
DEFAULT_255_2_778
10
16.6897507
20
20.6467776
40
17.1162257
50
254.9983012
51
255.2839931
0
ARC
8
DEFAULT_255_2_778
10
12.519757
20
4.8283873
40
0.7575793
50
256.410047
51
268.2784143
0
ARC
8
DEFAULT_255_2_778
10
12.5186692
20
4.8094741
40
0.7386421
50
268.3186845
51
269.9997966
0
ARC
8
DEFAULT_255_2_778
10
12.5234628
20
4.7509134
40
0.6800984
50
269.5959279
51
296.682925
0
ARC
8
DEFAULT_255_2_778
10
12.6254654
20
4.5637523
40
0.4671184
50
295.8126854
51
331.9493302
0
ARC
8
DEFAULT_255_2_778
10
12.727488
20
4.4987549
40
0.3466421
50
333.5008902
51
345.0823502
0
ARC
8
DEFAULT_255_2_778
10
11.653365
20
4.781981
40
1.4574777
50
345.1936611
51
348.9920066
0
ARC
8
DEFAULT_255_2_778
10
6.6124577
20
5.7893226
40
6.5980351
50
348.7639158
51
349.0197492
0
ARC
8
DEFAULT_255_2_778
10
26.5553704
20
1.9082009
40
13.7190251
50
168.9442623
51
168.9715935
0
ARC
8
DEFAULT_255_2_778
10
14.4116771
20
4.2975652
40
1.3426107
50
163.5817193
51
169.639844
0
ARC
8
DEFAULT_255_2_778
10
14.415855
20
4.2842168
40
1.3504412
50
158.1244714
51
163.0885666
0
ARC
8
DEFAULT_255_2_778
10
14.8505512
20
4.1162022
40
1.8164481
50
157.6674716
51
158.3152204
0
ARC
8
DEFAULT_255_2_778
10
14.1980235
20
8.139742
40
3.488146
50
252.865273
51
256.5391101
0
ARC
8
DEFAULT_255_2_778
10
12.4659727
20
4.6031802
40
0.8375883
50
308.7611438
51
341.6232393
0
ARC
8
DEFAULT_255_2_778
10
12.3102079
20
4.7535839
40
1.052742
50
281.3131036
51
310.246882
0
ARC
8
DEFAULT_255_2_778
10
12.3684644
20
4.5053659
40
0.7979632
50
270.1726456
51
280.7076834
0
ARC
8
DEFAULT_255_2_778
10
12.3708372
20
4.4237943
40
0.716388
50
268.985033
51
270.0025369
0
ARC
8
DEFAULT_255_2_778
10
12.3706432
20
4.4958512
40
0.7884316
50
243.8802949
51
269.0918797
0
ARC
8
DEFAULT_255_2_778
10
12.8023082
20
5.2560066
40
1.6618396
50
226.1780661
51
242.0552773
0
ARC
8
DEFAULT_255_2_778
10
39.9274108
20
35.7543751
40
42.4763958
50
228.1201346
51
228.2652952
0
ARC
8
DEFAULT_255_2_778
10
3.8986813
20
-4.4581068
40
11.5154041
50
48.2178136
51
48.3088645
0
ARC
8
DEFAULT_255_2_778
10
12.0948329
20
8.0418581
40
3.6225499
50
232.9092288
51
253.7336726
0
ARC
8
DEFAULT_255_2_778
10
15.4202284
20
9.8314147
40
7.2288221
50
220.3381284
51
221.4933232
0
ARC
8
DEFAULT_255_2_778
10
12.8583745
20
7.5608104
40
3.8055608
50
221.4414525
51
223.9541243
0
ARC
8
DEFAULT_255_2_778
10
12.0651558
20
6.8032027
40
2.708689
50
224.063279
51
225.1791702
0
ARC
8
DEFAULT_255_2_778
10
11.4108391
20
6.1152098
40
1.7595863
50
224.5004167
51
243.0294603
0
ARC
8
DEFAULT_255_2_778
10
11.7045258
20
6.6854515
40
2.4010069
50
242.9549529
51
247.3564972
0
ARC
8
DEFAULT_255_2_778
10
7.5304883
20
4.7891891
40
3.2653443
50
348.3317506
51
354.3818629
0
ARC
8
DEFAULT_255_2_778
10
6.1828389
20
5.097629
40
4.6476185
50
341.3119932
51
347.9679347
0
ARC
8
DEFAULT_255_2_778
10
-9.9189374
20
10.4380905
40
21.6118621
50
340.6667992
51
341.5780286
0
ARC
8
DEFAULT_255_2_778
10
34.2842363
20
-4.9777688
40
25.2024075
50
160.8655186
51
161.1334193
0
ARC
8
DEFAULT_255_2_778
10
22.272296
20
-0.8744024
40
12.5089319
50
161.1272902
51
161.7814608
0
ARC
8
DEFAULT_255_2_778
10
18.5520114
20
0.3506627
40
8.5921345
50
161.7850316
51
162.7658437
0
ARC
8
DEFAULT_255_2_778
10
9.6872927
20
3.1085177
40
0.6917075
50
336.5593416
51
342.1349738
0
ARC
8
DEFAULT_255_2_778
10
8.6340527
20
3.5565208
40
1.8362587
50
333.8750089
51
336.8073176
0
ARC
8
DEFAULT_255_2_778
10
6.9867177
20
4.3594471
40
3.6688507
50
332.000598
51
333.9449192
0
ARC
8
DEFAULT_255_2_778
10
4.8808646
20
5.4758604
40
6.0523337
50
330.4971331
51
332.027851
0
ARC
8
DEFAULT_255_2_778
10
2.6180761
20
6.756869
40
8.6525633
50
328.5404302
51
330.4934735
0
ARC
8
DEFAULT_255_2_778
10
0.2891857
20
8.1758179
40
11.379673
50
328.5416265
51
328.5659306
0
ARC
8
DEFAULT_255_2_778
10
2.3018532
20
6.9433161
40
9.0196116
50
327.2811748
51
328.5478475
0
ARC
8
DEFAULT_255_2_778
10
3.8387634
20
5.9505297
40
7.1899418
50
325.5066337
51
327.3173409
0
ARC
8
DEFAULT_255_2_778
10
6.0578358
20
4.4231918
40
4.4960531
50
323.3469626
51
325.5338367
0
ARC
8
DEFAULT_255_2_778
10
7.7048486
20
3.196469
40
2.442398
50
320.6281741
51
323.3690954
0
ARC
8
DEFAULT_255_2_778
10
8.7178032
20
2.3616946
40
1.1298019
50
316.1705108
51
320.7676565
0
ARC
8
DEFAULT_255_2_778
10
9.2510999
20
1.8455986
40
0.3876871
50
307.3795419
51
316.6135804
0
ARC
8
DEFAULT_255_2_778
10
9.4007627
20
1.6532201
40
0.1439737
50
299.9071329
51
306.5297679
0
ARC
8
DEFAULT_255_2_778
10
9.7075233
20
1.1344082
40
0.4587569
50
120.8105774
51
125.4014819
0
ARC
8
DEFAULT_255_2_778
10
10.3982501
20
0.1428181
40
1.6671933
50
125.0093528
51
126.6277489
0
ARC
8
DEFAULT_255_2_778
10
12.1486333
20
-2.2110101
40
4.6005103
50
126.6328138
51
127.8171739
0
ARC
8
DEFAULT_255_2_778
10
16.0862436
20
-7.3013057
40
11.0360241
50
127.7627412
51
128.30248
0
ARC
8
DEFAULT_255_2_778
10
25.4832015
20
-19.1932546
40
26.1925826
50
128.3100791
51
128.7029468
0
ARC
8
DEFAULT_255_2_778
10
71.1455761
20
-76.2128551
40
99.242478
50
128.6922443
51
128.8046121
0
LINE
8
DEFAULT_255_2_778
10
8.9536356
20
1.1255698
11
8.9535436
21
1.1254959
0
ARC
8
DEFAULT_255_2_778
10
-49.5509467
20
73.8697508
40
93.3514971
50
308.6790831
51
308.807944
0
ARC
8
DEFAULT_255_2_778
10
-8.0177062
20
21.9918329
40
26.8960351
50
308.3642017
51
308.6752968
0
ARC
8
DEFAULT_255_2_778
10
0.6624357
20
11.0269422
40
12.9112686
50
307.9284756
51
308.3620249
0
ARC
8
DEFAULT_255_2_778
10
4.8749696
20
5.6156282
40
6.0535916
50
307.0795899
51
307.961175
0
ARC
8
DEFAULT_255_2_778
10
7.260439
20
2.4525465
40
2.0918361
50
305.2042374
51
307.1884061
0
ARC
8
DEFAULT_255_2_778
10
8.132246
20
1.2166204
40
0.5793677
50
302.1731303
51
305.2187737
0
ARC
8
DEFAULT_255_2_778
10
9.8466198
20
-0.3217298
40
1.7534746
50
143.2988638
51
146.2360492
0
ARC
8
DEFAULT_255_2_778
10
30.3050814
20
-14.016988
40
26.3727501
50
146.203278
51
146.4081618
0
ARC
8
DEFAULT_255_2_778
10
7.6018765
20
1.003442
40
0.8508326
50
306.0092955
51
329.7129794
0
ARC
8
DEFAULT_255_2_778
10
7.8910528
20
0.6528208
40
0.3981667
50
297.8642711
51
302.0078175
0
ARC
8
DEFAULT_255_2_778
10
7.7488191
20
0.9178346
40
0.6989336
50
290.2235568
51
298.018455
0
ARC
8
DEFAULT_255_2_778
10
7.7976997
20
0.7842892
40
0.5567239
50
279.9268859
51
290.2541665
0
ARC
8
DEFAULT_255_2_778
10
7.8116673
20
0.7086312
40
0.4797915
50
270.0661152
51
279.8414148
0
ARC
8
DEFAULT_255_2_778
10
7.8319108
20
0.7887752
40
0.5602812
50
226.9469158
51
267.9860551
0
ARC
8
DEFAULT_255_2_778
10
8.444678
20
1.5073803
40
1.504312
50
215.4027517
51
228.5777476
0
ARC
8
DEFAULT_255_2_778
10
10.4020875
20
2.9571039
40
3.9399396
50
212.45768
51
216.0964739
0
ARC
8
DEFAULT_255_2_778
10
18.714972
20
8.3021428
40
13.8228954
50
212.0816884
51
212.6597497
0
ARC
8
DEFAULT_255_2_778
10
11.3334115
20
3.6858891
40
5.1167479
50
211.6457367
51
212.185139
0
ARC
8
DEFAULT_255_2_778
10
10.1197957
20
2.9382098
40
3.691305
50
210.4707554
51
211.6494127
0
ARC
8
DEFAULT_255_2_778
10
9.4806122
20
2.5631582
40
2.9502123
50
208.3616887
51
210.4877778
0
ARC
8
DEFAULT_255_2_778
10
9.5515802
20
2.5984179
40
3.0294125
50
208.2402976
51
208.3109075
0
ARC
8
DEFAULT_255_2_778
10
8.5322296
20
2.0652838
40
1.8791737
50
200.8119909
51
208.6260293
0
ARC
8
DEFAULT_255_2_778
10
7.6775698
20
1.7381627
40
0.9640545
50
191.8397185
51
200.6863464
0
ARC
8
DEFAULT_255_2_778
10
7.2564289
20
1.6498475
40
0.5337532
50
180.5617262
51
191.8366171
0
ARC
8
DEFAULT_255_2_778
10
7.0058555
20
1.6510423
40
0.2832269
50
156.8267565
51
181.3003872
0
ARC
8
DEFAULT_255_2_778
10
6.9298227
20
1.6789239
40
0.202402
50
120.0714995
51
155.6128969
0
ARC
8
DEFAULT_255_2_778
10
6.9544451
20
1.6425141
40
0.246268
50
117.9688964
51
120.7843784
0
ARC
8
DEFAULT_255_2_778
10
3.8591285
20
7.4931624
40
6.3727254
50
297.8779328
51
299.2323761
0
ARC
8
DEFAULT_255_2_778
10
4.3349315
20
6.6395633
40
5.3954759
50
299.2498957
51
300.7024307
0
ARC
8
DEFAULT_255_2_778
10
4.1655459
20
6.9215065
40
5.7243843
50
300.7193321
51
301.8507107
0
ARC
8
DEFAULT_255_2_778
10
2.3055314
20
9.8922957
40
9.2294022
50
301.9266706
51
303.1808074
0
ARC
8
DEFAULT_255_2_778
10
-14.8758859
20
36.2327216
40
40.6780723
50
303.1304992
51
303.3706643
0
ARC
8
DEFAULT_255_2_778
10
81.7178075
20
-110.6022438
40
135.0798623
50
123.3021485
51
123.32876
0
ARC
8
DEFAULT_255_2_778
10
8.3085915
20
2.7380721
40
0.8767218
50
210.3017531
51
219.1991277
0
ARC
8
DEFAULT_255_2_778
10
18.8024465
20
10.8629283
40
14.1480174
50
217.8386547
51
217.8906451
0
ARC
8
DEFAULT_255_2_778
10
6.7360575
20
1.4457431
40
1.1584072
50
32.738642
51
38.9415472
0
ARC
8
DEFAULT_255_2_778
10
21.0828029
20
-13.2778945
40
18.570239
50
128.9017105
51
129.3008485
0
ARC
8
DEFAULT_255_2_778
10
52.9301419
20
-52.1654539
40
68.8344929
50
129.311978
51
129.5000213
0
ARC
8
DEFAULT_255_2_778
10
-2103.1838852
20
2566.5100367
40
3323.2576497
50
309.4657363
51
309.4660031
0
LINE
8
DEFAULT_255_2_778
10
9.1340536
20
0.9390803
11
9.1326897
21
0.9379574
0
ARC
8
DEFAULT_255_2_778
10
-19.7671166
20
35.9667736
40
45.4116369
50
309.1623536
51
309.5236367
0
ARC
8
DEFAULT_255_2_778
10
1.9824924
20
9.2658267
40
10.9734889
50
308.3682691
51
309.1540702
0
ARC
8
DEFAULT_255_2_778
10
6.7123891
20
3.2851677
40
3.3485196
50
306.8073837
51
308.4343365
0
ARC
8
DEFAULT_255_2_778
10
8.3281797
20
1.1171037
40
0.644608
50
302.3842784
51
307.2745452
0
ARC
8
DEFAULT_255_2_778
10
8.5907847
20
0.7092672
40
0.1595851
50
300.11202
51
301.1893006
0
ARC
8
DEFAULT_255_2_778
10
10.3365605
20
-0.5415035
40
2.0031852
50
146.2564639
51
149.6630013
0
ARC
8
DEFAULT_255_2_778
10
-220.9674391
20
133.0098292
40
265.0876555
50
329.9727513
51
330.0010667
0
ARC
8
DEFAULT_255_2_778
10
7.9659749
20
0.6662102
40
0.6539745
50
307.9572898
51
331.7664365
0
ARC
8
DEFAULT_255_2_778
10
7.908244
20
0.7633662
40
0.7662202
50
298.1088644
51
306.892472
0
ARC
8
DEFAULT_255_2_778
10
7.5545663
20
1.4029897
40
1.4970749
50
293.6071234
51
298.5147508
0
ARC
8
DEFAULT_255_2_778
10
7.6860342
20
1.1005761
40
1.1673215
50
287.2621133
51
293.6385181
0
ARC
8
DEFAULT_255_2_778
10
7.7616122
20
0.8551395
40
0.910513
50
278.6901186
51
287.3035191
0
ARC
8
DEFAULT_255_2_778
10
7.7863774
20
0.6984445
40
0.7518754
50
270.0954069
51
278.628712
0
ARC
8
DEFAULT_255_2_778
10
7.8006089
20
0.6920104
40
0.7455531
50
228.4990084
51
269.0024738
0
ARC
8
DEFAULT_255_2_778
10
8.3123229
20
1.3416522
40
1.571887
50
220.0969944
51
230.2207737
0
ARC
8
DEFAULT_255_2_778
10
9.5585711
20
2.4011008
40
3.2075937
50
214.6881895
51
220.2353008
0
ARC
8
DEFAULT_255_2_778
10
11.7758566
20
3.9742118
40
5.9261394
50
213.7706085
51
214.9939902
0
ARC
8
DEFAULT_255_2_778
10
14.4719389
20
5.7778338
40
9.1698891
50
212.9578094
51
213.7745263
0
ARC
8
DEFAULT_255_2_778
10
13.2154396
20
4.9760294
40
7.6794053
50
212.5877555
51
213.038323
0
ARC
8
DEFAULT_255_2_778
10
11.0882002
20
3.6173373
40
5.1552835
50
211.5378979
51
212.5979986
0
ARC
8
DEFAULT_255_2_778
10
10.0367892
20
2.9727261
40
3.9220001
50
209.8024625
51
211.5460067
0
ARC
8
DEFAULT_255_2_778
10
9.0108417
20
2.3931414
40
2.7436889
50
204.9130077
51
209.9481452
0
ARC
8
DEFAULT_255_2_778
10
8.1671177
20
1.9981502
40
1.8120902
50
200.1154724
51
204.8236919
0
ARC
8
DEFAULT_255_2_778
10
7.5747412
20
1.7852411
40
1.1826316
50
191.8372327
51
200.2997731
0
ARC
8
DEFAULT_255_2_778
10
7.1238182
20
1.6910762
40
0.7219817
50
180.8850405
51
191.8639266
0
ARC
8
DEFAULT_255_2_778
10
6.9735037
20
1.684201
40
0.571597
50
180.0002846
51
180.4286973
0
ARC
8
DEFAULT_255_2_778
10
6.8066519
20
1.6939693
40
0.4048632
50
152.7828884
51
181.3829365
0
ARC
8
DEFAULT_255_2_778
10
6.7423928
20
1.717916
40
0.3368637
50
126.5106027
51
151.4059981
0
ARC
8
DEFAULT_255_2_778
10
6.7990219
20
1.6448496
40
0.4292881
50
116.7429226
51
126.783278
0
ARC
8
DEFAULT_255_2_778
10
-13.1512209
20
40.5715576
40
43.312016
50
297.139386
51
297.4271747
0
ARC
8
DEFAULT_255_2_778
10
2.2942614
20
10.8134401
40
9.7842891
50
297.414551
51
298.5410743
0
ARC
8
DEFAULT_255_2_778
10
4.2399732
20
7.2269153
40
5.7039801
50
298.584689
51
300.0079346
0
ARC
8
DEFAULT_255_2_778
10
6.3814196
20
7.9795594
40
5.7363031
50
272.5168053
51
277.122268
0
ARC
8
DEFAULT_255_2_778
10
6.4047837
20
7.5327624
40
5.2889126
50
270.0076963
51
272.4764876
0
ARC
8
DEFAULT_255_2_778
10
6.4039833
20
7.3342522
40
5.0904024
50
261.4200243
51
270.0170052
0
ARC
8
DEFAULT_255_2_778
10
-2.5441941
20
1.1430412
40
8.2707038
50
6.1933838
51
6.8746089
0
ARC
8
DEFAULT_255_2_778
10
4.1091658
20
1.8601033
40
1.5788244
50
2.8221955
51
6.371855
0
ARC
8
DEFAULT_255_2_778
10
4.8938435
20
1.9030542
40
0.7929952
50
0.0645518
51
2.5141147
0
ARC
8
DEFAULT_255_2_778
10
5.2097191
20
1.8984229
40
0.4771511
50
346.8425895
51
0.6634188
0
ARC
8
DEFAULT_255_2_778
10
5.1910268
20
1.9108189
40
0.4982357
50
332.3169098
51
345.9437696
0
ARC
8
DEFAULT_255_2_778
10
4.7650558
20
2.1278998
40
0.9763141
50
326.984366
51
332.6494291
0
ARC
8
DEFAULT_255_2_778
10
4.217547
20
2.4737964
40
1.6239014
50
325.9700483
51
327.2764415
0
ARC
8
DEFAULT_255_2_778
10
-1.0828724
20
6.0497685
40
8.0178063
50
325.9690447
51
325.9892295
0
ARC
8
DEFAULT_255_2_778
10
0.3688136
20
5.0694197
40
6.2660998
50
325.9440367
51
325.9692924
0
ARC
8
DEFAULT_255_2_778
10
0.6186154
20
4.8998295
40
5.9641704
50
325.9239873
51
325.949938
0
ARC
8
DEFAULT_255_2_778
10
-1.829017
20
6.5561994
40
8.9195831
50
325.9033309
51
325.9203042
0
ARC
8
DEFAULT_255_2_778
10
0.0412017
20
5.290515
40
6.6613372
50
325.8783169
51
325.9005513
0
ARC
8
DEFAULT_255_2_778
10
-3.8972542
20
7.9602721
40
11.419387
50
325.8612739
51
325.8739646
0
ARC
8
DEFAULT_255_2_778
10
1.4199031
20
4.354574
40
4.9949635
50
325.8373284
51
325.8657206
0
ARC
8
DEFAULT_255_2_778
10
-0.6593795
20
5.7647786
40
7.5073513
50
325.8244913
51
325.8429801
0
ARC
8
DEFAULT_255_2_778
10
-8.2864622
20
10.9442224
40
16.7268431
50
325.8139645
51
325.8220874
0
ARC
8
DEFAULT_255_2_778
10
-2.5317181
20
7.0361269
40
9.7705302
50
325.7965932
51
325.8102073
0
ARC
8
DEFAULT_255_2_778
10
-2.15747
20
6.781717
40
9.3179973
50
325.7828118
51
325.7967892
0
ARC
8
DEFAULT_255_2_778
10
-32.3471865
20
27.3199577
40
45.831533
50
325.7716676
51
325.7744505
0
ARC
8
DEFAULT_255_2_778
10
0.4522847
20
5.005517
40
6.1611464
50
325.7531243
51
325.7733984
0
ARC
8
DEFAULT_255_2_778
10
-6.088386
20
9.4583736
40
14.0736873
50
325.7444493
51
325.7531431
0
ARC
8
DEFAULT_255_2_778
10
18.0059257
20
-7.0019409
40
15.1064345
50
145.5824848
51
145.9303438
0
ARC
8
DEFAULT_255_2_778
10
7.7510814
20
-0.0576241
40
2.7215628
50
146.0904861
51
146.6833229
0
ARC
8
DEFAULT_255_2_778
10
7.0039127
20
0.4324821
40
1.8279947
50
146.6570433
51
148.1909503
0
ARC
8
DEFAULT_255_2_778
10
6.868591
20
0.5197489
40
1.667002
50
148.2883389
51
152.5373219
0
ARC
8
DEFAULT_255_2_778
10
7.9017319
20
-0.01984
40
2.8325633
50
152.4902101
51
154.5891938
0
ARC
8
DEFAULT_255_2_778
10
10.1017686
20
-1.0686101
40
5.2697901
50
154.5537675
51
155.8069746
0
ARC
8
DEFAULT_255_2_778
10
12.1453346
20
-1.9957039
40
7.5138084
50
155.744528
51
155.8874214
0
ARC
8
DEFAULT_255_2_778
10
3.8653019
20
0.8896602
40
1.4337348
50
1.5597383
51
7.3838665
0
ARC
8
DEFAULT_255_2_778
10
3.8658551
20
0.8896903
40
1.4331811
50
359.9999258
51
1.5591377
0
ARC
8
DEFAULT_255_2_778
10
3.8690202
20
0.8895362
40
1.4300162
50
342.7139878
51
0.0061029
0
ARC
8
DEFAULT_255_2_778
10
4.8696431
20
0.5585086
40
0.3766928
50
320.2532946
51
345.5669754
0
ARC
8
DEFAULT_255_2_778
10
4.8355291
20
0.6034744
40
0.4318617
50
286.6755669
51
318.5600335
0
ARC
8
DEFAULT_255_2_778
10
4.7069587
20
0.9857988
40
0.8351092
50
274.1984252
51
287.5987103
0
ARC
8
DEFAULT_255_2_778
10
4.6599093
20
1.4654718
40
1.3169926
50
269.8850055
51
274.7120469
0
ARC
8
DEFAULT_255_2_778
10
4.6631461
20
2.0103787
40
1.861906
50
264.5931095
51
269.8190541
0
ARC
8
DEFAULT_255_2_778
10
4.7229102
20
2.6910908
40
2.5452251
50
262.006134
51
264.6976517
0
ARC
8
DEFAULT_255_2_778
10
4.8911316
20
3.8201894
40
3.6867587
50
257.4650852
51
261.857463
0
ARC
8
DEFAULT_255_2_778
10
5.2854301
20
5.6493894
40
5.5579472
50
255.9363594
51
257.5898178
0
ARC
8
DEFAULT_255_2_778
10
5.7408893
20
7.484821
40
7.449042
50
255.3584194
51
255.9686761
0
ARC
8
DEFAULT_255_2_778
10
6.6192139
20
10.8377233
40
10.9150779
50
254.8397692
51
255.3464326
0
ARC
8
DEFAULT_255_2_778
10
10.9891407
20
26.9891614
40
27.6472382
50
254.7350542
51
254.8523425
0
ARC
8
DEFAULT_255_2_778
10
-4.579061
20
-30.0468156
40
31.4752749
50
74.7307964
51
74.8248381
0
ARC
8
DEFAULT_255_2_778
10
1.8118177
20
-6.5136741
40
7.0897913
50
74.8873849
51
75.1013437
0
ARC
8
DEFAULT_255_2_778
10
0.9935616
20
-9.5890239
40
10.2721364
50
75.101096
51
75.1092023
0
ARC
8
DEFAULT_255_2_778
10
2.326168
20
-4.5736888
40
5.0827797
50
75.0982149
51
75.1145124
0
ARC
8
DEFAULT_255_2_778
10
2.3383966
20
-4.528486
40
5.0359523
50
75.1168579
51
75.1332211
0
ARC
8
DEFAULT_255_2_778
10
2.3504436
20
-4.4786914
40
4.984734
50
75.1202074
51
75.1366524
0
ARC
8
DEFAULT_255_2_778
10
2.3624021
20
-4.4292476
40
4.9338771
50
75.1235921
51
75.1401197
0
ARC
8
DEFAULT_255_2_778
10
1.1213438
20
-9.1125043
40
9.7787833
50
75.1488922
51
75.1571875
0
ARC
8
DEFAULT_255_2_778
10
1.1462744
20
-9.0153155
40
9.6784512
50
75.1524639
51
75.1608013
0
LINE
8
DEFAULT_255_2_778
10
3.6249949
20
0.3403438
11
3.6240922
21
0.340583
0
LINE
8
DEFAULT_255_2_778
10
3.6240922
20
0.340583
11
3.6231926
21
0.3408212
0
LINE
8
DEFAULT_255_2_778
10
3.6231926
20
0.3408212
11
3.6222961
21
0.3410584
0
ARC
8
DEFAULT_255_2_778
10
1.2194604
20
-8.7428003
40
9.3962817
50
75.1836303
51
75.1920833
0
ARC
8
DEFAULT_255_2_778
10
1.2436687
20
-8.6482954
40
9.2987284
50
75.187467
51
75.1959637
0
LINE
8
DEFAULT_255_2_778
10
3.6196228
20
0.3417654
11
3.6187388
21
0.3419991
0
ARC
8
DEFAULT_255_2_778
10
1.282891
20
-8.4943559
40
9.1398771
50
75.1928357
51
75.2014041
0
LINE
8
DEFAULT_255_2_778
10
3.6174173
20
0.3423481
11
3.616541
21
0.3425795
0
LINE
8
DEFAULT_255_2_778
10
3.616541
20
0.3425795
11
3.6156677
21
0.34281
0
ARC
8
DEFAULT_255_2_778
10
4.7262717
20
4.5555782
40
4.3567026
50
255.2105316
51
255.231246
0
LINE
8
DEFAULT_255_2_778
10
3.6141448
20
0.3432118
11
3.61328
21
0.3434398
0
ARC
8
DEFAULT_255_2_778
10
0.5714295
20
-11.1920291
40
11.9297904
50
75.2276371
51
75.2351285
0
LINE
8
DEFAULT_255_2_778
10
3.6117717
20
0.3438374
11
3.6109152
21
0.344063
0
ARC
8
DEFAULT_255_2_778
10
0.6277175
20
-10.9863229
40
11.7165317
50
75.2492622
51
75.2568157
0
ARC
8
DEFAULT_255_2_778
10
0.663017
20
-10.8455486
40
11.5714092
50
75.2484577
51
75.2560583
0
LINE
8
DEFAULT_255_2_778
10
3.6079371
20
0.3448471
11
3.6070942
21
0.3450689
0
LINE
8
DEFAULT_255_2_778
10
3.6070942
20
0.3450689
11
3.6062543
21
0.3452898
0
ARC
8
DEFAULT_255_2_778
10
2.1717461
20
-5.1067363
40
5.6375884
50
75.2587524
51
75.2741457
0
ARC
8
DEFAULT_255_2_778
10
0.7721299
20
-10.4353214
40
11.1469208
50
75.2785312
51
75.2862678
0
ARC
8
DEFAULT_255_2_778
10
0.8061592
20
-10.2994004
40
11.0068143
50
75.2778916
51
75.2856777
0
ARC
8
DEFAULT_255_2_778
10
4.8854282
20
5.2381876
40
5.0573408
50
255.2784027
51
255.2976488
0
LINE
8
DEFAULT_255_2_778
10
3.6002439
20
0.346869
11
3.5994284
21
0.347083
0
ARC
8
DEFAULT_255_2_778
10
0.4960327
20
-11.4722002
40
12.219923
50
75.2879146
51
75.2953018
0
LINE
8
DEFAULT_255_2_778
10
3.5979044
20
0.3474828
11
3.5970972
21
0.3476945
0
LINE
8
DEFAULT_255_2_778
10
3.5970972
20
0.3476945
11
3.5962929
21
0.3479054
0
ARC
8
DEFAULT_255_2_778
10
5.4868386
20
7.5642222
40
7.4598519
50
255.3067322
51
255.3194611
0
LINE
8
DEFAULT_255_2_778
10
3.5946898
20
0.3483257
11
3.5938941
21
0.3485342
0
LINE
8
DEFAULT_255_2_778
10
3.5938941
20
0.3485342
11
3.5931012
21
0.3487419
0
ARC
8
DEFAULT_255_2_778
10
9.1639648
20
21.9019442
40
22.2615151
50
255.0251799
51
255.5079078
0
ARC
8
DEFAULT_255_2_778
10
5.0510866
20
6.4505928
40
6.2721842
50
254.5994626
51
254.8484937
0
ARC
8
DEFAULT_255_2_778
10
3.9581246
20
2.6463278
40
2.3146742
50
245.6934972
51
255.6747258
0
ARC
8
DEFAULT_255_2_778
10
3.3259451
20
1.2420299
40
0.7746441
50
227.3621525
51
245.5534772
0
ARC
8
DEFAULT_255_2_778
10
3.0607447
20
0.956613
40
0.3850447
50
179.6368928
51
227.6246525
0
ARC
8
DEFAULT_255_2_778
10
3.1675956
20
0.9576252
40
0.49189
50
170.8236801
51
179.8336654
0
ARC
8
DEFAULT_255_2_778
10
3.302656
20
0.9359991
40
0.6286707
50
163.5756452
51
170.8409153
0
ARC
8
DEFAULT_255_2_778
10
3.4755523
20
0.8857173
40
0.8087292
50
158.2580409
51
163.6221428
0
ARC
8
DEFAULT_255_2_778
10
3.6392759
20
0.8217333
40
0.984508
50
155.4669584
51
158.3287722
0
ARC
8
DEFAULT_255_2_778
10
-0.02332
20
2.485294
40
3.0381852
50
335.6064687
51
344.6260785
0
ARC
8
DEFAULT_255_2_778
10
2.6653498
20
2.2367984
40
0.606803
50
269.3332134
51
293.380146
0
ARC
8
DEFAULT_255_2_778
10
2.6634556
20
2.4932202
40
0.8631993
50
257.7545154
51
269.6570099
0
ARC
8
DEFAULT_255_2_778
10
2.7078354
20
2.7234009
40
1.0975694
50
254.2496003
51
258.0390906
0
ARC
8
DEFAULT_255_2_778
10
2.9682086
20
3.4483159
40
1.8667198
50
232.3259112
51
252.5974298
0
ARC
8
DEFAULT_255_2_778
10
3.2873036
20
3.9308093
40
2.4440007
50
230.9165098
51
233.318119
0
ARC
8
DEFAULT_255_2_778
10
3.2183621
20
3.8469717
40
2.3354594
50
228.0418172
51
230.9326702
0
ARC
8
DEFAULT_255_2_778
10
3.0242161
20
3.6315855
40
2.0454873
50
225.394594
51
228.0521453
0
ARC
8
DEFAULT_255_2_778
10
2.8624324
20
3.4657633
40
1.8138212
50
224.9499583
51
225.3547874
0
ARC
8
DEFAULT_255_2_778
10
2.8269166
20
3.4349807
40
1.7669415
50
211.2343139
51
225.0571586
0
ARC
8
DEFAULT_255_2_778
10
2.7106892
20
3.3631437
40
1.6303108
50
195.6970425
51
211.193684
0
ARC
8
DEFAULT_255_2_778
10
2.6645188
20
3.3486331
40
1.5819371
50
189.5154087
51
195.6435131
0
ARC
8
DEFAULT_255_2_778
10
2.844176
20
3.3833141
40
1.7648613
50
187.5282621
51
189.6616336
0
ARC
8
DEFAULT_255_2_778
10
1.896135
20
3.2596286
40
0.808789
50
183.3646147
51
187.6407929
0
ARC
8
DEFAULT_255_2_778
10
1.5589966
20
3.2381197
40
0.4709724
50
180.0861658
51
183.1595983
0
ARC
8
DEFAULT_255_2_778
10
1.3417094
20
3.2423003
40
0.2537317
50
164.361514
51
181.1040388
0
ARC
8
DEFAULT_255_2_778
10
1.2887649
20
3.2525632
40
0.2000287
50
143.7996169
51
163.1042076
0
ARC
8
DEFAULT_255_2_778
10
1.5234044
20
3.0763108
40
0.4934824
50
133.9537696
51
143.3761479
0
ARC
8
DEFAULT_255_2_778
10
3.2042754
20
1.3897619
40
2.8745552
50
133.4046714
51
134.7403746
0
ARC
8
DEFAULT_255_2_778
10
-3.1419333
20
8.0825914
40
6.3486977
50
313.5101078
51
314.2540314
0
ARC
8
DEFAULT_255_2_778
10
6.3752001
20
5.4482241
40
4.4419333
50
189.4628933
51
190.8481987
0
ARC
8
DEFAULT_255_2_778
10
5.8798582
20
5.3694958
40
3.94039
50
184.8620736
51
189.5178791
0
ARC
8
DEFAULT_255_2_778
10
9.789527
20
5.7539924
40
7.8687492
50
183.5274664
51
185.2388163
0
ARC
8
DEFAULT_255_2_778
10
8.119353
20
5.6515333
40
6.1954356
50
181.4437872
51
183.5320522
0
ARC
8
DEFAULT_255_2_778
10
7.1220799
20
5.6240423
40
5.1977871
50
180.0144362
51
181.4178298
0
ARC
8
DEFAULT_255_2_778
10
6.167589
20
5.6298746
40
4.2433022
50
175.8114973
51
180.0964348
0
ARC
8
DEFAULT_255_2_778
10
5.3423408
20
5.6905183
40
3.4158289
50
169.3106539
51
175.8149717
0
ARC
8
DEFAULT_255_2_778
10
5.2206137
20
5.7101176
40
3.2925803
50
167.7217026
51
169.252895
0
ARC
8
DEFAULT_255_2_778
10
1.6943187
20
7.1982977
40
0.8464099
50
279.1954583
51
291.4140562
0
ARC
8
DEFAULT_255_2_778
10
1.711125
20
7.0983203
40
0.7450319
50
270.095516
51
279.1482692
0
ARC
8
DEFAULT_255_2_778
10
1.694232
20
6.8987732
40
0.5457851
50
215.3224851
51
271.9041374
0
ARC
8
DEFAULT_255_2_778
10
1.7500606
20
6.9324995
40
0.6108546
50
205.5728942
51
214.8758935
0
ARC
8
DEFAULT_255_2_778
10
2.5778511
20
7.3168875
40
1.5235134
50
195.3216441
51
205.1745824
0
ARC
8
DEFAULT_255_2_778
10
4.0630592
20
7.7628011
40
3.073991
50
195.2462187
51
196.0228056
0
ARC
8
DEFAULT_255_2_778
10
6.0178931
20
8.2892732
40
5.0984726
50
193.9724193
51
195.1774988
0
ARC
8
DEFAULT_255_2_778
10
10.6305634
20
9.4498392
40
9.8548956
50
193.8197469
51
194.0449532
0
ARC
8
DEFAULT_255_2_778
10
1.6045956
20
7.66272
40
0.7854493
50
218.452658
51
226.1995081
0
ARC
8
DEFAULT_255_2_778
10
1.482024
20
7.5658273
40
0.6292064
50
208.355206
51
218.4840255
0
ARC
8
DEFAULT_255_2_778
10
1.3931308
20
7.5179073
40
0.5282197
50
194.2721715
51
208.3604213
0
ARC
8
DEFAULT_255_2_778
10
1.3726953
20
7.5113284
40
0.5067947
50
180.1970074
51
194.1209045
0
ARC
8
DEFAULT_255_2_778
10
1.3774315
20
7.512022
40
0.5115337
50
179.9953755
51
180.27288
0
ARC
8
DEFAULT_255_2_778
10
1.5264221
20
7.4991437
40
0.6606507
50
153.1994803
51
178.8794594
0
ARC
8
DEFAULT_255_2_778
10
2.0001654
20
7.2706826
40
1.1865546
50
139.5110166
51
153.667092
0
ARC
8
DEFAULT_255_2_778
10
2.7048274
20
6.6613872
40
2.1180965
50
124.9529162
51
139.3527813
0
ARC
8
DEFAULT_255_2_778
10
2.8965236
20
6.4215178
40
2.4246023
50
120.8315981
51
125.4183756
0
ARC
8
DEFAULT_255_2_778
10
2.7044067
20
6.7456054
40
2.0478529
50
116.8276425
51
120.8633195
0
ARC
8
DEFAULT_255_2_778
10
2.4492497
20
7.2524142
40
1.4804387
50
112.5207121
51
116.8676182
0
ARC
8
DEFAULT_255_2_778
10
2.2321734
20
7.779056
40
0.9108148
50
107.1607274
51
112.595614
0
ARC
8
DEFAULT_255_2_778
10
2.1074877
20
8.184736
40
0.4864067
50
100.3562478
51
107.2269732
0
ARC
8
DEFAULT_255_2_778
10
-2.6715591
20
10.3304371
40
4.9790349
50
338.667443
51
340.4367223
0
ARC
8
DEFAULT_255_2_778
10
17.7352336
20
2.2996805
40
16.9511086
50
158.4750103
51
159.1805411
0
ARC
8
DEFAULT_255_2_778
10
1.6912239
20
7.9826995
40
0.3958911
50
3.8271027
51
59.7024415
0
ARC
8
DEFAULT_255_2_778
10
1.2462536
20
7.8934944
40
0.8478997
50
359.7728607
51
7.8379278
0
ARC
8
DEFAULT_255_2_778
10
1.0570115
20
7.890221
40
1.0371352
50
359.0551963
51
359.9951387
0
ARC
8
DEFAULT_255_2_778
10
0.730226
20
7.9054209
40
1.3641621
50
349.3761593
51
358.6431905
0
ARC
8
DEFAULT_255_2_778
10
0.3583342
20
7.966167
40
1.7409012
50
347.4511698
51
349.6676685
0
ARC
8
DEFAULT_255_2_778
10
2.8054619
20
8.1676344
40
0.9462013
50
212.4711086
51
217.7833172
0
ARC
8
DEFAULT_255_2_778
10
99.2595134
20
70.3379346
40
115.7004024
50
212.7748044
51
212.8014337
0
ARC
8
DEFAULT_255_2_778
10
1.6294205
20
7.510799
40
0.3990115
50
29.0995698
51
53.6817706
0
ARC
8
DEFAULT_255_2_778
10
1.7812539
20
7.6973574
40
0.1592089
50
57.9485905
51
88.5986767
0
ARC
8
DEFAULT_255_2_778
10
10.4201107
20
7.2460253
40
8.6565175
50
175.955908
51
176.478174
0
ARC
8
DEFAULT_255_2_778
10
-11.8910058
20
8.628032
40
13.6973616
50
356.1905413
51
356.4411442
0
ARC
8
DEFAULT_255_2_778
10
0.4885041
20
7.7479751
40
1.2879364
50
341.2261423
51
358.6663087
0
ARC
8
DEFAULT_255_2_778
10
1.2840826
20
7.4922359
40
0.4525941
50
307.4270972
51
339.4647983
0
ARC
8
DEFAULT_255_2_778
10
5.4321586
20
8.56891
40
4.130687
50
200.3445054
51
201.1017846
0
ARC
8
DEFAULT_255_2_778
10
2.0940528
20
7.2776182
40
0.551536
50
200.8008972
51
205.4809593
0
ARC
8
DEFAULT_255_2_778
10
1.8127985
20
7.1465387
40
0.2412626
50
206.1149458
51
207.7565443
0
ARC
8
DEFAULT_255_2_778
10
1.6806908
20
7.0712905
40
0.0894552
50
204.5105767
51
232.3700116
0
ARC
8
DEFAULT_255_2_778
10
1.6545039
20
7.0435192
40
0.0516113
50
236.5737246
51
271.9578546
0
ARC
8
DEFAULT_255_2_778
10
1.6492154
20
7.1588137
40
0.1670246
50
272.419756
51
288.4718005
0
ARC
8
DEFAULT_255_2_778
10
1.4816947
20
7.7233525
40
0.7558191
50
286.9572216
51
290.3034908
0
ARC
8
DEFAULT_255_2_778
10
0.1669593
20
11.3134379
40
4.579066
50
290.1447587
51
290.8566262
0
ARC
8
DEFAULT_255_2_778
10
1.2566873
20
8.2558513
40
1.3357032
50
293.8723753
51
319.0850002
0
ARC
8
DEFAULT_255_2_778
10
-2.9220145
20
12.2980205
40
7.1479144
50
316.5367495
51
318.1675247
0
ARC
8
DEFAULT_255_2_778
10
193.6468932
20
-165.1675191
40
257.6791772
50
137.9120734
51
137.9170123
0
ARC
8
DEFAULT_255_2_778
10
36.7247071
20
-23.4420163
40
46.2301512
50
137.8927989
51
137.9079156
0
ARC
8
DEFAULT_255_2_778
10
5.6434318
20
5.9305115
40
3.6039834
50
135.047595
51
153.1866058
0
ARC
8
DEFAULT_255_2_778
10
5.7144646
20
5.8509136
40
3.7104952
50
131.5137866
51
134.9527072
0
ARC
8
DEFAULT_255_2_778
10
6.9430082
20
4.4717245
40
5.557509
50
130.0024541
51
131.5736031
0
ARC
8
DEFAULT_255_2_778
10
6.6804756
20
4.7844843
40
5.1491686
50
128.3495925
51
130.0018312
0
ARC
8
DEFAULT_255_2_778
10
6.2422547
20
5.3551572
40
4.4297388
50
120.1251539
51
128.4842179
0
ARC
8
DEFAULT_255_2_778
10
6.2690285
20
5.2504035
40
4.5338765
50
106.4465213
51
119.7533964
0
ARC
8
DEFAULT_255_2_778
10
7.0651614
20
2.6844376
40
7.220351
50
102.265975
51
106.7407774
0
ARC
8
DEFAULT_255_2_778
10
8.0515333
20
-1.7875545
40
11.7998189
50
99.9338161
51
102.3328838
0
ARC
8
DEFAULT_255_2_778
10
9.2669379
20
-8.5983079
40
18.7181465
50
99.0267382
51
100.0019428
0
ARC
8
DEFAULT_255_2_778
10
13.0358783
20
3.4958975
40
9.2642345
50
131.5203456
51
136.3716055
0
ARC
8
DEFAULT_255_2_778
10
8.155757
20
9.0129394
40
1.8985518
50
126.6868548
51
131.620642
0
ARC
8
DEFAULT_255_2_778
10
7.7177632
20
9.6043201
40
1.1626423
50
118.6304574
51
126.7894752
0
ARC
8
DEFAULT_255_2_778
10
7.5679091
20
9.8738691
40
0.8542509
50
109.8388245
51
118.4711913
0
ARC
8
DEFAULT_255_2_778
10
7.6092184
20
9.7074813
40
1.0249344
50
92.5913057
51
108.8543286
0
ARC
8
DEFAULT_255_2_778
10
7.7099388
20
8.5549885
40
2.1813421
50
93.01128
51
93.8656314
0
ARC
8
DEFAULT_255_2_778
10
19.516741
20
1.8376075
40
14.8745858
50
142.4691934
51
143.2698014
0
ARC
8
DEFAULT_255_2_778
10
13.9466571
20
6.1172918
40
7.850233
50
141.027248
51
142.474104
0
ARC
8
DEFAULT_255_2_778
10
10.2999215
20
9.1643967
40
3.0995331
50
124.1063336
51
142.4200643
0
ARC
8
DEFAULT_255_2_778
10
10.1057745
20
9.3667957
40
2.8234786
50
115.2808346
51
123.147217
0
ARC
8
DEFAULT_255_2_778
10
10.3458089
20
8.875101
40
3.3705967
50
112.8092703
51
115.4009189
0
ARC
8
DEFAULT_255_2_778
10
12.4435658
20
3.9164437
40
8.7547231
50
110.5620536
51
112.8839873
0
ARC
8
DEFAULT_255_2_778
10
11.6431267
20
6.0548834
40
6.471387
50
107.4706015
51
110.576408
0
ARC
8
DEFAULT_255_2_778
10
11.1513805
20
7.6242116
40
4.8268205
50
103.1970415
51
107.4952393
0
ARC
8
DEFAULT_255_2_778
10
10.883838
20
8.773282
40
3.6470166
50
97.2529891
51
103.2262086
0
ARC
8
DEFAULT_255_2_778
10
10.7884599
20
9.5166165
40
2.8975885
50
90.1079119
51
97.2377956
0
ARC
8
DEFAULT_255_2_778
10
10.7909592
20
9.9678521
40
2.4463607
50
70.670742
51
90.1863518
0
ARC
8
DEFAULT_255_2_778
10
10.7358471
20
9.8040848
40
2.6191397
50
67.6372254
51
70.7188869
0
ARC
8
DEFAULT_255_2_778
10
10.6398399
20
9.5769619
40
2.8657102
50
62.0292747
51
67.5897719
0
ARC
8
DEFAULT_255_2_778
10
10.4274508
20
9.1759855
40
3.3194624
50
57.5992838
51
62.0376753
0
ARC
8
DEFAULT_255_2_778
10
10.1167411
20
8.6855408
40
3.9000452
50
53.9183606
51
57.6060388
0
ARC
8
DEFAULT_255_2_778
10
9.6956809
20
8.1067369
40
4.6158002
50
50.8584534
51
53.9256521
0
ARC
8
DEFAULT_255_2_778
10
9.3987578
20
7.7359159
40
5.0908356
50
50.4909571
51
50.9010658
0
ARC
8
DEFAULT_255_2_778
10
5.7488111
20
3.3379161
40
10.8061098
50
48.8523433
51
50.3954403
0
ARC
8
DEFAULT_255_2_778
10
-61.1399804
20
-73.2600415
40
112.4985749
50
48.738513
51
48.869273
0
ARC
8
DEFAULT_255_2_778
10
16.8786864
20
15.5020135
40
5.6786228
50
227.6390962
51
236.7107912
0
ARC
8
DEFAULT_255_2_778
10
15.6514616
20
13.7537614
40
3.5442788
50
237.7825646
51
237.9001993
0
ARC
8
DEFAULT_255_2_778
10
5.9316856
20
-1.7913294
40
14.7894079
50
57.6103545
51
58.0037934
0
ARC
8
DEFAULT_255_2_778
10
11.404707
20
6.8349826
40
4.5733804
50
56.423779
51
57.618647
0
ARC
8
DEFAULT_255_2_778
10
13.008247
20
9.2072507
40
1.7102608
50
44.9848503
51
57.228428
0
ARC
8
DEFAULT_255_2_778
10
13.0652283
20
9.2826627
40
1.616701
50
40.8973939
51
44.5220984
0
ARC
8
DEFAULT_255_2_778
10
12.9584323
20
9.1883945
40
1.7591448
50
40.4422441
51
40.9408974
0
ARC
8
DEFAULT_255_2_778
10
12.3379634
20
8.5919624
40
2.6187583
50
21.0815108
51
41.5676459
0
ARC
8
DEFAULT_255_2_778
10
16.4522345
20
5.4705029
40
4.3935039
50
111.9812767
51
112.3513868
0
ARC
8
DEFAULT_255_2_778
10
12.3804746
20
15.7036359
40
6.6200429
50
291.5093189
51
292.9548935
0
ARC
8
DEFAULT_255_2_778
10
14.5624347
20
10.6008804
40
1.0705551
50
291.9343029
51
309.1372109
0
ARC
8
DEFAULT_255_2_778
10
14.3232582
20
10.7600889
40
1.3476912
50
312.7543661
51
327.2534197
0
ARC
8
DEFAULT_255_2_778
10
6.6202582
20
16.1448686
40
10.7453292
50
325.3215118
51
325.6086899
0
LINE
8
DEFAULT_255_2_778
10
15.487295
20
10.0754569
11
15.4939633
21
10.085185
0
ARC
8
DEFAULT_255_2_778
10
17.1220426
20
9.033465
40
1.9382356
50
137.8155566
51
147.1380151
0
ARC
8
DEFAULT_255_2_778
10
16.3036622
20
9.7397995
40
0.8579084
50
135.4153739
51
136.0672642
0
ARC
8
DEFAULT_255_2_778
10
15.8983407
20
10.1286949
40
0.2963389
50
88.6441521
51
133.9567417
0
ARC
8
DEFAULT_255_2_778
10
15.9132734
20
9.9856368
40
0.4393855
50
89.9971849
51
91.0329298
0
ARC
8
DEFAULT_255_2_778
10
15.9094524
20
9.8831023
40
0.5419337
50
77.5364752
51
89.5937397
0
ARC
8
DEFAULT_255_2_778
10
15.8820048
20
9.7406153
40
0.6869978
50
74.5633025
51
77.8659488
0
ARC
8
DEFAULT_255_2_778
10
15.8112527
20
9.5249691
40
0.913761
50
50.3216139
51
73.8860674
0
ARC
8
DEFAULT_255_2_778
10
15.9872302
20
9.7360683
40
0.6389332
50
40.5522749
51
50.3805557
0
ARC
8
DEFAULT_255_2_778
10
16.1559529
20
9.8825276
40
0.4155193
50
33.1750958
51
40.3332953
0
ARC
8
DEFAULT_255_2_778
10
16.2489767
20
9.9441013
40
0.3039657
50
27.6832437
51
33.0554555
0
ARC
8
DEFAULT_255_2_778
10
14.3010508
20
8.9323511
40
2.49897
50
21.6661746
51
27.4760048
0
ARC
8
DEFAULT_255_2_778
10
13.1988626
20
8.4938477
40
3.685184
50
16.5639011
51
21.6754654
0
ARC
8
DEFAULT_255_2_778
10
11.6907222
20
8.0447392
40
5.2587742
50
11.764368
51
16.5696108
0
ARC
8
DEFAULT_255_2_778
10
10.1774211
20
7.724441
40
6.8055941
50
7.4229398
51
11.8066924
0
ARC
8
DEFAULT_255_2_778
10
9.6506126
20
7.6486568
40
7.3377818
50
3.8768784
51
7.478296
0
ARC
8
DEFAULT_255_2_778
10
10.2509776
20
7.6880428
40
6.7361278
50
1.3014271
51
3.887905
0
ARC
8
DEFAULT_255_2_778
10
11.005983
20
7.7074292
40
5.9808772
50
0.0100915
51
1.28003
0
ARC
8
DEFAULT_255_2_778
10
11.7148517
20
7.7061993
40
5.2720091
50
358.1257997
51
0.0248156
0
ARC
8
DEFAULT_255_2_778
10
12.5463754
20
7.6791328
40
4.4400449
50
356.3125464
51
358.1239527
0
ARC
8
DEFAULT_255_2_778
10
13.3319602
20
7.6280079
40
3.6527985
50
354.2449161
51
356.3203128
0
ARC
8
DEFAULT_255_2_778
10
13.117798
20
7.6149249
40
3.8647234
50
337.4344076
51
354.7562852
0
ARC
8
DEFAULT_255_2_778
10
14.4346944
20
7.0365607
40
2.4268756
50
300.9319502
51
338.1129001
0
ARC
8
DEFAULT_255_2_778
10
14.5474494
20
6.9090651
40
2.2597696
50
298.0976893
51
300.141275
0
ARC
8
DEFAULT_255_2_778
10
14.5443169
20
6.9644805
40
2.3102474
50
281.4639869
51
297.5189288
0
ARC
8
DEFAULT_255_2_778
10
14.3384
20
7.9285471
40
3.2960227
50
269.9320652
51
281.6412739
0
ARC
8
DEFAULT_255_2_778
10
14.3219609
20
8.3711716
40
3.7386661
50
269.9990902
51
270.1920415
0
ARC
8
DEFAULT_255_2_778
10
14.3275562
20
8.639775
40
4.0072736
50
260.889802
51
269.9191499
0
ARC
8
DEFAULT_255_2_778
10
14.3297069
20
8.6695581
40
4.0370222
50
259.3083871
51
260.9265899
0
ARC
8
DEFAULT_255_2_778
10
12.4679573
20
4.6049852
40
1.0344915
50
312.6191848
51
341.4054992
0
ARC
8
DEFAULT_255_2_778
10
12.2217649
20
4.8338079
40
1.3698288
50
284.2650784
51
313.7161524
0
ARC
8
DEFAULT_255_2_778
10
12.3140899
20
4.5111911
40
1.0344579
50
273.9787422
51
283.7121475
0
ARC
8
DEFAULT_255_2_778
10
12.3247531
20
4.3974999
40
0.9203051
50
272.7026137
51
273.8076058
0
ARC
8
DEFAULT_255_2_778
10
12.3141402
20
4.6073473
40
1.1304196
50
270.0191658
51
272.738415
0
ARC
8
DEFAULT_255_2_778
10
12.3084695
20
4.4013868
40
0.9244788
50
254.6219158
51
270.3748864
0
ARC
8
DEFAULT_255_2_778
10
12.4210078
20
4.6275934
40
1.1734339
50
225.2836383
51
252.2520373
0
ARC
8
DEFAULT_255_2_778
10
14.9791031
20
7.5356906
40
5.0449641
50
225.9960894
51
227.8779182
0
ARC
8
DEFAULT_255_2_778
10
27.281551
20
20.3732954
40
22.8256631
50
226.0266338
51
226.1701
0
ARC
8
DEFAULT_255_2_778
10
7.8518408
20
4.6457104
40
3.1541956
50
349.8990623
51
354.9820295
0
ARC
8
DEFAULT_255_2_778
10
8.5147552
20
2.8618404
40
2.7349311
50
21.6986096
51
26.7427274
0
ARC
8
DEFAULT_255_2_778
10
6.7716897
20
2.1527421
40
4.616679
50
20.9243692
51
21.8773128
0
ARC
8
DEFAULT_255_2_778
10
2.0317522
20
0.3448004
40
9.6897111
50
20.333669
51
20.9002067
0
ARC
8
DEFAULT_255_2_778
10
18.6796029
20
6.4654034
40
8.0476855
50
200.0082324
51
201.8752
0
ARC
8
DEFAULT_255_2_778
10
14.7478382
20
4.9108569
40
3.8198799
50
202.2097721
51
202.8044792
0
ARC
8
DEFAULT_255_2_778
10
7.3077143
20
1.8104953
40
4.2404103
50
20.1449275
51
22.4574261
0
ARC
8
DEFAULT_255_2_778
10
9.3850262
20
2.5719762
40
2.0279281
50
15.5435146
51
20.1596461
0
ARC
8
DEFAULT_255_2_778
10
9.8544764
20
2.7069378
40
1.5394872
50
5.203312
51
15.3861931
0
ARC
8
DEFAULT_255_2_778
10
9.3091086
20
2.6528412
40
2.0875183
50
2.0061538
51
5.3244672
0
ARC
8
DEFAULT_255_2_778
10
9.3299699
20
0.8042428
40
2.3982972
50
27.392794
51
29.6207843
0
ARC
8
DEFAULT_255_2_778
10
10.7894279
20
1.5555687
40
0.7568202
50
20.498882
51
27.7256873
0
ARC
8
DEFAULT_255_2_778
10
11.0776217
20
1.6675223
40
0.4476875
50
15.1571127
51
19.9943334
0
ARC
8
DEFAULT_255_2_778
10
11.0517689
20
1.6651153
40
0.4732911
50
0.7385219
51
14.6200436
0
ARC
8
DEFAULT_255_2_778
10
10.6523057
20
1.6474409
40
0.8730389
50
359.9631313
51
1.5604843
0
ARC
8
DEFAULT_255_2_778
10
10.1049208
20
1.6504223
40
1.4204282
50
357.598398
51
359.8570801
0
ARC
8
DEFAULT_255_2_778
10
8.1551064
20
1.7303303
40
3.3718791
50
356.5142428
51
357.6301125
0
ARC
8
DEFAULT_255_2_778
10
10.6261033
20
1.578053
40
0.8961969
50
344.2838701
51
356.6266274
0
ARC
8
DEFAULT_255_2_778
10
11.0745334
20
1.4462146
40
0.4288545
50
317.8119069
51
345.0110643
0
ARC
8
DEFAULT_255_2_778
10
11.0801643
20
1.477275
40
0.4463465
50
277.3669004
51
314.3701938
0
ARC
8
DEFAULT_255_2_778
10
10.8928418
20
2.5123017
40
1.4977886
50
270.0754471
51
279.3971501
0
ARC
8
DEFAULT_255_2_778
10
10.8334406
20
4.7524206
40
3.7384101
50
269.9670182
51
270.9406674
0
ARC
8
DEFAULT_255_2_778
10
10.8320101
20
6.2675714
40
5.2535605
50
269.632869
51
269.9921317
0
ARC
8
DEFAULT_255_2_778
10
10.7590897
20
-6.349722
40
7.3639453
50
89.6945509
51
89.8731654
0
ARC
8
DEFAULT_255_2_778
10
10.7394599
20
-14.3770663
40
15.3913134
50
89.8662423
51
89.9513827
0
ARC
8
DEFAULT_255_2_778
10
10.7274859
20
-28.5073896
40
29.5216416
50
89.9514138
51
90.0017838
0
ARC
8
DEFAULT_255_2_778
10
10.7309393
20
-64.3126021
40
65.3268543
50
90.003835
51
90.0410253
0
ARC
8
DEFAULT_255_2_778
10
10.9098018
20
-321.3412671
40
322.3555815
50
90.0401052
51
90.0485168
0
ARC
8
DEFAULT_255_2_778
10
10.4659975
20
204.6540762
40
203.639949
50
270.0336222
51
270.0480675
0
ARC
8
DEFAULT_255_2_778
10
10.5285523
20
98.4992726
40
97.4851269
50
270.0014654
51
270.0334688
0
ARC
8
DEFAULT_255_2_778
10
10.5235463
20
53.6427554
40
52.6286102
50
269.8557754
51
270.0081644
0
ARC
8
DEFAULT_255_2_778
10
10.4344928
20
23.6388796
40
22.6246095
50
269.3376644
51
269.8900338
0
ARC
8
DEFAULT_255_2_778
10
10.2646605
20
8.9155616
40
7.9003121
50
268.5431259
51
269.3349377
0
ARC
8
DEFAULT_255_2_778
10
10.1233255
20
3.4849687
40
2.4678835
50
267.017145
51
268.6178632
0
ARC
8
DEFAULT_255_2_778
10
10.0408974
20
1.8569842
40
0.8378187
50
265.7047034
51
266.8530766
0
ARC
8
DEFAULT_255_2_778
10
10.2183513
20
4.8015626
40
3.7876682
50
262.8693299
51
266.3640129
0
ARC
8
DEFAULT_255_2_778
10
9.8438359
20
1.8886719
40
0.8508764
50
250.4690913
51
263.5449995
0
ARC
8
DEFAULT_255_2_778
10
9.6619408
20
1.3792428
40
0.3099507
50
221.0926942
51
250.6759651
0
ARC
8
DEFAULT_255_2_778
10
5.0988295
20
5.3614333
40
5.9991822
50
341.5709604
51
344.2490674
0
ARC
8
DEFAULT_255_2_778
10
-25.9065123
20
15.85591
40
38.7323696
50
340.6713068
51
341.3423223
0
ARC
8
DEFAULT_255_2_778
10
21.2237512
20
-0.6184355
40
11.1943343
50
160.9463148
51
162.23602
0
ARC
8
DEFAULT_255_2_778
10
9.4174412
20
3.1670471
40
1.204009
50
338.1540215
51
342.0965821
0
ARC
8
DEFAULT_255_2_778
10
8.229595
20
3.6399986
40
2.482546
50
335.3999365
51
338.2238394
0
ARC
8
DEFAULT_255_2_778
10
6.6297157
20
4.3687241
40
4.2405698
50
333.2585182
51
335.446111
0
ARC
8
DEFAULT_255_2_778
10
5.1245256
20
5.1238395
40
5.9245504
50
331.3474009
51
333.2868655
0
ARC
8
DEFAULT_255_2_778
10
4.4098439
20
5.5110172
40
6.7373659
50
329.5477657
51
331.3722592
0
ARC
8
DEFAULT_255_2_778
10
5.0542388
20
5.1231201
40
5.9852751
50
326.1972476
51
329.6223884
0
ARC
8
DEFAULT_255_2_778
10
6.1212892
20
4.4193491
40
4.7070768
50
325.4871328
51
326.0897165
0
ARC
8
DEFAULT_255_2_778
10
6.9552796
20
3.8383174
40
3.6906674
50
322.5316475
51
325.5839724
0
ARC
8
DEFAULT_255_2_778
10
8.0476717
20
3.0002926
40
2.3138575
50
318.9555424
51
322.546605
0
ARC
8
DEFAULT_255_2_778
10
8.7664325
20
2.372988
40
1.3598522
50
314.2428853
51
319.0037039
0
ARC
8
DEFAULT_255_2_778
10
9.2050988
20
1.9204333
40
0.7295906
50
307.3322998
51
314.3600981
0
ARC
8
DEFAULT_255_2_778
10
9.3469512
20
1.7406943
40
0.5006643
50
306.2852734
51
306.8984524
0
ARC
8
DEFAULT_255_2_778
10
9.8055753
20
1.5795777
40
0.2917821
50
236.1974343
51
259.434257
0
ARC
8
DEFAULT_255_2_778
10
10.0206187
20
2.527731
40
1.2638483
50
257.7321272
51
264.1937592
0
ARC
8
DEFAULT_255_2_778
10
10.373514
20
5.5894716
40
4.3457785
50
263.6486506
51
265.1242996
0
ARC
8
DEFAULT_255_2_778
10
10.1257747
20
2.7538868
40
1.4994093
50
265.3472338
51
267.5726629
0
ARC
8
DEFAULT_255_2_778
10
10.2781313
20
6.0244098
40
4.77347
50
267.4081564
51
268.2617557
0
ARC
8
DEFAULT_255_2_778
10
10.4877354
20
12.9360956
40
11.6883335
50
268.2624786
51
268.9017718
0
ARC
8
DEFAULT_255_2_778
10
10.7593581
20
26.6052428
40
25.3601776
50
268.8801217
51
269.2088518
0
ARC
8
DEFAULT_255_2_778
10
11.2073369
20
59.3791809
40
58.1371771
50
269.2133819
51
269.4197614
0
ARC
8
DEFAULT_255_2_778
10
7.478911
20
-304.5815107
40
305.8426117
50
89.3907629
51
89.4118106
0
ARC
8
DEFAULT_255_2_778
10
10.5185232
20
-18.9277522
40
20.1726818
50
89.2159501
51
89.3966878
0
ARC
8
DEFAULT_255_2_778
10
10.702482
20
-5.2891497
40
6.5328395
50
89.0501078
51
89.1923867
0
ARC
8
DEFAULT_255_2_778
10
10.7400654
20
-2.9777889
40
4.2211734
50
88.9821849
51
89.040071
0
ARC
8
DEFAULT_255_2_778
10
10.8844113
20
5.0048295
40
3.7627503
50
268.9437286
51
269.634417
0
ARC
8
DEFAULT_255_2_778
10
10.8750833
20
3.7830339
40
2.5409205
50
269.6689629
51
269.994931
0
ARC
8
DEFAULT_255_2_778
10
10.8940438
20
2.1419835
40
0.9000746
50
268.7786347
51
278.8900696
0
ARC
8
DEFAULT_255_2_778
10
11.0088154
20
1.4726094
40
0.221229
50
276.3126958
51
346.1791585
0
ARC
8
DEFAULT_255_2_778
10
10.5378927
20
1.6320152
40
0.7178444
50
342.8014878
51
354.176475
0
ARC
8
DEFAULT_255_2_778
10
9.8729681
20
1.7214475
40
1.3885782
50
353.2891271
51
354.9458924
0
ARC
8
DEFAULT_255_2_778
10
9.6978912
20
1.7423745
40
1.5648273
50
354.7473672
51
356.8603796
0
ARC
8
DEFAULT_255_2_778
10
10.530959
20
1.6961483
40
0.7304783
50
356.9019711
51
359.8540709
0
ARC
8
DEFAULT_255_2_778
10
10.9208697
20
1.6995647
40
0.3406062
50
359.1122909
51
12.4831523
0
ARC
8
DEFAULT_255_2_778
10
10.9794006
20
1.7093684
40
0.2813567
50
13.1103184
51
16.5835397
0
ARC
8
DEFAULT_255_2_778
10
10.8171924
20
1.6525237
40
0.4531159
50
17.6184329
51
28.7816124
0
ARC
8
DEFAULT_255_2_778
10
9.1607242
20
0.7785011
40
2.3259771
50
28.0057285
51
30.006512
0
ARC
8
DEFAULT_255_2_778
10
9.5437414
20
2.6822959
40
1.6096694
50
1.3748991
51
7.0958453
0
ARC
8
DEFAULT_255_2_778
10
9.927325
20
2.7269827
40
1.2235074
50
7.2381737
51
15.8008966
0
ARC
8
DEFAULT_255_2_778
10
9.3670237
20
2.5596668
40
1.8082158
50
16.0678961
51
21.6616438
0
ARC
8
DEFAULT_255_2_778
10
6.8099542
20
1.5651616
40
4.5518434
50
21.414876
51
22.92905
0
ARC
8
DEFAULT_255_2_778
10
13.4575342
20
4.3331947
40
2.6492084
50
195.1282799
51
202.0528456
0
ARC
8
DEFAULT_255_2_778
10
-4.1147801
20
-0.7249091
40
15.637004
50
16.2157422
51
16.3551296
0
ARC
8
DEFAULT_255_2_778
10
5.9817092
20
2.2402453
40
5.1141136
50
16.3316316
51
16.9736562
0
ARC
8
DEFAULT_255_2_778
10
1.8159433
20
7.8289526
40
0.1543661
50
90.1043948
51
96.8442481
0
ARC
8
DEFAULT_255_2_778
10
1.8135806
20
7.8428766
40
0.1404574
50
50.0759569
51
89.150917
0
ARC
8
DEFAULT_255_2_778
10
1.5060975
20
7.4474522
40
0.6412923
50
45.2411193
51
51.6811986
0
ARC
8
DEFAULT_255_2_778
10
1.4525438
20
7.8871657
40
0.505346
50
1.7750013
51
22.3452915
0
ARC
8
DEFAULT_255_2_778
10
1.7396751
20
7.9963917
40
0.1984162
50
24.6963693
51
60.1119249
0
ARC
8
DEFAULT_255_2_778
10
3.5779984
20
7.6419692
40
1.8173714
50
163.1614229
51
165.1475062
0
ARC
8
DEFAULT_255_2_778
10
3.3537252
20
7.7195379
40
1.5808048
50
165.7813942
51
170.4458768
0
ARC
8
DEFAULT_255_2_778
10
7.0063476
20
5.2308637
40
5.1367338
50
158.7846167
51
163.3319007
0
ARC
8
DEFAULT_255_2_778
10
1.5262972
20
7.8860232
40
1.3593135
50
283.4238682
51
293.3587476
0
ARC
8
DEFAULT_255_2_778
10
1.6600982
20
7.3257531
40
0.7832879
50
271.6019275
51
283.4182353
0
ARC
8
DEFAULT_255_2_778
10
1.6716155
20
7.1257223
40
0.5830435
50
270.0037108
51
271.0200745
0
ARC
8
DEFAULT_255_2_778
10
1.6487641
20
6.8756275
40
0.3337346
50
217.5563369
51
273.9327138
0
ARC
8
DEFAULT_255_2_778
10
1.670385
20
6.8775462
40
0.3522373
50
204.9220734
51
215.6597155
0
ARC
8
DEFAULT_255_2_778
10
2.7226023
20
7.3738577
40
1.5156272
50
202.5796422
51
205.1756181
0
ARC
8
DEFAULT_255_2_778
10
3.345872
20
7.6137524
40
2.1833056
50
195.7143265
51
202.1122772
0
ARC
8
DEFAULT_255_2_778
10
10.5356002
20
9.7153422
40
9.6738046
50
195.3889807
51
196.1630802
0
ARC
8
DEFAULT_255_2_778
10
-8.6732822
20
4.4074176
40
10.2549588
50
15.5015184
51
15.5138143
0
ARC
8
DEFAULT_255_2_778
10
1.6106189
20
7.5423689
40
0.5619318
50
213.3600225
51
224.2414098
0
ARC
8
DEFAULT_255_2_778
10
1.5175218
20
7.4813071
40
0.4505962
50
197.6560646
51
213.3845943
0
ARC
8
DEFAULT_255_2_778
10
1.4964772
20
7.4727194
40
0.427942
50
179.8504573
51
197.4150167
0
ARC
8
DEFAULT_255_2_778
10
1.5450147
20
7.4734034
40
0.4764783
50
173.3076746
51
179.9479423
0
ARC
8
DEFAULT_255_2_778
10
1.7400941
20
7.436534
40
0.6746678
50
149.8967271
51
172.1284959
0
ARC
8
DEFAULT_255_2_778
10
2.4911705
20
6.979342
40
1.5538643
50
129.1144497
51
149.2028611
0
ARC
8
DEFAULT_255_2_778
10
2.8710103
20
6.5753481
40
2.107325
50
126.3812667
51
130.1978461
0
ARC
8
DEFAULT_255_2_778
10
2.752201
20
6.7379301
40
1.9059599
50
123.2316428
51
126.4048502
0
ARC
8
DEFAULT_255_2_778
10
2.5718068
20
7.0122835
40
1.5776132
50
121.1156801
51
123.21202
0
ARC
8
DEFAULT_255_2_778
10
3.947651
20
7.308453
40
2.4316318
50
154.300878
51
158.8081292
0
ARC
8
DEFAULT_255_2_778
10
2.5752594
20
7.8502733
40
0.9562273
50
159.351643
51
164.1624763
0
ARC
8
DEFAULT_255_2_778
10
2.4211697
20
7.8959806
40
0.7955153
50
164.3007357
51
165.5998982
0
ARC
8
DEFAULT_255_2_778
10
2.733369
20
7.7916384
40
1.1240992
50
164.4059465
51
175.6684434
0
ARC
8
DEFAULT_255_2_778
10
5.063136
20
7.5993505
40
3.4617709
50
175.4073305
51
177.7680368
0
ARC
8
DEFAULT_255_2_778
10
0.6482914
20
7.7112872
40
0.9559738
50
338.0759634
51
1.3716025
0
ARC
8
DEFAULT_255_2_778
10
1.05313
20
7.5871968
40
0.5352956
50
314.1934592
51
334.2153412
0
ARC
8
DEFAULT_255_2_778
10
0.9454098
20
7.6918517
40
0.6854353
50
308.5260659
51
314.5513181
0
ARC
8
DEFAULT_255_2_778
10
-1.126522
20
5.9170247
40
2.7889896
50
26.3152133
51
26.3658549
0
ARC
8
DEFAULT_255_2_778
10
-1.0635303
20
5.9480594
40
2.7187678
50
26.2660782
51
26.3174527
0
ARC
8
DEFAULT_255_2_778
10
-1.0028241
20
5.9776984
40
2.6512132
50
26.2201621
51
26.2722633
0
ARC
8
DEFAULT_255_2_778
10
-0.9432388
20
6.0067475
40
2.5849244
50
26.173211
51
26.2260589
0
ARC
8
DEFAULT_255_2_778
10
-0.5738075
20
6.1878015
40
2.1735125
50
26.1232174
51
26.1853766
0
ARC
8
DEFAULT_255_2_778
10
-1.2680226
20
5.8468075
40
2.9469538
50
26.0875225
51
26.1328639
0
ARC
8
DEFAULT_255_2_778
10
-1.2028961
20
5.8784142
40
2.8745634
50
26.0465773
51
26.0925506
0
ARC
8
DEFAULT_255_2_778
10
-2.7325735
20
5.1311721
40
4.5769979
50
26.0138443
51
26.0424015
0
ARC
8
DEFAULT_255_2_778
10
-2.6261191
20
5.1842921
40
4.4580309
50
25.9713676
51
26.0003664
0
ARC
8
DEFAULT_255_2_778
10
-1.0177885
20
5.9677392
40
2.6690319
50
25.9233335
51
25.9712411
0
ARC
8
DEFAULT_255_2_778
10
-0.5906354
20
6.174892
40
2.1942984
50
25.8768893
51
25.9345271
0
ARC
8
DEFAULT_255_2_778
10
-2.3267182
20
5.332264
40
4.1240667
50
25.8527639
51
25.883098
0
ARC
8
DEFAULT_255_2_778
10
-2.2332427
20
5.3779943
40
4.0200052
50
25.8163864
51
25.847168
0
ARC
8
DEFAULT_255_2_778
10
-2.1405717
20
5.4236317
40
3.9167088
50
25.7745244
51
25.8057756
0
ARC
8
DEFAULT_255_2_778
10
-1.2643963
20
5.8466507
40
2.9437607
50
25.7344489
51
25.7755793
0
ARC
8
DEFAULT_255_2_778
10
-1.2021726
20
5.87592
40
2.875
50
25.7057708
51
25.7474304
0
ARC
8
DEFAULT_255_2_778
10
-3.4097674
20
4.8139122
40
5.3247622
50
25.676639
51
25.6988899
0
ARC
8
DEFAULT_255_2_778
10
-1.080396
20
5.9336384
40
2.7402394
50
25.6367893
51
25.6795617
0
ARC
8
DEFAULT_255_2_778
10
-2.1087356
20
5.4397875
40
3.8810159
50
25.5965469
51
25.6413275
0
ARC
8
DEFAULT_255_2_778
10
-2.6137646
20
5.1984128
40
4.440762
50
25.5515548
51
25.5900626
0
ARC
8
DEFAULT_255_2_778
10
-1.4499599
20
5.7546892
40
3.1508454
50
25.5000533
51
25.5534569
0
ARC
8
DEFAULT_255_2_778
10
-2.3289869
20
5.3350139
40
4.1249171
50
25.4649261
51
25.5050673
0
ARC
8
DEFAULT_255_2_778
10
-1.6763459
20
5.6456112
40
3.402137
50
25.4201688
51
25.4680627
0
ARC
8
DEFAULT_255_2_778
10
-1.5689605
20
5.6961231
40
3.2834658
50
25.3796014
51
25.4284378
0
ARC
8
DEFAULT_255_2_778
10
-2.7060937
20
5.1562715
40
4.5422396
50
25.3493848
51
25.3841279
0
ARC
8
DEFAULT_255_2_778
10
-1.8880722
20
5.543907
40
3.6370211
50
25.3053203
51
25.3480246
0
ARC
8
DEFAULT_255_2_778
10
-1.7756984
20
5.5962421
40
3.5130604
50
25.2735503
51
25.3170642
0
ARC
8
DEFAULT_255_2_778
10
-1.6673647
20
5.6466052
40
3.3935944
50
25.2411959
51
25.2855331
0
ARC
8
DEFAULT_255_2_778
10
-4.4776603
20
4.3213918
40
6.5006754
50
25.2171747
51
25.2437454
0
ARC
8
DEFAULT_255_2_778
10
-3.1313841
20
4.9560479
40
5.0123046
50
25.176583
51
25.2104148
0
ARC
8
DEFAULT_255_2_778
10
-2.9491491
20
5.0415476
40
4.8110095
50
25.1437297
51
25.1783356
0
ARC
8
DEFAULT_255_2_778
10
-2.5334541
20
5.236017
40
4.3520756
50
25.1111605
51
25.1513979
0
ARC
8
DEFAULT_255_2_778
10
31.3177255
20
20.9749344
40
32.9791124
50
204.9126697
51
205.0766578
0
ARC
8
DEFAULT_255_2_778
10
2.5840658
20
7.5257434
40
1.2536707
50
204.9262604
51
208.5349
0
ARC
8
DEFAULT_255_2_778
10
1.7832162
20
7.0839185
40
0.3390923
50
207.5896847
51
222.3723369
0
ARC
8
DEFAULT_255_2_778
10
1.6424939
20
6.9576269
40
0.1500236
50
222.9594771
51
272.3758248
0
ARC
8
DEFAULT_255_2_778
10
1.6449271
20
7.1309779
40
0.3232676
50
270.6710271
51
281.8217176
0
ARC
8
DEFAULT_255_2_778
10
1.5842068
20
7.4371205
40
0.6353651
50
281.5253851
51
287.4365298
0
ARC
8
DEFAULT_255_2_778
10
1.420518
20
7.9649502
40
1.1879915
50
287.3402377
51
291.045201
0
ARC
8
DEFAULT_255_2_778
10
1.2086532
20
8.5298474
40
1.7912975
50
290.8813015
51
291.805645
0
ARC
8
DEFAULT_255_2_778
10
1.4348382
20
7.945677
40
1.1649274
50
292.1496527
51
312.7336279
0
ARC
8
DEFAULT_255_2_778
10
8.7547324
20
6.1649915
40
6.9286943
50
196.7452419
51
211.8680104
0
ARC
8
DEFAULT_255_2_778
10
9.327487
20
6.4709043
40
7.5767465
50
211.5459221
51
213.4410658
0
ARC
8
DEFAULT_255_2_778
10
2.3141434
20
2.410977
40
0.702131
50
326.6343238
51
349.7401584
0
ARC
8
DEFAULT_255_2_778
10
2.6643145
20
2.1986075
40
0.2932721
50
303.3672821
51
323.6592742
0
ARC
8
DEFAULT_255_2_778
10
2.6604036
20
2.2177446
40
0.3114902
50
268.5102821
51
302.0318918
0
ARC
8
DEFAULT_255_2_778
10
2.6573424
20
2.4457354
40
0.5393993
50
256.7042368
51
269.4649803
0
ARC
8
DEFAULT_255_2_778
10
2.7342502
20
2.7771046
40
0.8795747
50
247.5145847
51
256.7929083
0
ARC
8
DEFAULT_255_2_778
10
2.8335897
20
3.0349673
40
1.1558462
50
246.4889847
51
247.8532387
0
ARC
8
DEFAULT_255_2_778
10
3.1334994
20
3.6494296
40
1.8391824
50
233.0214937
51
245.5578568
0
ARC
8
DEFAULT_255_2_778
10
3.4372235
20
4.0918669
40
2.3754393
50
230.4471938
51
233.5883125
0
ARC
8
DEFAULT_255_2_778
10
3.2569462
20
3.8748092
40
2.093281
50
228.019227
51
230.4685628
0
ARC
8
DEFAULT_255_2_778
10
2.8753698
20
3.4522752
40
1.5239532
50
225.3759491
51
228.0578458
0
ARC
8
DEFAULT_255_2_778
10
2.5461304
20
3.1163818
40
1.0536137
50
224.08787
51
225.2879053
0
ARC
8
DEFAULT_255_2_778
10
2.9114587
20
3.493761
40
1.5786754
50
209.4377396
51
224.7005341
0
ARC
8
DEFAULT_255_2_778
10
2.6187299
20
3.3226859
40
1.239672
50
200.9772581
51
209.2011883
0
ARC
8
DEFAULT_255_2_778
10
2.3725661
20
3.2306782
40
0.9768872
50
189.1693246
51
201.1072496
0
ARC
8
DEFAULT_255_2_778
10
2.237714
20
3.2046183
40
0.8396163
50
187.9895053
51
188.8801351
0
ARC
8
DEFAULT_255_2_778
10
2.5370798
20
3.2512121
40
1.1425615
50
185.5578371
51
188.2167788
0
ARC
8
DEFAULT_255_2_778
10
1.8616739
20
3.186422
40
0.4640566
50
180.3825435
51
185.6723947
0
ARC
8
DEFAULT_255_2_778
10
1.5726217
20
3.1885144
40
0.175071
50
160.3971812
51
181.6990273
0
ARC
8
DEFAULT_255_2_778
10
1.5448186
20
3.1942612
40
0.1470035
50
145.9681129
51
158.8714151
0
ARC
8
DEFAULT_255_2_778
10
1.7137942
20
3.0725536
40
0.355208
50
134.7850469
51
144.9527629
0
ARC
8
DEFAULT_255_2_778
10
4.3181169
20
0.5361361
40
3.9905309
50
134.7559653
51
135.6702959
0
ARC
8
DEFAULT_255_2_778
10
-1.3020073
20
6.176365
40
3.9717784
50
315.0401078
51
315.407089
0
ARC
8
DEFAULT_255_2_778
10
14.1586707
20
9.2337639
40
0.4047785
50
23.1531149
51
45.3681425
0
ARC
8
DEFAULT_255_2_778
10
14.7442236
20
9.165766
40
0.3116532
50
124.6907125
51
133.2088159
0
ARC
8
DEFAULT_255_2_778
10
11.711015
20
8.5427812
40
0.507424
50
185.0057964
51
206.1033743
0
ARC
8
DEFAULT_255_2_778
10
11.6112955
20
8.5288949
40
0.4069055
50
180.017771
51
184.2831355
0
ARC
8
DEFAULT_255_2_778
10
11.5977596
20
8.5287916
40
0.3933698
50
178.3790977
51
180.003339
0
ARC
8
DEFAULT_255_2_778
10
10.1797701
20
9.7461245
40
1.5827511
50
293.1868173
51
310.3508079
0
ARC
8
DEFAULT_255_2_778
10
9.9515203
20
9.227482
40
1.2655106
50
312.2830215
51
317.8725858
0
ARC
8
DEFAULT_255_2_778
10
8.4569453
20
10.5892157
40
3.2874038
50
317.7435547
51
320.4800058
0
ARC
8
DEFAULT_255_2_778
10
-0.1507776
20
17.7116867
40
14.4597993
50
320.4134773
51
321.0821903
0
ARC
8
DEFAULT_255_2_778
10
32.0961524
20
-8.4087029
40
27.0388937
50
140.8674314
51
140.9439581
0
ARC
8
DEFAULT_255_2_778
10
14.7915159
20
5.7145285
40
4.7026123
50
138.1299517
51
141.2813282
0
ARC
8
DEFAULT_255_2_778
10
12.308093
20
7.9386399
40
1.3688375
50
131.8627131
51
138.0740271
0
ARC
8
DEFAULT_255_2_778
10
11.7897037
20
8.5141294
40
0.5943015
50
124.4813182
51
131.6683003
0
ARC
8
DEFAULT_255_2_778
10
11.937381
20
8.2026365
40
0.9362685
50
98.3367702
51
121.1371547
0
ARC
8
DEFAULT_255_2_778
10
13.3324669
20
1.502924
40
7.7782177
50
100.9458015
51
101.3505202
0
ARC
8
DEFAULT_255_2_778
10
10.5652582
20
15.8676225
40
6.8505942
50
280.8562404
51
281.6136946
0
ARC
8
DEFAULT_255_2_778
10
11.7263682
20
10.3495888
40
1.2120743
50
280.361288
51
293.9784774
0
ARC
8
DEFAULT_255_2_778
10
11.2298447
20
10.4218373
40
1.5395
50
296.1587123
51
309.977226
0
ARC
8
DEFAULT_255_2_778
10
11.7297954
20
8.5485671
40
0.5229502
50
25.5140463
51
70.0125408
0
ARC
8
DEFAULT_255_2_778
10
11.7337806
20
8.5503187
40
0.5185992
50
6.1990574
51
25.5290373
0
ARC
8
DEFAULT_255_2_778
10
12.7949835
20
6.869967
40
1.8200647
50
96.0771557
51
107.4449566
0
ARC
8
DEFAULT_255_2_778
10
12.7382629
20
7.3580682
40
1.3287103
50
90.544007
51
95.8732867
0
ARC
8
DEFAULT_255_2_778
10
13.4105787
20
6.2682272
40
2.5136093
50
105.8124415
51
110.7282527
0
ARC
8
DEFAULT_255_2_778
10
13.4865689
20
6.060791
40
2.7345148
50
110.6790603
51
112.2238121
0
ARC
8
DEFAULT_255_2_778
10
13.6270811
20
5.7440103
40
3.0809255
50
112.414606
51
126.2927784
0
ARC
8
DEFAULT_255_2_778
10
13.4929305
20
5.9037662
40
2.8727885
50
126.0222462
51
139.3680567
0
ARC
8
DEFAULT_255_2_778
10
12.4121068
20
7.3735568
40
1.1701972
50
142.5869144
51
159.9619176
0
ARC
8
DEFAULT_255_2_778
10
11.7241269
20
8.5472327
40
0.5219355
50
205.4774975
51
242.4409999
0
ARC
8
DEFAULT_255_2_778
10
6.4936411
20
16.2943471
40
6.6069296
50
284.1443447
51
291.4828361
0
ARC
8
DEFAULT_255_2_778
10
-1.603853
20
17.2821578
40
12.2065835
50
322.6987612
51
322.7153924
0
ARC
8
DEFAULT_255_2_778
10
-1.3936891
20
17.1195167
40
11.9408454
50
322.6916005
51
322.7084253
0
ARC
8
DEFAULT_255_2_778
10
-9.3982736
20
23.2205773
40
22.0054522
50
322.6797765
51
322.6888117
0
ARC
8
DEFAULT_255_2_778
10
-8.9918679
20
22.9111701
40
21.4946702
50
322.6697365
51
322.6788908
0
ARC
8
DEFAULT_255_2_778
10
0.3542696
20
15.7822783
40
9.7400378
50
322.6555353
51
322.6755292
0
ARC
8
DEFAULT_255_2_778
10
-8.1942023
20
22.3048164
40
20.492706
50
322.6464471
51
322.6558524
0
ARC
8
DEFAULT_255_2_778
10
0.6839285
20
15.5266089
40
9.3228673
50
322.634588
51
322.65505
0
ARC
8
DEFAULT_255_2_778
10
-116.7524452
20
105.197932
40
157.0802633
50
322.6343375
51
322.6355395
0
ARC
8
DEFAULT_255_2_778
10
38.9408915
20
-13.7845968
40
38.871975
50
142.5244921
51
142.7433668
0
ARC
8
DEFAULT_255_2_778
10
11.0034881
20
7.4516248
40
3.7796037
50
142.5867711
51
145.3231003
0
ARC
8
DEFAULT_255_2_778
10
9.619039
20
8.4214799
40
2.0892958
50
145.59469
51
146.6750359
0
ARC
8
DEFAULT_255_2_778
10
8.9418596
20
8.8469377
40
1.2898314
50
145.9405316
51
162.8857477
0
ARC
8
DEFAULT_255_2_778
10
9.2247654
20
8.7693813
40
1.5830595
50
163.2162219
51
170.4605244
0
ARC
8
DEFAULT_255_2_778
10
9.7729485
20
8.6692007
40
2.1402795
50
170.2477948
51
172.3040503
0
ARC
8
DEFAULT_255_2_778
10
29.0871022
20
12.3309052
40
21.6992413
50
188.629098
51
188.9480801
0
ARC
8
DEFAULT_255_2_778
10
11.7844753
20
9.7101707
40
4.1992693
50
187.1334046
51
188.6969611
0
ARC
8
DEFAULT_255_2_778
10
9.1088756
20
9.3793636
40
1.5033054
50
182.9282106
51
187.2862163
0
ARC
8
DEFAULT_255_2_778
10
8.4860758
20
9.3431539
40
0.8794796
50
180.0533076
51
182.6450219
0
ARC
8
DEFAULT_255_2_778
10
8.2056448
20
9.3471045
40
0.5990673
50
167.7861638
51
180.456103
0
ARC
8
DEFAULT_255_2_778
10
8.2713162
20
9.3248847
40
0.667999
50
155.5771886
51
167.1151235
0
ARC
8
DEFAULT_255_2_778
10
8.8563237
20
9.0659894
40
1.3077186
50
151.0548397
51
155.8467386
0
ARC
8
DEFAULT_255_2_778
10
10.0874887
20
8.3928686
40
2.710871
50
149.0604341
51
151.1988331
0
ARC
8
DEFAULT_255_2_778
10
8.1688702
20
9.0462396
40
0.844643
50
118.7700412
51
129.3397196
0
ARC
8
DEFAULT_255_2_778
10
8.8349606
20
8.1932803
40
1.9267383
50
128.5798942
51
130.5898854
0
ARC
8
DEFAULT_255_2_778
10
7.9626857
20
9.2228018
40
0.5774448
50
131.329564
51
139.5191674
0
ARC
8
DEFAULT_255_2_778
10
8.3495201
20
8.8892076
40
1.0882504
50
139.381804
51
144.7898265
0
ARC
8
DEFAULT_255_2_778
10
9.006606
20
8.4227659
40
1.8940586
50
144.7220102
51
148.5366269
0
ARC
8
DEFAULT_255_2_778
10
9.8618663
20
7.894057
40
2.8995384
50
148.4463434
51
150.5685511
0
ARC
8
DEFAULT_255_2_778
10
11.0565515
20
7.2225184
40
4.270025
50
150.597723
51
152.8704992
0
ARC
8
DEFAULT_255_2_778
10
13.5615051
20
5.9463293
40
7.0813283
50
152.9229816
51
155.3302795
0
ARC
8
DEFAULT_255_2_778
10
17.5522612
20
4.0985622
40
11.4790853
50
155.2632455
51
156.3705988
0
ARC
8
DEFAULT_255_2_778
10
22.6319955
20
1.8702095
40
17.0260878
50
156.3522041
51
156.8830768
0
ARC
8
DEFAULT_255_2_778
10
34.1882559
20
-3.0723571
40
29.5949412
50
156.866395
51
156.8732911
0
ARC
8
DEFAULT_255_2_778
10
16.7859431
20
4.3594557
40
10.6721418
50
156.8708583
51
156.8897946
0
ARC
8
DEFAULT_255_2_778
10
32.9797118
20
-2.5524238
40
28.2793058
50
156.8874795
51
156.8945556
0
ARC
8
DEFAULT_255_2_778
10
21.7075682
20
2.2566476
40
16.0241687
50
156.8939921
51
156.9063576
0
ARC
8
DEFAULT_255_2_778
10
31.866095
20
-2.077052
40
27.0684714
50
156.9023604
51
156.9096088
0
ARC
8
DEFAULT_255_2_778
10
31.3283966
20
-1.8478314
40
26.483953
50
156.9095677
51
156.9169033
0
ARC
8
DEFAULT_255_2_778
10
30.7837566
20
-1.6143916
40
25.8913946
50
156.9195927
51
156.9270225
0
LINE
8
DEFAULT_255_2_778
10
6.963507
20
8.5325302
11
6.9622044
21
8.5294716
0
ARC
8
DEFAULT_255_2_778
10
-26.4246303
20
22.7408975
40
36.2856081
50
336.9373086
51
336.9425064
0
ARC
8
DEFAULT_255_2_778
10
29.2661758
20
-0.9680046
40
24.2418892
50
156.9425072
51
156.9502108
0
ARC
8
DEFAULT_255_2_778
10
19.691115
20
3.1063757
40
13.8360079
50
156.9509147
51
156.9642792
0
ARC
8
DEFAULT_255_2_778
10
19.4289616
20
3.2160033
40
13.5518607
50
156.9571089
51
156.9706193
0
LINE
8
DEFAULT_255_2_778
10
6.9571249
20
8.5175333
11
6.955887
21
8.5146214
0
ARC
8
DEFAULT_255_2_778
10
18.9179885
20
3.4300427
40
12.9978772
50
156.9717266
51
156.9855367
0
ARC
8
DEFAULT_255_2_778
10
18.6724207
20
3.5323653
40
12.7318509
50
156.9773028
51
156.9912626
0
LINE
8
DEFAULT_255_2_778
10
6.9534489
20
8.5088829
11
6.9522483
21
8.5060558
0
ARC
8
DEFAULT_255_2_778
10
28.4657778
20
-0.6292134
40
23.3727426
50
156.9925134
51
157.0036903
0
ARC
8
DEFAULT_255_2_778
10
126.4514458
20
-42.2058474
40
129.8143116
50
157.0070895
51
157.0090722
0
LINE
8
DEFAULT_255_2_778
10
6.9487121
20
8.4977237
11
6.9475595
21
8.4950062
0
LINE
8
DEFAULT_255_2_778
10
6.9475595
20
8.4950062
11
6.9464185
21
8.4923153
0
ARC
8
DEFAULT_255_2_778
10
21.2761445
20
2.4159863
40
15.5647943
50
157.0212756
51
157.0372465
0
ARC
8
DEFAULT_255_2_778
10
20.8318857
20
2.6020043
40
15.0831676
50
157.0294891
51
157.0457261
0
ARC
8
DEFAULT_255_2_778
10
41.1676841
20
-6.0116045
40
37.1679804
50
157.0447017
51
157.0511933
0
ARC
8
DEFAULT_255_2_778
10
40.0444924
20
-5.5354909
40
35.9480447
50
157.0519726
51
157.0585851
0
ARC
8
DEFAULT_255_2_778
10
38.9668312
20
-5.0792924
40
34.7778009
50
157.0586736
51
157.0654075
0
ARC
8
DEFAULT_255_2_778
10
37.9331177
20
-4.6423029
40
33.6555162
50
157.0647743
51
157.0716297
0
ARC
8
DEFAULT_255_2_778
10
34.7104563
20
-3.2807025
40
30.1570166
50
157.0688547
51
157.077646
0
ARC
8
DEFAULT_255_2_778
10
33.6462518
20
-2.8300134
40
29.0013126
50
157.0788509
51
157.0878346
0
ARC
8
DEFAULT_255_2_778
10
228.1062367
20
-85.0191312
40
240.1167711
50
157.0884185
51
157.0893327
0
ARC
8
DEFAULT_255_2_778
10
24.294213
20
1.1195186
40
18.8494938
50
157.0903419
51
157.1037243
0
ARC
8
DEFAULT_255_2_778
10
65.9545751
20
-16.4824322
40
64.0757521
50
157.0978626
51
157.1017313
0
ARC
8
DEFAULT_255_2_778
10
53.6064187
20
-11.2617222
40
50.6693076
50
157.1070275
51
157.1121782
0
ARC
8
DEFAULT_255_2_778
10
30.411311
20
-1.4706376
40
25.4923667
50
157.1098941
51
157.1202768
0
ARC
8
DEFAULT_255_2_778
10
43.8998722
20
-7.1642386
40
40.1333494
50
157.1183903
51
157.1249635
0
ARC
8
DEFAULT_255_2_778
10
-974.3437466
20
421.8233672
40
1064.7876636
50
337.1479969
51
337.1553363
0
ARC
8
DEFAULT_255_2_778
10
-3.7694869
20
12.7894267
40
11.5435532
50
336.6501664
51
337.1713906
0
ARC
8
DEFAULT_255_2_778
10
2.0101472
20
10.3021332
40
5.25144
50
336.5058573
51
336.572318
0
ARC
8
DEFAULT_255_2_778
10
11.8890131
20
7.0491014
40
5.1938499
50
166.2847568
51
167.1001176
0
ARC
8
DEFAULT_255_2_778
10
13.7710886
20
6.5888865
40
7.1313755
50
165.2080947
51
166.2778579
0
ARC
8
DEFAULT_255_2_778
10
15.1071921
20
6.2381715
40
8.5127408
50
164.3088201
51
165.2217401
0
ARC
8
DEFAULT_255_2_778
10
15.4264259
20
6.1496742
40
8.8440121
50
162.8592672
51
164.3161938
0
ARC
8
DEFAULT_255_2_778
10
14.5338807
20
6.4273586
40
7.9092719
50
161.1388849
51
162.875929
0
ARC
8
DEFAULT_255_2_778
10
12.0621089
20
7.2917328
40
5.2908251
50
156.503478
51
161.3435465
0
ARC
8
DEFAULT_255_2_778
10
9.7376675
20
8.2960051
40
2.7587255
50
151.7779321
51
156.3843239
0
ARC
8
DEFAULT_255_2_778
10
8.6069346
20
8.905653
40
1.4741182
50
145.2326913
51
151.873599
0
ARC
8
DEFAULT_255_2_778
10
7.9892554
20
9.3368511
40
0.7208246
50
135.3957196
51
145.3908609
0
ARC
8
DEFAULT_255_2_778
10
8.829014
20
8.4837171
40
1.9178685
50
132.248014
51
134.8661777
0
ARC
8
DEFAULT_255_2_778
10
8.0631314
20
9.3315289
40
0.7753548
50
126.126843
51
132.4756688
0
ARC
8
DEFAULT_255_2_778
10
7.8522155
20
9.6178543
40
0.4197379
50
118.3234893
51
125.9153357
0
ARC
8
DEFAULT_255_2_778
10
7.8412876
20
9.6211022
40
0.4117732
50
96.8765936
51
117.1993207
0
ARC
8
DEFAULT_255_2_778
10
8.026518
20
8.4241632
40
1.6227874
50
95.3481698
51
98.3097472
0
ARC
8
DEFAULT_255_2_778
10
8.597053
20
2.7193956
40
7.3559883
50
95.2812077
51
95.6310914
0
ARC
8
DEFAULT_255_2_778
10
4.3436169
20
48.6503277
40
38.7714685
50
275.2926065
51
275.3667703
0
ARC
8
DEFAULT_255_2_778
10
14.3109818
20
4.7320936
40
4.4971689
50
83.8187611
51
84.601989
0
ARC
8
DEFAULT_255_2_778
10
15.3982102
20
14.4265478
40
5.2581211
50
263.4148345
51
264.8825087
0
ARC
8
DEFAULT_255_2_778
10
15.0172234
20
10.2204733
40
1.0348382
50
265.120208
51
269.7273681
0
ARC
8
DEFAULT_255_2_778
10
15.0132865
20
9.8548807
40
0.6692346
50
269.9154854
51
274.1459715
0
ARC
8
DEFAULT_255_2_778
10
15.0217564
20
9.741201
40
0.55524
50
274.1223499
51
290.2466279
0
ARC
8
DEFAULT_255_2_778
10
14.9666965
20
9.8930436
40
0.7167551
50
290.1755571
51
296.7894426
0
ARC
8
DEFAULT_255_2_778
10
14.4555272
20
10.9025573
40
1.8483077
50
296.82986
51
334.6056757
0
ARC
8
DEFAULT_255_2_778
10
14.5617475
20
10.4646413
40
1.6032343
50
323.3698982
51
347.2172774
0
ARC
8
DEFAULT_255_2_778
10
14.9809211
20
10.1834729
40
1.0993597
50
294.9289412
51
322.0950149
0
ARC
8
DEFAULT_255_2_778
10
14.9164887
20
10.3125912
40
1.2436125
50
289.5700185
51
295.1135422
0
ARC
8
DEFAULT_255_2_778
10
15.1358502
20
9.6866764
40
0.5803856
50
279.5935411
51
289.862811
0
ARC
8
DEFAULT_255_2_778
10
15.1506539
20
9.6078474
40
0.500194
50
269.999596
51
279.4263884
0
ARC
8
DEFAULT_255_2_778
10
15.1535614
20
9.6828886
40
0.5752426
50
258.6725338
51
269.7100586
0
ARC
8
DEFAULT_255_2_778
10
15.3668215
20
10.6285118
40
1.5445101
50
250.865407
51
257.8055474
0
ARC
8
DEFAULT_255_2_778
10
12.4336769
20
1.7283166
40
7.8267777
50
71.9363715
51
72.4484742
0
ARC
8
DEFAULT_255_2_778
10
13.9861205
20
6.6309558
40
2.6842158
50
72.4850838
51
73.8787926
0
ARC
8
DEFAULT_255_2_778
10
11.8591485
20
8.8889658
40
1.4903686
50
146.3777064
51
169.2475232
0
ARC
8
DEFAULT_255_2_778
10
11.6223806
20
9.0054648
40
1.2291762
50
129.8546628
51
144.7883341
0
ARC
8
DEFAULT_255_2_778
10
11.8890805
20
8.6857946
40
1.6454907
50
119.5112498
51
129.8504837
0
ARC
8
DEFAULT_255_2_778
10
12.1625522
20
8.2214892
40
2.184287
50
115.7049192
51
119.7545929
0
ARC
8
DEFAULT_255_2_778
10
11.8572629
20
7.583418
40
2.6841375
50
103.8408654
51
109.2747648
0
ARC
8
DEFAULT_255_2_778
10
11.5069992
20
8.5771475
40
1.6304907
50
109.1833516
51
117.058165
0
ARC
8
DEFAULT_255_2_778
10
11.2005612
20
9.1689084
40
0.964111
50
116.8378027
51
129.8853201
0
ARC
8
DEFAULT_255_2_778
10
10.9608319
20
9.4501442
40
0.5945944
50
129.537649
51
157.1733867
0
ARC
8
DEFAULT_255_2_778
10
11.0368301
20
9.4343056
40
0.6709502
50
158.4445814
51
181.0072588
0
ARC
8
DEFAULT_255_2_778
10
11.4428076
20
9.4261053
40
1.0768298
50
180.191248
51
186.7806743
0
ARC
8
DEFAULT_255_2_778
10
11.8951269
20
9.4787609
40
1.5322028
50
186.7388819
51
191.4150615
0
ARC
8
DEFAULT_255_2_778
10
12.216869
20
9.539238
40
1.8595551
50
191.2795904
51
191.5466556
0
ARC
8
DEFAULT_255_2_778
10
5.6835202
20
6.6756787
40
5.3831606
50
172.3650076
51
175.0858246
0
ARC
8
DEFAULT_255_2_778
10
3.4128699
20
6.9844189
40
3.091624
50
167.4324814
51
172.4450803
0
ARC
8
DEFAULT_255_2_778
10
2.1885267
20
7.2716652
40
1.8341668
50
148.3611339
51
167.868542
0
ARC
8
DEFAULT_255_2_778
10
2.6102717
20
7.0078484
40
2.3316193
50
142.910355
51
148.2782232
0
ARC
8
DEFAULT_255_2_778
10
3.3567432
20
6.4483612
40
3.2644831
50
139.9888589
51
142.9782945
0
ARC
8
DEFAULT_255_2_778
10
4.4823732
20
5.5033088
40
4.7342337
50
137.6387083
51
139.987342
0
ARC
8
DEFAULT_255_2_778
10
5.9854047
20
4.1413347
40
6.7625456
50
136.6242116
51
137.6926822
0
ARC
8
DEFAULT_255_2_778
10
6.1211385
20
1.571154
40
8.8070696
50
124.9973282
51
125.9918637
0
ARC
8
DEFAULT_255_2_778
10
3.7962226
20
4.7697499
40
4.8528001
50
125.9756819
51
127.6793257
0
ARC
8
DEFAULT_255_2_778
10
2.6233696
20
6.2860657
40
2.9358246
50
127.6517601
51
130.4152281
0
ARC
8
DEFAULT_255_2_778
10
2.0159663
20
7.0013662
40
1.9974266
50
130.4522036
51
133.3751937
0
ARC
8
DEFAULT_255_2_778
10
1.489238
20
7.5437204
40
1.2415052
50
132.8956882
51
144.4480397
0
ARC
8
DEFAULT_255_2_778
10
1.239093
20
7.7322624
40
0.9283982
50
144.9387473
51
167.8018106
0
ARC
8
DEFAULT_255_2_778
10
1.7065562
20
7.6250755
40
1.407968
50
167.5578577
51
176.070807
0
ARC
8
DEFAULT_255_2_778
10
2.4998068
20
7.5634163
40
2.2035909
50
175.8846927
51
180.140635
0
ARC
8
DEFAULT_255_2_778
10
3.343972
20
7.5599082
40
3.04775
50
180.0357327
51
181.8268011
0
ARC
8
DEFAULT_255_2_778
10
4.2311117
20
7.588565
40
3.9353524
50
181.8320675
51
183.5059652
0
ARC
8
DEFAULT_255_2_778
10
5.3959649
20
7.6586564
40
5.1023119
50
183.4916662
51
184.643789
0
ARC
8
DEFAULT_255_2_778
10
6.8185546
20
7.7739425
40
6.5295653
50
184.6414526
51
185.5995585
0
LINE
8
DEFAULT_255_2_778
10
11.9882473
20
5.6985186
11
12.3290473
21
5.8626186
0
LINE
8
DEFAULT_255_2_778
10
12.3290473
20
5.8626186
11
11.9805473
21
5.7978186
0
LINE
8
DEFAULT_255_2_778
10
11.6683473
20
5.4556186
11
11.6075473
21
5.0868186
0
LINE
8
DEFAULT_255_2_778
10
11.6075473
20
5.0868186
11
11.7696473
21
5.4879186
0
LINE
8
DEFAULT_255_2_778
10
11.9882473
20
5.6985186
11
11.9882473
21
5.6985186
0
LINE
8
DEFAULT_255_2_778
10
7.4373473
20
11.9221186
11
7.4373473
21
11.9221186
0
LINE
8
DEFAULT_255_2_778
10
7.3738473
20
11.2871186
11
7.3738473
21
11.2871186
0
LINE
8
DEFAULT_255_2_778
10
0.1433473
20
7.7533186
11
0.1433473
21
7.7533186
0
LINE
8
DEFAULT_255_2_778
10
7.7085473
20
2.0669186
11
7.6778473
21
2.3143186
0
LINE
8
DEFAULT_255_2_778
10
7.6720473
20
2.7355186
11
7.7064473
21
3.1720186
0
LINE
8
DEFAULT_255_2_778
10
7.5371473
20
2.7283186
11
7.4982473
21
2.5770186
0
LINE
8
DEFAULT_255_2_778
10
5.6054473
20
2.5526186
11
5.4747473
21
3.2062186
0
LINE
8
DEFAULT_255_2_778
10
7.9488473
20
10.7436186
11
7.9374473
21
10.7433186
0
LINE
8
DEFAULT_255_2_778
10
14.5165473
20
9.5421186
11
14.3313473
21
9.6056186
0
LINE
8
DEFAULT_255_2_778
10
13.9556473
20
9.5824186
11
13.9469473
21
9.5784186
0
LINE
8
DEFAULT_255_2_778
10
13.8088473
20
9.0577186
11
13.8090473
21
9.0569186
0
LINE
8
DEFAULT_255_2_778
10
14.4496473
20
8.9365186
11
14.5025473
21
8.6799186
0
LINE
8
DEFAULT_255_2_778
10
14.5025473
20
8.6799186
11
14.4059473
21
8.6725186
0
LINE
8
DEFAULT_255_2_778
10
14.4059473
20
8.6725186
11
14.3980473
21
8.6717186
0
LINE
8
DEFAULT_255_2_778
10
14.4260473
20
8.5193186
11
14.5255473
21
8.5214186
0
LINE
8
DEFAULT_255_2_778
10
13.3860473
20
4.7474186
11
13.2608473
21
4.3391186
0
LINE
8
DEFAULT_255_2_778
10
11.5577473
20
4.1409186
11
11.0801473
21
4.5643186
0
LINE
8
DEFAULT_255_2_778
10
7.7104473
20
2.0722186
11
7.7085473
21
2.0669186
0
LINE
8
DEFAULT_255_2_778
10
5.6445473
20
2.3008186
11
5.6670473
21
2.1330186
0
LINE
8
DEFAULT_255_2_778
10
1.2884473
20
3.5353186
11
1.8044473
21
4.0460186
0
LINE
8
DEFAULT_255_2_778
10
1.8044473
20
4.0460186
11
2.0126473
21
4.6122186
0
LINE
8
DEFAULT_255_2_778
10
13.5807473
20
4.7026186
11
13.4484473
21
4.2751186
0
LINE
8
DEFAULT_255_2_778
10
11.4331473
20
3.9465186
11
10.9939473
21
4.3698186
0
LINE
8
DEFAULT_255_2_778
10
11.3953473
20
2.7259186
11
11.4148473
21
1.9896186
0
LINE
8
DEFAULT_255_2_778
10
9.4283473
20
1.1755186
11
9.4209473
21
1.1739186
0
LINE
8
DEFAULT_255_2_778
10
11.1749473
20
1.9417186
11
11.1529473
21
2.7209186
0
LINE
8
DEFAULT_255_2_778
10
10.8730473
20
3.7332186
11
10.8727473
21
3.7329186
0
LINE
8
DEFAULT_255_2_778
10
1.7948473
20
7.9819186
11
1.7975473
21
7.9822186
0
LINE
8
DEFAULT_255_2_778
10
2.0854473
20
6.7042186
11
2.0652473
21
6.6381186
0
LINE
8
DEFAULT_255_2_778
10
2.2253473
20
7.0900186
11
2.2177473
21
7.0897186
0
LINE
8
DEFAULT_255_2_778
10
3.0050473
20
2.2955186
11
3.0050473
21
2.2859186
0
LINE
8
DEFAULT_255_2_778
10
1.5263473
20
3.3879186
11
2.0152473
21
3.8827186
0
LINE
8
DEFAULT_255_2_778
10
2.0152473
20
3.8827186
11
2.1224473
21
4.1685186
0
LINE
8
DEFAULT_255_2_778
10
2.1224473
20
4.1685186
11
2.1198473
21
4.1687186
0
LINE
8
DEFAULT_255_2_778
10
14.5668473
20
9.4220186
11
14.5202473
21
9.5236186
0
LINE
8
DEFAULT_255_2_778
10
14.5202473
20
9.5236186
11
14.4409473
21
9.5210186
0
LINE
8
DEFAULT_255_2_778
10
14.4409473
20
9.5210186
11
14.4430473
21
9.5218186
0
LINE
8
DEFAULT_255_2_778
10
11.2529473
20
8.3227186
11
11.2553473
21
8.3195186
0
LINE
8
DEFAULT_255_2_778
10
7.9699473
20
10.0488186
11
8.9132473
21
10.1467186
0
LINE
8
DEFAULT_255_2_778
10
8.9132473
20
10.1467186
11
8.9132473
21
10.1464186
0
LINE
8
DEFAULT_255_2_778
10
14.7314473
20
9.2096186
11
14.7340473
21
9.2093186
0
LINE
8
DEFAULT_255_2_778
10
10.3949473
20
9.1670186
11
10.3949473
21
9.1670186
0
ARC
8
DEFAULT_255_2_778
10
11.5518855
20
8.293235
40
0.2195202
50
185.9181702
51
205.2244077
0
ARC
8
DEFAULT_255_2_778
10
11.5506037
20
8.2929802
40
0.2182189
50
179.998592
51
185.8863218
0
ARC
8
DEFAULT_255_2_778
10
11.5519251
20
8.2930673
40
0.2195403
50
115.7642972
51
180.0213326
0
ARC
8
DEFAULT_255_2_778
10
11.550559
20
8.2928566
40
0.2191404
50
95.7889388
51
115.418689
0
ARC
8
DEFAULT_255_2_778
10
11.5503369
20
8.2939153
40
0.2180648
50
89.9986194
51
95.7589278
0
ARC
8
DEFAULT_255_2_778
10
11.5504134
20
8.2923897
40
0.2195903
50
25.6902125
51
90.0185928
0
ARC
8
DEFAULT_255_2_778
10
11.5475466
20
8.292451
40
0.2221509
50
17.0154615
51
25.3554282
0
ARC
8
DEFAULT_255_2_778
10
13.8295942
20
9.0456694
40
2.181047
50
198.3934963
51
198.4371236
0
ARC
8
DEFAULT_255_2_778
10
12.6231878
20
7.1956296
40
1.4458295
50
126.6321314
51
142.1651599
0
ARC
8
DEFAULT_255_2_778
10
11.5668401
20
8.3048559
40
0.2382586
50
206.3287395
51
248.9591875
0
ARC
8
DEFAULT_255_2_778
10
13.9474287
20
9.127451
40
0.1615658
50
130.1291498
51
175.3378244
0
ARC
8
DEFAULT_255_2_778
10
13.9472138
20
9.1273163
40
0.1615305
50
90.0149633
51
130.0400571
0
ARC
8
DEFAULT_255_2_778
10
13.9471684
20
9.1273149
40
0.1615321
50
84.8039161
51
89.9988639
0
ARC
8
DEFAULT_255_2_778
10
13.9463
20
9.1249349
40
0.1639822
50
39.5193572
51
84.5770577
0
ARC
8
DEFAULT_255_2_778
10
13.9457764
20
9.1249347
40
0.1643866
50
0.0011665
51
39.4033143
0
ARC
8
DEFAULT_255_2_778
10
13.9455698
20
9.1249421
40
0.1645934
50
354.4708573
51
359.9985649
0
ARC
8
DEFAULT_255_2_778
10
13.9474182
20
9.124836
40
0.1627434
50
334.7377061
51
354.445325
0
ARC
8
DEFAULT_255_2_778
10
14.3460594
20
7.6662594
40
1.4117004
50
100.2606828
51
110.7851256
0
ARC
8
DEFAULT_255_2_778
10
14.0061083
20
9.1356601
40
0.2197675
50
180.0173275
51
222.8916883
0
ARC
8
DEFAULT_255_2_778
10
14.0057538
20
9.135591
40
0.219413
50
178.6962669
51
179.9993028
0
ENDSEC
0
EOF