0
SECTION
2
HEADER
9
$MEASUREMENT
70
1
0
ENDSEC
0
SECTION
2
TABLES
0
TABLE
2
LTYPE
0
LTYPE
72
65
70
64
2
CONTINUOUS
3
______
73
0
40
0
0
ENDTAB
0
TABLE
2
LAYER
0
LAYER
2
DEFAULT_255_2_778
70
0
62
255
6
CONTINUOUS
0
ENDTAB
0
ENDSEC
0
SECTION
2
ENTITIES
0
ARC
8
DEFAULT_255_2_778
10
13.0322827
20
4.5049362
40
0.8597547
50
357.6281862
51
358.74407
0
ARC
8
DEFAULT_255_2_778
10
13.0508597
20
4.5037203
40
0.8411436
50
348.5047638
51
357.6585711
0
ARC
8
DEFAULT_255_2_778
10
12.639799
20
4.5522076
40
1.2540937
50
342.7727297
51
350.0767845
0
ARC
8
DEFAULT_255_2_778
10
12.4371333
20
4.6226512
40
1.468548
50
336.0876478
51
342.4894269
0
ARC
8
DEFAULT_255_2_778
10
12.4960571
20
4.5987638
40
1.4050009
50
329.3304115
51
336.0041702
0
ARC
8
DEFAULT_255_2_778
10
12.6206461
20
4.5354371
40
1.2655696
50
321.7362264
51
328.9192192
0
ARC
8
DEFAULT_255_2_778
10
12.9853778
20
4.2475183
40
0.8008907
50
311.1538856
51
321.7500083
0
ARC
8
DEFAULT_255_2_778
10
12.655327
20
4.147005
40
0.8453952
50
329.5516901
51
337.9398615
0
ARC
8
DEFAULT_255_2_778
10
12.3200213
20
4.5827773
40
1.2398402
50
0.4027199
51
5.9728595
0
ARC
8
DEFAULT_255_2_778
10
12.7258611
20
4.627505
40
0.8315525
50
5.8175386
51
14.1929551
0
ARC
8
DEFAULT_255_2_778
10
13.1845191
20
4.7460055
40
0.3578481
50
13.8045432
51
31.8972976
0
ARC
8
DEFAULT_255_2_778
10
13.2965741
20
4.8161341
40
0.2256582
50
31.8136808
51
58.5741819
0
ARC
8
DEFAULT_255_2_778
10
13.3092536
20
4.8230742
40
0.2132466
50
60.5093734
51
91.9947565
0
ARC
8
DEFAULT_255_2_778
10
13.2954806
20
4.7976518
40
0.2386246
50
88.4750499
51
113.7354368
0
ARC
8
DEFAULT_255_2_778
10
13.2935992
20
4.8162663
40
0.2209025
50
115.2322712
51
138.8622324
0
ARC
8
DEFAULT_255_2_778
10
13.327157
20
4.787676
40
0.2649852
50
138.9799657
51
158.9644205
0
ARC
8
DEFAULT_255_2_778
10
13.6248822
20
4.670735
40
0.5848495
50
158.7410542
51
168.374344
0
ARC
8
DEFAULT_255_2_778
10
13.8053158
20
4.640634
40
0.767678
50
168.8876081
51
176.4258066
0
ARC
8
DEFAULT_255_2_778
10
13.417684
20
4.5457823
40
0.7228771
50
180.0000352
51
180.46689
0
ARC
8
DEFAULT_255_2_778
10
13.4154371
20
4.5458692
40
0.7206302
50
160.0547738
51
180.0069481
0
ARC
8
DEFAULT_255_2_778
10
13.2861848
20
4.5959292
40
0.5820616
50
137.0810335
51
160.3467938
0
ARC
8
DEFAULT_255_2_778
10
13.2868583
20
4.5907784
40
0.5860717
50
113.8770559
51
136.7571079
0
ARC
8
DEFAULT_255_2_778
10
13.2885394
20
4.5657917
40
0.6096607
50
90.0094479
51
113.0709794
0
ARC
8
DEFAULT_255_2_778
10
13.2884375
20
4.5681314
40
0.6073211
50
89.1892524
51
89.999872
0
ARC
8
DEFAULT_255_2_778
10
13.3017014
20
4.624559
40
0.5508526
50
90.0025498
51
90.4857976
0
ARC
8
DEFAULT_255_2_778
10
13.3009129
20
4.6162601
40
0.559152
50
72.3841605
51
89.9217091
0
ARC
8
DEFAULT_255_2_778
10
13.2937509
20
4.6038845
40
0.573123
50
55.6382175
51
72.0761627
0
ARC
8
DEFAULT_255_2_778
10
13.308131
20
4.6301609
40
0.5433237
50
38.365911
51
55.3260489
0
ARC
8
DEFAULT_255_2_778
10
13.2405844
20
4.5618223
40
0.6388073
50
24.7032584
51
39.4114978
0
ARC
8
DEFAULT_255_2_778
10
13.1366738
20
4.5126385
40
0.7537643
50
12.0494989
51
24.7987684
0
ARC
8
DEFAULT_255_2_778
10
13.1793516
20
4.5173061
40
0.7110657
50
359.9985291
51
12.399573
0
ARC
8
DEFAULT_255_2_778
10
13.1777418
20
4.5172906
40
0.7126756
50
358.6895374
51
359.999773
0
ARC
8
DEFAULT_255_2_778
10
14.5278456
20
4.403279
40
0.6136083
50
0.0022104
51
0.4960915
0
ARC
8
DEFAULT_255_2_778
10
14.5225746
20
4.4037625
40
0.6188793
50
341.2560116
51
359.9574256
0
ARC
8
DEFAULT_255_2_778
10
14.6503408
20
4.3587143
40
0.4834161
50
318.7209802
51
341.4459603
0
ARC
8
DEFAULT_255_2_778
10
14.6817986
20
4.334662
40
0.4439156
50
293.9259196
51
318.3753159
0
ARC
8
DEFAULT_255_2_778
10
14.6678574
20
4.3731954
40
0.4848004
50
270.0153439
51
293.5850646
0
ARC
8
DEFAULT_255_2_778
10
14.6679886
20
4.3702062
40
0.4818112
50
268.8514599
51
269.9998369
0
ARC
8
DEFAULT_255_2_778
10
14.6542996
20
4.261206
40
0.372736
50
269.9972967
51
270.6196904
0
ARC
8
DEFAULT_255_2_778
10
14.6544897
20
4.2633171
40
0.3748473
50
245.3635126
51
269.9682624
0
ARC
8
DEFAULT_255_2_778
10
14.6317563
20
4.2074711
40
0.3146192
50
214.8713969
51
244.8870999
0
ARC
8
DEFAULT_255_2_778
10
14.6686367
20
4.565828
40
0.3655837
50
143.244895
51
160.8272932
0
ARC
8
DEFAULT_255_2_778
10
14.664993
20
4.5689848
40
0.3607755
50
126.0989091
51
143.3002916
0
ARC
8
DEFAULT_255_2_778
10
14.6599396
20
4.5708693
40
0.3562879
50
108.2723979
51
125.6208337
0
ARC
8
DEFAULT_255_2_778
10
14.6564463
20
4.5834477
40
0.3432489
50
89.9925067
51
108.3770002
0
ARC
8
DEFAULT_255_2_778
10
14.6564912
20
4.5741644
40
0.3525323
50
89.7009984
51
89.9999957
0
ARC
8
DEFAULT_255_2_778
10
14.6666122
20
4.4367904
40
0.4899714
50
66.5200092
51
90.9684343
0
ARC
8
DEFAULT_255_2_778
10
14.6818029
20
4.4804272
40
0.4439088
50
41.6244991
51
66.0742803
0
ARC
8
DEFAULT_255_2_778
10
14.6597894
20
4.4618064
40
0.4727335
50
18.2937022
51
41.5392939
0
ARC
8
DEFAULT_255_2_778
10
14.5136142
20
4.4099006
40
0.6278228
50
359.9674325
51
18.6039745
0
ARC
8
DEFAULT_255_2_778
10
14.5103228
20
4.4094979
40
0.631114
50
359.7543265
51
0.0041616
0
ARC
8
DEFAULT_255_2_778
10
14.2299104
20
4.4367389
40
0.6140564
50
4.8908336
51
12.9157729
0
ARC
8
DEFAULT_255_2_778
10
14.2969858
20
4.4441765
40
0.5470703
50
13.7267623
51
21.3389201
0
ARC
8
DEFAULT_255_2_778
10
-5.4470669
20
-2.8642753
40
21.6002763
50
20.3385136
51
20.3714604
0
ARC
8
DEFAULT_255_2_778
10
14.5934839
20
4.5687135
40
0.2258363
50
22.4326044
51
42.7087259
0
ARC
8
DEFAULT_255_2_778
10
14.5945183
20
4.5693489
40
0.2246453
50
42.7685967
51
62.8780587
0
ARC
8
DEFAULT_255_2_778
10
14.6154735
20
4.591038
40
0.195984
50
65.4408095
51
91.0064854
0
ARC
8
DEFAULT_255_2_778
10
14.6071983
20
4.5869484
40
0.2001018
50
88.6161324
51
114.1814908
0
ARC
8
DEFAULT_255_2_778
10
14.6050523
20
4.5971513
40
0.1899281
50
114.8517281
51
138.6246665
0
ARC
8
DEFAULT_255_2_778
10
14.6567477
20
4.551934
40
0.2586086
50
138.6776778
51
156.5874737
0
ARC
8
DEFAULT_255_2_778
10
14.8021372
20
4.4858398
40
0.4183003
50
156.1926846
51
167.8343674
0
ARC
8
DEFAULT_255_2_778
10
15.1144979
20
4.4146293
40
0.7386626
50
167.5407787
51
174.11298
0
ARC
8
DEFAULT_255_2_778
10
14.9879757
20
4.4107544
40
0.6119576
50
180.3710072
51
187.5553502
0
ARC
8
DEFAULT_255_2_778
10
14.9825815
20
4.4018034
40
0.6054883
50
186.7827855
51
194.8922323
0
ARC
8
DEFAULT_255_2_778
10
14.9313847
20
4.3886853
40
0.5526401
50
194.9420202
51
198.2462304
0
ARC
8
DEFAULT_255_2_778
10
14.9806003
20
4.4048586
40
0.6044451
50
198.2415434
51
203.6287374
0
ARC
8
DEFAULT_255_2_778
10
14.6790785
20
4.2712055
40
0.2746376
50
203.2959159
51
220.8164902
0
ARC
8
DEFAULT_255_2_778
10
14.628183
20
4.2231588
40
0.2047377
50
219.9503957
51
242.1160889
0
ARC
8
DEFAULT_255_2_778
10
14.605316
20
4.191416
40
0.1660726
50
243.9678742
51
272.4208882
0
ARC
8
DEFAULT_255_2_778
10
14.6150957
20
4.2270235
40
0.2015507
50
269.2140283
51
294.2046677
0
ARC
8
DEFAULT_255_2_778
10
14.6141145
20
4.2165049
40
0.1924296
50
295.7554007
51
319.1308776
0
ARC
8
DEFAULT_255_2_778
10
14.5591846
20
4.2638104
40
0.2649215
50
319.1675783
51
336.7164565
0
ARC
8
DEFAULT_255_2_778
10
14.367965
20
4.3443927
40
0.4724235
50
336.9063757
51
347.2452396
0
ARC
8
DEFAULT_255_2_778
10
14.1588537
20
4.3897529
40
0.6863919
50
347.4060466
51
354.6280138
0
ARC
8
DEFAULT_255_2_778
10
15.7764641
20
4.2157081
40
0.3250356
50
295.6046058
51
324.6369027
0
ARC
8
DEFAULT_255_2_778
10
15.7636746
20
4.2493014
40
0.3608693
50
269.9593937
51
295.130815
0
ARC
8
DEFAULT_255_2_778
10
15.7634094
20
4.2527346
40
0.3643023
50
268.9653063
51
270.0014887
0
ARC
8
DEFAULT_255_2_778
10
15.7477795
20
4.3761194
40
0.4877116
50
270.0002248
51
271.0634088
0
ARC
8
DEFAULT_255_2_778
10
15.7478446
20
4.3769014
40
0.4884936
50
246.509294
51
269.9925864
0
ARC
8
DEFAULT_255_2_778
10
15.7330386
20
4.3338934
40
0.4431626
50
221.5782813
51
246.0485059
0
ARC
8
DEFAULT_255_2_778
10
15.7540014
20
4.352488
40
0.471184
50
198.2549186
51
221.5780192
0
ARC
8
DEFAULT_255_2_778
10
15.8950055
20
4.4041402
40
0.6212908
50
180.0027964
51
198.7053019
0
ARC
8
DEFAULT_255_2_778
10
15.8862793
20
4.4041368
40
0.6125645
50
179.5832985
51
180.0025184
0
ARC
8
DEFAULT_255_2_778
10
15.9203268
20
4.4087672
40
0.6465959
50
161.6721534
51
180.0155436
0
ARC
8
DEFAULT_255_2_778
10
15.764821
20
4.4582693
40
0.4834161
50
138.7209802
51
161.4459603
0
ARC
8
DEFAULT_255_2_778
10
15.7340917
20
4.4812834
40
0.44515
50
113.9861915
51
138.3377167
0
ARC
8
DEFAULT_255_2_778
10
15.7477543
20
4.4416188
40
0.486957
50
89.9966526
51
113.5577119
0
ARC
8
DEFAULT_255_2_778
10
15.7477807
20
4.4409881
40
0.4875877
50
88.9364561
51
89.9997575
0
ARC
8
DEFAULT_255_2_778
10
15.7587056
20
4.5799326
40
0.3485643
50
89.9720089
51
90.3081618
0
ARC
8
DEFAULT_255_2_778
10
15.7591184
20
4.5871196
40
0.3413773
50
71.6252692
51
90.0406913
0
ARC
8
DEFAULT_255_2_778
10
15.7655615
20
4.6008692
40
0.3263025
50
52.8909504
51
71.9378751
0
ARC
8
DEFAULT_255_2_778
10
15.7253155
20
4.5438498
40
0.3960634
50
37.5244122
51
53.2245415
0
ARC
8
DEFAULT_255_2_778
10
15.7474834
20
4.5678829
40
0.3638861
50
19.0065233
51
36.6492364
0
ARC
8
DEFAULT_255_2_778
10
15.376549
20
4.4336883
40
0.661773
50
5.0718079
51
12.5416516
0
ARC
8
DEFAULT_255_2_778
10
15.4897103
20
4.4460612
40
0.5487673
50
13.8463682
51
21.231909
0
ARC
8
DEFAULT_255_2_778
10
29.3024954
20
9.5508741
40
14.1772116
50
200.1888757
51
200.2461471
0
ARC
8
DEFAULT_255_2_778
10
15.8129064
20
4.589492
40
0.1958328
50
20.5055494
51
44.22942
0
ARC
8
DEFAULT_255_2_778
10
15.8113762
20
4.6004326
40
0.1895072
50
41.5355034
51
65.5108683
0
ARC
8
DEFAULT_255_2_778
10
15.8081324
20
4.591104
40
0.1993435
50
65.7738182
51
91.3514273
0
ARC
8
DEFAULT_255_2_778
10
15.7983062
20
4.6017568
40
0.1887046
50
88.4438095
51
89.9993431
0
ARC
8
DEFAULT_255_2_778
10
15.7984603
20
4.6004605
40
0.190001
50
90.0458139
51
114.9772117
0
ARC
8
DEFAULT_255_2_778
10
15.8020517
20
4.5981883
40
0.1935908
50
115.6567673
51
138.9621133
0
ARC
8
DEFAULT_255_2_778
10
15.851136
20
4.5564603
40
0.2580118
50
139.1291708
51
157.1161641
0
ARC
8
DEFAULT_255_2_778
10
16.0100306
20
4.4837717
40
0.4326976
50
156.4303341
51
167.7213597
0
ARC
8
DEFAULT_255_2_778
10
16.2288199
20
4.4310206
40
0.6577197
50
167.2844556
51
174.7772209
0
ARC
8
DEFAULT_255_2_778
10
16.2405556
20
4.3901843
40
0.6694814
50
185.2013431
51
192.6131204
0
ARC
8
DEFAULT_255_2_778
10
16.0362089
20
4.3447038
40
0.4601349
50
192.6429575
51
203.2468205
0
ARC
8
DEFAULT_255_2_778
10
15.8553148
20
4.2660224
40
0.2628736
50
203.0515621
51
220.7032084
0
ARC
8
DEFAULT_255_2_778
10
15.8020486
20
4.221691
40
0.1935855
50
221.0375162
51
244.3435042
0
ARC
8
DEFAULT_255_2_778
10
15.7984603
20
4.2194231
40
0.190001
50
245.0227883
51
269.9541861
0
ARC
8
DEFAULT_255_2_778
10
15.7983062
20
4.2181268
40
0.1887047
50
270.0006569
51
271.5561905
0
ARC
8
DEFAULT_255_2_778
10
15.8054627
20
4.213765
40
0.1842844
50
269.368282
51
269.9999303
0
ARC
8
DEFAULT_255_2_778
10
15.8050212
20
4.222367
40
0.1928867
50
270.1310828
51
293.9530434
0
ARC
8
DEFAULT_255_2_778
10
15.7872326
20
4.2281223
40
0.2058397
50
297.8306575
51
319.9203135
0
ARC
8
DEFAULT_255_2_778
10
15.7107478
20
4.2906874
40
0.304648
50
320.178582
51
335.941497
0
ARC
8
DEFAULT_255_2_778
10
15.5633892
20
4.3631142
40
0.4687709
50
335.2006126
51
346.0483093
0
ARC
8
DEFAULT_255_2_778
10
15.3133012
20
4.4311109
40
0.7278975
50
345.6001386
51
352.356325
0
ARC
8
DEFAULT_255_2_778
10
15.4063786
20
4.4138784
40
0.6333724
50
352.7813971
51
357.9801084
0
ARC
8
DEFAULT_255_2_778
10
15.4236494
20
4.4131466
40
0.6160866
50
357.991518
51
359.7717077
0
ARC
8
DEFAULT_255_2_778
10
17.1047632
20
4.5335237
40
0.2755604
50
15.9380101
51
53.4849699
0
ARC
8
DEFAULT_255_2_778
10
17.1061465
20
4.5207121
40
0.2851678
50
55.2402905
51
90.0407671
0
ARC
8
DEFAULT_255_2_778
10
17.105947
20
4.5181191
40
0.2877607
50
90.000675
51
91.4170182
0
ARC
8
DEFAULT_255_2_778
10
17.0948471
20
4.5464765
40
0.2593459
50
89.1198422
51
90.0027166
0
ARC
8
DEFAULT_255_2_778
10
17.0946068
20
4.5501126
40
0.2557101
50
89.9489105
51
110.8410889
0
ARC
8
DEFAULT_255_2_778
10
17.0941262
20
4.563589
40
0.2429833
50
111.8658164
51
132.4802163
0
ARC
8
DEFAULT_255_2_778
10
17.118864
20
4.5395347
40
0.2774371
50
132.8931801
51
150.8220642
0
ARC
8
DEFAULT_255_2_778
10
17.2665979
20
4.4560148
40
0.4471439
50
150.7069639
51
162.2959048
0
ARC
8
DEFAULT_255_2_778
10
17.3517057
20
4.4325529
40
0.5353673
50
162.6737583
51
172.6554741
0
ARC
8
DEFAULT_255_2_778
10
17.5257951
20
4.4088082
40
0.7110649
50
172.5511193
51
179.9126885
0
ARC
8
DEFAULT_255_2_778
10
17.7129339
20
4.4107058
40
0.8982034
50
180.0519232
51
186.1684701
0
ARC
8
DEFAULT_255_2_778
10
17.3779052
20
4.3729466
40
0.5610592
50
186.0111003
51
195.6821685
0
ARC
8
DEFAULT_255_2_778
10
17.2214418
20
4.3275141
40
0.3981422
50
195.4736329
51
208.3437768
0
ARC
8
DEFAULT_255_2_778
10
17.0903894
20
4.2560591
40
0.2488779
50
208.1895022
51
227.8676815
0
ARC
8
DEFAULT_255_2_778
10
17.0780068
20
4.2457559
40
0.2329413
50
228.426294
51
250.0509619
0
ARC
8
DEFAULT_255_2_778
10
17.0930249
20
4.2897929
40
0.2794614
50
250.2370894
51
271.1904527
0
ARC
8
DEFAULT_255_2_778
10
17.0995268
20
4.1897391
40
0.1793487
50
269.7776976
51
270.0741821
0
ARC
8
DEFAULT_255_2_778
10
17.1001343
20
4.2852051
40
0.2748151
50
269.9217563
51
288.2356228
0
ARC
8
DEFAULT_255_2_778
10
17.1051207
20
4.2749457
40
0.263515
50
287.9039222
51
306.4906705
0
ARC
8
DEFAULT_255_2_778
10
17.0737239
20
4.3186355
40
0.3173119
50
306.3569655
51
321.8424154
0
ARC
8
DEFAULT_255_2_778
10
17.1097262
20
4.2902119
40
0.271442
50
321.8649521
51
339.7068309
0
ARC
8
DEFAULT_255_2_778
10
17.1777483
20
4.2621783
40
0.1979378
50
340.4889337
51
341.5671558
0
ARC
8
DEFAULT_255_2_778
10
17.1427364
20
4.2940732
40
0.3771739
50
316.6773294
51
338.034477
0
ARC
8
DEFAULT_255_2_778
10
17.1024815
20
4.3342129
40
0.4340024
50
298.6896585
51
316.468403
0
ARC
8
DEFAULT_255_2_778
10
17.0747232
20
4.3890021
40
0.4953949
50
282.6285263
51
298.4639104
0
ARC
8
DEFAULT_255_2_778
10
17.0446298
20
4.5117133
40
0.6217219
50
270.0461783
51
282.8623378
0
ARC
8
DEFAULT_255_2_778
10
17.0403599
20
4.4647891
40
0.5748171
50
270.0024575
51
270.4755677
0
ARC
8
DEFAULT_255_2_778
10
17.0403152
20
4.4560134
40
0.5660414
50
248.7685392
51
270.0070158
0
ARC
8
DEFAULT_255_2_778
10
17.015754
20
4.3921262
40
0.4975963
50
225.6848642
51
248.740704
0
ARC
8
DEFAULT_255_2_778
10
17.0155008
20
4.386509
40
0.4934147
50
202.0978186
51
225.2502116
0
ARC
8
DEFAULT_255_2_778
10
17.0452089
20
4.4016397
40
0.5266402
50
180.0037812
51
202.4071639
0
ARC
8
DEFAULT_255_2_778
10
17.0461628
20
4.4015907
40
0.5275941
50
179.1201973
51
179.9984537
0
ARC
8
DEFAULT_255_2_778
10
17.073699
20
4.4155679
40
0.5550992
50
158.357993
51
180.6065215
0
ARC
8
DEFAULT_255_2_778
10
17.017601
20
4.434364
40
0.4960339
50
135.003459
51
157.9862718
0
ARC
8
DEFAULT_255_2_778
10
16.9967854
20
4.454445
40
0.4671159
50
110.4956885
51
134.9399582
0
ARC
8
DEFAULT_255_2_778
10
17.0383518
20
4.3562882
40
0.5736313
50
89.9379248
51
110.9518379
0
ARC
8
DEFAULT_255_2_778
10
17.0389933
20
4.3499431
40
0.5799761
50
89.4430497
51
90.0019797
0
ARC
8
DEFAULT_255_2_778
10
17.0447864
20
4.2936955
40
0.6361963
50
77.1634115
51
90.0140062
0
ARC
8
DEFAULT_255_2_778
10
17.0818234
20
4.4510463
40
0.4745509
50
60.6763748
51
77.3025624
0
ARC
8
DEFAULT_255_2_778
10
17.1035163
20
4.4914516
40
0.4286998
50
42.4121059
51
60.5594553
0
ARC
8
DEFAULT_255_2_778
10
17.1328719
20
4.518126
40
0.3890355
50
21.2602013
51
42.4275802
0
ARC
8
DEFAULT_255_2_778
10
17.7097109
20
4.4865163
40
0.9756468
50
347.0993217
51
359.5757298
0
ARC
8
DEFAULT_255_2_778
10
17.3880817
20
4.5576659
40
1.3050448
50
337.2881288
51
347.2070502
0
ARC
8
DEFAULT_255_2_778
10
17.4866123
20
4.5149529
40
1.1976639
50
326.6131674
51
337.3531239
0
ARC
8
DEFAULT_255_2_778
10
17.8096212
20
4.2892133
40
0.8038095
50
312.448183
51
327.3786389
0
ARC
8
DEFAULT_255_2_778
10
17.4878663
20
4.1569866
40
0.854955
50
331.9834723
51
339.0928362
0
ARC
8
DEFAULT_255_2_778
10
17.8866383
20
4.4867186
40
0.5070017
50
3.6156594
51
7.9899778
0
ARC
8
DEFAULT_255_2_778
10
17.7923393
20
4.4734293
40
0.6022327
50
7.9949998
51
11.7133484
0
ARC
8
DEFAULT_255_2_778
10
17.9294822
20
4.5020348
40
0.4621385
50
11.692556
51
21.204833
0
ARC
8
DEFAULT_255_2_778
10
18.1617929
20
4.593975
40
0.2123086
50
20.7493531
51
40.3346033
0
ARC
8
DEFAULT_255_2_778
10
18.1902751
20
4.6176773
40
0.1752563
50
40.4547307
51
63.4792278
0
ARC
8
DEFAULT_255_2_778
10
18.1964493
20
4.625031
40
0.1659346
50
64.2530398
51
89.8269737
0
ARC
8
DEFAULT_255_2_778
10
18.1969458
20
4.6321336
40
0.1588312
50
89.9983377
51
91.7371678
0
ARC
8
DEFAULT_255_2_778
10
18.1888048
20
4.6414147
40
0.1495141
50
88.7252667
51
90.002844
0
ARC
8
DEFAULT_255_2_778
10
18.1888659
20
4.6406787
40
0.1502502
50
90.0261395
51
119.3897721
0
ARC
8
DEFAULT_255_2_778
10
18.2236546
20
4.5842374
40
0.2165158
50
120.0812591
51
140.8989151
0
ARC
8
DEFAULT_255_2_778
10
18.3125542
20
4.5133142
40
0.3302371
50
141.0775021
51
155.7608475
0
ARC
8
DEFAULT_255_2_778
10
18.4888125
20
4.4288587
40
0.5256498
50
155.2542321
51
164.9339765
0
ARC
8
DEFAULT_255_2_778
10
18.4913535
20
4.420487
40
0.5303314
50
164.1319484
51
173.4054401
0
ARC
8
DEFAULT_255_2_778
10
18.2874305
20
4.5376191
40
0.3960965
50
118.9286108
51
146.2128825
0
ARC
8
DEFAULT_255_2_778
10
18.2717666
20
4.5564933
40
0.3720285
50
89.9944907
51
118.2232915
0
ARC
8
DEFAULT_255_2_778
10
18.2717855
20
4.5556771
40
0.3728447
50
89.2707478
51
89.9974178
0
ARC
8
DEFAULT_255_2_778
10
18.2865194
20
4.4773027
40
0.4512996
50
67.8147923
51
91.2682124
0
ARC
8
DEFAULT_255_2_778
10
18.3252453
20
4.5824076
40
0.3393746
50
40.2071487
51
67.1683728
0
ARC
8
DEFAULT_255_2_778
10
18.2804874
20
4.5477155
40
0.3959597
50
16.3518137
51
39.8600499
0
ARC
8
DEFAULT_255_2_778
10
18.0696928
20
4.4850609
40
0.6158678
50
0.0230813
51
16.423852
0
ARC
8
DEFAULT_255_2_778
10
18.0739195
20
4.4853092
40
0.6116411
50
359.4363067
51
359.9999756
0
ARC
8
DEFAULT_255_2_778
10
19.3295881
20
5.202168
40
0.8485796
50
262.8475068
51
270.005857
0
ARC
8
DEFAULT_255_2_778
10
19.3296748
20
5.1488724
40
0.7952838
50
270.0000013
51
270.1625422
0
ARC
8
DEFAULT_255_2_778
10
19.3361091
20
4.8439463
40
0.4903723
50
269.511812
51
270.0026992
0
ARC
8
DEFAULT_255_2_778
10
19.3364935
20
4.8396057
40
0.4860318
50
269.9574073
51
281.9982808
0
ARC
8
DEFAULT_255_2_778
10
19.3903781
20
4.5906179
40
0.2312837
50
281.7636186
51
304.6662042
0
ARC
8
DEFAULT_255_2_778
10
19.4194052
20
4.5428027
40
0.1754776
50
305.7512
51
334.8374597
0
ARC
8
DEFAULT_255_2_778
10
19.3604282
20
4.5656923
40
0.2386302
50
335.884073
51
1.8730067
0
ARC
8
DEFAULT_255_2_778
10
19.3201071
20
4.577935
40
0.2788592
50
359.0870339
51
0.0025921
0
ARC
8
DEFAULT_255_2_778
10
19.3180017
20
4.5779229
40
0.2809647
50
0.0050437
51
0.4687237
0
ARC
8
DEFAULT_255_2_778
10
19.3026726
20
4.5770839
40
0.2963011
50
0.6067086
51
17.5828309
0
ARC
8
DEFAULT_255_2_778
10
19.3921296
20
4.6052893
40
0.2025031
50
17.6212763
51
41.3565594
0
ARC
8
DEFAULT_255_2_778
10
19.4071537
20
4.6145011
40
0.1851637
50
42.2888028
51
67.7616268
0
ARC
8
DEFAULT_255_2_778
10
19.3894564
20
4.564213
40
0.2384237
50
68.3987447
51
91.1116351
0
ARC
8
DEFAULT_255_2_778
10
19.3814964
20
4.6011839
40
0.2014355
50
89.0514923
51
90.0067514
0
ARC
8
DEFAULT_255_2_778
10
19.3816863
20
4.5942323
40
0.2083872
50
90.0587508
51
114.2098502
0
ARC
8
DEFAULT_255_2_778
10
19.3826
20
4.5921819
40
0.210632
50
114.2078061
51
137.5704452
0
ARC
8
DEFAULT_255_2_778
10
19.4660435
20
4.509894
40
0.3277707
50
136.7943987
51
152.1150021
0
ARC
8
DEFAULT_255_2_778
10
19.6377964
20
4.4252658
40
0.5191908
50
152.7249191
51
162.8349933
0
ARC
8
DEFAULT_255_2_778
10
19.6583136
20
4.4149717
40
0.5418455
50
162.4352356
51
172.0843708
0
ARC
8
DEFAULT_255_2_778
10
19.7079425
20
4.4061726
40
0.5922162
50
171.902418
51
173.9558998
0
ARC
8
DEFAULT_255_2_778
10
19.7584445
20
4.4015573
40
0.6429238
50
174.0207738
51
179.6761003
0
ARC
8
DEFAULT_255_2_778
10
19.2420273
20
4.3911962
40
0.1264966
50
179.911404
51
183.015458
0
ARC
8
DEFAULT_255_2_778
10
19.2037108
20
4.389118
40
0.0881237
50
182.9766319
51
187.4499608
0
ARC
8
DEFAULT_255_2_778
10
19.5555097
20
4.570435
40
0.2802686
50
338.2527406
51
1.0542751
0
ARC
8
DEFAULT_255_2_778
10
19.5575113
20
4.572116
40
0.2790419
50
317.1631799
51
337.7798569
0
ARC
8
DEFAULT_255_2_778
10
19.520297
20
4.6114934
40
0.3331234
50
299.3017964
51
316.5486775
0
ARC
8
DEFAULT_255_2_778
10
19.4281669
20
4.7847837
40
0.5293502
50
287.521036
51
298.8182395
0
ARC
8
DEFAULT_255_2_778
10
19.4133633
20
4.8308087
40
0.5776969
50
276.8965013
51
287.5468909
0
ARC
8
DEFAULT_255_2_778
10
19.3759196
20
5.0763401
40
0.8259835
50
271.5969847
51
277.4299622
0
ARC
8
DEFAULT_255_2_778
10
19.377882
20
5.0267799
40
0.776388
50
270.0036098
51
271.5541459
0
ARC
8
DEFAULT_255_2_778
10
19.3761769
20
5.1373857
40
0.8869956
50
261.8303579
51
270.1132989
0
ARC
8
DEFAULT_255_2_778
10
19.355816
20
4.9965642
40
0.7447096
50
252.0277387
51
261.8413584
0
ARC
8
DEFAULT_255_2_778
10
19.6320705
20
4.3711192
40
0.5127894
50
189.3066414
51
201.8835274
0
ARC
8
DEFAULT_255_2_778
10
19.4338664
20
4.2887618
40
0.2981818
50
201.393883
51
221.7284157
0
ARC
8
DEFAULT_255_2_778
10
19.3963225
20
4.2589343
40
0.2503242
50
222.3530089
51
246.4313323
0
ARC
8
DEFAULT_255_2_778
10
19.4081794
20
4.2955402
40
0.288642
50
247.1794945
51
271.459438
0
ARC
8
DEFAULT_255_2_778
10
19.4173809
20
4.2829069
40
0.2759213
50
269.6158412
51
269.9936939
0
ARC
8
DEFAULT_255_2_778
10
19.4171125
20
4.2818778
40
0.2748922
50
270.0496211
51
288.1692833
0
ARC
8
DEFAULT_255_2_778
10
19.4194539
20
4.2760515
40
0.2686267
50
288.0822877
51
306.312305
0
ARC
8
DEFAULT_255_2_778
10
19.4020025
20
4.3004869
40
0.2986515
50
306.2340358
51
322.6238003
0
ARC
8
DEFAULT_255_2_778
10
19.393799
20
4.3068711
40
0.309046
50
322.6064864
51
338.9548883
0
ARC
8
DEFAULT_255_2_778
10
19.4757061
20
4.2848949
40
0.3590187
50
315.1265823
51
337.8084161
0
ARC
8
DEFAULT_255_2_778
10
19.365159
20
4.4034229
40
0.521021
50
299.0598623
51
314.4666333
0
ARC
8
DEFAULT_255_2_778
10
19.4039924
20
4.3339156
40
0.4414015
50
280.6319793
51
299.0360477
0
ARC
8
DEFAULT_255_2_778
10
19.2938317
20
4.8512662
40
0.9702799
50
279.5365219
51
281.388934
0
ARC
8
DEFAULT_255_2_778
10
19.3394432
20
4.5564267
40
0.6719693
50
270.5787633
51
279.8662176
0
ARC
8
DEFAULT_255_2_778
10
19.340052
20
4.4394006
40
0.5549432
50
270.00009
51
270.6379658
0
ARC
8
DEFAULT_255_2_778
10
19.3408515
20
4.4529331
40
0.5684762
50
248.8383091
51
269.9195067
0
ARC
8
DEFAULT_255_2_778
10
19.3143654
20
4.3819912
40
0.4927576
50
225.539774
51
248.7324907
0
ARC
8
DEFAULT_255_2_778
10
19.3102056
20
4.3762312
40
0.4857343
50
201.9338755
51
225.4140993
0
ARC
8
DEFAULT_255_2_778
10
19.3629594
20
4.3986958
40
0.543062
50
180.0139957
51
202.053425
0
ARC
8
DEFAULT_255_2_778
10
19.3608698
20
4.3985625
40
0.5409725
50
179.3614077
51
179.9999275
0
ARC
8
DEFAULT_255_2_778
10
19.3626561
20
4.4098839
40
0.542751
50
179.9979081
51
180.5586664
0
ARC
8
DEFAULT_255_2_778
10
19.3649163
20
4.4099276
40
0.5450113
50
157.988727
51
180.0025174
0
ARC
8
DEFAULT_255_2_778
10
19.3177547
20
4.4283619
40
0.4943785
50
134.8274032
51
157.9209276
0
ARC
8
DEFAULT_255_2_778
10
19.2927195
20
4.4607975
40
0.4537537
50
110.2549307
51
135.4727103
0
ARC
8
DEFAULT_255_2_778
10
19.3408515
20
4.3563505
40
0.5684763
50
90.0804933
51
111.1616909
0
ARC
8
DEFAULT_255_2_778
10
19.340052
20
4.369883
40
0.5549431
50
89.3620342
51
89.99991
0
ARC
8
DEFAULT_255_2_778
10
19.3432419
20
4.0699238
40
0.8548733
50
82.202072
51
89.7996702
0
ARC
8
DEFAULT_255_2_778
10
19.3632225
20
4.2133665
40
0.7100462
50
72.9737572
51
82.2289883
0
ARC
8
DEFAULT_255_2_778
10
19.4178003
20
4.3900025
40
0.5251712
50
60.8348828
51
73.0244801
0
ARC
8
DEFAULT_255_2_778
10
19.5195518
20
4.5648573
40
0.3229187
50
42.4215529
51
61.4806925
0
ARC
8
DEFAULT_255_2_778
10
19.5333228
20
4.578961
40
0.3032409
50
21.8237921
51
42.2096097
0
ARC
8
DEFAULT_255_2_778
10
19.516641
20
4.577478
40
0.3193149
50
359.2847241
51
20.9580247
0
LINE
8
DEFAULT_255_2_778
10
13.8918309
20
4.5025918
11
13.8918309
21
4.4860918
0
LINE
8
DEFAULT_255_2_778
10
13.5124309
20
3.6444918
11
13.3841309
21
3.7185918
0
LINE
8
DEFAULT_255_2_778
10
13.4388309
20
3.8294918
11
13.4830309
21
3.9548918
0
LINE
8
DEFAULT_255_2_778
10
13.4830309
20
3.9548918
11
13.5172309
21
4.0892918
0
LINE
8
DEFAULT_255_2_778
10
13.5172309
20
4.0892918
11
13.5410309
21
4.2262918
0
LINE
8
DEFAULT_255_2_778
10
13.5410309
20
4.2262918
11
13.5552309
21
4.3604918
0
LINE
8
DEFAULT_255_2_778
10
13.5552309
20
4.3604918
11
13.5603309
21
4.4858918
0
LINE
8
DEFAULT_255_2_778
10
13.5603309
20
4.4858918
11
13.5598309
21
4.5914918
0
LINE
8
DEFAULT_255_2_778
10
13.0391309
20
4.6884918
11
13.0361309
21
4.5932918
0
LINE
8
DEFAULT_255_2_778
10
13.0361309
20
4.5932918
11
13.0361309
21
4.3527918
0
LINE
8
DEFAULT_255_2_778
10
13.0361309
20
4.3527918
11
13.4079309
21
4.3527918
0
LINE
8
DEFAULT_255_2_778
10
13.4079309
20
4.3527918
11
13.4079309
21
4.2106918
0
LINE
8
DEFAULT_255_2_778
10
13.4079309
20
4.2106918
11
13.0361309
21
4.2106918
0
LINE
8
DEFAULT_255_2_778
10
13.0361309
20
4.2106918
11
13.0361309
21
3.9087918
0
LINE
8
DEFAULT_255_2_778
10
13.0361309
20
3.9087918
11
12.6948309
21
3.9087918
0
LINE
8
DEFAULT_255_2_778
10
12.6948309
20
3.9087918
11
12.6948309
21
4.5398918
0
LINE
8
DEFAULT_255_2_778
10
13.8902309
20
4.5009918
11
13.8918309
21
4.5025918
0
LINE
8
DEFAULT_255_2_778
10
14.3736309
20
4.0275918
11
14.3736309
21
3.4486918
0
LINE
8
DEFAULT_255_2_778
10
14.3736309
20
3.4486918
11
14.0820309
21
3.4486918
0
LINE
8
DEFAULT_255_2_778
10
14.0820309
20
3.4486918
11
14.0820309
21
4.9022918
0
LINE
8
DEFAULT_255_2_778
10
14.0820309
20
4.9022918
11
14.1940309
21
4.9022918
0
LINE
8
DEFAULT_255_2_778
10
14.1940309
20
4.9022918
11
14.3233309
21
4.6858918
0
LINE
8
DEFAULT_255_2_778
10
15.1414309
20
4.4067918
11
15.1414309
21
4.4085918
0
LINE
8
DEFAULT_255_2_778
10
14.8456309
20
4.4085918
11
14.8417309
21
4.4890918
0
LINE
8
DEFAULT_255_2_778
10
14.3797309
20
4.4903918
11
14.3760309
21
4.4067918
0
LINE
8
DEFAULT_255_2_778
10
14.8422309
20
4.3254918
11
14.8459309
21
4.4064918
0
LINE
8
DEFAULT_255_2_778
10
14.8459309
20
4.4064918
11
14.8456309
21
4.4085918
0
LINE
8
DEFAULT_255_2_778
10
16.3328309
20
3.9085918
11
16.0415309
21
3.9085918
0
LINE
8
DEFAULT_255_2_778
10
16.0415309
20
3.9085918
11
16.0415309
21
4.0275918
0
LINE
8
DEFAULT_255_2_778
10
16.0915309
20
4.6863918
11
16.2177309
21
4.9030918
0
LINE
8
DEFAULT_255_2_778
10
16.2177309
20
4.9030918
11
16.3297309
21
4.9030918
0
LINE
8
DEFAULT_255_2_778
10
16.3297309
20
4.9030918
11
16.3328309
21
3.9085918
0
LINE
8
DEFAULT_255_2_778
10
16.0397309
20
4.4085918
11
16.0357309
21
4.4921918
0
LINE
8
DEFAULT_255_2_778
10
15.5738309
20
4.4908918
11
15.5698309
21
4.4104918
0
LINE
8
DEFAULT_255_2_778
10
15.5698309
20
4.4104918
11
15.5738309
21
4.3294918
0
LINE
8
DEFAULT_255_2_778
10
16.0397309
20
4.4106918
11
16.0397309
21
4.4085918
0
LINE
8
DEFAULT_255_2_778
10
17.4957309
20
4.6591918
11
17.3697309
21
4.6091918
0
LINE
8
DEFAULT_255_2_778
10
17.3655309
20
4.1995918
11
17.4925309
21
4.1529918
0
LINE
8
DEFAULT_255_2_778
10
17.4954309
20
4.6591918
11
17.4957309
21
4.6591918
0
LINE
8
DEFAULT_255_2_778
10
18.3521309
20
3.6960918
11
18.2426309
21
3.7553918
0
LINE
8
DEFAULT_255_2_778
10
18.2865309
20
3.8518918
11
18.3238309
21
3.9653918
0
LINE
8
DEFAULT_255_2_778
10
18.3238309
20
3.9653918
11
18.3540309
21
4.0889918
0
LINE
8
DEFAULT_255_2_778
10
18.3540309
20
4.0889918
11
18.3765309
21
4.2151918
0
LINE
8
DEFAULT_255_2_778
10
18.3765309
20
4.2151918
11
18.3902309
21
4.3368918
0
LINE
8
DEFAULT_255_2_778
10
18.3902309
20
4.3368918
11
18.3953309
21
4.4466918
0
LINE
8
DEFAULT_255_2_778
10
18.3953309
20
4.4466918
11
18.3926309
21
4.5186918
0
LINE
8
DEFAULT_255_2_778
10
17.9645309
20
4.4813918
11
17.9592309
21
4.4072918
0
LINE
8
DEFAULT_255_2_778
10
17.9592309
20
4.4072918
11
17.9592309
21
3.9079918
0
LINE
8
DEFAULT_255_2_778
10
17.9592309
20
3.9079918
11
17.6669309
21
3.9079918
0
LINE
8
DEFAULT_255_2_778
10
17.6669309
20
3.9079918
11
17.6669309
21
5.2708918
0
LINE
8
DEFAULT_255_2_778
10
17.6669309
20
5.2708918
11
17.9582309
21
5.2708918
0
LINE
8
DEFAULT_255_2_778
10
17.9582309
20
5.2708918
11
17.9582309
21
4.7578918
0
LINE
8
DEFAULT_255_2_778
10
18.6855309
20
4.4792918
11
18.6853309
21
4.4792918
0
LINE
8
DEFAULT_255_2_778
10
19.1171309
20
4.3789918
11
19.2239309
21
4.3601918
0
LINE
8
DEFAULT_255_2_778
10
19.1155309
20
4.4051918
11
19.1155309
21
4.3913918
0
LINE
8
DEFAULT_255_2_778
10
19.1163309
20
4.3776918
11
19.1171309
21
4.3789918
0
LINE
8
DEFAULT_255_2_778
10
19.6822309
20
4.1958918
11
19.8081309
21
4.1492918
0
LINE
8
DEFAULT_255_2_778
10
19.8359309
20
4.5734918
11
19.8357309
21
4.5755918
0
ARC
8
DEFAULT_255_2_778
10
14.1690222
20
1.7845234
40
1.6478091
50
90.0019279
51
90.2093602
0
ARC
8
DEFAULT_255_2_778
10
14.1686731
20
1.8126431
40
1.6196894
50
75.8690939
51
89.9896129
0
ARC
8
DEFAULT_255_2_778
10
14.3201934
20
2.3828734
40
1.0297511
50
55.3141112
51
76.2986627
0
ARC
8
DEFAULT_255_2_778
10
14.4670613
20
2.6067137
40
0.7621404
50
27.4653024
51
54.8167906
0
ARC
8
DEFAULT_255_2_778
10
14.4374035
20
2.5986359
40
0.7922078
50
4.1406821
51
26.9943842
0
ARC
8
DEFAULT_255_2_778
10
14.0922527
20
2.5562626
40
1.1396494
50
359.9225188
51
5.0125215
0
ARC
8
DEFAULT_255_2_778
10
14.4385553
20
2.5498072
40
0.793361
50
334.3610941
51
0.3549077
0
ARC
8
DEFAULT_255_2_778
10
14.2228359
20
2.6511103
40
1.031676
50
314.4964042
51
334.4728702
0
ARC
8
DEFAULT_255_2_778
10
14.1296422
20
2.7476497
40
1.1658539
50
296.3824022
51
314.4380958
0
ARC
8
DEFAULT_255_2_778
10
14.1241449
20
2.7418456
40
1.1631213
50
278.6064017
51
296.7520487
0
ARC
8
DEFAULT_255_2_778
10
17.1694696
20
3.0792512
40
3.1945512
50
227.1496611
51
235.8376269
0
ARC
8
DEFAULT_255_2_778
10
15.5315542
20
1.6635913
40
1.7065967
50
213.5336641
51
226.0022664
0
ARC
8
DEFAULT_255_2_778
10
15.8975115
20
1.9140998
40
2.1500425
50
206.8996437
51
213.7108655
0
ARC
8
DEFAULT_255_2_778
10
17.0075011
20
2.4961355
40
3.4033032
50
204.7534843
51
207.1836237
0
ARC
8
DEFAULT_255_2_778
10
15.7164513
20
1.8855382
40
1.9752608
50
193.8217205
51
204.3499291
0
ARC
8
DEFAULT_255_2_778
10
16.4770958
20
2.0909141
40
2.7630013
50
191.1877989
51
194.1889679
0
ARC
8
DEFAULT_255_2_778
10
13.5153921
20
2.5670368
40
0.8783996
50
359.1771058
51
14.4256427
0
ARC
8
DEFAULT_255_2_778
10
13.9246835
20
2.6771259
40
0.4546103
50
13.8390662
51
44.8287195
0
ARC
8
DEFAULT_255_2_778
10
13.9144851
20
2.6378618
40
0.4899596
50
47.2450618
51
79.175695
0
ARC
8
DEFAULT_255_2_778
10
13.8160569
20
2.2159901
40
0.9229749
50
78.0923656
51
90.5559633
0
ARC
8
DEFAULT_255_2_778
10
13.8204637
20
2.4169721
40
0.578405
50
268.6762104
51
293.9272341
0
ARC
8
DEFAULT_255_2_778
10
13.8648368
20
2.2942754
40
0.4483505
50
295.1034023
51
297.8953307
0
ARC
8
DEFAULT_255_2_778
10
13.8220338
20
2.3782174
40
0.5425665
50
297.7428974
51
323.5571206
0
ARC
8
DEFAULT_255_2_778
10
13.7039146
20
2.4460284
40
0.6780484
50
324.8767009
51
346.1330155
0
ARC
8
DEFAULT_255_2_778
10
13.3193176
20
2.5492042
40
1.0761939
50
345.7074794
51
359.9999632
0
ARC
8
DEFAULT_255_2_778
10
13.3253313
20
2.5492034
40
1.0701801
50
0.0000024
51
0.2525979
0
ARC
8
DEFAULT_255_2_778
10
17.1193903
20
1.9254949
40
1.7439609
50
345.0337116
51
0.434549
0
ARC
8
DEFAULT_255_2_778
10
17.4071589
20
1.8576081
40
1.4484485
50
336.7921659
51
344.6882806
0
ARC
8
DEFAULT_255_2_778
10
17.4325754
20
1.836329
40
1.4167354
50
312.6864021
51
337.1780436
0
ARC
8
DEFAULT_255_2_778
10
17.3681353
20
1.9258776
40
1.5263082
50
289.240307
51
312.1854674
0
ARC
8
DEFAULT_255_2_778
10
17.2385242
20
2.2824589
40
1.9056898
50
270.243538
51
289.3866382
0
ARC
8
DEFAULT_255_2_778
10
17.2194355
20
2.6195276
40
2.2429061
50
269.9991219
51
270.6945673
0
ARC
8
DEFAULT_255_2_778
10
17.2045863
20
2.3177204
40
1.9411554
50
251.9869946
51
270.4372839
0
ARC
8
DEFAULT_255_2_778
10
17.1456615
20
2.0983281
40
1.7143355
50
250.2514983
51
251.5923932
0
ARC
8
DEFAULT_255_2_778
10
17.0703517
20
1.9275349
40
1.5281977
50
227.8289016
51
250.7453106
0
ARC
8
DEFAULT_255_2_778
10
17.0046982
20
1.8361686
40
1.4164625
50
202.8195618
51
227.3159948
0
ARC
8
DEFAULT_255_2_778
10
17.1382242
20
1.8942094
40
1.5620485
50
183.6539443
51
202.8823802
0
ARC
8
DEFAULT_255_2_778
10
17.5524092
20
1.9373168
40
1.9782085
50
179.9593146
51
184.1354284
0
ARC
8
DEFAULT_255_2_778
10
17.3871849
20
1.952036
40
1.8130327
50
166.2359504
51
180.42077
0
ARC
8
DEFAULT_255_2_778
10
17.0350308
20
2.0301054
40
1.4524383
50
157.0255733
51
165.9220085
0
ARC
8
DEFAULT_255_2_778
10
16.9879444
20
2.0602618
40
1.3973478
50
132.6619876
51
157.4104157
0
ARC
8
DEFAULT_255_2_778
10
17.0555504
20
1.9650697
40
1.5132356
50
109.0395693
51
132.1018333
0
ARC
8
DEFAULT_255_2_778
10
17.1890691
20
1.5953004
40
1.9063409
50
91.7415783
51
109.2075126
0
ARC
8
DEFAULT_255_2_778
10
17.218773
20
1.1892441
40
2.3131775
50
89.9893953
51
92.1713159
0
ARC
8
DEFAULT_255_2_778
10
17.2326173
20
1.4869307
40
2.0155355
50
74.7859592
51
90.3813856
0
ARC
8
DEFAULT_255_2_778
10
17.2891757
20
1.7327178
40
1.7635482
50
70.5399433
51
74.4635149
0
ARC
8
DEFAULT_255_2_778
10
17.3871517
20
1.9720109
40
1.5053375
50
47.836822
51
71.0217605
0
ARC
8
DEFAULT_255_2_778
10
17.4475255
20
2.0580716
40
1.4010812
50
22.6230774
51
47.3045167
0
ARC
8
DEFAULT_255_2_778
10
17.2966572
20
1.9941244
40
1.5649398
50
4.5384211
51
22.659422
0
ARC
8
DEFAULT_255_2_778
10
16.8309833
20
1.9410216
40
2.0334191
50
359.9351906
51
4.9917574
0
ARC
8
DEFAULT_255_2_778
10
16.2080906
20
2.0662146
40
1.8087109
50
4.8590613
51
13.8120299
0
ARC
8
DEFAULT_255_2_778
10
16.7293783
20
2.2006367
40
1.2704196
50
13.5376298
51
25.712804
0
ARC
8
DEFAULT_255_2_778
10
17.2021903
20
2.4317036
40
0.744181
50
25.4778046
51
45.1092694
0
ARC
8
DEFAULT_255_2_778
10
17.2728402
20
2.4936031
40
0.6504973
50
45.670016
51
68.4003023
0
ARC
8
DEFAULT_255_2_778
10
17.2385423
20
2.382501
40
0.7664764
50
69.0737906
51
89.8182984
0
ARC
8
DEFAULT_255_2_778
10
17.2178791
20
2.0738547
40
1.0753669
50
88.7694553
51
90.0041559
0
ARC
8
DEFAULT_255_2_778
10
17.2045445
20
2.3127875
40
0.836539
50
89.0919953
51
106.9153429
0
ARC
8
DEFAULT_255_2_778
10
17.1442188
20
2.5438811
40
0.5979669
50
107.8278447
51
111.97058
0
ARC
8
DEFAULT_255_2_778
10
17.1599833
20
2.48625
40
0.6573475
50
111.3654968
51
133.8850336
0
ARC
8
DEFAULT_255_2_778
10
17.2060526
20
2.4500063
40
0.715451
50
134.5320396
51
154.8361857
0
ARC
8
DEFAULT_255_2_778
10
17.7276862
20
2.2048955
40
1.2918021
50
154.8341436
51
166.7251924
0
ARC
8
DEFAULT_255_2_778
10
18.2857098
20
2.0673782
40
1.8665011
50
166.5499597
51
175.2197603
0
ARC
8
DEFAULT_255_2_778
10
18.2172503
20
1.8110238
40
1.7980707
50
184.8813429
51
193.8558612
0
ARC
8
DEFAULT_255_2_778
10
17.7313419
20
1.6878883
40
1.2968171
50
193.7150539
51
205.5868039
0
ARC
8
DEFAULT_255_2_778
10
17.2291606
20
1.4453658
40
0.7391459
50
205.4428038
51
225.1964944
0
ARC
8
DEFAULT_255_2_778
10
17.1634999
20
1.3829081
40
0.6485658
50
225.4240227
51
248.2720733
0
ARC
8
DEFAULT_255_2_778
10
17.1991453
20
1.485555
40
0.7571315
50
248.6418955
51
269.8395022
0
ARC
8
DEFAULT_255_2_778
10
17.2175302
20
1.7539004
40
1.0256789
50
268.8544403
51
270.0039588
0
ARC
8
DEFAULT_255_2_778
10
17.2302894
20
1.4726205
40
0.7445072
50
269.0234843
51
289.0700102
0
ARC
8
DEFAULT_255_2_778
10
17.2780806
20
1.3071135
40
0.5725379
50
289.961363
51
293.3387675
0
ARC
8
DEFAULT_255_2_778
10
17.2471344
20
1.3909076
40
0.6617529
50
292.924698
51
315.2253345
0
ARC
8
DEFAULT_255_2_778
10
17.1068267
20
1.5191526
40
0.8517161
50
315.748895
51
333.2066726
0
ARC
8
DEFAULT_255_2_778
10
16.7265327
20
1.7006254
40
1.2730192
50
333.6314128
51
345.8267925
0
ARC
8
DEFAULT_255_2_778
10
16.1245114
20
1.8568048
40
1.8949603
50
345.7053064
51
354.1791634
0
ARC
8
DEFAULT_255_2_778
10
15.3199931
20
1.9453212
40
2.7043153
50
354.0421405
51
359.8665284
0
ARC
8
DEFAULT_255_2_778
10
21.9152863
20
1.9287099
40
2.7801493
50
350.474267
51
357.9760246
0
ARC
8
DEFAULT_255_2_778
10
22.2447605
20
1.8535936
40
2.4428652
50
341.8893527
51
350.9329389
0
ARC
8
DEFAULT_255_2_778
10
21.6573905
20
1.9300265
40
3.0182698
50
321.7013402
51
328.9539008
0
ARC
8
DEFAULT_255_2_778
10
22.4787471
20
1.2792652
40
1.9703611
50
311.3624362
51
321.749813
0
ARC
8
DEFAULT_255_2_778
10
21.6293782
20
1.0667013
40
2.1384766
50
329.4340286
51
337.4530056
0
ARC
8
DEFAULT_255_2_778
10
21.8373515
20
2.1623562
40
2.0536865
50
5.9157526
51
14.0843634
0
ARC
8
DEFAULT_255_2_778
10
23.0125995
20
2.4660896
40
0.8398988
50
13.4972922
51
32.125035
0
ARC
8
DEFAULT_255_2_778
10
23.2610046
20
2.6231362
40
0.5460154
50
32.0298589
51
58.6470526
0
ARC
8
DEFAULT_255_2_778
10
23.3004783
20
2.6655946
40
0.4893562
50
60.0074747
51
88.4917314
0
ARC
8
DEFAULT_255_2_778
10
23.2739867
20
2.4103949
40
0.7454269
50
86.9723414
51
90.0296418
0
ARC
8
DEFAULT_255_2_778
10
23.2601823
20
2.5703117
40
0.5856635
50
88.6871125
51
111.7028274
0
ARC
8
DEFAULT_255_2_778
10
23.2085716
20
2.72611
40
0.4219346
50
113.0148229
51
115.4432997
0
ARC
8
DEFAULT_255_2_778
10
23.2536941
20
2.6226053
40
0.5347988
50
115.0445994
51
138.6217864
0
ARC
8
DEFAULT_255_2_778
10
23.3447061
20
2.5511985
40
0.6503259
50
139.2015524
51
158.8709346
0
ARC
8
DEFAULT_255_2_778
10
23.9932678
20
2.2958383
40
1.3473423
50
158.6835921
51
168.7747234
0
ARC
8
DEFAULT_255_2_778
10
24.4307234
20
2.2080143
40
1.7935257
50
168.7432337
51
176.5219201
0
ARC
8
DEFAULT_255_2_778
10
23.5511757
20
1.9705349
40
1.7431358
50
160.7295486
51
180.4803406
0
ARC
8
DEFAULT_255_2_778
10
23.4056188
20
2.010862
40
1.5924564
50
159.6969438
51
160.3708216
0
ARC
8
DEFAULT_255_2_778
10
23.2856177
20
2.0672465
40
1.4603895
50
137.6514702
51
160.1380379
0
ARC
8
DEFAULT_255_2_778
10
23.2019948
20
2.1319248
40
1.3550441
50
113.378844
51
137.2907721
0
ARC
8
DEFAULT_255_2_778
10
23.2299271
20
2.0620022
40
1.4303116
50
91.6402255
51
113.2944458
0
ARC
8
DEFAULT_255_2_778
10
23.2597171
20
1.6978152
40
1.7953064
50
89.9877459
51
92.257892
0
ARC
8
DEFAULT_255_2_778
10
23.2704555
20
2.1596495
40
1.3335122
50
89.9989315
51
90.444892
0
ARC
8
DEFAULT_255_2_778
10
23.270678
20
2.1615912
40
1.3315707
50
72.2285514
51
90.0085045
0
ARC
8
DEFAULT_255_2_778
10
23.2608784
20
2.1369198
40
1.3580571
50
55.4175041
51
72.152537
0
ARC
8
DEFAULT_255_2_778
10
23.215471
20
2.0848854
40
1.426692
50
39.4140919
51
55.1022445
0
ARC
8
DEFAULT_255_2_778
10
23.0982141
20
1.9894764
40
1.5778594
50
25.0205523
51
39.3872953
0
ARC
8
DEFAULT_255_2_778
10
22.8702233
20
1.890429
40
1.8263583
50
12.1306074
51
24.8111531
0
ARC
8
DEFAULT_255_2_778
10
22.9336561
20
1.900798
40
1.7621658
50
359.9863006
51
12.2344051
0
ARC
8
DEFAULT_255_2_778
10
22.9077185
20
1.900391
40
1.7881034
50
358.9146619
51
359.9995393
0
LINE
8
DEFAULT_255_2_778
10
13.5158011
20
0.4372215
11
12.6903011
21
0.4372215
0
LINE
8
DEFAULT_255_2_778
10
12.6903011
20
0.4372215
11
12.6903011
21
3.4323215
0
LINE
8
DEFAULT_255_2_778
10
12.6903011
20
3.4323215
11
14.1630011
21
3.4323215
0
LINE
8
DEFAULT_255_2_778
10
14.2982011
20
1.5918215
11
14.4678011
21
1.3318215
0
LINE
8
DEFAULT_255_2_778
10
14.4678011
20
1.3318215
11
14.6466011
21
1.1021215
0
LINE
8
DEFAULT_255_2_778
10
14.6466011
20
1.1021215
11
14.8265011
21
0.9045215
0
LINE
8
DEFAULT_255_2_778
10
14.8265011
20
0.9045215
11
14.9969011
21
0.7372215
0
LINE
8
DEFAULT_255_2_778
10
15.3756011
20
0.4359215
11
14.3461011
21
0.4359215
0
LINE
8
DEFAULT_255_2_778
10
13.7666011
20
1.5548215
11
13.5150011
21
1.5548215
0
LINE
8
DEFAULT_255_2_778
10
13.5150011
20
1.5548215
11
13.5158011
21
0.4372215
0
LINE
8
DEFAULT_255_2_778
10
13.8071011
20
3.1389215
11
13.5158011
21
3.1389215
0
LINE
8
DEFAULT_255_2_778
10
13.5158011
20
3.1389215
11
13.5158011
21
1.8387215
0
LINE
8
DEFAULT_255_2_778
10
13.5158011
20
1.8387215
11
13.8071011
21
1.8387215
0
LINE
8
DEFAULT_255_2_778
10
14.3955011
20
2.5539215
11
14.3937011
21
2.5544215
0
LINE
8
DEFAULT_255_2_778
10
18.8644011
20
1.9387215
11
18.8633011
21
1.9387215
0
LINE
8
DEFAULT_255_2_778
10
18.0227011
20
1.9387215
11
18.0103011
21
2.2194215
0
LINE
8
DEFAULT_255_2_778
10
16.4257011
20
2.2229215
11
16.4132011
21
1.9387215
0
LINE
8
DEFAULT_255_2_778
10
16.4132011
20
1.9387215
11
16.4257011
21
1.6580215
0
LINE
8
DEFAULT_255_2_778
10
18.0243011
20
1.9390215
11
18.0227011
21
1.9387215
0
LINE
8
DEFAULT_255_2_778
10
21.6777011
20
3.4323215
11
20.7085011
21
1.6953215
0
LINE
8
DEFAULT_255_2_778
10
20.7085011
20
1.6953215
11
20.7085011
21
0.4369215
0
LINE
8
DEFAULT_255_2_778
10
20.7085011
20
0.4369215
11
19.8827011
21
0.4369215
0
LINE
8
DEFAULT_255_2_778
10
19.8827011
20
0.4369215
11
19.8827011
21
1.6495215
0
LINE
8
DEFAULT_255_2_778
10
19.8827011
20
1.6495215
11
18.9032011
21
3.4323215
0
LINE
8
DEFAULT_255_2_778
10
18.9032011
20
3.4323215
11
19.7454011
21
3.4323215
0
LINE
8
DEFAULT_255_2_778
10
19.7454011
20
3.4323215
11
20.3965011
21
1.9284215
0
LINE
8
DEFAULT_255_2_778
10
20.3965011
20
1.9284215
11
21.0953011
21
3.4323215
0
LINE
8
DEFAULT_255_2_778
10
21.0953011
20
3.4323215
11
21.6777011
21
3.4323215
0
LINE
8
DEFAULT_255_2_778
10
24.6937011
20
1.8702215
11
24.6937011
21
1.8305215
0
LINE
8
DEFAULT_255_2_778
10
24.5666011
20
1.0942215
11
24.4272011
21
0.7240215
0
LINE
8
DEFAULT_255_2_778
10
24.4272011
20
0.7240215
11
24.2433011
21
0.3734215
0
LINE
8
DEFAULT_255_2_778
10
23.7808011
20
-0.1995785
11
23.4707011
21
-0.0207785
0
LINE
8
DEFAULT_255_2_778
10
23.6044011
20
0.2467215
11
23.7113011
21
0.5475215
0
LINE
8
DEFAULT_255_2_778
10
23.7113011
20
0.5475215
11
23.7949011
21
0.8722215
0
LINE
8
DEFAULT_255_2_778
10
23.7949011
20
0.8722215
11
23.8520011
21
1.2032215
0
LINE
8
DEFAULT_255_2_778
10
23.8520011
20
1.2032215
11
23.8861011
21
1.5265215
0
LINE
8
DEFAULT_255_2_778
10
23.8861011
20
1.5265215
11
23.8978011
21
1.8292215
0
LINE
8
DEFAULT_255_2_778
10
23.8978011
20
1.8292215
11
23.8967011
21
2.0840215
0
LINE
8
DEFAULT_255_2_778
10
23.8967011
20
2.0840215
11
23.8801011
21
2.3740215
0
LINE
8
DEFAULT_255_2_778
10
22.6405011
20
2.3168215
11
22.6333011
21
2.0869215
0
LINE
8
DEFAULT_255_2_778
10
22.6333011
20
2.0869215
11
22.6333011
21
1.5066215
0
LINE
8
DEFAULT_255_2_778
10
22.6333011
20
1.5066215
11
23.5297011
21
1.5066215
0
LINE
8
DEFAULT_255_2_778
10
23.5297011
20
1.5066215
11
23.5297011
21
1.1632215
0
LINE
8
DEFAULT_255_2_778
10
23.5297011
20
1.1632215
11
22.6336011
21
1.1632215
0
LINE
8
DEFAULT_255_2_778
10
22.6336011
20
1.1632215
11
22.6336011
21
0.4354215
0
LINE
8
DEFAULT_255_2_778
10
22.6336011
20
0.4354215
11
21.8081011
21
0.4354215
0
LINE
8
DEFAULT_255_2_778
10
21.8081011
20
0.4354215
11
21.8081011
21
1.9559215
0
LINE
8
DEFAULT_255_2_778
10
24.6955011
20
1.8665215
11
24.6937011
21
1.8702215
0
LINE
8
DEFAULT_255_2_778
10
27.3808011
20
0.4372215
11
25.2302011
21
0.4372215
0
LINE
8
DEFAULT_255_2_778
10
25.2302011
20
0.4372215
11
25.2302011
21
3.4323215
0
LINE
8
DEFAULT_255_2_778
10
25.2302011
20
3.4323215
11
26.0557011
21
3.4323215
0
LINE
8
DEFAULT_255_2_778
10
26.0557011
20
3.4323215
11
26.0557011
21
0.8177215
0
LINE
8
DEFAULT_255_2_778
10
26.0557011
20
0.8177215
11
27.3808011
21
0.8177215
0
LINE
8
DEFAULT_255_2_778
10
27.3808011
20
0.8177215
11
27.3808011
21
0.4372215
0
LINE
8
DEFAULT_255_2_778
10
29.9205011
20
0.4372215
11
27.7700011
21
0.4372215
0
LINE
8
DEFAULT_255_2_778
10
27.7700011
20
0.4372215
11
27.7700011
21
3.4323215
0
LINE
8
DEFAULT_255_2_778
10
27.7700011
20
3.4323215
11
29.9205011
21
3.4323215
0
LINE
8
DEFAULT_255_2_778
10
29.9205011
20
3.4323215
11
29.9205011
21
3.0478215
0
LINE
8
DEFAULT_255_2_778
10
29.9205011
20
3.0478215
11
28.5957011
21
3.0478215
0
LINE
8
DEFAULT_255_2_778
10
28.5957011
20
3.0478215
11
28.5957011
21
2.1221215
0
LINE
8
DEFAULT_255_2_778
10
28.5957011
20
2.1221215
11
29.6191011
21
2.1221215
0
LINE
8
DEFAULT_255_2_778
10
29.6191011
20
2.1221215
11
29.6191011
21
1.7413215
0
LINE
8
DEFAULT_255_2_778
10
29.6191011
20
1.7413215
11
28.5957011
21
1.7413215
0
LINE
8
DEFAULT_255_2_778
10
28.5957011
20
1.7413215
11
28.5957011
21
0.8177215
0
LINE
8
DEFAULT_255_2_778
10
28.5957011
20
0.8177215
11
29.9205011
21
0.8177215
0
LINE
8
DEFAULT_255_2_778
10
29.9205011
20
0.8177215
11
29.9205011
21
0.4372215
0
ARC
8
DEFAULT_255_2_778
10
5.6224881
20
5.5147883
40
0.8646712
50
180.0135556
51
217.6651008
0
ARC
8
DEFAULT_255_2_778
10
5.5189678
20
5.5146963
40
0.7611509
50
179.9067388
51
180.0084774
0
ARC
8
DEFAULT_255_2_778
10
5.6236293
20
5.5168704
40
0.8658118
50
130.8233603
51
180.0618862
0
ARC
8
DEFAULT_255_2_778
10
5.6243215
20
5.5193316
40
0.8644043
50
89.9273204
51
130.9647264
0
ARC
8
DEFAULT_255_2_778
10
5.6254684
20
5.5161886
40
0.8675466
50
44.9905225
51
90.0033313
0
ARC
8
DEFAULT_255_2_778
10
5.6256713
20
5.5159857
40
0.8675466
50
359.9966687
51
45.0094775
0
ARC
8
DEFAULT_255_2_778
10
5.6261111
20
5.5155937
40
0.8671069
50
322.6832428
51
0.0225692
0
ARC
8
DEFAULT_255_2_778
10
10.102564
20
4.0545069
40
0.847346
50
179.9913201
51
188.3582234
0
ARC
8
DEFAULT_255_2_778
10
10.1227646
20
4.0546857
40
0.8675466
50
134.9905225
51
180.0033313
0
ARC
8
DEFAULT_255_2_778
10
10.1229675
20
4.0548886
40
0.8675466
50
89.9966687
51
135.0094775
0
ARC
8
DEFAULT_255_2_778
10
10.1230722
20
4.0546565
40
0.8677788
50
44.9968739
51
90.0035824
0
ARC
8
DEFAULT_255_2_778
10
10.1229507
20
4.0545114
40
0.8679673
50
0.0081746
51
44.9979721
0
ARC
8
DEFAULT_255_2_778
10
10.123912
20
4.0535908
40
0.8670066
50
281.3147851
51
0.0690218
0
ARC
8
DEFAULT_255_2_778
10
9.2924436
20
0.6154402
40
0.866275
50
0.0028481
51
53.4593185
0
ARC
8
DEFAULT_255_2_778
10
9.0353261
20
0.6157203
40
1.1233924
50
359.939561
51
359.9879119
0
ARC
8
DEFAULT_255_2_778
10
9.2906148
20
0.6145156
40
0.8681032
50
315.0150678
51
0.0012989
0
ARC
8
DEFAULT_255_2_778
10
9.2907983
20
0.6148346
40
0.8681992
50
270.0078995
51
314.9916158
0
ARC
8
DEFAULT_255_2_778
10
9.290969
20
0.6144268
40
0.8677916
50
224.9972253
51
269.9966322
0
ARC
8
DEFAULT_255_2_778
10
9.2908967
20
0.614481
40
0.8677788
50
179.9964176
51
225.0031261
0
ARC
8
DEFAULT_255_2_778
10
9.2898183
20
0.614596
40
0.8667003
50
149.3344713
51
180.0040139
0
ARC
8
DEFAULT_255_2_778
10
5.4899716
20
-8.5239337
40
9.9903679
50
79.1769335
51
84.7758498
0
ARC
8
DEFAULT_255_2_778
10
4.9722439
20
-11.253404
40
12.7685034
50
75.2193255
51
79.19494
0
ARC
8
DEFAULT_255_2_778
10
4.4102943
20
-13.4716973
40
15.0567735
50
74.7333459
51
75.3052335
0
ARC
8
DEFAULT_255_2_778
10
8.9182204
20
0.6934957
40
0.6518819
50
146.4534232
51
179.9697883
0
ARC
8
DEFAULT_255_2_778
10
9.212629
20
0.6664185
40
0.9466878
50
178.3401853
51
180.0085821
0
ARC
8
DEFAULT_255_2_778
10
9.3352912
20
0.6676439
40
1.0693508
50
180.0732556
51
184.7530985
0
ARC
8
DEFAULT_255_2_778
10
4.8174268
20
-12.4481721
40
13.47686
50
75.15785
51
77.4765125
0
ARC
8
DEFAULT_255_2_778
10
5.2205789
20
-10.6299346
40
11.6144642
50
77.4730286
51
80.2694567
0
ARC
8
DEFAULT_255_2_778
10
5.4695445
20
-9.1683223
40
10.1318006
50
80.2601242
51
84.0172477
0
ARC
8
DEFAULT_255_2_778
10
5.5827846
20
-8.0715619
40
9.0292111
50
84.006517
51
89.7736247
0
ARC
8
DEFAULT_255_2_778
10
5.5894861
20
-7.7864041
40
8.744031
50
89.8101538
51
89.9999804
0
ARC
8
DEFAULT_255_2_778
10
5.5894092
20
-7.7504756
40
8.7081025
50
89.9994747
51
93.2341664
0
ARC
8
DEFAULT_255_2_778
10
5.6162149
20
-8.1167342
40
9.0752921
50
93.2726769
51
99.0740894
0
ARC
8
DEFAULT_255_2_778
10
5.7920528
20
-9.2403742
40
10.2126021
50
99.0540399
51
102.4611612
0
ARC
8
DEFAULT_255_2_778
10
6.1082863
20
-10.6756767
40
11.6823288
50
102.4566369
51
105.1494272
0
ARC
8
DEFAULT_255_2_778
10
6.3737712
20
-11.6834459
40
12.7244586
50
105.1174166
51
105.4779906
0
ARC
8
DEFAULT_255_2_778
10
1.5217807
20
0.6551711
40
1.4582002
50
357.0267719
51
359.952053
0
ARC
8
DEFAULT_255_2_778
10
2.123675
20
0.6786255
40
0.8566609
50
358.3494613
51
26.1246524
0
ARC
8
DEFAULT_255_2_778
10
6.071889
20
-9.9859213
40
11.4902951
50
101.5646811
51
106.0618254
0
ARC
8
DEFAULT_255_2_778
10
5.6785176
20
-8.0451309
40
9.5100446
50
94.95068
51
101.5869276
0
ARC
8
DEFAULT_255_2_778
10
1.9866973
20
0.6193963
40
0.8492346
50
359.6720354
51
31.7150882
0
ARC
8
DEFAULT_255_2_778
10
1.9677182
20
0.6146555
40
0.8681998
50
315.0083768
51
359.9920616
0
ARC
8
DEFAULT_255_2_778
10
1.9678985
20
0.6148335
40
0.8681983
50
270.0078855
51
314.9916559
0
ARC
8
DEFAULT_255_2_778
10
1.9681418
20
0.6146025
40
0.8679673
50
225.0020279
51
269.9918254
0
ARC
8
DEFAULT_255_2_778
10
1.9679967
20
0.614481
40
0.8677788
50
179.9964176
51
225.0031261
0
ARC
8
DEFAULT_255_2_778
10
2.3083872
20
0.6157641
40
1.2081699
50
180.0116554
51
180.0582752
0
ARC
8
DEFAULT_255_2_778
10
1.9667854
20
0.6151056
40
0.8665681
50
128.484462
51
179.9727159
0
ARC
8
DEFAULT_255_2_778
10
1.1105806
20
4.0551065
40
0.8686628
50
180.0310831
51
259.0931161
0
ARC
8
DEFAULT_255_2_778
10
1.1076934
20
4.0555952
40
0.8657759
50
130.9018999
51
180.0635276
0
ARC
8
DEFAULT_255_2_778
10
1.108427
20
4.0579799
40
0.8644563
50
89.9144377
51
131.0421458
0
ARC
8
DEFAULT_255_2_778
10
1.1106556
20
4.0564809
40
0.8659548
50
40.8212736
51
90.0620417
0
ARC
8
DEFAULT_255_2_778
10
1.1132545
20
4.0559089
40
0.8643645
50
359.9155745
51
40.9625818
0
ARC
8
DEFAULT_255_2_778
10
1.1354639
20
4.0546363
40
0.8421541
50
359.1792668
51
359.9999306
0
ARC
8
DEFAULT_255_2_778
10
1.0692611
20
4.0566845
40
0.90838
50
352.2847932
51
359.1099006
0
ARC
8
DEFAULT_255_2_778
10
9.2921839
20
0.6141351
40
0.4339908
50
114.4409451
51
179.966178
0
ARC
8
DEFAULT_255_2_778
10
9.2918568
20
0.6144499
40
0.4336638
50
180.0077412
51
190.1606943
0
ARC
8
DEFAULT_255_2_778
10
9.2963369
20
0.6151728
40
0.4382012
50
190.1503961
51
192.1912796
0
ARC
8
DEFAULT_255_2_778
10
9.292106
20
0.6141943
40
0.4338591
50
192.1829557
51
269.9487566
0
ARC
8
DEFAULT_255_2_778
10
9.2915138
20
0.6142393
40
0.4339041
50
270.0269581
51
359.9598493
0
ARC
8
DEFAULT_255_2_778
10
9.2913646
20
0.613882
40
0.4340534
50
0.0070239
51
89.953357
0
ARC
8
DEFAULT_255_2_778
10
10.1225862
20
4.0515347
40
0.4306016
50
244.2063551
51
269.9632114
0
ARC
8
DEFAULT_255_2_778
10
10.1222442
20
4.0488768
40
0.4279435
50
270.0087608
51
270.1839231
0
ARC
8
DEFAULT_255_2_778
10
10.1235502
20
4.054903
40
0.4339678
50
270.0089517
51
359.9646418
0
ARC
8
DEFAULT_255_2_778
10
10.1237442
20
4.0546603
40
0.4337738
50
359.9966875
51
45.0094474
0
ARC
8
DEFAULT_255_2_778
10
10.123571
20
4.0545878
40
0.4339475
50
45.0000493
51
89.9938045
0
ARC
8
DEFAULT_255_2_778
10
10.123589
20
4.0545296
40
0.4340057
50
89.996178
51
134.9967677
0
ARC
8
DEFAULT_255_2_778
10
10.1238125
20
4.054486
40
0.4341945
50
135.0135598
51
179.9803117
0
ARC
8
DEFAULT_255_2_778
10
10.1244858
20
4.0551099
40
0.4348681
50
180.0625348
51
222.5683125
0
ARC
8
DEFAULT_255_2_778
10
1.1102199
20
4.0564518
40
0.4336981
50
318.3163762
51
359.971385
0
ARC
8
DEFAULT_255_2_778
10
1.1099714
20
4.0561887
40
0.4339466
50
0.0061462
51
89.9938538
0
ARC
8
DEFAULT_255_2_778
10
1.1103501
20
4.0561032
40
0.4340322
50
90.0438383
51
179.9825681
0
ARC
8
DEFAULT_255_2_778
10
1.1103715
20
4.0565889
40
0.4340537
50
180.0466783
51
269.9533311
0
ARC
8
DEFAULT_255_2_778
10
1.108658
20
4.0716695
40
0.4491363
50
270.1734869
51
294.1788313
0
ARC
8
DEFAULT_255_2_778
10
1.9690867
20
0.6167905
40
0.4330703
50
93.079968
51
179.8485561
0
ARC
8
DEFAULT_255_2_778
10
1.9699862
20
0.6182035
40
0.4339683
50
180.0354176
51
269.9513831
0
LINE
8
DEFAULT_255_2_778
10
1.969618
20
0.1842352
11
1.9698338
21
0.1842352
0
ARC
8
DEFAULT_255_2_778
10
1.9698742
20
0.6182229
40
0.4339877
50
269.9946654
51
347.4654422
0
ARC
8
DEFAULT_255_2_778
10
1.965992
20
0.6191865
40
0.4379866
50
347.4526141
51
350.0917371
0
ARC
8
DEFAULT_255_2_778
10
1.9706151
20
0.6184383
40
0.4333037
50
350.0840015
51
359.99338
0
ARC
8
DEFAULT_255_2_778
10
1.9699756
20
0.6181191
40
0.4339433
50
0.035543
51
64.9781418
0
ARC
8
DEFAULT_255_2_778
10
5.6242906
20
5.5166164
40
0.4347279
50
287.9014999
51
0.0552467
0
ARC
8
DEFAULT_255_2_778
10
5.4471351
20
5.5168606
40
0.6118835
50
0.0163808
51
0.081899
0
ARC
8
DEFAULT_255_2_778
10
5.6251781
20
5.5175955
40
0.4338399
50
0.0184555
51
90.0079443
0
ARC
8
DEFAULT_255_2_778
10
5.6268347
20
5.5161218
40
0.4353168
50
90.2259602
51
180.0245559
0
ARC
8
DEFAULT_255_2_778
10
5.6252112
20
5.5158524
40
0.4336932
50
179.98905
51
251.3075957
0
LINE
8
DEFAULT_255_2_778
10
6.315718
20
4.9899352
11
7.795518
21
2.9616352
0
LINE
8
DEFAULT_255_2_778
10
7.795518
20
2.9616352
11
9.264218
21
3.9313352
0
LINE
8
DEFAULT_255_2_778
10
10.294018
20
3.2034352
11
9.808218
21
1.3114352
0
LINE
8
DEFAULT_255_2_778
10
8.544318
20
1.0566352
11
7.664818
21
2.2628352
0
LINE
8
DEFAULT_255_2_778
10
7.664818
20
2.2628352
11
6.399618
21
1.4249352
0
LINE
8
DEFAULT_255_2_778
10
4.857818
20
1.4294352
11
3.585218
21
2.2705352
0
LINE
8
DEFAULT_255_2_778
10
3.585218
20
2.2705352
11
2.709118
21
1.0658352
0
LINE
8
DEFAULT_255_2_778
10
1.427518
20
1.2934352
11
0.946218
21
3.2021352
0
LINE
8
DEFAULT_255_2_778
10
1.969418
20
3.9347352
11
3.460318
21
2.9499352
0
LINE
8
DEFAULT_255_2_778
10
3.460318
20
2.9499352
11
4.938018
21
4.9864352
0
LINE
8
DEFAULT_255_2_778
10
8.931918
20
1.4037352
11
8.933518
21
1.4045352
0
LINE
8
DEFAULT_255_2_778
10
8.933518
20
1.4045352
11
9.112618
21
1.0092352
0
LINE
8
DEFAULT_255_2_778
10
9.291718
20
1.0479352
11
9.291718
21
1.4820352
0
LINE
8
DEFAULT_255_2_778
10
9.291718
20
1.4820352
11
9.746818
21
3.2730352
0
LINE
8
DEFAULT_255_2_778
10
9.746818
20
3.2730352
11
9.935218
21
3.6638352
0
LINE
8
DEFAULT_255_2_778
10
9.804218
20
3.7609352
11
9.486218
21
3.4688352
0
LINE
8
DEFAULT_255_2_778
10
9.486218
20
3.4688352
11
9.486218
21
3.4672352
0
LINE
8
DEFAULT_255_2_778
10
9.486218
20
3.4672352
11
8.098418
21
2.5483352
0
LINE
8
DEFAULT_255_2_778
10
8.098418
20
2.5483352
11
8.931918
21
1.4037352
0
LINE
8
DEFAULT_255_2_778
10
3.167118
20
2.5462352
11
1.758018
21
3.4799352
0
LINE
8
DEFAULT_255_2_778
10
1.758018
20
3.4799352
11
1.434118
21
3.7680352
0
LINE
8
DEFAULT_255_2_778
10
1.292618
20
3.6619352
11
1.472718
21
3.2690352
0
LINE
8
DEFAULT_255_2_778
10
1.472718
20
3.2690352
11
1.922018
21
1.4810352
0
LINE
8
DEFAULT_255_2_778
10
1.922018
20
1.4810352
11
1.945818
21
1.0492352
0
LINE
8
DEFAULT_255_2_778
10
2.153518
20
1.0113352
11
2.337118
21
1.4064352
0
LINE
8
DEFAULT_255_2_778
10
2.337118
20
1.4064352
11
3.167118
21
2.5462352
0
LINE
8
DEFAULT_255_2_778
10
7.362118
20
2.6756352
11
5.890218
21
4.6904352
0
LINE
8
DEFAULT_255_2_778
10
5.890218
20
4.6904352
11
5.890818
21
4.6906352
0
LINE
8
DEFAULT_255_2_778
10
5.890818
20
4.6906352
11
5.757918
21
5.1029352
0
LINE
8
DEFAULT_255_2_778
10
5.486218
20
5.1050352
11
5.347318
21
4.6949352
0
LINE
8
DEFAULT_255_2_778
10
5.347318
20
4.6949352
11
5.347818
21
4.6943352
0
LINE
8
DEFAULT_255_2_778
10
5.347818
20
4.6943352
11
3.877818
21
2.6740352
0
LINE
8
DEFAULT_255_2_778
10
3.877818
20
2.6740352
11
5.618018
21
1.5249352
0
LINE
8
DEFAULT_255_2_778
10
5.618018
20
1.5249352
11
7.362118
21
2.6756352
0
ENDSEC
0
EOF