0
SECTION
2
HEADER
9
$MEASUREMENT
70
1
0
ENDSEC
0
SECTION
2
TABLES
0
TABLE
2
LTYPE
0
LTYPE
72
65
70
64
2
CONTINUOUS
3
______
73
0
40
0
0
ENDTAB
0
TABLE
2
LAYER
0
LAYER
2
DEFAULT_255_2_778
70
0
62
255
6
CONTINUOUS
0
ENDTAB
0
ENDSEC
0
SECTION
2
ENTITIES
0
ARC
8
DEFAULT_255_2_778
10
16.0715261
20
8.3108316
40
0.738305
50
67.5836732
51
90.6880712
0
ARC
8
DEFAULT_255_2_778
10
16.0996865
20
8.4157874
40
0.6306966
50
357.9006376
51
66.3125868
0
ARC
8
DEFAULT_255_2_778
10
16.1020998
20
8.368442
40
0.6283279
50
288.9045419
51
2.2110598
0
ARC
8
DEFAULT_255_2_778
10
16.0689104
20
8.4956182
40
0.7594606
50
269.5284411
51
288.1648116
0
ARC
8
DEFAULT_255_2_778
10
16.0545924
20
8.4032135
40
0.4753842
50
358.7307472
51
42.3484783
0
ARC
8
DEFAULT_255_2_778
10
16.0615047
20
8.3911933
40
0.4785642
50
43.9697683
51
86.2691181
0
ARC
8
DEFAULT_255_2_778
10
16.040677
20
8.2670589
40
0.6039246
50
85.0635708
51
90.0300855
0
ARC
8
DEFAULT_255_2_778
10
16.0503063
20
8.4489648
40
0.534774
50
268.9342829
51
297.9908539
0
ARC
8
DEFAULT_255_2_778
10
16.0787474
20
8.3684208
40
0.4504822
50
299.6047707
51
359.5315921
0
ARC
8
DEFAULT_255_2_778
10
15.9289019
20
8.3925782
40
0.600958
50
357.3447492
51
0.0100184
0
ARC
8
DEFAULT_255_2_778
10
20.0921946
20
7.9440152
40
1.2713601
50
160.5274764
51
180.3619713
0
ARC
8
DEFAULT_255_2_778
10
19.9164268
20
8.0061872
40
1.0849206
50
95.5588254
51
160.5286838
0
ARC
8
DEFAULT_255_2_778
10
19.9443609
20
7.8738157
40
1.2194676
50
89.9765536
51
96.2626744
0
ARC
8
DEFAULT_255_2_778
10
19.9529976
20
8.038146
40
1.0551687
50
70.3172209
51
90.4418801
0
ARC
8
DEFAULT_255_2_778
10
19.9484766
20
8.0679945
40
1.0286865
50
38.1745169
51
69.5201498
0
ARC
8
DEFAULT_255_2_778
10
19.940329
20
8.0881099
40
0.8384856
50
37.9783294
51
89.6903908
0
ARC
8
DEFAULT_255_2_778
10
19.9358113
20
8.0116787
40
0.9149494
50
89.4333503
51
123.7458
0
ARC
8
DEFAULT_255_2_778
10
19.9421119
20
8.0230027
40
0.9091066
50
124.4724683
51
162.5559397
0
ARC
8
DEFAULT_255_2_778
10
20.1410495
20
7.953966
40
1.1196078
50
162.2373597
51
180.3266367
0
ARC
8
DEFAULT_255_2_778
10
20.1217864
20
7.9390885
40
1.1003593
50
179.5576725
51
200.9808688
0
ARC
8
DEFAULT_255_2_778
10
19.9272138
20
7.8595441
40
0.8902174
50
200.6846297
51
267.9239603
0
ARC
8
DEFAULT_255_2_778
10
19.9447452
20
7.9784419
40
1.0097585
50
267.1742231
51
270.0065102
0
ARC
8
DEFAULT_255_2_778
10
19.9403286
20
7.8071575
40
0.8384864
50
270.3096334
51
322.0216408
0
ARC
8
DEFAULT_255_2_778
10
19.9526926
20
7.7985394
40
1.0078118
50
277.1235644
51
322.9615658
0
ARC
8
DEFAULT_255_2_778
10
19.9464752
20
7.9234077
40
1.1325255
50
269.9182784
51
276.6522799
0
ARC
8
DEFAULT_255_2_778
10
19.9221828
20
8.0512011
40
1.2605218
50
270.0014525
51
271.0308212
0
ARC
8
DEFAULT_255_2_778
10
19.9132406
20
7.9169368
40
1.1262932
50
242.6980579
51
270.4565315
0
ARC
8
DEFAULT_255_2_778
10
19.8881487
20
7.847519
40
1.0531427
50
198.740136
51
242.1788227
0
ARC
8
DEFAULT_255_2_778
10
20.108769
20
7.9280068
40
1.287937
50
179.6229096
51
198.9777249
0
ARC
8
DEFAULT_255_2_778
10
14.1235653
20
4.6678285
40
1.470749
50
223.6208748
51
269.9926503
0
ARC
8
DEFAULT_255_2_778
10
14.1232852
20
4.6945295
40
1.4974499
50
270.0034981
51
270.1291227
0
ARC
8
DEFAULT_255_2_778
10
14.1359281
20
4.2483372
40
1.0512948
50
269.4948729
51
281.7458989
0
ARC
8
DEFAULT_255_2_778
10
14.2291731
20
3.8166844
40
0.6097084
50
281.4244995
51
300.2842992
0
ARC
8
DEFAULT_255_2_778
10
14.3643527
20
3.5930575
40
0.3484515
50
299.6332909
51
335.3512433
0
ARC
8
DEFAULT_255_2_778
10
14.4143077
20
3.5634218
40
0.2907527
50
336.5536761
51
0.1106516
0
ARC
8
DEFAULT_255_2_778
10
14.4716586
20
3.5627606
40
0.2334045
50
0.3001369
51
55.7707603
0
ARC
8
DEFAULT_255_2_778
10
14.2770053
20
3.3198453
40
0.5442814
50
53.2122047
51
65.56503
0
ARC
8
DEFAULT_255_2_778
10
14.0258193
20
2.7776765
40
1.1418032
50
65.3435344
51
72.3058534
0
ARC
8
DEFAULT_255_2_778
10
13.5732548
20
1.3740821
40
2.6165514
50
72.2061692
51
75.9227587
0
ARC
8
DEFAULT_255_2_778
10
12.6003278
20
-2.4126351
40
6.5262328
50
75.7237625
51
76.6904163
0
LINE
8
DEFAULT_255_2_778
10
14.1027482
20
3.9383055
11
14.1020662
21
3.9384677
0
LINE
8
DEFAULT_255_2_778
10
14.1020662
20
3.9384677
11
14.1013853
21
3.9386295
0
LINE
8
DEFAULT_255_2_778
10
14.1013853
20
3.9386295
11
14.1007056
21
3.9387911
0
ARC
8
DEFAULT_255_2_778
10
13.4922478
20
1.3788892
40
2.63122
50
76.6295891
51
76.6447774
0
LINE
8
DEFAULT_255_2_778
10
14.100027
20
3.9389524
11
14.0993495
21
3.9391133
0
LINE
8
DEFAULT_255_2_778
10
14.0993495
20
3.9391133
11
14.0986732
21
3.9392739
0
LINE
8
DEFAULT_255_2_778
10
14.0986732
20
3.9392739
11
14.097998
21
3.9394342
0
LINE
8
DEFAULT_255_2_778
10
14.097998
20
3.9394342
11
14.0973239
21
3.9395942
0
LINE
8
DEFAULT_255_2_778
10
14.0973239
20
3.9395942
11
14.0959779
21
3.9399136
0
ARC
8
DEFAULT_255_2_778
10
13.5018202
20
1.4386282
40
2.5708855
50
76.6375596
51
76.6529205
0
LINE
8
DEFAULT_255_2_778
10
14.0953073
20
3.9400727
11
14.0939681
21
3.9403902
0
LINE
8
DEFAULT_255_2_778
10
14.0939681
20
3.9403902
11
14.0933008
21
3.9405484
0
ARC
8
DEFAULT_255_2_778
10
56.3950716
20
182.5331239
40
183.5340509
50
256.6735415
51
256.6743967
0
LINE
8
DEFAULT_255_2_778
10
14.0906353
20
3.9411798
11
14.0899737
21
3.9413364
0
LINE
8
DEFAULT_255_2_778
10
14.0899737
20
3.9413364
11
14.0893132
21
3.9414927
0
ARC
8
DEFAULT_255_2_778
10
13.5150822
20
1.5157342
40
2.4927988
50
76.6819719
51
76.6975455
0
ARC
8
DEFAULT_255_2_778
10
12.8012287
20
-1.497944
40
5.5898688
50
76.6844391
51
76.6948395
0
ARC
8
DEFAULT_255_2_778
10
13.5183435
20
1.5347314
40
2.4735611
50
76.6933145
51
76.708942
0
LINE
8
DEFAULT_255_2_778
10
14.0870099
20
3.9420376
11
14.0863545
21
3.9421926
0
LINE
8
DEFAULT_255_2_778
10
14.0863545
20
3.9421926
11
14.0850456
21
3.942502
0
LINE
8
DEFAULT_255_2_778
10
14.0850456
20
3.942502
11
14.0843936
21
3.9426561
0
ARC
8
DEFAULT_255_2_778
10
12.117306
20
-4.3799529
40
8.5519151
50
76.701916
51
76.7103197
0
ARC
8
DEFAULT_255_2_778
10
21.2811122
20
34.438423
40
31.3334413
50
256.714494
51
256.7193726
0
LINE
8
DEFAULT_255_2_778
10
14.0805763
20
3.9435574
11
14.0799318
21
3.9437095
0
LINE
8
DEFAULT_255_2_778
10
14.0799318
20
3.9437095
11
14.0792885
21
3.9438613
0
ARC
8
DEFAULT_255_2_778
10
14.7508254
20
6.7937867
40
2.9279748
50
256.7152466
51
256.741075
0
LINE
8
DEFAULT_255_2_778
10
14.0780038
20
3.9441643
11
14.0773638
21
3.9443152
0
ARC
8
DEFAULT_255_2_778
10
21.0166502
20
33.3907632
40
30.2530493
50
256.7347602
51
256.7397349
0
LINE
8
DEFAULT_255_2_778
10
14.0748071
20
3.9449178
11
14.0735378
21
3.9452168
0
LINE
8
DEFAULT_255_2_778
10
14.0735378
20
3.9452168
11
14.0729054
21
3.9453657
0
ARC
8
DEFAULT_255_2_778
10
20.8166509
20
32.5977691
40
29.4353244
50
256.7506329
51
256.755684
0
LINE
8
DEFAULT_255_2_778
10
14.0703795
20
3.9459603
11
14.0691255
21
3.9462553
0
LINE
8
DEFAULT_255_2_778
10
14.0691255
20
3.9462553
11
14.0678759
21
3.9465493
0
ARC
8
DEFAULT_255_2_778
10
12.0214414
20
-4.7549914
40
8.9389431
50
76.7656376
51
76.7738374
0
ARC
8
DEFAULT_255_2_778
10
12.0345842
20
-4.698415
40
8.8808605
50
76.7728677
51
76.7810924
0
ARC
8
DEFAULT_255_2_778
10
12.047517
20
-4.6309071
40
8.8121845
50
76.7625813
51
76.7708412
0
LINE
8
DEFAULT_255_2_778
10
14.0641529
20
3.9474245
11
14.0629205
21
3.947714
0
ARC
8
DEFAULT_255_2_778
10
23.1379523
20
42.9202893
40
40.01522
50
256.655402
51
256.8918704
0
ARC
8
DEFAULT_255_2_778
10
15.3930767
20
10.2682242
40
6.4572036
50
255.1398645
51
256.6503388
0
ARC
8
DEFAULT_255_2_778
10
14.2649352
20
6.1899119
40
2.2264125
50
242.523766
51
256.2847455
0
ARC
8
DEFAULT_255_2_778
10
13.6304402
20
4.9915336
40
0.8705226
50
205.2518522
51
243.1830676
0
ARC
8
DEFAULT_255_2_778
10
13.6105006
20
4.9576818
40
0.8383389
50
188.9581177
51
203.7405289
0
ARC
8
DEFAULT_255_2_778
10
13.840327
20
4.9956389
40
1.0712738
50
179.7997375
51
189.049431
0
ARC
8
DEFAULT_255_2_778
10
13.7131821
20
4.997524
40
0.944124
50
125.0503972
51
179.8871638
0
ARC
8
DEFAULT_255_2_778
10
13.8979558
20
4.7609785
40
1.2439818
50
106.8775467
51
125.7605087
0
ARC
8
DEFAULT_255_2_778
10
14.0099485
20
4.4027739
40
1.6192752
50
93.2331008
51
106.9897937
0
ARC
8
DEFAULT_255_2_778
10
14.0364826
20
4.0983052
40
1.9247783
50
89.9768613
51
93.5105458
0
ARC
8
DEFAULT_255_2_778
10
14.0507701
20
3.6933618
40
2.3297607
50
77.492759
51
90.3322583
0
ARC
8
DEFAULT_255_2_778
10
14.1964777
20
4.3024983
40
1.7035563
50
49.0267163
51
77.8403029
0
ARC
8
DEFAULT_255_2_778
10
14.2320506
20
4.3583276
40
1.6381081
50
46.9702296
51
48.6857056
0
ARC
8
DEFAULT_255_2_778
10
14.0203208
20
4.0140757
40
1.3708424
50
47.3404196
51
83.2683497
0
ARC
8
DEFAULT_255_2_778
10
13.9726778
20
3.810321
40
1.578951
50
82.4180855
51
83.527987
0
ARC
8
DEFAULT_255_2_778
10
13.9704797
20
3.7888909
40
1.6004924
50
83.5362752
51
90.0042892
0
ARC
8
DEFAULT_255_2_778
10
13.9598719
20
4.6373141
40
0.7521424
50
89.2010346
51
105.6383401
0
ARC
8
DEFAULT_255_2_778
10
13.8550044
20
4.9900571
40
0.3842339
50
104.7587155
51
136.6949961
0
ARC
8
DEFAULT_255_2_778
10
13.792754
20
5.061984
40
0.2897605
50
138.6026399
51
181.2261941
0
ARC
8
DEFAULT_255_2_778
10
13.7051268
20
5.058561
40
0.202086
50
180.7875744
51
235.7948594
0
ARC
8
DEFAULT_255_2_778
10
13.8897744
20
5.2867659
40
0.4952219
50
232.968146
51
245.31255
0
ARC
8
DEFAULT_255_2_778
10
14.1254956
20
5.7882631
40
1.0493461
50
245.0550039
51
251.860054
0
ARC
8
DEFAULT_255_2_778
10
14.5375268
20
7.0333665
40
2.360851
50
251.7653207
51
255.5247593
0
ARC
8
DEFAULT_255_2_778
10
15.3674562
20
10.1761014
40
5.6113014
50
255.3407518
51
256.4463566
0
ARC
8
DEFAULT_255_2_778
10
14.8144457
20
7.8611292
40
3.2312016
50
256.3591667
51
256.373008
0
ARC
8
DEFAULT_255_2_778
10
15.3888111
20
10.2327169
40
5.6713498
50
256.3785536
51
256.3933183
0
LINE
8
DEFAULT_255_2_778
10
14.0545951
20
4.7205415
11
14.0553502
21
4.7203587
0
LINE
8
DEFAULT_255_2_778
10
14.0553502
20
4.7203587
11
14.0561042
21
4.7201762
0
LINE
8
DEFAULT_255_2_778
10
14.0561042
20
4.7201762
11
14.056857
21
4.719994
0
LINE
8
DEFAULT_255_2_778
10
14.056857
20
4.719994
11
14.0576085
21
4.7198122
0
LINE
8
DEFAULT_255_2_778
10
14.0576085
20
4.7198122
11
14.0583589
21
4.7196308
0
LINE
8
DEFAULT_255_2_778
10
14.0583589
20
4.7196308
11
14.0591081
21
4.7194497
0
LINE
8
DEFAULT_255_2_778
10
14.0591081
20
4.7194497
11
14.059856
21
4.719269
0
LINE
8
DEFAULT_255_2_778
10
14.059856
20
4.719269
11
14.0606028
21
4.7190886
0
LINE
8
DEFAULT_255_2_778
10
14.0606028
20
4.7190886
11
14.0613484
21
4.7189085
0
LINE
8
DEFAULT_255_2_778
10
14.0613484
20
4.7189085
11
14.0620928
21
4.7187289
0
LINE
8
DEFAULT_255_2_778
10
14.0620928
20
4.7187289
11
14.062836
21
4.7185495
0
ARC
8
DEFAULT_255_2_778
10
16.6244573
20
15.3359973
40
10.9220924
50
256.4357408
51
256.4432496
0
ARC
8
DEFAULT_255_2_778
10
16.6106106
20
15.2799174
40
10.8643292
50
256.4449124
51
256.4524382
0
LINE
8
DEFAULT_255_2_778
10
14.0656148
20
4.7178795
11
14.0663523
21
4.7177017
0
LINE
8
DEFAULT_255_2_778
10
14.0663523
20
4.7177017
11
14.0670887
21
4.7175244
0
LINE
8
DEFAULT_255_2_778
10
14.0670887
20
4.7175244
11
14.0678238
21
4.7173473
0
LINE
8
DEFAULT_255_2_778
10
14.0678238
20
4.7173473
11
14.0685578
21
4.7171706
0
LINE
8
DEFAULT_255_2_778
10
14.0685578
20
4.7171706
11
14.0692906
21
4.7169943
0
LINE
8
DEFAULT_255_2_778
10
14.0692906
20
4.7169943
11
14.0700222
21
4.7168183
0
LINE
8
DEFAULT_255_2_778
10
14.0700222
20
4.7168183
11
14.0707526
21
4.7166426
0
LINE
8
DEFAULT_255_2_778
10
14.0707526
20
4.7166426
11
14.0714819
21
4.7164673
0
LINE
8
DEFAULT_255_2_778
10
14.0714819
20
4.7164673
11
14.07221
21
4.7162922
0
LINE
8
DEFAULT_255_2_778
10
14.07221
20
4.7162922
11
14.0729368
21
4.7161176
0
LINE
8
DEFAULT_255_2_778
10
14.0729368
20
4.7161176
11
14.0736625
21
4.7159432
0
LINE
8
DEFAULT_255_2_778
10
14.0736625
20
4.7159432
11
14.0743871
21
4.7157692
0
ARC
8
DEFAULT_255_2_778
10
15.6314082
20
11.2009664
40
6.6694901
50
256.4994732
51
256.50906
0
LINE
8
DEFAULT_255_2_778
10
14.0754722
20
4.7155087
11
14.0761937
21
4.7153355
0
LINE
8
DEFAULT_255_2_778
10
14.0761937
20
4.7153355
11
14.0769142
21
4.7151626
0
LINE
8
DEFAULT_255_2_778
10
14.0769142
20
4.7151626
11
14.0776334
21
4.7149901
0
LINE
8
DEFAULT_255_2_778
10
14.0776334
20
4.7149901
11
14.0783514
21
4.7148179
0
LINE
8
DEFAULT_255_2_778
10
14.0783514
20
4.7148179
11
14.0790683
21
4.714646
0
ARC
8
DEFAULT_255_2_778
10
16.7892714
20
16.0182155
40
11.6239358
50
256.5169852
51
256.5242418
0
ARC
8
DEFAULT_255_2_778
10
16.7726768
20
15.944302
40
11.5481902
50
256.518851
51
256.5261311
0
ARC
8
DEFAULT_255_2_778
10
16.7559841
20
15.8830997
40
11.4847829
50
256.5359739
51
256.5432699
0
ARC
8
DEFAULT_255_2_778
10
-45.2340137
20
-243.1913202
40
254.9027446
50
76.5429149
51
76.5435703
0
ARC
8
DEFAULT_255_2_778
10
16.7075277
20
15.6699672
40
11.2662255
50
256.5455278
51
256.5528915
0
ARC
8
DEFAULT_255_2_778
10
-42.2914953
20
-231.2287495
40
242.5838506
50
76.5602752
51
76.5609571
0
ARC
8
DEFAULT_255_2_778
10
9.2276385
20
-15.6609938
40
20.9452302
50
76.5695107
51
76.5753936
0
ARC
8
DEFAULT_255_2_778
10
-39.0593762
20
-218.0798673
40
229.0438507
50
76.5809152
51
76.581629
0
ARC
8
DEFAULT_255_2_778
10
16.6052064
20
15.2283885
40
10.8129565
50
256.5778977
51
256.5854049
0
ARC
8
DEFAULT_255_2_778
10
13.3173277
20
1.4382572
40
3.3637101
50
76.5796856
51
76.6037373
0
ARC
8
DEFAULT_255_2_778
10
13.3242996
20
1.4599194
40
3.3410218
50
76.5856286
51
76.6097623
0
ARC
8
DEFAULT_255_2_778
10
16.5586203
20
15.0358346
40
10.6148482
50
256.6040955
51
256.611666
0
ARC
8
DEFAULT_255_2_778
10
16.5437398
20
14.9721208
40
10.5494205
50
256.6101624
51
256.6177543
0
ARC
8
DEFAULT_255_2_778
10
13.3449514
20
1.524925
40
3.2730003
50
76.5998809
51
76.6242681
0
ARC
8
DEFAULT_255_2_778
10
13.3517211
20
1.546795
40
3.2501572
50
76.6021471
51
76.6266229
0
ARC
8
DEFAULT_255_2_778
10
13.3585424
20
1.5679735
40
3.2279749
50
76.6082652
51
76.6328259
0
ARC
8
DEFAULT_255_2_778
10
-32.170834
20
-189.9193266
40
200.053558
50
76.6242319
51
76.6250221
0
ARC
8
DEFAULT_255_2_778
10
6.3458833
20
-27.9704998
40
33.5874663
50
76.6319005
51
76.6365747
0
ARC
8
DEFAULT_255_2_778
10
16.4252188
20
14.4430047
40
10.0072394
50
256.6320963
51
256.6398851
0
ARC
8
DEFAULT_255_2_778
10
-29.4018134
20
-178.5524947
40
188.3545
50
76.6417327
51
76.6425577
0
ARC
8
DEFAULT_255_2_778
10
16.3825679
20
14.26013
40
9.8194585
50
256.651274
51
256.6591307
0
ARC
8
DEFAULT_255_2_778
10
7.0556451
20
-25.3041425
40
30.8293307
50
76.4525483
51
76.7594538
0
ARC
8
DEFAULT_255_2_778
10
12.8788637
20
-1.1469093
40
5.9801504
50
74.615595
51
76.4750514
0
ARC
8
DEFAULT_255_2_778
10
13.9426045
20
2.5541052
40
2.1299981
50
60.8889831
51
75.7930302
0
ARC
8
DEFAULT_255_2_778
10
14.5576804
20
3.6469975
40
0.8759432
50
23.7927376
51
61.2607078
0
ARC
8
DEFAULT_255_2_778
10
14.5606562
20
3.6695317
40
0.8643474
50
8.3643299
51
22.5054129
0
ARC
8
DEFAULT_255_2_778
10
14.3388924
20
3.6350336
40
1.0887722
50
359.828957
51
8.462836
0
ARC
8
DEFAULT_255_2_778
10
14.4490478
20
3.6008894
40
0.9790996
50
306.1520272
51
1.8081745
0
ARC
8
DEFAULT_255_2_778
10
14.319917
20
3.7957996
40
1.2127062
50
288.1573254
51
305.6457282
0
ARC
8
DEFAULT_255_2_778
10
14.1619123
20
4.2639704
40
1.706808
50
276.4826535
51
288.2997239
0
ARC
8
DEFAULT_255_2_778
10
14.0870621
20
4.8547982
40
2.3023217
50
269.8605827
51
276.6734243
0
ARC
8
DEFAULT_255_2_778
10
14.1684613
20
5.2857547
40
2.7346556
50
258.8603503
51
268.1768631
0
ARC
8
DEFAULT_255_2_778
10
14.055332
20
4.7186521
40
2.1563814
50
246.9758931
51
258.8984266
0
ARC
8
DEFAULT_255_2_778
10
13.9003369
20
4.3563599
40
1.762328
50
230.7252635
51
247.0067494
0
ARC
8
DEFAULT_255_2_778
10
13.8147367
20
4.2430988
40
1.6204712
50
224.9834671
51
230.5331316
0
ARC
8
DEFAULT_255_2_778
10
20.4004135
20
4.3095797
40
1.9014735
50
163.2446125
51
180.2620432
0
ARC
8
DEFAULT_255_2_778
10
20.1347112
20
4.3945926
40
1.6225509
50
109.5794063
51
163.4142972
0
ARC
8
DEFAULT_255_2_778
10
20.237839
20
4.1262155
40
1.9099832
50
92.2724286
51
109.7962363
0
ARC
8
DEFAULT_255_2_778
10
20.2565019
20
3.9007811
40
2.1360022
50
89.9930807
51
92.5328771
0
ARC
8
DEFAULT_255_2_778
10
20.2654618
20
4.1017657
40
1.9350372
50
73.1897574
51
90.2576623
0
ARC
8
DEFAULT_255_2_778
10
20.3537497
20
4.3787743
40
1.6443386
50
40.8153498
51
73.3431925
0
ARC
8
DEFAULT_255_2_778
10
20.3307664
20
4.3753729
40
1.6640027
50
13.6519751
51
40.3867217
0
ARC
8
DEFAULT_255_2_778
10
20.0709329
20
4.307012
40
1.9326367
50
359.8183049
51
13.8032511
0
ARC
8
DEFAULT_255_2_778
10
20.0983887
20
4.2922702
40
1.9051906
50
343.2696911
51
0.2590259
0
ARC
8
DEFAULT_255_2_778
10
20.3635655
20
4.2082289
40
1.6270513
50
308.0837033
51
343.4157685
0
ARC
8
DEFAULT_255_2_778
10
20.3287711
20
4.2711159
40
1.6980501
50
282.70031
51
307.6989584
0
ARC
8
DEFAULT_255_2_778
10
20.2621896
20
4.539121
40
1.9741451
50
269.8424134
51
282.8753542
0
ARC
8
DEFAULT_255_2_778
10
20.2692155
20
4.5648053
40
1.9998608
50
253.2668852
51
269.6431463
0
ARC
8
DEFAULT_255_2_778
10
20.1776979
20
4.2725314
40
1.6936171
50
226.1973968
51
253.3850429
0
ARC
8
DEFAULT_255_2_778
10
20.1513924
20
4.2282637
40
1.6435011
50
194.1359807
51
225.7910548
0
ARC
8
DEFAULT_255_2_778
10
20.3930046
20
4.294799
40
1.8940545
50
179.8159486
51
194.3027542
0
ARC
8
DEFAULT_255_2_778
10
19.9842343
20
4.310636
40
1.2848626
50
359.5650947
51
20.9335005
0
ARC
8
DEFAULT_255_2_778
10
20.2828462
20
4.4407221
40
0.9595971
50
20.0491551
51
81.1385393
0
ARC
8
DEFAULT_255_2_778
10
20.2585223
20
4.2996552
40
1.1027295
50
81.018892
51
90.0915736
0
ARC
8
DEFAULT_255_2_778
10
20.247317
20
4.3289852
40
1.0734396
50
89.4959701
51
111.2845938
0
ARC
8
DEFAULT_255_2_778
10
20.2256176
20
4.4286541
40
0.9728233
50
112.2246591
51
165.0686493
0
ARC
8
DEFAULT_255_2_778
10
20.5703408
20
4.3082938
40
1.3372015
50
163.8913523
51
180.3175221
0
ARC
8
DEFAULT_255_2_778
10
20.5125632
20
4.2908026
40
1.279443
50
179.5485651
51
201.0836942
0
ARC
8
DEFAULT_255_2_778
10
20.2216912
20
4.1656088
40
0.9630841
50
200.3592348
51
260.5113581
0
ARC
8
DEFAULT_255_2_778
10
20.254491
20
4.3318362
40
1.1324551
50
260.2610101
51
270.1147927
0
ARC
8
DEFAULT_255_2_778
10
20.2656336
20
4.2240968
40
1.0247519
50
269.503849
51
293.2543515
0
ARC
8
DEFAULT_255_2_778
10
20.2636876
20
4.1806898
40
0.9858213
50
294.3543693
51
343.9983611
0
ARC
8
DEFAULT_255_2_778
10
19.9555575
20
4.2941788
40
1.3135194
50
342.9448277
51
0.2924503
0
ARC
8
DEFAULT_255_2_778
10
24.0818359
20
4.5929725
40
1.3854432
50
74.5469465
51
90.3918872
0
ARC
8
DEFAULT_255_2_778
10
24.1741995
20
4.9154829
40
1.0499863
50
48.6740436
51
74.7156775
0
ARC
8
DEFAULT_255_2_778
10
24.1885949
20
4.9553849
40
1.0106347
50
8.2666436
51
47.7930843
0
ARC
8
DEFAULT_255_2_778
10
23.9408381
20
4.9012783
40
1.2637237
50
359.9004827
51
9.0792339
0
ARC
8
DEFAULT_255_2_778
10
24.0069689
20
4.8920279
40
1.1976118
50
345.3367226
51
0.3375459
0
ARC
8
DEFAULT_255_2_778
10
24.224288
20
4.8354715
40
0.9730542
50
324.3669192
51
345.3192139
0
ARC
8
DEFAULT_255_2_778
10
24.2665825
20
4.8091508
40
0.9233502
50
297.0718381
51
324.1653763
0
ARC
8
DEFAULT_255_2_778
10
24.2729875
20
4.7948348
40
0.9076881
50
286.3757598
51
297.1230982
0
ARC
8
DEFAULT_255_2_778
10
24.2852702
20
4.7550547
40
0.8660589
50
282.333374
51
286.3381183
0
ARC
8
DEFAULT_255_2_778
10
24.0477352
20
4.9204841
40
0.4285485
50
358.6226845
51
37.2101326
0
ARC
8
DEFAULT_255_2_778
10
24.0286318
20
4.8822807
40
0.4672473
50
39.5251057
51
81.7105939
0
ARC
8
DEFAULT_255_2_778
10
23.9774529
20
4.6702533
40
0.6847325
50
80.0305065
51
90.1583994
0
ARC
8
DEFAULT_255_2_778
10
23.9859146
20
5.0069594
40
0.5535231
50
268.6796249
51
304.178461
0
ARC
8
DEFAULT_255_2_778
10
24.0532579
20
4.8904487
40
0.4194164
50
305.509145
51
356.3589971
0
ARC
8
DEFAULT_255_2_778
10
23.9366125
20
4.9093346
40
0.5371476
50
355.1386146
51
0.0371933
0
LINE
8
DEFAULT_255_2_778
10
14.6828599
20
6.8239833
11
14.4605599
21
7.3689833
0
LINE
8
DEFAULT_255_2_778
10
14.4605599
20
7.3689833
11
13.2813599
21
7.3689833
0
LINE
8
DEFAULT_255_2_778
10
13.2813599
20
7.3689833
11
13.0590599
21
6.8239833
0
LINE
8
DEFAULT_255_2_778
10
13.0590599
20
6.8239833
11
12.8362599
21
6.8239833
0
LINE
8
DEFAULT_255_2_778
10
12.8362599
20
6.8239833
11
13.7485599
21
9.0490833
0
LINE
8
DEFAULT_255_2_778
10
13.7485599
20
9.0490833
11
13.9822599
21
9.0490833
0
LINE
8
DEFAULT_255_2_778
10
13.9822599
20
9.0490833
11
14.8944599
21
6.8239833
0
LINE
8
DEFAULT_255_2_778
10
14.8944599
20
6.8239833
11
14.6828599
21
6.8239833
0
LINE
8
DEFAULT_255_2_778
10
13.8708599
20
8.8487833
11
13.3479599
21
7.5467833
0
LINE
8
DEFAULT_255_2_778
10
13.3479599
20
7.5467833
11
14.4044599
21
7.5467833
0
LINE
8
DEFAULT_255_2_778
10
14.4044599
20
7.5467833
11
13.8708599
21
8.8487833
0
LINE
8
DEFAULT_255_2_778
10
15.2281599
20
6.8239833
11
15.2281599
21
9.0490833
0
LINE
8
DEFAULT_255_2_778
10
15.2281599
20
9.0490833
11
16.0626599
21
9.0490833
0
LINE
8
DEFAULT_255_2_778
10
16.0626599
20
7.7361833
11
15.4173599
21
7.7361833
0
LINE
8
DEFAULT_255_2_778
10
15.4173599
20
7.7361833
11
15.4173599
21
6.8128833
0
LINE
8
DEFAULT_255_2_778
10
15.4173599
20
6.8128833
11
15.2281599
21
6.8128833
0
LINE
8
DEFAULT_255_2_778
10
15.2281599
20
6.8128833
11
15.2281599
21
6.8239833
0
LINE
8
DEFAULT_255_2_778
10
16.0403599
20
8.8709833
11
15.4204599
21
8.8709833
0
LINE
8
DEFAULT_255_2_778
10
15.4204599
20
8.8709833
11
15.4204599
21
7.9142833
0
LINE
8
DEFAULT_255_2_778
10
15.4204599
20
7.9142833
11
16.0403599
21
7.9142833
0
LINE
8
DEFAULT_255_2_778
10
16.5298599
20
8.3926833
11
16.5298599
21
8.3926833
0
LINE
8
DEFAULT_255_2_778
10
18.4875599
20
6.8239833
11
18.2647599
21
7.3689833
0
LINE
8
DEFAULT_255_2_778
10
18.2647599
20
7.3689833
11
17.0855599
21
7.3689833
0
LINE
8
DEFAULT_255_2_778
10
17.0855599
20
7.3689833
11
16.8627599
21
6.8239833
0
LINE
8
DEFAULT_255_2_778
10
16.8627599
20
6.8239833
11
16.6402599
21
6.8239833
0
LINE
8
DEFAULT_255_2_778
10
16.6402599
20
6.8239833
11
17.5527599
21
9.0490833
0
LINE
8
DEFAULT_255_2_778
10
17.5527599
20
9.0490833
11
17.7863599
21
9.0490833
0
LINE
8
DEFAULT_255_2_778
10
17.7863599
20
9.0490833
11
18.6984599
21
6.8239833
0
LINE
8
DEFAULT_255_2_778
10
18.6984599
20
6.8239833
11
18.4875599
21
6.8239833
0
LINE
8
DEFAULT_255_2_778
10
17.6752599
20
8.8487833
11
17.1526599
21
7.5467833
0
LINE
8
DEFAULT_255_2_778
10
17.1526599
20
7.5467833
11
18.2091599
21
7.5467833
0
LINE
8
DEFAULT_255_2_778
10
18.2091599
20
7.5467833
11
17.6752599
21
8.8487833
0
LINE
8
DEFAULT_255_2_778
10
20.7571599
20
8.7037833
11
20.6012599
21
8.6040833
0
LINE
8
DEFAULT_255_2_778
10
20.6012599
20
7.2911833
11
20.7571599
21
7.1914833
0
LINE
8
DEFAULT_255_2_778
10
18.8208599
20
7.9364833
11
18.8208599
21
7.9359833
0
LINE
8
DEFAULT_255_2_778
10
22.7486599
20
6.8239833
11
22.7486599
21
7.8806833
0
LINE
8
DEFAULT_255_2_778
10
22.7486599
20
7.8806833
11
21.3357599
21
7.8806833
0
LINE
8
DEFAULT_255_2_778
10
21.3357599
20
7.8806833
11
21.3357599
21
6.8241833
0
LINE
8
DEFAULT_255_2_778
10
21.3357599
20
6.8241833
11
21.1463599
21
6.8241833
0
LINE
8
DEFAULT_255_2_778
10
21.1463599
20
6.8241833
11
21.1463599
21
9.0493833
0
LINE
8
DEFAULT_255_2_778
10
21.1463599
20
9.0493833
11
21.3355599
21
9.0493833
0
LINE
8
DEFAULT_255_2_778
10
21.3355599
20
9.0493833
11
21.3355599
21
8.0589833
0
LINE
8
DEFAULT_255_2_778
10
21.3355599
20
8.0589833
11
22.7483599
21
8.0589833
0
LINE
8
DEFAULT_255_2_778
10
22.7483599
20
8.0589833
11
22.7483599
21
9.0490833
0
LINE
8
DEFAULT_255_2_778
10
22.7483599
20
9.0490833
11
22.9375599
21
9.0490833
0
LINE
8
DEFAULT_255_2_778
10
22.9375599
20
9.0490833
11
22.9375599
21
6.8239833
0
LINE
8
DEFAULT_255_2_778
10
22.9375599
20
6.8239833
11
22.7486599
21
6.8239833
0
LINE
8
DEFAULT_255_2_778
10
23.4913599
20
6.8239833
11
23.4913599
21
9.0490833
0
LINE
8
DEFAULT_255_2_778
10
23.4913599
20
9.0490833
11
24.9041599
21
9.0490833
0
LINE
8
DEFAULT_255_2_778
10
24.9041599
20
9.0490833
11
24.9041599
21
8.8712833
0
LINE
8
DEFAULT_255_2_778
10
24.9041599
20
8.8712833
11
23.6804599
21
8.8712833
0
LINE
8
DEFAULT_255_2_778
10
23.6804599
20
8.8712833
11
23.6804599
21
8.0481833
0
LINE
8
DEFAULT_255_2_778
10
23.6804599
20
8.0481833
11
24.8822599
21
8.0481833
0
LINE
8
DEFAULT_255_2_778
10
24.8822599
20
8.0481833
11
24.8822599
21
7.8703833
0
LINE
8
DEFAULT_255_2_778
10
24.8822599
20
7.8703833
11
23.6804599
21
7.8703833
0
LINE
8
DEFAULT_255_2_778
10
23.6804599
20
7.8703833
11
23.6804599
21
6.9916833
0
LINE
8
DEFAULT_255_2_778
10
23.6804599
20
6.9916833
11
24.9041599
21
6.9916833
0
LINE
8
DEFAULT_255_2_778
10
24.9041599
20
6.9916833
11
24.9041599
21
6.8138833
0
LINE
8
DEFAULT_255_2_778
10
24.9041599
20
6.8138833
11
23.4913599
21
6.8138833
0
LINE
8
DEFAULT_255_2_778
10
23.4913599
20
6.8138833
11
23.4913599
21
6.8239833
0
LINE
8
DEFAULT_255_2_778
10
12.6693599
20
3.0967833
11
13.0588599
21
3.6531833
0
LINE
8
DEFAULT_255_2_778
10
15.3498599
20
5.5557833
11
14.9492599
21
5.0221833
0
LINE
8
DEFAULT_255_2_778
10
12.6685599
20
3.0975833
11
12.6693599
21
3.0967833
0
LINE
8
DEFAULT_255_2_778
10
16.6296599
20
2.6297833
11
16.6296599
21
5.3552833
0
LINE
8
DEFAULT_255_2_778
10
16.6296599
20
5.3552833
11
15.6477599
21
5.3552833
0
LINE
8
DEFAULT_255_2_778
10
15.6477599
20
5.3552833
11
15.6477599
21
5.9751833
0
LINE
8
DEFAULT_255_2_778
10
15.6477599
20
5.9751833
11
18.3179599
21
5.9751833
0
LINE
8
DEFAULT_255_2_778
10
18.3179599
20
5.9751833
11
18.3179599
21
5.3552833
0
LINE
8
DEFAULT_255_2_778
10
18.3179599
20
5.3552833
11
17.3389599
21
5.3552833
0
LINE
8
DEFAULT_255_2_778
10
17.3389599
20
5.3552833
11
17.3389599
21
2.6294833
0
LINE
8
DEFAULT_255_2_778
10
17.3389599
20
2.6294833
11
16.6296599
21
2.6297833
0
LINE
8
DEFAULT_255_2_778
10
18.4989599
20
4.3008833
11
18.4989599
21
4.3008833
0
LINE
8
DEFAULT_255_2_778
10
21.2690599
20
4.3008833
11
21.2690599
21
4.3008833
0
LINE
8
DEFAULT_255_2_778
10
24.3951599
20
2.6297833
11
23.7387599
21
3.8200833
0
LINE
8
DEFAULT_255_2_778
10
23.7387599
20
3.8200833
11
23.2158599
21
3.8200833
0
LINE
8
DEFAULT_255_2_778
10
23.2158599
20
3.8200833
11
23.2158599
21
2.6297833
0
LINE
8
DEFAULT_255_2_778
10
23.2158599
20
2.6297833
11
22.5036599
21
2.6297833
0
LINE
8
DEFAULT_255_2_778
10
22.5036599
20
2.6297833
11
22.5036599
21
5.9783833
0
LINE
8
DEFAULT_255_2_778
10
22.5036599
20
5.9783833
11
24.0723599
21
5.9783833
0
LINE
8
DEFAULT_255_2_778
10
24.4702599
20
3.9089833
11
25.2269599
21
2.6294833
0
LINE
8
DEFAULT_255_2_778
10
25.2269599
20
2.6294833
11
24.3951599
21
2.6297833
0
LINE
8
DEFAULT_255_2_778
10
23.9755599
20
5.3549833
11
23.2164599
21
5.3549833
0
LINE
8
DEFAULT_255_2_778
10
23.2164599
20
5.3549833
11
23.2164599
21
4.4535833
0
LINE
8
DEFAULT_255_2_778
10
23.2164599
20
4.4535833
11
23.9731599
21
4.4535833
0
LINE
8
DEFAULT_255_2_778
10
24.4737599
20
4.9096833
11
24.4761599
21
4.9101833
0
LINE
8
DEFAULT_255_2_778
10
28.6541599
20
2.6297833
11
28.6541599
21
5.0440833
0
LINE
8
DEFAULT_255_2_778
10
28.6541599
20
5.0440833
11
27.7085599
21
2.6297833
0
LINE
8
DEFAULT_255_2_778
10
27.7085599
20
2.6297833
11
27.4000599
21
2.6297833
0
LINE
8
DEFAULT_255_2_778
10
27.4000599
20
2.6297833
11
26.4565599
21
5.0464833
0
LINE
8
DEFAULT_255_2_778
10
26.4565599
20
5.0464833
11
26.4565599
21
2.6321833
0
LINE
8
DEFAULT_255_2_778
10
26.4565599
20
2.6321833
11
25.7442599
21
2.6321833
0
LINE
8
DEFAULT_255_2_778
10
25.7442599
20
2.6321833
11
25.7442599
21
5.9806833
0
LINE
8
DEFAULT_255_2_778
10
25.7442599
20
5.9806833
11
26.7457599
21
5.9806833
0
LINE
8
DEFAULT_255_2_778
10
26.7457599
20
5.9806833
11
27.5577599
21
3.8891833
0
LINE
8
DEFAULT_255_2_778
10
27.5577599
20
3.8891833
11
28.3699599
21
5.9806833
0
LINE
8
DEFAULT_255_2_778
10
28.3699599
20
5.9806833
11
29.3714599
21
5.9806833
0
LINE
8
DEFAULT_255_2_778
10
29.3714599
20
5.9806833
11
29.3714599
21
2.6318833
0
LINE
8
DEFAULT_255_2_778
10
29.3714599
20
2.6318833
11
28.6541599
21
2.6297833
0
LINE
8
DEFAULT_255_2_778
10
7.912644
20
4.5903749
11
6.940844
21
4.5903749
0
LINE
8
DEFAULT_255_2_778
10
6.940844
20
4.5903749
11
4.291244
21
2.5588749
0
LINE
8
DEFAULT_255_2_778
10
4.291244
20
2.5588749
11
7.382944
21
2.5588749
0
LINE
8
DEFAULT_255_2_778
10
7.382944
20
2.5588749
11
3.959744
21
-0.1575251
0
LINE
8
DEFAULT_255_2_778
10
3.959744
20
-0.1575251
11
4.909344
21
-0.1575251
0
LINE
8
DEFAULT_255_2_778
10
4.909344
20
-0.1575251
11
9.127044
21
3.1107749
0
LINE
8
DEFAULT_255_2_778
10
9.127044
20
3.1107749
11
6.013444
21
3.1107749
0
LINE
8
DEFAULT_255_2_778
10
6.013444
20
3.1107749
11
7.912644
21
4.5903749
0
ARC
8
DEFAULT_255_2_778
10
3.7997676
20
10.9092187
40
6.6044237
50
269.9987072
51
271.3023249
0
ARC
8
DEFAULT_255_2_778
10
3.8450675
20
10.1049995
40
5.7994457
50
271.0354779
51
283.0585647
0
ARC
8
DEFAULT_255_2_778
10
4.2415165
20
8.3721392
40
4.021825
50
283.1346074
51
293.78688
0
ARC
8
DEFAULT_255_2_778
10
4.7653468
20
7.1946812
40
2.7331137
50
293.6941997
51
307.6763596
0
ARC
8
DEFAULT_255_2_778
10
5.3879955
20
6.4339536
40
1.7506745
50
306.7647097
51
347.9565592
0
ARC
8
DEFAULT_255_2_778
10
5.2445695
20
6.445068
40
1.8933586
50
348.5332471
51
0.1823862
0
ARC
8
DEFAULT_255_2_778
10
5.2644544
20
6.4599329
40
1.873485
50
359.7297155
51
17.1161042
0
ARC
8
DEFAULT_255_2_778
10
5.4275668
20
6.5027178
40
1.7050198
50
17.3552136
51
49.8570243
0
ARC
8
DEFAULT_255_2_778
10
5.2203474
20
6.2654873
40
2.0199689
50
49.7020227
51
63.0816325
0
ARC
8
DEFAULT_255_2_778
10
5.0217428
20
5.8786326
40
2.4548222
50
63.0361399
51
73.0751676
0
ARC
8
DEFAULT_255_2_778
10
4.8614337
20
5.3579284
40
2.9996427
50
73.0411683
51
81.0680564
0
ARC
8
DEFAULT_255_2_778
10
4.7584827
20
4.7112669
40
3.654447
50
81.047657
51
87.8310958
0
ARC
8
DEFAULT_255_2_778
10
4.7318183
20
4.1910991
40
4.175257
50
87.7355952
51
90.0134215
0
ARC
8
DEFAULT_255_2_778
10
4.733638
20
3.7791744
40
4.5871823
50
90.0349448
51
93.5922927
0
ARC
8
DEFAULT_255_2_778
10
4.7686396
20
3.2177498
40
5.149697
50
93.589579
51
96.8816312
0
ARC
8
DEFAULT_255_2_778
10
4.8384984
20
2.6329946
40
5.7386098
50
96.8745525
51
99.6784373
0
ARC
8
DEFAULT_255_2_778
10
4.9444306
20
2.0125639
40
6.368019
50
99.6795041
51
102.4612511
0
ARC
8
DEFAULT_255_2_778
10
5.0944458
20
1.3323936
40
7.0645363
50
102.4589359
51
105.0316975
0
ARC
8
DEFAULT_255_2_778
10
5.2847056
20
0.6225191
40
7.7994652
50
105.0290619
51
107.3782568
0
ARC
8
DEFAULT_255_2_778
10
5.5131625
20
-0.1085413
40
8.5653905
50
107.3760928
51
109.5319012
0
ARC
8
DEFAULT_255_2_778
10
5.6883828
20
-0.6094178
40
9.0960264
50
109.5172784
51
110.2135768
0
ARC
8
DEFAULT_255_2_778
10
0.8113362
20
9.5205955
40
2.3556026
50
315.9697174
51
317.4082707
0
ARC
8
DEFAULT_255_2_778
10
-1.7632244
20
12.0065992
40
5.9345096
50
315.0170232
51
315.9895122
0
ARC
8
DEFAULT_255_2_778
10
-6.8475893
20
17.0796336
40
13.116879
50
314.4597088
51
315.0426986
0
ARC
8
DEFAULT_255_2_778
10
-15.4725856
20
25.863227
40
25.4271212
50
314.0791928
51
314.4685805
0
ARC
8
DEFAULT_255_2_778
10
-34.5431312
20
45.5688978
40
52.849724
50
313.7255549
51
314.0700758
0
ARC
8
DEFAULT_255_2_778
10
-57.7329551
20
69.7650015
40
86.3641786
50
313.7349112
51
313.7480252
0
LINE
8
DEFAULT_255_2_778
10
1.9725703
20
7.3629058
11
1.9695278
21
7.3599949
0
LINE
8
DEFAULT_255_2_778
10
1.9695278
20
7.3599949
11
1.9664973
21
7.3570958
0
ARC
8
DEFAULT_255_2_778
10
-478.0488751
20
509.1807706
40
694.4362881
50
313.7272286
51
313.7275733
0
ARC
8
DEFAULT_255_2_778
10
23.5981464
20
-15.2690516
40
31.302887
50
133.7203932
51
133.7280083
0
ARC
8
DEFAULT_255_2_778
10
-467.9341706
20
498.7047486
40
679.8743667
50
313.7207999
51
313.7211491
0
ARC
8
DEFAULT_255_2_778
10
-463.6825706
20
494.2741724
40
673.7338459
50
313.7195534
51
313.7199043
0
ARC
8
DEFAULT_255_2_778
10
23.068376
20
-14.7390692
40
30.5537121
50
133.7126043
51
133.7203116
0
ARC
8
DEFAULT_255_2_778
10
-453.7331644
20
483.967376
40
659.4084808
50
313.7129824
51
313.7133381
0
ARC
8
DEFAULT_255_2_778
10
-449.5467381
20
479.6039709
40
653.3615517
50
313.7116885
51
313.712046
0
ARC
8
DEFAULT_255_2_778
10
-17.7464064
20
27.9346495
40
28.4962043
50
313.7043522
51
313.7125144
0
ARC
8
DEFAULT_255_2_778
10
-441.1059085
20
470.8083816
40
641.1710044
50
313.708888
51
313.7092492
0
ARC
8
DEFAULT_255_2_778
10
-16.6054798
20
26.7312521
40
26.8379423
50
313.7013873
51
313.7099819
0
ARC
8
DEFAULT_255_2_778
10
51.7475806
20
-44.7955788
40
72.0975337
50
133.6997916
51
133.7045701
0
ARC
8
DEFAULT_255_2_778
10
-424.5946963
20
453.6859475
40
617.3847339
50
313.6979549
51
313.6983246
0
ARC
8
DEFAULT_255_2_778
10
-16.0667404
20
26.151982
40
26.0469436
50
313.6942878
51
313.7030135
0
ARC
8
DEFAULT_255_2_778
10
-416.4033243
20
445.1477507
40
605.5526248
50
313.6949705
51
313.6953442
0
ARC
8
DEFAULT_255_2_778
10
-15.7597229
20
25.8237943
40
25.5975612
50
313.6872325
51
313.6960358
0
ARC
8
DEFAULT_255_2_778
10
-15.6103459
20
25.662675
40
25.3778748
50
313.6857757
51
313.6946172
0
ARC
8
DEFAULT_255_2_778
10
21.8565986
20
-13.56446
40
28.8673097
50
133.6847818
51
133.692521
0
ARC
8
DEFAULT_255_2_778
10
-15.3108718
20
25.3398516
40
24.9375816
50
313.6826328
51
313.6915529
0
ARC
8
DEFAULT_255_2_778
10
-15.163527
20
25.1809079
40
24.7208717
50
313.6811371
51
313.6900964
0
ARC
8
DEFAULT_255_2_778
10
-391.2226844
20
418.9489694
40
569.2149268
50
313.6817811
51
313.6821685
0
ARC
8
DEFAULT_255_2_778
10
-192.6943215
20
211.0759062
40
281.7697647
50
313.6799765
51
313.6807556
0
ARC
8
DEFAULT_255_2_778
10
-190.7712773
20
209.0673904
40
278.9890775
50
313.6784492
51
313.6792327
0
ARC
8
DEFAULT_255_2_778
10
-188.8588371
20
207.0698835
40
276.2236755
50
313.6769086
51
313.6776965
0
ARC
8
DEFAULT_255_2_778
10
-375.7542532
20
402.8172724
40
546.8653884
50
313.6754534
51
313.6758495
0
ARC
8
DEFAULT_255_2_778
10
-14.2853846
20
24.2365125
40
23.4314052
50
313.6672807
51
313.6764864
0
ARC
8
DEFAULT_255_2_778
10
107.0553858
20
-102.8757247
40
152.2987953
50
133.6695883
51
133.6724076
0
ARC
8
DEFAULT_255_2_778
10
-179.3978299
20
197.1881923
40
262.5431011
50
313.6687949
51
313.6696055
0
ARC
8
DEFAULT_255_2_778
10
-177.5501143
20
195.2578856
40
259.8710002
50
313.6671687
51
313.667984
0
ARC
8
DEFAULT_255_2_778
10
-175.7132435
20
193.3388415
40
257.2145343
50
313.6655278
51
313.6663477
0
ARC
8
DEFAULT_255_2_778
10
-173.88726
20
191.4311046
40
254.573765
50
313.6638719
51
313.6646966
0
ARC
8
DEFAULT_255_2_778
10
-172.0721908
20
189.5347035
40
251.9487316
50
313.6622008
51
313.6630303
0
ARC
8
DEFAULT_255_2_778
10
47.7364082
20
-40.7947378
40
66.4338557
50
133.6569218
51
133.6616185
0
ARC
8
DEFAULT_255_2_778
10
19.8501201
20
-11.5789175
40
26.0456248
50
133.6545151
51
133.6624481
0
ARC
8
DEFAULT_255_2_778
10
-165.5566771
20
182.7387624
40
242.5340491
50
313.6541312
51
313.6549792
0
ARC
8
DEFAULT_255_2_778
10
-12.0831672
20
21.8771889
40
20.2041951
50
313.6500601
51
313.660193
0
ARC
8
DEFAULT_255_2_778
10
-162.6351502
20
179.6594308
40
238.2893514
50
313.6552758
51
313.6561309
0
ARC
8
DEFAULT_255_2_778
10
-160.3506365
20
177.2969886
40
235.00307
50
313.649043
51
313.6499061
0
ARC
8
DEFAULT_255_2_778
10
-11.7007421
20
21.4634859
40
19.640883
50
313.6448905
51
313.6551697
0
ARC
8
DEFAULT_255_2_778
10
47.4512834
20
-40.5520534
40
66.0614461
50
133.6465886
51
133.6511505
0
ARC
8
DEFAULT_255_2_778
10
-11.3908384
20
21.1268689
40
19.1834056
50
313.6428891
51
313.653291
0
ARC
8
DEFAULT_255_2_778
10
-153.0346676
20
169.6354736
40
224.4095735
50
313.6436422
51
313.6445272
0
ARC
8
DEFAULT_255_2_778
10
-136.1437462
20
151.9213669
40
199.9332014
50
313.6429355
51
313.6444182
0
ARC
8
DEFAULT_255_2_778
10
-111.5021852
20
126.0781965
40
164.2249956
50
313.6425347
51
313.6443271
0
ARC
8
DEFAULT_255_2_778
10
-131.9094555
20
147.4844432
40
193.8000535
50
313.6393265
51
313.6408345
0
ARC
8
DEFAULT_255_2_778
10
44.212872
20
-37.213447
40
61.4104184
50
133.6359568
51
133.6406819
0
ARC
8
DEFAULT_255_2_778
10
89.7772404
20
-85.009311
40
127.4449262
50
133.63555
51
133.6383751
0
ARC
8
DEFAULT_255_2_778
10
109.5957032
20
-105.811695
40
156.1766249
50
133.6336055
51
133.6360423
0
ARC
8
DEFAULT_255_2_778
10
107.7833373
20
-103.9336741
40
153.5667625
50
133.6301836
51
133.632638
0
ARC
8
DEFAULT_255_2_778
10
-99.7440289
20
113.7482272
40
147.1873197
50
313.6293592
51
313.6312616
0
ARC
8
DEFAULT_255_2_778
10
67.6710907
20
-61.8781252
40
95.4491119
50
133.6279326
51
133.6313297
0
ARC
8
DEFAULT_255_2_778
10
-96.4512199
20
110.2849788
40
142.4085499
50
313.6276467
51
313.6295819
0
ARC
8
DEFAULT_255_2_778
10
65.7371782
20
-59.8751586
40
92.6649471
50
133.6233735
51
133.6268173
0
ARC
8
DEFAULT_255_2_778
10
147.1383685
20
-145.2953062
40
210.6596727
50
133.6229608
51
133.6255337
0
ARC
8
DEFAULT_255_2_778
10
107.3110027
20
-103.5276254
40
152.946953
50
133.6209151
51
133.6232438
0
ARC
8
DEFAULT_255_2_778
10
-75.3531375
20
88.1371864
40
111.8200922
50
313.6193508
51
313.6217166
0
ARC
8
DEFAULT_255_2_778
10
-17.719311
20
27.6535913
40
28.2741574
50
313.6142999
51
313.6235864
0
ARC
8
DEFAULT_255_2_778
10
-17.4328817
20
27.346184
40
27.8540161
50
313.6145603
51
313.6239162
0
ARC
8
DEFAULT_255_2_778
10
113.1992233
20
-109.7561679
40
161.518109
50
133.6158051
51
133.6179396
0
ARC
8
DEFAULT_255_2_778
10
63.0883126
20
-57.1781859
40
88.8851449
50
133.6131916
51
133.6165518
0
ARC
8
DEFAULT_255_2_778
10
-73.1447563
20
85.7938551
40
108.6001802
50
313.6152985
51
313.6180244
0
ARC
8
DEFAULT_255_2_778
10
60.923505
20
-54.919938
40
85.7568889
50
133.6136853
51
133.6171068
0
ARC
8
DEFAULT_255_2_778
10
12535.4441834
20
-13150.7126574
40
18172.0349215
50
133.6082225
51
133.6087815
0
ARC
8
DEFAULT_255_2_778
10
81.8429281
20
-77.1527649
40
116.2836913
50
133.6098407
51
133.6681369
0
ARC
8
DEFAULT_255_2_778
10
28.2767636
20
-21.0436223
40
38.7106946
50
133.6608889
51
133.8278107
0
ARC
8
DEFAULT_255_2_778
10
10.7317023
20
-2.7682319
40
13.3765466
50
133.8199132
51
134.1357761
0
ARC
8
DEFAULT_255_2_778
10
4.0376928
20
4.1258645
40
3.7672654
50
134.0832413
51
134.8735694
0
ARC
8
DEFAULT_255_2_778
10
6.7161881
20
-3.8003002
40
11.8638485
50
114.1905108
51
116.7314501
0
ARC
8
DEFAULT_255_2_778
10
6.3202689
20
-2.915852
40
10.894829
50
111.3299516
51
114.1971862
0
ARC
8
DEFAULT_255_2_778
10
5.9249236
20
-1.9025582
40
9.8071424
50
108.4671601
51
111.3317575
0
ARC
8
DEFAULT_255_2_778
10
5.5844595
20
-0.883437
40
8.7326546
50
105.69465
51
108.4664109
0
ARC
8
DEFAULT_255_2_778
10
5.2886305
20
0.1749527
40
7.6337002
50
102.4437507
51
105.7059537
0
ARC
8
DEFAULT_255_2_778
10
5.0505556
20
1.2549914
40
6.527733
50
99.0678446
51
102.4459085
0
ARC
8
DEFAULT_255_2_778
10
4.8860601
20
2.293479
40
5.476299
50
95.1753826
51
99.0807129
0
ARC
8
DEFAULT_255_2_778
10
4.7974716
20
3.2815544
40
4.4842607
50
90.7657204
51
95.1869032
0
ARC
8
DEFAULT_255_2_778
10
4.7851262
20
3.8019194
40
3.9637808
50
90.0017853
51
90.6878067
0
ARC
8
DEFAULT_255_2_778
10
4.7916044
20
4.3061775
40
3.459529
50
84.5869236
51
90.1093352
0
ARC
8
DEFAULT_255_2_778
10
4.8666357
20
5.0842249
40
2.6778735
50
77.9204755
51
84.6147207
0
ARC
8
DEFAULT_255_2_778
10
5.0061242
20
5.7258405
40
2.021275
50
69.0894106
51
77.9808426
0
ARC
8
DEFAULT_255_2_778
10
5.1954192
20
6.2148863
40
1.4968786
50
56.6777865
51
69.1767636
0
ARC
8
DEFAULT_255_2_778
10
5.4269802
20
6.5484476
40
1.0909976
50
17.0769348
51
57.2161039
0
ARC
8
DEFAULT_255_2_778
10
5.2192377
20
6.4871498
40
1.3075835
50
4.2263917
51
16.9713567
0
ARC
8
DEFAULT_255_2_778
10
4.9479053
20
6.4610431
40
1.5801137
50
359.9547453
51
4.4453774
0
ARC
8
DEFAULT_255_2_778
10
5.2174358
20
6.4551935
40
1.3105908
50
348.4954903
51
0.2011669
0
ARC
8
DEFAULT_255_2_778
10
5.3869405
20
6.4216128
40
1.1377945
50
330.8276512
51
348.4501287
0
ARC
8
DEFAULT_255_2_778
10
5.1817953
20
6.5704994
40
1.3898155
50
300.4133891
51
329.5905492
0
ARC
8
DEFAULT_255_2_778
10
4.4857748
20
7.7309595
40
2.742971
50
284.0932365
51
300.6803225
0
ARC
8
DEFAULT_255_2_778
10
4.0207275
20
9.347991
40
4.4249414
50
279.5240868
51
284.8352201
0
ARC
8
DEFAULT_255_2_778
10
3.8629474
20
10.244653
40
5.3353556
50
276.8594191
51
279.6018545
0
ARC
8
DEFAULT_255_2_778
10
3.8041058
20
10.7207019
40
5.8150249
50
275.0084012
51
276.8748299
0
ARC
8
DEFAULT_255_2_778
10
3.785296
20
10.9290382
40
6.0242078
50
273.3906164
51
275.0136309
0
ARC
8
DEFAULT_255_2_778
10
3.7880124
20
10.8774008
40
5.9725001
50
272.2462776
51
273.393901
0
ARC
8
DEFAULT_255_2_778
10
3.796827
20
10.6536863
40
5.7486121
50
271.4857967
51
272.2458849
0
ARC
8
DEFAULT_255_2_778
10
3.8056194
20
10.3058609
40
5.4006757
50
270.6354511
51
271.4882304
0
ARC
8
DEFAULT_255_2_778
10
3.807063
20
10.256083
40
5.3508848
50
270.0479624
51
270.6259056
0
ARC
8
DEFAULT_255_2_778
10
3.8009199
20
15.8641169
40
10.958922
50
269.9905823
51
270.0555359
0
LINE
8
DEFAULT_255_2_778
10
3.9766186
20
6.459795
11
3.0225186
21
6.459795
0
LINE
8
DEFAULT_255_2_778
10
3.0225186
20
6.459795
11
0.2669186
21
4.322295
0
LINE
8
DEFAULT_255_2_778
10
0.2669186
20
4.322295
11
3.7996186
21
4.304795
0
LINE
8
DEFAULT_255_2_778
10
3.7991186
20
4.905195
11
1.9954186
21
4.905195
0
LINE
8
DEFAULT_255_2_778
10
1.9954186
20
4.905195
11
3.9766186
21
6.459795
0
ARC
8
DEFAULT_255_2_778
10
0.7821557
20
9.5471604
40
2.3930589
50
315.9473684
51
317.3645707
0
ARC
8
DEFAULT_255_2_778
10
-1.8250088
20
12.0667009
40
6.0187161
50
315.0072448
51
315.966535
0
ARC
8
DEFAULT_255_2_778
10
-6.9668601
20
17.1989281
40
13.2835888
50
314.4568654
51
315.0326356
0
ARC
8
DEFAULT_255_2_778
10
-15.7151692
20
26.1089473
40
25.7704357
50
314.0816023
51
314.4658053
0
ARC
8
DEFAULT_255_2_778
10
-35.0420006
20
46.0776823
40
53.5603037
50
313.7326313
51
314.0725427
0
ARC
8
DEFAULT_255_2_778
10
-56.1806679
20
68.1262173
40
84.1050328
50
313.7412925
51
313.7545815
0
LINE
8
DEFAULT_255_2_778
10
1.9698266
20
7.3629344
11
1.9667836
21
7.3600224
0
ARC
8
DEFAULT_255_2_778
10
-485.7878065
20
517.1094755
40
705.5133203
50
313.7364979
51
313.7368386
0
ARC
8
DEFAULT_255_2_778
10
-481.4530347
20
512.5937599
40
699.2537811
50
313.7353294
51
313.7356718
0
ARC
8
DEFAULT_255_2_778
10
23.6068906
20
-15.2746085
40
31.3148625
50
133.7285269
51
133.7361411
0
ARC
8
DEFAULT_255_2_778
10
-471.2786484
20
502.0579376
40
684.6073821
50
313.7289682
51
313.7293151
0
ARC
8
DEFAULT_255_2_778
10
-467.0072052
20
497.6074591
40
678.4387615
50
313.7277551
51
313.7281037
0
ARC
8
DEFAULT_255_2_778
10
-461.2236555
20
491.6441093
40
670.1316764
50
313.7225029
51
313.7228544
0
ARC
8
DEFAULT_255_2_778
10
-456.9986022
20
487.2413463
40
664.029604
50
313.7212534
51
313.7216067
0
ARC
8
DEFAULT_255_2_778
10
-452.7924296
20
482.8581363
40
657.9547125
50
313.7199937
51
313.7203487
0
ARC
8
DEFAULT_255_2_778
10
-17.7655486
20
27.9458113
40
28.5155886
50
313.7126938
51
313.7208526
0
ARC
8
DEFAULT_255_2_778
10
-444.3112956
20
474.022125
40
645.7070919
50
313.7172636
51
313.7176224
0
ARC
8
DEFAULT_255_2_778
10
-438.6884506
20
468.2229342
40
637.6297278
50
313.7118572
51
313.7122191
0
ARC
8
DEFAULT_255_2_778
10
-434.5694619
20
463.9297019
40
631.6801229
50
313.7105372
51
313.7109009
0
ARC
8
DEFAULT_255_2_778
10
-16.3168841
20
26.4137596
40
26.4071112
50
313.7029825
51
313.7116464
0
ARC
8
DEFAULT_255_2_778
10
-424.952256
20
453.9647851
40
617.8314483
50
313.7036968
51
313.7040656
0
ARC
8
DEFAULT_255_2_778
10
-16.0111606
20
26.0843101
40
25.9577117
50
313.7000482
51
313.7087876
0
ARC
8
DEFAULT_255_2_778
10
-416.7506292
20
445.4169572
40
605.9852891
50
313.7007563
51
313.7011291
0
ARC
8
DEFAULT_255_2_778
10
-412.7417338
20
441.237477
40
600.1939869
50
313.6993607
51
313.6997354
0
ARC
8
DEFAULT_255_2_778
10
-203.3888757
20
222.1643621
40
297.173115
50
313.6976705
51
313.6984241
0
ARC
8
DEFAULT_255_2_778
10
21.7728107
20
-13.4781835
40
28.7489531
50
133.6906212
51
133.6983777
0
ARC
8
DEFAULT_255_2_778
10
-15.2565443
20
25.2736142
40
24.8502536
50
313.6884963
51
313.6974308
0
ARC
8
DEFAULT_255_2_778
10
-15.109455
20
25.1149636
40
24.6339327
50
313.6870231
51
313.6959969
0
ARC
8
DEFAULT_255_2_778
10
21.2549313
20
-12.9561629
40
28.0137574
50
133.686019
51
133.6938757
0
ARC
8
DEFAULT_255_2_778
10
-192.8490346
20
211.18998
40
281.9572117
50
313.6859127
51
313.6866899
0
ARC
8
DEFAULT_255_2_778
10
-190.9238712
20
209.1795177
40
279.1736529
50
313.6844086
51
313.68519
0
ARC
8
DEFAULT_255_2_778
10
-189.0093281
20
207.1800807
40
276.4054024
50
313.6828912
51
313.683677
0
ARC
8
DEFAULT_255_2_778
10
-14.3817436
20
24.3301678
40
23.5637843
50
313.6792639
51
313.6884409
0
ARC
8
DEFAULT_255_2_778
10
-372.2581347
20
399.0835136
40
541.7486754
50
313.6799152
51
313.6803126
0
ARC
8
DEFAULT_255_2_778
10
-183.2731922
20
201.1903943
40
268.112064
50
313.6780578
51
313.6788572
0
ARC
8
DEFAULT_255_2_778
10
105.5236182
20
-101.2652053
40
150.0780694
50
133.6740505
51
133.6768931
0
ARC
8
DEFAULT_255_2_778
10
-177.6885479
20
195.3570892
40
260.0364473
50
313.6732952
51
313.6741083
0
ARC
8
DEFAULT_255_2_778
10
-175.8497986
20
193.4363464
40
257.3774552
50
313.6716788
51
313.6724966
0
ARC
8
DEFAULT_255_2_778
10
73.4921511
20
-67.7553659
40
103.7215875
50
133.6671318
51
133.6706662
0
ARC
8
DEFAULT_255_2_778
10
-12.5247193
20
22.3480089
40
20.8477514
50
313.6615485
51
313.6715192
0
ARC
8
DEFAULT_255_2_778
10
107.2444343
20
-103.1416067
40
152.623554
50
133.664181
51
133.6668915
0
ARC
8
DEFAULT_255_2_778
10
-165.6631726
20
182.7869794
40
242.6405581
50
313.6633563
51
313.6642012
0
LINE
8
DEFAULT_255_2_778
10
1.8606956
20
7.2586512
11
1.5600269
21
6.9720138
0
ARC
8
DEFAULT_255_2_778
10
31.5815033
20
-24.4903025
40
43.4875429
50
133.6575498
51
133.8165729
0
ARC
8
DEFAULT_255_2_778
10
11.5342638
20
-3.6002325
40
14.5343596
50
133.8086648
51
134.1190958
0
ARC
8
DEFAULT_255_2_778
10
4.1493637
20
4.009843
40
3.9301179
50
134.0635825
51
134.8655941
0
ARC
8
DEFAULT_255_2_778
10
6.6505521
20
-3.6813021
40
11.7291197
50
112.6155365
51
116.7194586
0
ARC
8
DEFAULT_255_2_778
10
5.9935732
20
-2.1002961
40
10.0170454
50
108.3867272
51
112.6241614
0
ARC
8
DEFAULT_255_2_778
10
5.5784851
20
-0.8748745
40
8.7232548
50
106.2410232
51
108.3383608
0
ARC
8
DEFAULT_255_2_778
10
43.4125294
20
-22.998128
40
50.518583
50
142.7422039
51
142.8641821
0
ARC
8
DEFAULT_255_2_778
10
15.2363457
20
-1.5715142
40
15.1208844
50
142.3230823
51
142.7268062
0
ARC
8
DEFAULT_255_2_778
10
11.6705813
20
1.1830639
40
10.6150686
50
141.4860524
51
142.3270815
0
ARC
8
DEFAULT_255_2_778
10
10.158895
20
2.3859298
40
8.683209
50
140.2510308
51
141.485099
0
ARC
8
DEFAULT_255_2_778
10
9.2894018
20
3.1095467
40
7.5519976
50
138.5095511
51
140.2539094
0
ARC
8
DEFAULT_255_2_778
10
8.6146396
20
3.7074644
40
6.6504386
50
136.0659672
51
138.5169018
0
ARC
8
DEFAULT_255_2_778
10
8.1879602
20
4.1154983
40
6.0600644
50
134.7644646
51
136.0451512
0
ARC
8
DEFAULT_255_2_778
10
7.6497514
20
4.6694406
40
5.2877637
50
129.4371212
51
134.8506124
0
ARC
8
DEFAULT_255_2_778
10
6.8596615
20
5.649768
40
4.0287648
50
118.8207267
51
129.6153252
0
ARC
8
DEFAULT_255_2_778
10
6.3396336
20
6.6041349
40
2.9419263
50
102.4101942
51
118.9075694
0
ARC
8
DEFAULT_255_2_778
10
6.2358796
20
7.0136566
40
2.5197112
50
90.0341575
51
102.107313
0
ARC
8
DEFAULT_255_2_778
10
6.2403369
20
5.6609268
40
3.8724452
50
84.598942
51
90.0881746
0
ARC
8
DEFAULT_255_2_778
10
6.3031159
20
6.3226535
40
3.2077473
50
78.5065373
51
84.6027665
0
ARC
8
DEFAULT_255_2_778
10
6.4090135
20
6.8400726
40
2.6796031
50
71.3148842
51
78.5209739
0
ARC
8
DEFAULT_255_2_778
10
6.5452303
20
7.2405686
40
2.2565766
50
62.5732113
51
71.3334621
0
ARC
8
DEFAULT_255_2_778
10
6.6914488
20
7.5221534
40
1.9392916
50
52.4233047
51
62.575617
0
ARC
8
DEFAULT_255_2_778
10
6.824517
20
7.69545
40
1.7207994
50
41.0106987
51
52.4160221
0
ARC
8
DEFAULT_255_2_778
10
6.9420563
20
7.7976086
40
1.5650692
50
28.662739
51
41.0122288
0
ARC
8
DEFAULT_255_2_778
10
7.0010969
20
7.8328096
40
1.4963817
50
28.1714175
51
28.564395
0
ARC
8
DEFAULT_255_2_778
10
7.0592232
20
7.8625014
40
1.431124
50
20.2704301
51
28.2221669
0
ARC
8
DEFAULT_255_2_778
10
7.185553
20
7.9087635
40
1.2965906
50
12.493442
51
20.2867851
0
ARC
8
DEFAULT_255_2_778
10
7.3593883
20
7.9466426
40
1.1186775
50
4.415592
51
12.5253683
0
ARC
8
DEFAULT_255_2_778
10
7.5189438
20
7.9604479
40
0.9585338
50
0.0430088
51
4.3271183
0
ARC
8
DEFAULT_255_2_778
10
7.1221428
20
7.9650571
40
1.3553402
50
345.9634899
51
359.8355675
0
ARC
8
DEFAULT_255_2_778
10
6.8736615
20
8.0263657
40
1.6112722
50
335.9409132
51
345.9915356
0
ARC
8
DEFAULT_255_2_778
10
6.6438667
20
8.1260688
40
1.8617525
50
329.7823685
51
336.0221888
0
ARC
8
DEFAULT_255_2_778
10
6.554648
20
8.1760873
40
1.9640224
50
329.0472576
51
329.8313945
0
ARC
8
DEFAULT_255_2_778
10
6.5189026
20
8.1979593
40
2.0059267
50
324.7321534
51
329.0366234
0
ARC
8
DEFAULT_255_2_778
10
6.5524271
20
8.173583
40
1.9644805
50
321.782621
51
324.7480569
0
ARC
8
DEFAULT_255_2_778
10
6.7134433
20
8.0462956
40
1.7592291
50
319.3859671
51
321.7954421
0
ARC
8
DEFAULT_255_2_778
10
7.0138665
20
7.7880267
40
1.3630516
50
317.375656
51
319.4066255
0
ARC
8
DEFAULT_255_2_778
10
7.4641759
20
7.3726339
40
0.7504108
50
315.7350119
51
317.4295224
0
ARC
8
DEFAULT_255_2_778
10
7.862422
20
6.9850918
40
0.1947237
50
315.1520932
51
315.6053865
0
ARC
8
DEFAULT_255_2_778
10
8.5107652
20
17.4595038
40
10.6239984
50
267.2469321
51
267.2913039
0
ARC
8
DEFAULT_255_2_778
10
9.4199629
20
36.6395636
40
29.8255955
50
267.2879045
51
267.35301
0
ARC
8
DEFAULT_255_2_778
10
10.082488
20
50.9464167
40
44.1477806
50
267.3515884
51
267.4325817
0
ARC
8
DEFAULT_255_2_778
10
10.3883149
20
57.7553697
40
50.9635984
50
267.4320043
51
267.540536
0
ARC
8
DEFAULT_255_2_778
10
10.3896698
20
57.7758981
40
50.9841661
50
267.5400048
51
267.6492204
0
ARC
8
DEFAULT_255_2_778
10
10.235902
20
54.0161254
40
47.2212503
50
267.6485197
51
267.7799748
0
ARC
8
DEFAULT_255_2_778
10
10.0052263
20
48.0494253
40
41.2500931
50
267.7791001
51
267.9345925
0
ARC
8
DEFAULT_255_2_778
10
9.7537189
20
41.058214
40
34.2543593
50
267.9335526
51
268.1265527
0
ARC
8
DEFAULT_255_2_778
10
9.3820911
20
29.389197
40
22.5794328
50
268.1010397
51
268.7050771
0
ARC
8
DEFAULT_255_2_778
10
9.1528856
20
19.4469782
40
12.6345742
50
268.7253264
51
269.2197368
0
ARC
8
DEFAULT_255_2_778
10
9.0833281
20
14.2093665
40
7.3965011
50
269.2059996
51
269.957777
0
ARC
8
DEFAULT_255_2_778
10
9.0764084
20
4.8355044
40
1.9773636
50
87.400007
51
89.9574338
0
ARC
8
DEFAULT_255_2_778
10
9.0678266
20
4.6298511
40
2.1831946
50
84.3923259
51
87.4198483
0
ARC
8
DEFAULT_255_2_778
10
9.0729205
20
4.6714263
40
2.1413207
50
80.0872771
51
84.4192697
0
ARC
8
DEFAULT_255_2_778
10
9.1248409
20
4.9521078
40
1.8558938
50
72.8145907
51
80.1745409
0
ARC
8
DEFAULT_255_2_778
10
9.186829
20
5.1662137
40
1.6330367
50
71.7717623
51
72.6728388
0
ARC
8
DEFAULT_255_2_778
10
9.3528974
20
5.5879668
40
1.1807833
50
45.987108
51
73.0242091
0
ARC
8
DEFAULT_255_2_778
10
9.5518678
20
5.82088
40
0.8752278
50
23.3289125
51
44.7604484
0
ARC
8
DEFAULT_255_2_778
10
9.4531754
20
5.7814998
40
0.9814512
50
9.0194871
51
23.1583068
0
ARC
8
DEFAULT_255_2_778
10
9.1987793
20
5.7393867
40
1.2393049
50
359.8095562
51
9.0985747
0
ARC
8
DEFAULT_255_2_778
10
9.3599004
20
5.7301231
40
1.0781893
50
347.5225838
51
0.2733749
0
ARC
8
DEFAULT_255_2_778
10
9.538488
20
5.6912971
40
0.8954313
50
328.6548372
51
347.4793432
0
ARC
8
DEFAULT_255_2_778
10
9.3468926
20
5.8588919
40
1.1470686
50
289.9987763
51
326.4831184
0
ARC
8
DEFAULT_255_2_778
10
9.0397958
20
6.5034547
40
1.8590404
50
287.7539887
51
292.0992751
0
ARC
8
DEFAULT_255_2_778
10
8.9286648
20
6.8605265
40
2.2329958
50
280.9375593
51
287.6758875
0
ARC
8
DEFAULT_255_2_778
10
8.86726
20
7.1595317
40
2.5382229
50
276.9295745
51
281.0178382
0
ARC
8
DEFAULT_255_2_778
10
8.8685289
20
7.1394431
40
2.5181281
50
273.9207024
51
276.9560603
0
ARC
8
DEFAULT_255_2_778
10
8.8907724
20
6.8011705
40
2.1791265
50
271.2044905
51
273.9453729
0
ARC
8
DEFAULT_255_2_778
10
8.9011636
20
6.3727811
40
1.7506137
50
270.016817
51
271.1591981
0
ARC
8
DEFAULT_255_2_778
10
8.8279368
20
7.1996786
40
3.1961425
50
269.74617
51
285.247494
0
ARC
8
DEFAULT_255_2_778
10
9.0508852
20
6.4002459
40
2.3662228
50
285.129853
51
302.1546721
0
ARC
8
DEFAULT_255_2_778
10
9.5096859
20
5.7226527
40
1.5486355
50
301.1258018
51
347.002079
0
ARC
8
DEFAULT_255_2_778
10
9.3928724
20
5.7290451
40
1.6640145
50
347.692276
51
0.1935901
0
ARC
8
DEFAULT_255_2_778
10
9.3138119
20
5.7438425
40
1.7430896
50
359.6984123
51
13.5761105
0
ARC
8
DEFAULT_255_2_778
10
9.6115927
20
5.8152443
40
1.4368688
50
13.5957813
51
36.1619
0
ARC
8
DEFAULT_255_2_778
10
9.4305525
20
5.6395301
40
1.6870793
50
37.3519024
51
69.7663746
0
ARC
8
DEFAULT_255_2_778
10
9.0803296
20
4.7711188
40
2.6231776
50
69.1488495
51
88.3800554
0
ARC
8
DEFAULT_255_2_778
10
9.0436538
20
4.3525367
40
3.0427306
50
87.9125304
51
90.0033219
0
ARC
8
DEFAULT_255_2_778
10
8.1471738
20
7.9330312
40
1.0452512
50
329.0371064
51
330.9656058
0
ARC
8
DEFAULT_255_2_778
10
8.1431512
20
7.9195689
40
1.0423248
50
331.7199569
51
2.2432341
0
ARC
8
DEFAULT_255_2_778
10
8.7387001
20
7.9541689
40
0.4460204
50
0.7962813
51
6.5027164
0
ARC
8
DEFAULT_255_2_778
10
8.096466
20
7.8867163
40
1.0917765
50
6.2028186
51
10.0120515
0
ARC
8
DEFAULT_255_2_778
10
7.5274714
20
7.7884465
40
1.669192
50
9.9382713
51
13.3871896
0
ARC
8
DEFAULT_255_2_778
10
7.1324905
20
7.6953861
40
2.074987
50
13.3618307
51
17.047075
0
ARC
8
DEFAULT_255_2_778
10
6.9005314
20
7.624901
40
2.3174181
50
17.0319396
51
21.2176716
0
ARC
8
DEFAULT_255_2_778
10
6.799611
20
7.5862628
40
2.425481
50
21.2057339
51
25.9626128
0
ARC
8
DEFAULT_255_2_778
10
6.7833019
20
7.5787161
40
2.4434478
50
25.9542937
51
31.6104863
0
ARC
8
DEFAULT_255_2_778
10
6.8015441
20
7.5899747
40
2.4220112
50
31.6098566
51
36.4335841
0
ARC
8
DEFAULT_255_2_778
10
6.8193376
20
7.6031481
40
2.3998721
50
36.4328372
51
43.948822
0
ARC
8
DEFAULT_255_2_778
10
6.8060683
20
7.589553
40
2.4188608
50
43.962532
51
51.7947202
0
ARC
8
DEFAULT_255_2_778
10
6.7440117
20
7.5095767
40
2.520087
50
51.8106289
51
59.4074505
0
ARC
8
DEFAULT_255_2_778
10
6.6433507
20
7.3383851
40
2.7186794
50
59.4174537
51
66.4219571
0
ARC
8
DEFAULT_255_2_778
10
6.5245046
20
7.0658678
40
3.0159841
50
66.4235146
51
72.6472438
0
ARC
8
DEFAULT_255_2_778
10
6.4062109
20
6.6875412
40
3.4123731
50
72.6460285
51
78.2024301
0
ARC
8
DEFAULT_255_2_778
10
6.3061389
20
6.2116791
40
3.8986435
50
78.1926442
51
82.8762301
0
ARC
8
DEFAULT_255_2_778
10
6.2334683
20
5.6300799
40
4.4847653
50
82.8764383
51
87.2376559
0
ARC
8
DEFAULT_255_2_778
10
6.201871
20
5.0270545
40
5.0886134
50
87.20952
51
90.0246984
0
ARC
8
DEFAULT_255_2_778
10
6.1967538
20
7.0026582
40
3.1130105
50
89.9461909
51
100.0251684
0
ARC
8
DEFAULT_255_2_778
10
6.218666
20
6.9236847
40
3.1946024
50
100.1655986
51
113.5930011
0
ARC
8
DEFAULT_255_2_778
10
6.8308111
20
5.66903
40
4.5897627
50
114.327263
51
130.5910257
0
ARC
8
DEFAULT_255_2_778
10
10.0915703
20
1.6949515
40
9.7298193
50
129.9454836
51
134.1411054
0
LINE
8
DEFAULT_255_2_778
10
3.3154536
20
8.677331
11
3.3138543
21
8.6757937
0
LINE
8
DEFAULT_255_2_778
10
3.3138543
20
8.6757937
11
3.3122587
21
8.6742594
0
ARC
8
DEFAULT_255_2_778
10
9.4110384
20
2.3309229
40
8.7996041
50
133.8739642
51
133.8883474
0
ARC
8
DEFAULT_255_2_778
10
9.3841704
20
2.3584139
40
8.7611651
50
133.8863509
51
133.9007669
0
ARC
8
DEFAULT_255_2_778
10
9.3566223
20
2.3849573
40
8.7229375
50
133.8912821
51
133.9057309
0
LINE
8
DEFAULT_255_2_778
10
3.3074929
20
8.6696746
11
3.3059113
21
8.6681523
0
LINE
8
DEFAULT_255_2_778
10
3.3059113
20
8.6681523
11
3.3043333
21
8.666633
0
ARC
8
DEFAULT_255_2_778
10
9.2767927
20
2.4633728
40
8.6110806
50
133.9140411
51
133.9285858
0
ARC
8
DEFAULT_255_2_778
10
9.2495799
20
2.4895716
40
8.573333
50
133.919075
51
133.9336531
0
LINE
8
DEFAULT_255_2_778
10
3.3011878
20
8.6636034
11
3.2996202
21
8.662093
0
LINE
8
DEFAULT_255_2_778
10
3.2996202
20
8.662093
11
3.2980562
21
8.6605856
0
ARC
8
DEFAULT_255_2_778
10
9.1707317
20
2.5669623
40
8.4628933
50
133.9422016
51
133.9568773
0
LINE
8
DEFAULT_255_2_778
10
3.2964956
20
8.6590811
11
3.2949385
21
8.6575796
0
LINE
8
DEFAULT_255_2_778
10
3.2949385
20
8.6575796
11
3.2933848
21
8.656081
0
ARC
8
DEFAULT_255_2_778
10
9.0926093
20
2.6435925
40
8.3535037
50
133.9656201
51
133.9803947
0
LINE
8
DEFAULT_255_2_778
10
3.2918346
20
8.6545854
11
3.2902878
21
8.6530928
0
ARC
8
DEFAULT_255_2_778
10
9.0409369
20
2.6932026
40
8.2819235
50
133.976362
51
133.9912019
0
LINE
8
DEFAULT_255_2_778
10
3.2887444
20
8.651603
11
3.2872044
21
8.6501163
0
ARC
8
DEFAULT_255_2_778
10
8.9903244
20
2.7433132
40
8.2107186
50
133.9949131
51
134.009819
0
LINE
8
DEFAULT_255_2_778
10
3.2856679
20
8.6486324
11
3.2841347
21
8.6471515
0
ARC
8
DEFAULT_255_2_778
10
-360.26684
20
384.9209344
40
523.212453
50
314.014429
51
314.0147784
0
ARC
8
DEFAULT_255_2_778
10
8.9011929
20
2.8295754
40
8.08675
50
134.0179693
51
134.0329929
0
ARC
8
DEFAULT_255_2_778
10
8.876656
20
2.853067
40
8.0528061
50
134.0236568
51
134.0387122
0
LINE
8
DEFAULT_255_2_778
10
3.2787942
20
8.6419901
11
3.2772763
21
8.6405223
0
ARC
8
DEFAULT_255_2_778
10
8.8263174
20
2.9013104
40
7.9831329
50
134.0348417
51
134.0499648
0
LINE
8
DEFAULT_255_2_778
10
3.2757617
20
8.6390573
11
3.2742504
21
8.6375953
0
LINE
8
DEFAULT_255_2_778
10
3.2742504
20
8.6375953
11
3.2727425
21
8.6361362
0
ARC
8
DEFAULT_255_2_778
10
8.7528599
20
2.9731473
40
7.8804271
50
134.0597935
51
134.0750175
0
LINE
8
DEFAULT_255_2_778
10
3.2712379
20
8.6346799
11
3.2697366
21
8.6332266
0
LINE
8
DEFAULT_255_2_778
10
3.2697366
20
8.6332266
11
3.2682386
21
8.6317761
0
ARC
8
DEFAULT_255_2_778
10
-372.2855289
20
396.3593094
40
539.7900263
50
314.0859214
51
314.0862527
0
ARC
8
DEFAULT_255_2_778
10
8.6432196
20
3.0772642
40
7.7293603
50
134.0820638
51
134.0974395
0
LINE
8
DEFAULT_255_2_778
10
3.2645071
20
8.6281614
11
3.2630206
21
8.6267209
0
LINE
8
DEFAULT_255_2_778
10
3.2630206
20
8.6267209
11
3.2615374
21
8.6252833
0
LINE
8
DEFAULT_255_2_778
10
3.2615374
20
8.6252833
11
3.2600575
21
8.6238486
0
ARC
8
DEFAULT_255_2_778
10
-377.0374219
20
400.8177948
40
546.2986951
50
314.1173838
51
314.1177074
0
ARC
8
DEFAULT_255_2_778
10
-380.3498975
20
404.0503907
40
550.9253554
50
314.1303517
51
314.1306715
0
ARC
8
DEFAULT_255_2_778
10
-381.4731821
20
405.095271
40
552.4574669
50
314.1381961
51
314.138514
0
LINE
8
DEFAULT_255_2_778
10
3.2534349
20
8.6174244
11
3.2505111
21
8.6145862
0
LINE
8
DEFAULT_255_2_778
10
3.2505111
20
8.6145862
11
3.2490554
21
8.6131728
0
LINE
8
DEFAULT_255_2_778
10
3.2490554
20
8.6131728
11
3.247603
21
8.6117621
0
LINE
8
DEFAULT_255_2_778
10
3.247603
20
8.6117621
11
3.2461537
21
8.6103543
0
LINE
8
DEFAULT_255_2_778
10
3.2461537
20
8.6103543
11
3.2447076
21
8.6089493
0
ARC
8
DEFAULT_255_2_778
10
8.3047639
20
3.400959
40
7.2613589
50
134.1745846
51
134.1904605
0
ARC
8
DEFAULT_255_2_778
10
8.2820534
20
3.4225915
40
7.2300177
50
134.1809096
51
134.1968209
0
ARC
8
DEFAULT_255_2_778
10
8.2594129
20
3.4441529
40
7.1987762
50
134.1872614
51
134.2032083
0
ARC
8
DEFAULT_255_2_778
10
8.2368424
20
3.4656433
40
7.1676343
50
134.1936402
51
134.2096227
0
LINE
8
DEFAULT_255_2_778
10
3.2389548
20
8.6033571
11
3.2375245
21
8.6019661
0
LINE
8
DEFAULT_255_2_778
10
3.2375245
20
8.6019661
11
3.2360973
21
8.6005778
0
LINE
8
DEFAULT_255_2_778
10
3.2360973
20
8.6005778
11
3.2332495
21
8.5978068
0
ARC
8
DEFAULT_255_2_778
10
8.1257174
20
3.5699097
40
7.015411
50
134.2178666
51
134.2340254
0
LINE
8
DEFAULT_255_2_778
10
3.2318317
20
8.5964269
11
3.230417
21
8.5950497
0
LINE
8
DEFAULT_255_2_778
10
3.230417
20
8.5950497
11
3.2290054
21
8.5936752
0
ARC
8
DEFAULT_255_2_778
10
8.0601574
20
3.63079
40
6.9260566
50
134.229398
51
134.2456625
0
LINE
8
DEFAULT_255_2_778
10
3.2275968
20
8.5923035
11
3.2247862
21
8.5895657
0
ARC
8
DEFAULT_255_2_778
10
7.9958615
20
3.6918308
40
6.8374678
50
134.2494784
51
134.2658501
0
LINE
8
DEFAULT_255_2_778
10
3.2233869
20
8.5882023
11
3.2205947
21
8.5854809
0
ARC
8
DEFAULT_255_2_778
10
7.93148
20
3.7515395
40
6.7497725
50
134.2613588
51
134.277839
0
LINE
8
DEFAULT_255_2_778
10
3.2192045
20
8.5841256
11
3.2178174
21
8.5827731
0
LINE
8
DEFAULT_255_2_778
10
3.2178174
20
8.5827731
11
3.2164333
21
8.5814233
0
LINE
8
DEFAULT_255_2_778
10
3.2164333
20
8.5814233
11
3.2136714
21
8.5787291
0
ARC
8
DEFAULT_255_2_778
10
7.8264128
20
3.8497751
40
6.6060873
50
134.2872652
51
134.303928
0
ARC
8
DEFAULT_255_2_778
10
-1.2721434
20
13.1709749
40
6.4195986
50
314.2940385
51
314.3111494
0
LINE
8
DEFAULT_255_2_778
10
3.2109243
20
8.5760484
11
3.2081864
21
8.5733759
0
LINE
8
DEFAULT_255_2_778
10
3.2081864
20
8.5733759
11
3.2068233
21
8.572045
0
ARC
8
DEFAULT_255_2_778
10
7.7243024
20
3.9450634
40
6.4665738
50
134.3139312
51
134.3307758
0
LINE
8
DEFAULT_255_2_778
10
3.2054631
20
8.5707167
11
3.204106
21
8.5693911
0
LINE
8
DEFAULT_255_2_778
10
3.204106
20
8.5693911
11
3.2013978
21
8.5667454
0
LINE
8
DEFAULT_255_2_778
10
3.2013978
20
8.5667454
11
3.2000494
21
8.5654278
0
LINE
8
DEFAULT_255_2_778
10
3.2000494
20
8.5654278
11
3.1973589
21
8.5627981
0
LINE
8
DEFAULT_255_2_778
10
3.1973589
20
8.5627981
11
3.1960193
21
8.5614885
0
LINE
8
DEFAULT_255_2_778
10
3.1960193
20
8.5614885
11
3.1933463
21
8.5588746
0
LINE
8
DEFAULT_255_2_778
10
3.1933463
20
8.5588746
11
3.1920154
21
8.557573
0
LINE
8
DEFAULT_255_2_778
10
3.1920154
20
8.557573
11
3.1906874
21
8.5562739
0
LINE
8
DEFAULT_255_2_778
10
3.1906874
20
8.5562739
11
3.1893623
21
8.5549775
0
ARC
8
DEFAULT_255_2_778
10
-191.688024
20
207.7087641
40
278.6385229
50
314.3778158
51
314.3781962
0
ARC
8
DEFAULT_255_2_778
10
7.4473038
20
4.2000774
40
6.0905841
50
134.3724256
51
134.3897918
0
LINE
8
DEFAULT_255_2_778
10
3.1867208
20
8.5523925
11
3.1840881
21
8.5498154
0
LINE
8
DEFAULT_255_2_778
10
3.1840881
20
8.5498154
11
3.1814668
21
8.5472488
0
LINE
8
DEFAULT_255_2_778
10
3.1814668
20
8.5472488
11
3.1801617
21
8.5459706
0
LINE
8
DEFAULT_255_2_778
10
3.1801617
20
8.5459706
11
3.1775574
21
8.5434195
0
ARC
8
DEFAULT_255_2_778
10
7.2958582
20
4.3388884
40
5.8854468
50
134.406397
51
134.424069
0
ARC
8
DEFAULT_255_2_778
10
7.2775946
20
4.3560714
40
5.8603913
50
134.4141362
51
134.4318466
0
ARC
8
DEFAULT_255_2_778
10
7.2587544
20
4.3725258
40
5.8354527
50
134.412853
51
134.4306018
0
ARC
8
DEFAULT_255_2_778
10
7.240604
20
4.3895972
40
5.810556
50
134.4206381
51
134.4384256
0
LINE
8
DEFAULT_255_2_778
10
3.1723876
20
8.5383533
11
3.169817
21
8.5358331
0
ARC
8
DEFAULT_255_2_778
10
-0.7690414
20
12.5518746
40
5.6252284
50
314.425842
51
314.4441
0
LINE
8
DEFAULT_255_2_778
10
3.168537
20
8.5345781
11
3.1672599
21
8.5333257
0
LINE
8
DEFAULT_255_2_778
10
3.1672599
20
8.5333257
11
3.1647114
21
8.5308259
0
LINE
8
DEFAULT_255_2_778
10
3.1647114
20
8.5308259
11
3.1634425
21
8.5295811
0
ARC
8
DEFAULT_255_2_778
10
7.0961252
20
4.5202957
40
5.6160806
50
134.4473822
51
134.465479
0
LINE
8
DEFAULT_255_2_778
10
3.1621763
20
8.5283387
11
3.1596498
21
8.5258593
0
LINE
8
DEFAULT_255_2_778
10
3.1596498
20
8.5258593
11
3.1571341
21
8.5233899
0
ARC
8
DEFAULT_255_2_778
10
7.0077666
20
4.5994774
40
5.4976777
50
134.4599675
51
134.4782609
0
ARC
8
DEFAULT_255_2_778
10
11.7834415
20
-0.2656904
40
12.3150764
50
134.4726673
51
134.484891
0
ARC
8
DEFAULT_255_2_778
10
-8.308679
20
20.1896266
40
16.3574417
50
314.4775289
51
314.4882316
0
LINE
8
DEFAULT_255_2_778
10
3.1518269
20
8.5181783
11
3.1505857
21
8.5169592
0
ARC
8
DEFAULT_255_2_778
10
-0.5510116
20
12.2836461
40
5.281075
50
314.4818185
51
314.5006535
0
LINE
8
DEFAULT_255_2_778
10
3.1493473
20
8.5157426
11
3.146876
21
8.5133144
0
LINE
8
DEFAULT_255_2_778
10
3.146876
20
8.5133144
11
3.1444153
21
8.5108962
0
LINE
8
DEFAULT_255_2_778
10
3.1444153
20
8.5108962
11
3.1431901
21
8.5096919
0
LINE
8
DEFAULT_255_2_778
10
3.1431901
20
8.5096919
11
3.1407453
21
8.5072884
0
LINE
8
DEFAULT_255_2_778
10
3.1407453
20
8.5072884
11
3.139528
21
8.5060915
0
LINE
8
DEFAULT_255_2_778
10
3.139528
20
8.5060915
11
3.1383133
21
8.5048971
0
LINE
8
DEFAULT_255_2_778
10
3.1383133
20
8.5048971
11
3.1371012
21
8.5037051
0
LINE
8
DEFAULT_255_2_778
10
3.1371012
20
8.5037051
11
3.1346825
21
8.501326
0
LINE
8
DEFAULT_255_2_778
10
3.1346825
20
8.501326
11
3.1322742
21
8.4989567
0
LINE
8
DEFAULT_255_2_778
10
3.1322742
20
8.4989567
11
3.1310751
21
8.4977768
0
LINE
8
DEFAULT_255_2_778
10
3.1310751
20
8.4977768
11
3.1298785
21
8.4965994
0
LINE
8
DEFAULT_255_2_778
10
3.1298785
20
8.4965994
11
3.1286846
21
8.4954243
0
ARC
8
DEFAULT_255_2_778
10
10.9865862
20
0.5097445
40
11.2034682
50
134.5379205
51
134.5507439
0
LINE
8
DEFAULT_255_2_778
10
3.1268975
20
8.4936654
11
3.1257099
21
8.4924964
0
ARC
8
DEFAULT_255_2_778
10
10.9019254
20
0.5927499
40
11.0849231
50
134.5485027
51
134.5613954
0
LINE
8
DEFAULT_255_2_778
10
3.1239324
20
8.4907464
11
3.1227512
21
8.4895834
0
LINE
8
DEFAULT_255_2_778
10
3.1227512
20
8.4895834
11
3.1215725
21
8.4884227
0
LINE
8
DEFAULT_255_2_778
10
3.1215725
20
8.4884227
11
3.1192203
21
8.4861062
0
LINE
8
DEFAULT_255_2_778
10
3.1192203
20
8.4861062
11
3.1168782
21
8.4837992
0
ARC
8
DEFAULT_255_2_778
10
6.4659689
20
5.0828161
40
4.773164
50
134.5595369
51
134.5791869
0
LINE
8
DEFAULT_255_2_778
10
3.115712
20
8.4826504
11
3.1145484
21
8.4815039
0
LINE
8
DEFAULT_255_2_778
10
3.1145484
20
8.4815039
11
3.1122263
21
8.4792158
0
ARC
8
DEFAULT_255_2_778
10
10.5222381
20
0.9590854
40
10.5574919
50
134.5774177
51
134.5906318
0
LINE
8
DEFAULT_255_2_778
10
3.110492
20
8.4775067
11
3.1081872
21
8.475235
0
LINE
8
DEFAULT_255_2_778
10
3.1081872
20
8.475235
11
3.1070396
21
8.4741037
0
LINE
8
DEFAULT_255_2_778
10
3.1070396
20
8.4741037
11
3.1047495
21
8.471846
0
LINE
8
DEFAULT_255_2_778
10
3.1047495
20
8.471846
11
3.1036093
21
8.4707217
0
LINE
8
DEFAULT_255_2_778
10
3.1036093
20
8.4707217
11
3.1013338
21
8.4684778
0
LINE
8
DEFAULT_255_2_778
10
3.1013338
20
8.4684778
11
3.0990681
21
8.4662432
0
LINE
8
DEFAULT_255_2_778
10
3.0990681
20
8.4662432
11
3.096812
21
8.4640178
0
LINE
8
DEFAULT_255_2_778
10
3.096812
20
8.4640178
11
3.0945655
21
8.4618015
0
ARC
8
DEFAULT_255_2_778
10
6.180503
20
5.3328016
40
4.3947299
50
134.6030125
51
134.623499
0
LINE
8
DEFAULT_255_2_778
10
3.0934469
20
8.4606979
11
3.0912147
21
8.4584953
0
LINE
8
DEFAULT_255_2_778
10
3.0912147
20
8.4584953
11
3.0867702
21
8.4541086
0
LINE
8
DEFAULT_255_2_778
10
3.0867702
20
8.4541086
11
3.0845664
21
8.4519332
0
LINE
8
DEFAULT_255_2_778
10
3.0845664
20
8.4519332
11
3.082372
21
8.4497667
0
ARC
8
DEFAULT_255_2_778
10
-3.4656487
20
15.0795059
40
9.3182625
50
314.6305374
51
314.6446991
0
LINE
8
DEFAULT_255_2_778
10
3.0807331
20
8.4481484
11
3.0785549
21
8.4459975
0
LINE
8
DEFAULT_255_2_778
10
3.0785549
20
8.4459975
11
3.0774704
21
8.4449264
0
ARC
8
DEFAULT_255_2_778
10
5.9689375
20
5.5161255
40
4.1156357
50
134.6324837
51
134.6536596
0
LINE
8
DEFAULT_255_2_778
10
3.0763882
20
8.4438576
11
3.0753082
21
8.4427909
0
LINE
8
DEFAULT_255_2_778
10
3.0753082
20
8.4427909
11
3.0742306
21
8.4417265
0
ARC
8
DEFAULT_255_2_778
10
5.9299478
20
5.5499901
40
4.0641432
50
134.640933
51
134.6622429
0
LINE
8
DEFAULT_255_2_778
10
3.0731552
20
8.4406642
11
3.0710092
21
8.4385442
0
LINE
8
DEFAULT_255_2_778
10
3.0710092
20
8.4385442
11
3.0699406
21
8.4374885
0
ARC
8
DEFAULT_255_2_778
10
-8.0302819
20
19.6693923
40
15.7914725
50
314.6512832
51
314.6621597
0
LINE
8
DEFAULT_255_2_778
10
3.0678083
20
8.4353815
11
3.0656849
21
8.4332833
0
LINE
8
DEFAULT_255_2_778
10
3.0656849
20
8.4332833
11
3.0646276
21
8.4322385
0
ARC
8
DEFAULT_255_2_778
10
5.8145474
20
5.6490917
40
3.9125394
50
134.6559328
51
134.6776548
0
LINE
8
DEFAULT_255_2_778
10
3.0635726
20
8.4311958
11
3.0593624
21
8.4270345
0
LINE
8
DEFAULT_255_2_778
10
3.0593624
20
8.4270345
11
3.0551878
21
8.4229075
0
ARC
8
DEFAULT_255_2_778
10
-7.4180283
20
19.0138
40
14.8948064
50
314.6687183
51
314.6799158
0
LINE
8
DEFAULT_255_2_778
10
3.0531178
20
8.4208609
11
3.048996
21
8.416785
0
LINE
8
DEFAULT_255_2_778
10
3.048996
20
8.416785
11
3.0469521
21
8.4147637
0
LINE
8
DEFAULT_255_2_778
10
3.0469521
20
8.4147637
11
3.0428823
21
8.4107384
0
ARC
8
DEFAULT_255_2_778
10
-48.6191646
20
60.4754073
40
73.3464167
50
314.5034442
51
314.7776038
0
ARC
8
DEFAULT_255_2_778
10
-6.9075754
20
18.0363183
40
13.8406781
50
313.2424126
51
314.4981372
0
ARC
8
DEFAULT_255_2_778
10
-3.5855159
20
14.5249288
40
9.0068786
50
312.8828354
51
313.1508888
0
LINE
8
DEFAULT_255_2_778
10
8.9016774
20
4.6221674
11
6.9767774
21
4.6221674
0
LINE
8
DEFAULT_255_2_778
10
6.9767774
20
4.6221674
11
6.2171774
21
4.0209674
0
LINE
8
DEFAULT_255_2_778
10
6.2171774
20
4.0209674
11
8.8137774
21
4.0035674
0
LINE
8
DEFAULT_255_2_778
10
2.5436774
20
7.9251674
11
2.5426774
21
7.9262674
0
LINE
8
DEFAULT_255_2_778
10
6.9746677
20
4.6213357
11
7.9547677
21
4.6213357
0
LINE
8
DEFAULT_255_2_778
10
7.9547677
20
4.6213357
11
7.1731677
21
4.0122357
0
LINE
8
DEFAULT_255_2_778
10
7.1731677
20
4.0122357
11
6.2018677
21
4.0218357
0
LINE
8
DEFAULT_255_2_778
10
6.2018677
20
4.0218357
11
6.9746677
21
4.6213357
0
ARC
8
DEFAULT_255_2_778
10
4.6189662
20
2.9058115
40
4.827416
50
108.0768506
51
109.2045111
0
ARC
8
DEFAULT_255_2_778
10
5.8653286
20
-0.664001
40
8.6085503
50
109.2227828
51
110.3538912
0
ARC
8
DEFAULT_255_2_778
10
7.8468727
20
-6.0250594
40
14.3240937
50
110.3264918
51
111.0149345
0
ARC
8
DEFAULT_255_2_778
10
10.6705537
20
-13.3667116
40
22.1900343
50
111.0228618
51
111.7554919
0
ARC
8
DEFAULT_255_2_778
10
14.1132131
20
-22.0100879
40
31.4937879
50
111.744241
51
112.2909327
0
ARC
8
DEFAULT_255_2_778
10
15.9699562
20
-26.5551359
40
36.4034646
50
112.2815008
51
112.4943048
0
ARC
8
DEFAULT_255_2_778
10
16.4963376
20
-27.8275906
40
37.7804969
50
112.4935503
51
113.0057337
0
ARC
8
DEFAULT_255_2_778
10
14.8152109
20
-23.8710703
40
33.4816321
50
113.0038181
51
113.3497616
0
ARC
8
DEFAULT_255_2_778
10
11.8970508
20
-17.1151265
40
26.1223907
50
113.346474
51
113.7244418
0
ARC
8
DEFAULT_255_2_778
10
9.7736887
20
-12.275084
40
20.8370654
50
113.7338341
51
113.7634404
0
ARC
8
DEFAULT_255_2_778
10
5.4944535
20
-0.0754606
40
8.5286072
50
106.2745705
51
110.2471444
0
ARC
8
DEFAULT_255_2_778
10
5.0970501
20
1.2935719
40
7.1030638
50
101.5305626
51
106.2921491
0
ARC
8
DEFAULT_255_2_778
10
4.9328009
20
2.0571085
40
6.3221103
50
100.5150418
51
101.455246
0
ARC
8
DEFAULT_255_2_778
10
8.750455
20
3.5857927
40
6.8326574
50
136.6850504
51
140.0909597
0
ARC
8
DEFAULT_255_2_778
10
10.4925448
20
2.1273211
40
9.1046644
50
140.0842433
51
142.0653332
0
ARC
8
DEFAULT_255_2_778
10
18.7235125
20
-4.2825052
40
19.5370512
50
142.0787704
51
142.7259901
0
ARC
8
DEFAULT_255_2_778
10
-20.4981307
20
25.6219555
40
29.7844985
50
322.5238806
51
322.6438154
0
LINE
8
DEFAULT_255_2_778
10
3.1390559
20
7.5001518
11
3.1210559
21
7.4949518
0
LINE
8
DEFAULT_255_2_778
10
1.3771559
20
6.7953518
11
2.5429559
21
7.9261518
0
LINE
8
DEFAULT_255_2_778
10
3.1390559
20
7.5001518
11
3.1390559
21
7.5001518
0
ENDSEC
0
EOF