0
SECTION
2
HEADER
9
$MEASUREMENT
70
1
0
ENDSEC
0
SECTION
2
TABLES
0
TABLE
2
LTYPE
0
LTYPE
72
65
70
64
2
CONTINUOUS
3
______
73
0
40
0
0
ENDTAB
0
TABLE
2
LAYER
0
LAYER
2
DEFAULT_255_2_778
70
0
62
255
6
CONTINUOUS
0
ENDTAB
0
ENDSEC
0
SECTION
2
ENTITIES
0
ARC
8
DEFAULT_255_2_778
10
4.8653933
20
0.047788
40
3.1362029
50
106.7817573
51
114.3276493
0
ARC
8
DEFAULT_255_2_778
10
4.7886326
20
0.2190213
40
2.9485526
50
114.3392218
51
122.5355858
0
ARC
8
DEFAULT_255_2_778
10
4.7446931
20
0.2893288
40
2.8656476
50
122.5509705
51
130.4774195
0
ARC
8
DEFAULT_255_2_778
10
4.7314393
20
0.3053709
40
2.8448413
50
130.4841073
51
134.8664041
0
ARC
8
DEFAULT_255_2_778
10
4.7232591
20
0.3135957
40
2.833241
50
134.8664953
51
138.0467651
0
ARC
8
DEFAULT_255_2_778
10
4.7098316
20
0.3256688
40
2.815184
50
138.0468059
51
140.4002607
0
ARC
8
DEFAULT_255_2_778
10
4.7160079
20
0.3182823
40
2.8246517
50
140.3646729
51
160.9592526
0
ARC
8
DEFAULT_255_2_778
10
4.5826297
20
0.3640115
40
2.6836524
50
160.9531433
51
166.8308981
0
ARC
8
DEFAULT_255_2_778
10
4.3347607
20
0.4192292
40
2.4297235
50
166.7671012
51
175.5420613
0
ARC
8
DEFAULT_255_2_778
10
4.0686256
20
0.443053
40
2.1625439
50
175.6232879
51
179.9697116
0
ARC
8
DEFAULT_255_2_778
10
3.8824727
20
0.4428038
40
1.9763913
50
179.9596345
51
184.9949155
0
ARC
8
DEFAULT_255_2_778
10
3.6811392
20
-1.1114387
40
3.2550718
50
151.8438864
51
154.8734886
0
ARC
8
DEFAULT_255_2_778
10
6.3176333
20
-2.5121406
40
6.2405405
50
149.9034871
51
151.9278686
0
ARC
8
DEFAULT_255_2_778
10
9.3210045
20
-4.2478607
40
9.7093949
50
148.2622985
51
149.9291631
0
ARC
8
DEFAULT_255_2_778
10
12.2689781
20
-6.067118
40
13.1735306
50
146.8183154
51
148.2775718
0
ARC
8
DEFAULT_255_2_778
10
14.845339
20
-7.750002
40
16.2508235
50
145.3520564
51
146.8238138
0
ARC
8
DEFAULT_255_2_778
10
16.8065586
20
-9.1028368
40
18.6333728
50
143.9105478
51
145.3584904
0
ARC
8
DEFAULT_255_2_778
10
18.0440385
20
-10.0033562
40
20.1638271
50
142.327406
51
143.9140325
0
ARC
8
DEFAULT_255_2_778
10
18.5775884
20
-10.4135045
40
20.8368018
50
140.4627272
51
142.3313637
0
ARC
8
DEFAULT_255_2_778
10
18.3710899
20
-10.2398981
40
20.5670339
50
138.1478168
51
140.4695087
0
ARC
8
DEFAULT_255_2_778
10
17.8078142
20
-9.7379183
40
19.812541
50
137.0014927
51
138.1422791
0
ARC
8
DEFAULT_255_2_778
10
-15.6850551
20
-59.8189123
40
67.4483671
50
62.3955129
51
63.2075265
0
ARC
8
DEFAULT_255_2_778
10
-9.2856338
20
-47.1534496
40
53.2579998
50
63.2111027
51
64.0885749
0
ARC
8
DEFAULT_255_2_778
10
-4.6509104
20
-37.5925866
40
42.6329981
50
64.0763193
51
65.477921
0
ARC
8
DEFAULT_255_2_778
10
-1.0258541
20
-29.6372978
40
33.8907081
50
65.4716446
51
67.3267198
0
ARC
8
DEFAULT_255_2_778
10
1.5355152
20
-23.4934455
40
27.2343199
50
67.316443
51
69.838224
0
ARC
8
DEFAULT_255_2_778
10
3.2998009
20
-18.673351
40
22.1014862
50
69.8248062
51
73.2855042
0
ARC
8
DEFAULT_255_2_778
10
4.1157032
20
-16.0105961
40
19.3165839
50
73.3318189
51
75.0998559
0
ARC
8
DEFAULT_255_2_778
10
4.6051929
20
-14.1311397
40
17.3744615
50
75.0660753
51
79.1598254
0
ARC
8
DEFAULT_255_2_778
10
4.9591866
20
-12.2699491
40
15.4799072
50
79.1511008
51
85.0158369
0
ARC
8
DEFAULT_255_2_778
10
10.7669535
20
3.0800175
40
4.4634378
50
172.7275725
51
179.083329
0
ARC
8
DEFAULT_255_2_778
10
12.5930147
20
2.8526304
40
6.3035961
50
167.9547781
51
172.7784565
0
ARC
8
DEFAULT_255_2_778
10
14.532413
20
2.4482908
40
8.2846792
50
164.9290984
51
168.0189814
0
ARC
8
DEFAULT_255_2_778
10
14.134475
20
2.5507552
40
8.1648715
50
164.908841
51
169.2182043
0
ARC
8
DEFAULT_255_2_778
10
12.2323785
20
2.9104818
40
6.22906
50
169.1956925
51
174.3446458
0
ARC
8
DEFAULT_255_2_778
10
10.8668127
20
3.0504464
40
4.8563503
50
174.4002688
51
178.5642762
0
ARC
8
DEFAULT_255_2_778
10
5.0530447
20
-11.3149983
40
14.5188257
50
86.2129602
51
89.9976063
0
ARC
8
DEFAULT_255_2_778
10
5.0533311
20
-11.1460814
40
14.3499088
50
89.9987217
51
90.034514
0
ARC
8
DEFAULT_255_2_778
10
5.0396862
20
-0.9591698
40
4.1629974
50
89.9311747
51
89.9976266
0
ARC
8
DEFAULT_255_2_778
10
5.0404989
20
-0.8935585
40
4.0973861
50
90.0089523
51
100.5529467
0
ARC
8
DEFAULT_255_2_778
10
11.7335593
20
10.6116099
40
10.5504543
50
218.8727191
51
225.129075
0
ARC
8
DEFAULT_255_2_778
10
10.1177591
20
-2.3670062
40
9.1624374
50
131.5344376
51
136.0654494
0
ARC
8
DEFAULT_255_2_778
10
11.4889009
20
-3.912226
40
11.2282862
50
127.2187636
51
131.5435679
0
ARC
8
DEFAULT_255_2_778
10
12.7217166
20
-5.5373984
40
13.2681437
50
122.0786545
51
127.2132738
0
ARC
8
DEFAULT_255_2_778
10
13.222405
20
-6.306324
40
14.1855855
50
113.1359014
51
122.1427938
0
ARC
8
DEFAULT_255_2_778
10
12.7573059
20
-5.2713525
40
13.0511243
50
112.733318
51
113.0435357
0
ARC
8
DEFAULT_255_2_778
10
12.5402101
20
-4.743743
40
12.4806084
50
110.2716481
51
112.7501218
0
ARC
8
DEFAULT_255_2_778
10
12.1396892
20
-3.6573092
40
11.3226989
50
107.7068559
51
110.2752182
0
ARC
8
DEFAULT_255_2_778
10
11.766074
20
-2.4863249
40
10.0935559
50
105.1192846
51
107.7081965
0
ARC
8
DEFAULT_255_2_778
10
11.5386849
20
-1.6584426
40
9.2350217
50
104.0137095
51
105.0970619
0
ARC
8
DEFAULT_255_2_778
10
16.1059849
20
9.3479098
40
7.1046336
50
196.7386832
51
204.0453241
0
ARC
8
DEFAULT_255_2_778
10
15.7496156
20
9.190481
40
6.7150432
50
204.057596
51
213.3501913
0
ARC
8
DEFAULT_255_2_778
10
15.8437543
20
9.2648314
40
6.834562
50
213.4369888
51
226.6135087
0
ARC
8
DEFAULT_255_2_778
10
16.6046309
20
10.095598
40
7.9609887
50
226.7409698
51
239.7341272
0
ARC
8
DEFAULT_255_2_778
10
9.4168581
20
8.816879
40
6.4351262
50
299.5667312
51
302.9459573
0
ARC
8
DEFAULT_255_2_778
10
15.7794302
20
-1.1386164
40
1.7719763
50
92.2489045
51
95.107293
0
ARC
8
DEFAULT_255_2_778
10
15.7764
20
-1.0655083
40
1.6988055
50
90.0063683
51
92.2435418
0
ARC
8
DEFAULT_255_2_778
10
15.7784463
20
-0.9448157
40
1.5781146
50
81.1940655
51
90.0811475
0
ARC
8
DEFAULT_255_2_778
10
15.7961229
20
-0.8269897
40
1.4589715
50
71.8113577
51
81.1716981
0
ARC
8
DEFAULT_255_2_778
10
15.8107063
20
-0.7807996
40
1.4105373
50
63.3411786
51
71.7884776
0
ARC
8
DEFAULT_255_2_778
10
15.8189358
20
-0.7642879
40
1.3920886
50
55.8986945
51
63.3389635
0
ARC
8
DEFAULT_255_2_778
10
15.838731
20
-0.7352253
40
1.356925
50
50.8171676
51
55.9028018
0
ARC
8
DEFAULT_255_2_778
10
15.8878075
20
-0.6752627
40
1.2794395
50
46.7977112
51
50.8241803
0
ARC
8
DEFAULT_255_2_778
10
15.9871226
20
-0.5699953
40
1.1347169
50
43.2273132
51
46.8144397
0
ARC
8
DEFAULT_255_2_778
10
16.1336982
20
-0.4318663
40
0.9333119
50
40.9335914
51
43.2114884
0
ARC
8
DEFAULT_255_2_778
10
16.3038768
20
-0.3636254
40
0.7623972
50
32.4746373
51
45.4431971
0
ARC
8
DEFAULT_255_2_778
10
16.280973
20
-0.3700927
40
0.7852216
50
24.146969
51
31.9754061
0
LINE
8
DEFAULT_255_2_778
10
3.3169869
20
3.7732247
11
3.9598869
21
3.0504247
0
LINE
8
DEFAULT_255_2_778
10
1.9135869
20
0.2707247
11
0.7340869
21
0.2707247
0
LINE
8
DEFAULT_255_2_778
10
3.3174869
20
3.7738247
11
3.3169869
21
3.7732247
0
LINE
8
DEFAULT_255_2_778
10
17.0032869
20
-0.0483753
11
15.5681869
21
-0.0483753
0
LINE
8
DEFAULT_255_2_778
10
6.5326869
20
4.6024247
11
6.2511869
21
4.6765247
0
LINE
8
DEFAULT_255_2_778
10
12.9165869
20
3.4166247
11
15.5157869
21
0.6157247
0
LINE
8
DEFAULT_255_2_778
10
15.5157869
20
0.6157247
11
15.6216869
21
0.6263247
0
LINE
8
DEFAULT_255_2_778
10
16.9974869
20
-0.0488753
11
17.0032869
21
-0.0483753
0
ARC
8
DEFAULT_255_2_778
10
8.4416657
20
9.1672451
40
7.298464
50
0.1478705
51
1.1740928
0
ARC
8
DEFAULT_255_2_778
10
8.4079127
20
9.1673991
40
7.3322163
50
0.0006527
51
0.1459866
0
ARC
8
DEFAULT_255_2_778
10
8.7586625
20
9.1613729
40
6.9814693
50
351.8085004
51
0.0501415
0
ARC
8
DEFAULT_255_2_778
10
9.1665122
20
9.1028966
40
6.5694489
50
342.1361268
51
351.8064804
0
ARC
8
DEFAULT_255_2_778
10
9.4130951
20
9.024105
40
6.3105845
50
330.4108048
51
342.1302435
0
ARC
8
DEFAULT_255_2_778
10
9.5251782
20
8.9612078
40
6.1820611
50
315.5620202
51
330.4047848
0
ARC
8
DEFAULT_255_2_778
10
9.5937949
20
8.8925358
40
6.0849884
50
299.9229245
51
315.5713547
0
ARC
8
DEFAULT_255_2_778
10
15.084408
20
8.5422399
40
5.5017608
50
236.0462087
51
243.4960782
0
ARC
8
DEFAULT_255_2_778
10
15.0594312
20
8.5014766
40
5.4539981
50
227.1680182
51
236.0246797
0
ARC
8
DEFAULT_255_2_778
10
15.2516126
20
8.7001371
40
5.7303437
50
216.0378844
51
227.1092581
0
ARC
8
DEFAULT_255_2_778
10
15.892814
20
9.154329
40
6.5160549
50
203.4115522
51
215.9503118
0
ARC
8
DEFAULT_255_2_778
10
16.8240642
20
9.5682718
40
7.5351189
50
194.4518686
51
203.4864381
0
ARC
8
DEFAULT_255_2_778
10
17.2500774
20
9.689592
40
7.9779373
50
193.6627956
51
194.5320368
0
ARC
8
DEFAULT_255_2_778
10
17.4011113
20
9.724937
40
8.1330462
50
189.68112
51
193.6534222
0
ARC
8
DEFAULT_255_2_778
10
17.5185568
20
9.7459021
40
8.2523449
50
186.3220471
51
189.6874827
0
ARC
8
DEFAULT_255_2_778
10
17.4543563
20
9.7393708
40
8.1878156
50
183.2665799
51
186.326091
0
ARC
8
DEFAULT_255_2_778
10
17.2256262
20
9.7267429
40
7.9587376
50
180.4198363
51
183.2696472
0
ARC
8
DEFAULT_255_2_778
10
17.0303419
20
9.7240396
40
7.7634387
50
180.0004857
51
180.4104469
0
ARC
8
DEFAULT_255_2_778
10
16.816023
20
9.7252648
40
7.5491198
50
177.6307454
51
180.009798
0
ARC
8
DEFAULT_255_2_778
10
16.3711511
20
9.7440895
40
7.10385
50
175.1470836
51
177.634116
0
ARC
8
DEFAULT_255_2_778
10
15.8335231
20
9.7900288
40
6.5642629
50
172.6320909
51
175.1496346
0
ARC
8
DEFAULT_255_2_778
10
15.2640486
20
9.8635752
40
5.9900587
50
170.2720996
51
172.6312261
0
ARC
8
DEFAULT_255_2_778
10
14.6714005
20
9.9657194
40
5.388673
50
167.6552187
51
170.2778006
0
ARC
8
DEFAULT_255_2_778
10
14.1695357
20
10.0742143
40
4.8752164
50
165.962966
51
167.639831
0
ARC
8
DEFAULT_255_2_778
10
13.8066741
20
12.0339969
40
4.4354188
50
190.0931612
51
195.6270118
0
ARC
8
DEFAULT_255_2_778
10
12.0738193
20
11.5434284
40
2.6344774
50
195.5041504
51
204.6149654
0
ARC
8
DEFAULT_255_2_778
10
11.1460943
20
11.1095771
40
1.6103701
50
204.3299157
51
222.3054457
0
ARC
8
DEFAULT_255_2_778
10
10.9667532
20
10.9710755
40
1.3846328
50
223.0618991
51
247.8319487
0
ARC
8
DEFAULT_255_2_778
10
12.2158729
20
3.4324421
40
6.5023387
50
101.8117515
51
105.8102309
0
ARC
8
DEFAULT_255_2_778
10
12.4965861
20
2.0960198
40
7.8679242
50
97.9426152
51
101.8205471
0
ARC
8
DEFAULT_255_2_778
10
12.6691223
20
0.8561673
40
9.1197239
50
93.1521035
51
97.9398303
0
ARC
8
DEFAULT_255_2_778
10
12.7022344
20
0.3654471
40
9.6115244
50
90.4149413
51
93.1883404
0
ARC
8
DEFAULT_255_2_778
10
12.7021223
20
0.3944677
40
9.582504
50
90.0000166
51
90.4155273
0
ARC
8
DEFAULT_255_2_778
10
12.7110583
20
0.8716055
40
9.1053705
50
84.1508083
51
90.056248
0
ARC
8
DEFAULT_255_2_778
10
12.8559749
20
2.3101002
40
7.6595971
50
79.7781261
51
84.13259
0
ARC
8
DEFAULT_255_2_778
10
13.1085445
20
3.7068127
40
6.2402321
50
75.3203167
51
79.7845493
0
ARC
8
DEFAULT_255_2_778
10
13.2989968
20
4.4656029
40
5.4579529
50
74.5291265
51
75.2357752
0
ARC
8
DEFAULT_255_2_778
10
13.6607651
20
11.2178223
40
1.8502098
50
306.2532778
51
321.1198563
0
ARC
8
DEFAULT_255_2_778
10
13.3172803
20
11.4706679
40
2.2763862
50
321.5923643
51
338.9580151
0
ARC
8
DEFAULT_255_2_778
10
12.5576556
20
11.7958353
40
3.1022616
50
338.3902732
51
341.380464
0
ARC
8
DEFAULT_255_2_778
10
11.7495827
20
12.0601482
40
3.9524372
50
341.4895458
51
346.1851511
0
ARC
8
DEFAULT_255_2_778
10
10.4164599
20
12.3995487
40
5.3280516
50
346.0641459
51
347.3804185
0
ARC
8
DEFAULT_255_2_778
10
13.2716497
20
10.7090585
40
2.4025324
50
9.5496381
51
12.6571523
0
ARC
8
DEFAULT_255_2_778
10
11.8704678
20
10.4714702
40
3.8237137
50
7.2270363
51
9.5771639
0
ARC
8
DEFAULT_255_2_778
10
9.7127534
20
10.1987436
40
5.9985955
50
5.0784224
51
7.2185969
0
ARC
8
DEFAULT_255_2_778
10
6.2746385
20
9.89315
40
9.4502649
50
3.2329292
51
5.0787553
0
ARC
8
DEFAULT_255_2_778
10
1.7530795
20
9.632375
40
13.9793354
50
1.9405411
51
3.2549189
0
ARC
8
DEFAULT_255_2_778
10
-2.3788746
20
9.4853979
40
18.113898
50
1.249293
51
1.9626038
0
ARC
8
DEFAULT_255_2_778
10
-5.3535562
20
9.4183014
40
21.0893356
50
0.8377052
51
1.2553379
0
ARC
8
DEFAULT_255_2_778
10
-8.4033263
20
9.3741246
40
24.1394256
50
0.4780315
51
0.8367174
0
ARC
8
DEFAULT_255_2_778
10
-14.8639908
20
9.3203871
40
30.6003136
50
0.2830647
51
0.4777197
0
ARC
8
DEFAULT_255_2_778
10
-109.3742915
20
8.8722253
40
125.1116763
50
0.2377764
51
0.2744728
0
ARC
8
DEFAULT_255_2_778
10
30.7147792
20
9.455604
40
14.9786092
50
180.2454589
51
180.3638682
0
ARC
8
DEFAULT_255_2_778
10
20.0606269
20
9.3876775
40
4.3242403
50
180.360366
51
180.60883
0
ARC
8
DEFAULT_255_2_778
10
16.9507539
20
9.3535719
40
1.2141809
50
180.558882
51
181.2685133
0
ARC
8
DEFAULT_255_2_778
10
15.8953957
20
9.3290131
40
0.1585422
50
180.8386991
51
183.9077029
0
ARC
8
DEFAULT_255_2_778
10
15.7399908
20
9.3180128
40
0.0027756
50
175.9561088
51
206.0649992
0
LINE
8
DEFAULT_255_2_778
10
15.7374974
20
9.3167932
11
15.7385974
21
9.3167932
0
ARC
8
DEFAULT_255_2_778
10
8.1141859
20
8.5785031
40
3.7363975
50
346.8362366
51
352.3020282
0
ARC
8
DEFAULT_255_2_778
10
9.2454943
20
8.4269267
40
2.5949809
50
352.272671
51
358.1192201
0
ARC
8
DEFAULT_255_2_778
10
9.8775411
20
8.399215
40
1.9623775
50
358.3222294
51
359.9835416
0
ARC
8
DEFAULT_255_2_778
10
10.3833579
20
8.4060596
40
1.4565794
50
359.7085885
51
7.2347773
0
ARC
8
DEFAULT_255_2_778
10
10.9825935
20
8.4840287
40
0.8522977
50
7.1081669
51
17.6382495
0
ARC
8
DEFAULT_255_2_778
10
11.3121877
20
8.5879873
40
0.5066986
50
17.7284451
51
29.6816216
0
ARC
8
DEFAULT_255_2_778
10
11.5279951
20
8.7255049
40
0.2514276
50
26.8067292
51
89.9832388
0
ARC
8
DEFAULT_255_2_778
10
11.5280767
20
8.7242678
40
0.2526646
50
90.0018203
51
93.3749159
0
ARC
8
DEFAULT_255_2_778
10
11.5111809
20
8.3276991
40
0.6487983
50
89.8214709
51
107.3402981
0
ARC
8
DEFAULT_255_2_778
10
11.5266734
20
8.2945954
40
0.6850327
50
107.7519739
51
128.9464229
0
ARC
8
DEFAULT_255_2_778
10
11.6444352
20
8.1446454
40
0.8756821
50
128.7717084
51
140.4447399
0
ARC
8
DEFAULT_255_2_778
10
11.7750617
20
8.0339128
40
1.0469157
50
140.3248735
51
148.0192596
0
ARC
8
DEFAULT_255_2_778
10
11.7969923
20
8.0185003
40
1.0736819
50
147.9414526
51
152.8286591
0
ARC
8
DEFAULT_255_2_778
10
11.6146746
20
8.1109318
40
0.8692754
50
152.7611157
51
156.5681657
0
ARC
8
DEFAULT_255_2_778
10
11.1662926
20
8.3034634
40
0.3813116
50
156.3204967
51
160.287427
0
ARC
8
DEFAULT_255_2_778
10
10.8481115
20
8.4175591
40
0.0432923
50
160.4014679
51
164.9584
0
ARC
8
DEFAULT_255_2_778
10
11.3468215
20
8.2139224
40
0.7694206
50
157.051744
51
158.3656135
0
ARC
8
DEFAULT_255_2_778
10
11.5870592
20
8.1109558
40
1.0307925
50
154.3913709
51
156.9878779
0
ARC
8
DEFAULT_255_2_778
10
11.8067953
20
8.0061882
40
1.2742262
50
150.8355349
51
154.4137929
0
ARC
8
DEFAULT_255_2_778
10
11.8612226
20
7.9766388
40
1.3361536
50
145.9660958
51
150.8664194
0
ARC
8
DEFAULT_255_2_778
10
11.7935465
20
8.023258
40
1.2539782
50
139.8311663
51
146.0006575
0
ARC
8
DEFAULT_255_2_778
10
11.6491594
20
8.1489855
40
1.0625497
50
127.5616373
51
139.9896209
0
ARC
8
DEFAULT_255_2_778
10
11.5288093
20
8.3058109
40
0.8648674
50
109.853615
51
127.5750024
0
ARC
8
DEFAULT_255_2_778
10
11.5127175
20
8.3396712
40
0.8275626
50
93.9076129
51
109.6018968
0
ARC
8
DEFAULT_255_2_778
10
11.5187326
20
8.2747374
40
0.8927569
50
89.9826824
51
94.0087598
0
ARC
8
DEFAULT_255_2_778
10
11.5312336
20
8.7207393
40
0.4469224
50
90.000605
51
91.5682397
0
ARC
8
DEFAULT_255_2_778
10
11.531239
20
8.7231112
40
0.4445505
50
28.2600388
51
90.0013009
0
ARC
8
DEFAULT_255_2_778
10
11.2756391
20
8.5645611
40
0.7449872
50
13.7848435
51
29.6931622
0
ARC
8
DEFAULT_255_2_778
10
10.7885405
20
8.4406391
40
1.2475912
50
3.6677863
51
13.9817996
0
ARC
8
DEFAULT_255_2_778
10
10.2322893
20
8.3947641
40
1.8056664
50
359.921039
51
3.9913468
0
ARC
8
DEFAULT_255_2_778
10
9.4981641
20
8.4032106
40
2.5398136
50
353.3273062
51
359.7533172
0
ARC
8
DEFAULT_255_2_778
10
8.1820713
20
8.5567396
40
3.8648311
50
347.6328697
51
353.3337932
0
ARC
8
DEFAULT_255_2_778
10
7.3513442
20
8.724259
40
4.7121817
50
347.6511272
51
347.8066086
0
ARC
8
DEFAULT_255_2_778
10
14.9140531
20
7.2427843
40
1.5151091
50
147.3984655
51
161.7805528
0
ARC
8
DEFAULT_255_2_778
10
14.5582135
20
7.4649339
40
1.0956532
50
102.9913323
51
147.1591302
0
ARC
8
DEFAULT_255_2_778
10
14.7495493
20
6.7845071
40
1.8019878
50
92.653583
51
104.0557893
0
ARC
8
DEFAULT_255_2_778
10
14.7960284
20
6.1278873
40
2.4601077
50
89.9586823
51
93.0269148
0
ARC
8
DEFAULT_255_2_778
10
14.7877063
20
6.2348482
40
2.1616697
50
89.7323953
51
97.0872844
0
ARC
8
DEFAULT_255_2_778
10
14.6876287
20
7.0160347
40
1.3741072
50
96.9651474
51
107.8522544
0
ARC
8
DEFAULT_255_2_778
10
14.5462866
20
7.4496061
40
0.9180834
50
107.7511966
51
124.7937184
0
ARC
8
DEFAULT_255_2_778
10
14.6822539
20
7.349645
40
1.0791417
50
127.6948276
51
160.4535596
0
LINE
8
DEFAULT_255_2_778
10
7.8562025
20
6.8713943
11
8.3345025
21
5.4521943
0
LINE
8
DEFAULT_255_2_778
10
8.3345025
20
5.4521943
11
6.8836025
21
6.4300943
0
LINE
8
DEFAULT_255_2_778
10
6.8836025
20
6.4300943
11
7.8562025
21
6.8713943
0
LINE
8
DEFAULT_255_2_778
10
6.4581025
20
6.2496943
11
6.9682025
21
5.3674943
0
LINE
8
DEFAULT_255_2_778
10
6.9682025
20
5.3674943
11
5.8887025
21
5.9151943
0
LINE
8
DEFAULT_255_2_778
10
5.8887025
20
5.9151943
11
6.4581025
21
6.2496943
0
LINE
8
DEFAULT_255_2_778
10
5.2939025
20
5.5585943
11
5.5384025
21
4.6763943
0
LINE
8
DEFAULT_255_2_778
10
5.5384025
20
4.6763943
11
4.7944025
21
5.1865943
0
LINE
8
DEFAULT_255_2_778
10
4.7944025
20
5.1865943
11
5.2939025
21
5.5585943
0
LINE
8
DEFAULT_255_2_778
10
13.2082025
20
3.1878943
11
12.7457025
21
2.4808943
0
LINE
8
DEFAULT_255_2_778
10
12.7457025
20
2.4808943
11
13.5590025
21
2.8528943
0
LINE
8
DEFAULT_255_2_778
10
13.5590025
20
2.8528943
11
13.2082025
21
3.1878943
0
LINE
8
DEFAULT_255_2_778
10
13.9310025
20
2.3745943
11
13.1923025
21
1.8056943
0
LINE
8
DEFAULT_255_2_778
10
13.1923025
20
1.8056943
11
14.2189025
21
2.0713943
0
LINE
8
DEFAULT_255_2_778
10
14.2189025
20
2.0713943
11
13.9310025
21
2.3745943
0
LINE
8
DEFAULT_255_2_778
10
12.1244025
20
10.0553943
11
12.6721025
21
8.8541943
0
LINE
8
DEFAULT_255_2_778
10
12.6721025
20
8.8541943
11
13.0282025
21
10.0712943
0
LINE
8
DEFAULT_255_2_778
10
13.0282025
20
10.0712943
11
12.1244025
21
10.0553943
0
LINE
8
DEFAULT_255_2_778
10
9.3447025
20
8.3064943
11
10.2110025
21
7.8439943
0
LINE
8
DEFAULT_255_2_778
10
10.2110025
20
7.8439943
11
9.4294025
21
7.7910943
0
LINE
8
DEFAULT_255_2_778
10
9.4294025
20
7.7910943
11
9.3447025
21
8.3064943
0
LINE
8
DEFAULT_255_2_778
10
9.5574025
20
7.3656943
11
10.0887025
21
7.1528943
0
LINE
8
DEFAULT_255_2_778
10
10.0887025
20
7.1528943
11
9.6421025
21
7.0311943
0
LINE
8
DEFAULT_255_2_778
10
9.6421025
20
7.0311943
11
9.5574025
21
7.3656943
0
LINE
8
DEFAULT_255_2_778
10
15.7550025
20
7.9662943
11
15.0428025
21
7.6688943
0
LINE
8
DEFAULT_255_2_778
10
15.0428025
20
7.6688943
11
15.6275025
21
7.5788943
0
LINE
8
DEFAULT_255_2_778
10
15.6275025
20
7.5788943
11
15.7550025
21
7.9662943
0
LINE
8
DEFAULT_255_2_778
10
15.4682025
20
7.0999943
11
14.9205025
21
6.9412943
0
LINE
8
DEFAULT_255_2_778
10
14.9205025
20
6.9412943
11
15.3619025
21
6.7824943
0
LINE
8
DEFAULT_255_2_778
10
15.3619025
20
6.7824943
11
15.4682025
21
7.0999943
0
LINE
8
DEFAULT_255_2_778
10
9.0574025
20
5.7770943
11
10.7687025
21
5.7770943
0
LINE
8
DEFAULT_255_2_778
10
10.7687025
20
5.7770943
11
10.7687025
21
5.5643943
0
LINE
8
DEFAULT_255_2_778
10
10.7687025
20
5.5643943
11
9.0574025
21
5.5643943
0
LINE
8
DEFAULT_255_2_778
10
9.0574025
20
5.5643943
11
9.0574025
21
5.7770943
0
LINE
8
DEFAULT_255_2_778
10
9.0574025
20
6.2818943
11
10.7687025
21
6.2818943
0
LINE
8
DEFAULT_255_2_778
10
10.7687025
20
6.2818943
11
10.7687025
21
6.0691943
0
LINE
8
DEFAULT_255_2_778
10
10.7687025
20
6.0691943
11
9.0574025
21
6.0691943
0
LINE
8
DEFAULT_255_2_778
10
9.0574025
20
6.0691943
11
9.0574025
21
6.2818943
0
LINE
8
DEFAULT_255_2_778
10
14.2771025
20
5.7770943
11
15.9884025
21
5.7770943
0
LINE
8
DEFAULT_255_2_778
10
15.9884025
20
5.7770943
11
15.9884025
21
5.5643943
0
LINE
8
DEFAULT_255_2_778
10
15.9884025
20
5.5643943
11
14.2771025
21
5.5643943
0
LINE
8
DEFAULT_255_2_778
10
14.2771025
20
5.5643943
11
14.2771025
21
5.7770943
0
LINE
8
DEFAULT_255_2_778
10
14.2771025
20
6.2818943
11
15.9884025
21
6.2818943
0
LINE
8
DEFAULT_255_2_778
10
15.9884025
20
6.2818943
11
15.9884025
21
6.0691943
0
LINE
8
DEFAULT_255_2_778
10
15.9884025
20
6.0691943
11
14.2771025
21
6.0691943
0
LINE
8
DEFAULT_255_2_778
10
14.2771025
20
6.0691943
11
14.2771025
21
6.2818943
0
LINE
8
DEFAULT_255_2_778
10
13.6712025
20
7.5360943
11
10.8862025
21
7.5360943
0
LINE
8
DEFAULT_255_2_778
10
10.8862025
20
7.5360943
11
10.8862025
21
7.7275943
0
LINE
8
DEFAULT_255_2_778
10
10.8862025
20
7.7275943
11
11.7524025
21
7.7275943
0
LINE
8
DEFAULT_255_2_778
10
10.8063025
20
8.4287943
11
10.6316025
21
8.4975943
0
LINE
8
DEFAULT_255_2_778
10
11.9545025
20
7.7164943
11
13.4749025
21
7.7164943
0
LINE
8
DEFAULT_255_2_778
10
14.7978025
20
8.5879943
11
14.7978025
21
8.3964943
0
LINE
8
DEFAULT_255_2_778
10
13.6653025
20
7.7106943
11
14.4946025
21
7.7106943
0
LINE
8
DEFAULT_255_2_778
10
14.4946025
20
7.7106943
11
14.4946025
21
7.5190943
0
LINE
8
DEFAULT_255_2_778
10
14.4946025
20
7.5190943
11
13.6712025
21
7.5360943
0
ARC
8
DEFAULT_255_2_778
10
15.4376404
20
7.6943434
40
1.9762991
50
207.1478403
51
213.9730912
0
ARC
8
DEFAULT_255_2_778
10
14.7607453
20
7.3507866
40
1.2172192
50
195.5087777
51
207.2961768
0
ARC
8
DEFAULT_255_2_778
10
14.5044808
20
7.273283
40
0.949582
50
189.5990324
51
195.137085
0
ARC
8
DEFAULT_255_2_778
10
14.430784
20
7.2609473
40
0.8748601
50
180.0222891
51
189.6072899
0
ARC
8
DEFAULT_255_2_778
10
14.4824189
20
7.2577223
40
0.9264993
50
166.1867252
51
179.8216099
0
ARC
8
DEFAULT_255_2_778
10
14.6442317
20
7.2225363
40
1.0920424
50
163.6046272
51
166.4210325
0
ARC
8
DEFAULT_255_2_778
10
14.0932167
20
7.3127315
40
0.7219377
50
162.4202435
51
173.6450344
0
ARC
8
DEFAULT_255_2_778
10
14.2855918
20
7.2880221
40
0.9158715
50
173.4408451
51
180.0797713
0
ARC
8
DEFAULT_255_2_778
10
14.4446569
20
7.2897745
40
1.0749399
50
180.1613746
51
191.8793854
0
ARC
8
DEFAULT_255_2_778
10
14.516886
20
7.3027822
40
1.1483018
50
191.7726336
51
197.9257891
0
ARC
8
DEFAULT_255_2_778
10
14.5170201
20
7.3023173
40
1.1482866
50
197.901661
51
209.9832409
0
ARC
8
DEFAULT_255_2_778
10
14.501086
20
7.2937738
40
1.1302155
50
210.0117771
51
210.9697956
0
ARC
8
DEFAULT_255_2_778
10
7.5573555
20
8.702154
40
4.5035448
50
333.7768569
51
344.9239848
0
ARC
8
DEFAULT_255_2_778
10
7.4066348
20
8.7510008
40
4.4720514
50
335.1515704
51
344.1657914
0
ARC
8
DEFAULT_255_2_778
10
8.6450117
20
8.1899833
40
3.1125905
50
330.6544889
51
334.9433809
0
ARC
8
DEFAULT_255_2_778
10
13.4073891
20
9.5381704
40
2.6498161
50
0.1559007
51
1.7999216
0
ARC
8
DEFAULT_255_2_778
10
10.541783
20
9.4550855
40
5.5166224
50
1.7276033
51
2.6165232
0
ARC
8
DEFAULT_255_2_778
10
7.0201909
20
9.2943993
40
9.0418786
50
2.6149658
51
3.4736923
0
ARC
8
DEFAULT_255_2_778
10
3.414351
20
9.0779077
40
12.6542112
50
3.4628943
51
4.2380856
0
ARC
8
DEFAULT_255_2_778
10
1.163968
20
8.9125647
40
14.9106596
50
4.2326486
51
5.2044864
0
ARC
8
DEFAULT_255_2_778
10
1.8407477
20
8.9793599
40
14.230612
50
5.1838368
51
6.597016
0
ARC
8
DEFAULT_255_2_778
10
5.859379
20
9.4540581
40
10.184058
50
6.5414707
51
8.7744505
0
ARC
8
DEFAULT_255_2_778
10
9.9782133
20
10.0886294
40
6.0166276
50
8.7855307
51
11.1507409
0
ARC
8
DEFAULT_255_2_778
10
12.5153487
20
10.5900035
40
3.4304279
50
11.1298628
51
14.147364
0
ARC
8
DEFAULT_255_2_778
10
14.069471
20
10.9833426
40
1.8273039
50
14.0985771
51
18.2619454
0
ARC
8
DEFAULT_255_2_778
10
14.9904384
20
11.2902644
40
0.8565493
50
18.070148
51
25.0572248
0
ARC
8
DEFAULT_255_2_778
10
15.281565
20
11.4205377
40
0.5376743
50
25.620546
51
25.9338458
0
ARC
8
DEFAULT_255_2_778
10
16.5540217
20
9.6224201
40
2.1809523
50
111.2067747
51
114.4015446
0
ARC
8
DEFAULT_255_2_778
10
16.8928609
20
8.8749093
40
3.0016741
50
114.3968323
51
117.5807367
0
ARC
8
DEFAULT_255_2_778
10
17.2500689
20
8.1883787
40
3.7755735
50
117.5618035
51
120.6904539
0
ARC
8
DEFAULT_255_2_778
10
17.4915803
20
7.7790611
40
4.2508286
50
120.6738621
51
124.5408435
0
LINE
8
DEFAULT_255_2_778
10
15.0813878
20
11.280563
11
15.0812687
21
11.2804811
0
ARC
8
DEFAULT_255_2_778
10
16.9895524
20
8.436431
40
3.4249332
50
123.8605829
51
139.671352
0
ARC
8
DEFAULT_255_2_778
10
15.7275714
20
9.5356785
40
1.7515968
50
140.3677172
51
152.1087558
0
ARC
8
DEFAULT_255_2_778
10
15.2111606
20
9.8162051
40
1.1639624
50
152.4221017
51
161.60146
0
ARC
8
DEFAULT_255_2_778
10
12.6535901
20
-0.1975203
40
10.4823075
50
82.031737
51
89.7617668
0
ARC
8
DEFAULT_255_2_778
10
12.6534355
20
-0.181006
40
10.465794
50
89.7605445
51
90.0002604
0
ARC
8
DEFAULT_255_2_778
10
12.6536605
20
-0.2157061
40
10.5004941
50
90.0014868
51
99.3096493
0
ARC
8
DEFAULT_255_2_778
10
9.6372599
20
9.8202239
40
1.3575235
50
13.9061467
51
38.1860352
0
ARC
8
DEFAULT_255_2_778
10
8.738308
20
9.131327
40
2.490035
50
37.8577043
51
51.8913652
0
ARC
8
DEFAULT_255_2_778
10
7.6793491
20
7.8206105
40
4.174974
50
51.5576203
51
59.6249698
0
ARC
8
DEFAULT_255_2_778
10
7.0372399
20
6.7659494
40
5.4095931
50
59.4060234
51
62.2821999
0
ARC
8
DEFAULT_255_2_778
10
6.8048852
20
6.3277047
40
5.9056214
50
62.2641858
51
64.1994652
0
ARC
8
DEFAULT_255_2_778
10
6.7329784
20
6.1806982
40
6.0692703
50
64.1923307
51
64.7942887
0
ARC
8
DEFAULT_255_2_778
10
10.472928
20
11.0059068
40
1.3335479
50
150.0297717
51
158.4202481
0
ARC
8
DEFAULT_255_2_778
10
11.4271381
20
10.6227662
40
2.3617976
50
158.2909375
51
164.0859292
0
ARC
8
DEFAULT_255_2_778
10
12.8128303
20
10.2238582
40
3.8037623
50
164.030663
51
168.5382394
0
ARC
8
DEFAULT_255_2_778
10
14.7000982
20
9.8418243
40
5.7293091
50
168.5443511
51
173.0333228
0
ARC
8
DEFAULT_255_2_778
10
16.0716184
20
9.6616663
40
7.1125659
50
172.9328425
51
175.1804134
0
ARC
8
DEFAULT_255_2_778
10
16.4210365
20
9.6301611
40
7.4633958
50
175.1647816
51
178.1296378
0
ARC
8
DEFAULT_255_2_778
10
15.8510401
20
9.6482925
40
6.8931114
50
178.1256319
51
179.9811244
0
ARC
8
DEFAULT_255_2_778
10
15.0989842
20
9.649401
40
6.1410552
50
179.9891555
51
181.2377527
0
ARC
8
DEFAULT_255_2_778
10
14.520528
20
9.6375443
40
5.562478
50
181.2443594
51
182.0457222
0
ARC
8
DEFAULT_255_2_778
10
18.2787658
20
9.779608
40
9.3286913
50
182.0925612
51
187.1815797
0
ARC
8
DEFAULT_255_2_778
10
17.2125923
20
9.6447664
40
8.2540248
50
187.1781305
51
193.0256454
0
ARC
8
DEFAULT_255_2_778
10
16.4005725
20
9.4564598
40
7.4204571
50
193.0222285
51
200.0104239
0
ARC
8
DEFAULT_255_2_778
10
15.877915
20
9.2672447
40
6.8646046
50
200.019242
51
208.2414305
0
ARC
8
DEFAULT_255_2_778
10
15.7155155
20
9.1844979
40
6.6823834
50
208.2752877
51
219.1467051
0
ARC
8
DEFAULT_255_2_778
10
16.3925608
20
9.8089649
40
7.6018974
50
219.5753399
51
240.0007249
0
ARC
8
DEFAULT_255_2_778
10
9.2803372
20
9.048237
40
6.6984764
50
299.6265667
51
318.3954354
0
ARC
8
DEFAULT_255_2_778
10
9.1637477
20
9.1555766
40
6.8569283
50
318.3716303
51
331.9462616
0
ARC
8
DEFAULT_255_2_778
10
9.0083909
20
9.2383018
40
7.0329373
50
331.9467398
51
342.5184848
0
ARC
8
DEFAULT_255_2_778
10
8.7311419
20
9.3248571
40
7.3233824
50
342.5241758
51
351.7494648
0
ARC
8
DEFAULT_255_2_778
10
8.3024357
20
9.3870987
40
7.7565833
50
351.7488937
51
359.530364
0
ARC
8
DEFAULT_255_2_778
10
8.0183751
20
9.3955249
40
8.0407058
50
359.4869148
51
0.0004431
0
ARC
8
DEFAULT_255_2_778
10
7.9520733
20
9.3954917
40
8.1070077
50
0.0006739
51
0.9266292
0
ARC
8
DEFAULT_255_2_778
10
7.8340893
20
9.393601
40
8.2250066
50
0.9265068
51
1.0573634
0
ARC
8
DEFAULT_255_2_778
10
14.3465619
20
10.105423
40
0.0408214
50
68.2208242
51
83.482548
0
LINE
8
DEFAULT_255_2_778
10
14.3617079
20
10.1433305
11
14.361819
21
10.1432934
0
ARC
8
DEFAULT_255_2_778
10
14.3767027
20
10.180662
40
0.0402236
50
248.2828842
51
263.7094496
0
ARC
8
DEFAULT_255_2_778
10
14.3725212
20
10.1729136
40
0.0322338
50
246.6013775
51
269.5984879
0
ARC
8
DEFAULT_255_2_778
10
14.3481176
20
10.121042
40
0.0251278
50
62.4997833
51
82.9644067
0
ARC
8
DEFAULT_255_2_778
10
14.2678894
20
10.3172507
40
0.1563297
50
253.7315142
51
263.6486423
0
ARC
8
DEFAULT_255_2_778
10
14.2333013
20
10.0065103
40
0.1563297
50
73.7315142
51
83.6486423
0
ARC
8
DEFAULT_255_2_778
10
14.2051621
20
9.9347138
40
0.2332365
50
72.0363511
51
85.3438136
0
ARC
8
DEFAULT_255_2_778
10
8.4427637
20
9.1725324
40
7.298464
50
0.1478705
51
1.1740928
0
ARC
8
DEFAULT_255_2_778
10
8.4090107
20
9.1726864
40
7.3322163
50
0.0006527
51
0.1459866
0
ARC
8
DEFAULT_255_2_778
10
8.7597605
20
9.1666602
40
6.9814693
50
351.8085004
51
0.0501415
0
ARC
8
DEFAULT_255_2_778
10
9.1676102
20
9.1081839
40
6.5694489
50
342.1361268
51
351.8064804
0
ARC
8
DEFAULT_255_2_778
10
9.4141931
20
9.0293923
40
6.3105845
50
330.4108048
51
342.1302435
0
ARC
8
DEFAULT_255_2_778
10
9.5262762
20
8.9664951
40
6.1820611
50
315.5620202
51
330.4047848
0
ARC
8
DEFAULT_255_2_778
10
9.5948929
20
8.8978232
40
6.0849884
50
299.9229245
51
315.5713547
0
ARC
8
DEFAULT_255_2_778
10
15.0875887
20
8.5515359
40
5.5062775
50
235.9931483
51
243.4952983
0
ARC
8
DEFAULT_255_2_778
10
15.0641307
20
8.5130554
40
5.4612588
50
227.1362548
51
235.9713701
0
ARC
8
DEFAULT_255_2_778
10
15.2574295
20
8.7127547
40
5.7391289
50
216.0335202
51
227.0779925
0
ARC
8
DEFAULT_255_2_778
10
15.8957668
20
9.1649425
40
6.5213457
50
203.4294647
51
215.9471087
0
ARC
8
DEFAULT_255_2_778
10
16.8166898
20
9.5746895
40
7.5292688
50
194.4711985
51
203.5039355
0
ARC
8
DEFAULT_255_2_778
10
17.2329296
20
9.6934409
40
7.9619855
50
193.6800472
51
194.5501277
0
ARC
8
DEFAULT_255_2_778
10
17.3807391
20
9.7281149
40
8.1138025
50
189.6986174
51
193.6711032
0
ARC
8
DEFAULT_255_2_778
10
17.4906715
20
9.7478086
40
8.2254813
50
186.3361527
51
189.7048341
0
ARC
8
DEFAULT_255_2_778
10
17.4207714
20
9.7406037
40
8.1552129
50
183.2751339
51
186.3400405
0
ARC
8
DEFAULT_255_2_778
10
17.1878498
20
9.7276909
40
7.9219341
50
180.4211354
51
183.2781371
0
ARC
8
DEFAULT_255_2_778
10
16.9979012
20
9.7249648
40
7.7319706
50
180.0004857
51
180.4112806
0
ARC
8
DEFAULT_255_2_778
10
16.7758465
20
9.7262095
40
7.509916
50
177.6114617
51
180.0099967
0
ARC
8
DEFAULT_255_2_778
10
16.329195
20
9.7452577
40
7.0628588
50
175.105962
51
177.6148457
0
ARC
8
DEFAULT_255_2_778
10
15.7909123
20
9.7916445
40
6.5225813
50
172.5673552
51
175.1085535
0
ARC
8
DEFAULT_255_2_778
10
15.2219734
20
9.8657665
40
5.9488341
50
170.1837517
51
172.5664005
0
ARC
8
DEFAULT_255_2_778
10
14.6306167
20
9.9686309
40
5.348598
50
167.5391729
51
170.1895218
0
ARC
8
DEFAULT_255_2_778
10
14.1320919
20
10.0774413
40
4.8383386
50
165.8285942
51
167.5235365
0
ARC
8
DEFAULT_255_2_778
10
13.8077721
20
12.0392842
40
4.4354188
50
190.0931612
51
195.6270118
0
ARC
8
DEFAULT_255_2_778
10
12.0749173
20
11.5487157
40
2.6344774
50
195.5041504
51
204.6149654
0
ARC
8
DEFAULT_255_2_778
10
11.1471923
20
11.1148644
40
1.6103701
50
204.3299157
51
222.3054457
0
ARC
8
DEFAULT_255_2_778
10
10.9678512
20
10.9763628
40
1.3846328
50
223.0618991
51
247.8319487
0
ARC
8
DEFAULT_255_2_778
10
12.2169709
20
3.4377294
40
6.5023387
50
101.8117515
51
105.8102309
0
ARC
8
DEFAULT_255_2_778
10
12.4976841
20
2.1013072
40
7.8679242
50
97.9426152
51
101.8205471
0
ARC
8
DEFAULT_255_2_778
10
12.6702203
20
0.8614546
40
9.1197239
50
93.1521035
51
97.9398303
0
ARC
8
DEFAULT_255_2_778
10
12.7033324
20
0.3707344
40
9.6115244
50
90.4149413
51
93.1883404
0
ARC
8
DEFAULT_255_2_778
10
12.7032203
20
0.399755
40
9.582504
50
90.0000166
51
90.4155273
0
ARC
8
DEFAULT_255_2_778
10
12.7121563
20
0.8768928
40
9.1053705
50
84.1508083
51
90.056248
0
ARC
8
DEFAULT_255_2_778
10
12.8570729
20
2.3153875
40
7.6595971
50
79.7781261
51
84.13259
0
ARC
8
DEFAULT_255_2_778
10
13.1096425
20
3.7121
40
6.2402321
50
75.3203167
51
79.7845493
0
ARC
8
DEFAULT_255_2_778
10
13.3000948
20
4.4708902
40
5.4579529
50
74.5291265
51
75.2357752
0
ARC
8
DEFAULT_255_2_778
10
13.6618631
20
11.2231096
40
1.8502098
50
306.2532778
51
321.1198563
0
ARC
8
DEFAULT_255_2_778
10
13.3183783
20
11.4759552
40
2.2763862
50
321.5923643
51
338.9580151
0
ARC
8
DEFAULT_255_2_778
10
12.5587536
20
11.8011226
40
3.1022616
50
338.3902732
51
341.380464
0
ARC
8
DEFAULT_255_2_778
10
11.7506807
20
12.0654356
40
3.9524372
50
341.4895458
51
346.1851511
0
ARC
8
DEFAULT_255_2_778
10
10.4175579
20
12.404836
40
5.3280516
50
346.0641459
51
347.3804185
0
ARC
8
DEFAULT_255_2_778
10
13.2727477
20
10.7143458
40
2.4025324
50
9.5496381
51
12.6571523
0
ARC
8
DEFAULT_255_2_778
10
11.8715658
20
10.4767575
40
3.8237137
50
7.2270363
51
9.5771639
0
ARC
8
DEFAULT_255_2_778
10
9.7138514
20
10.2040309
40
5.9985955
50
5.0784224
51
7.2185969
0
ARC
8
DEFAULT_255_2_778
10
6.2757365
20
9.8984373
40
9.4502649
50
3.2329292
51
5.0787553
0
ARC
8
DEFAULT_255_2_778
10
1.7541775
20
9.6376623
40
13.9793354
50
1.9405411
51
3.2549189
0
ARC
8
DEFAULT_255_2_778
10
-2.3777766
20
9.4906853
40
18.113898
50
1.249293
51
1.9626038
0
ARC
8
DEFAULT_255_2_778
10
-5.3524582
20
9.4235887
40
21.0893356
50
0.8377052
51
1.2553379
0
ARC
8
DEFAULT_255_2_778
10
-8.4022283
20
9.3794119
40
24.1394256
50
0.4780315
51
0.8367174
0
ARC
8
DEFAULT_255_2_778
10
-14.8628928
20
9.3256744
40
30.6003136
50
0.2830647
51
0.4777197
0
ARC
8
DEFAULT_255_2_778
10
-109.3731935
20
8.8775126
40
125.1116763
50
0.2377764
51
0.2744728
0
ARC
8
DEFAULT_255_2_778
10
30.7158772
20
9.4608913
40
14.9786092
50
180.2454589
51
180.3638682
0
ARC
8
DEFAULT_255_2_778
10
20.0617249
20
9.3929648
40
4.3242403
50
180.360366
51
180.60883
0
ARC
8
DEFAULT_255_2_778
10
16.9518519
20
9.3588592
40
1.2141809
50
180.558882
51
181.2685133
0
ARC
8
DEFAULT_255_2_778
10
15.8964937
20
9.3343005
40
0.1585422
50
180.8386991
51
183.9077029
0
ARC
8
DEFAULT_255_2_778
10
15.7410888
20
9.3233002
40
0.0027756
50
175.9561088
51
206.0649992
0
LINE
8
DEFAULT_255_2_778
10
13.5965954
20
7.5307805
11
13.4049954
21
7.5307805
0
LINE
8
DEFAULT_255_2_778
10
13.5319954
20
6.7121805
11
11.5973954
21
6.7121805
0
LINE
8
DEFAULT_255_2_778
10
11.9058954
20
7.5307805
11
11.7089954
21
7.5307805
0
LINE
8
DEFAULT_255_2_778
10
11.3581954
20
6.6645805
11
11.3158954
21
6.5851805
0
LINE
8
DEFAULT_255_2_778
10
11.3158954
20
6.5851805
11
12.4005954
21
5.9046805
0
LINE
8
DEFAULT_255_2_778
10
12.4005954
20
5.9046805
11
11.7894954
21
5.5009805
0
LINE
8
DEFAULT_255_2_778
10
11.7894954
20
5.5009805
11
11.8952954
21
5.3421805
0
LINE
8
DEFAULT_255_2_778
10
11.8952954
20
5.3421805
11
12.5757954
21
5.7940805
0
LINE
8
DEFAULT_255_2_778
10
12.5757954
20
5.7940805
11
13.3144954
21
5.3157805
0
LINE
8
DEFAULT_255_2_778
10
13.3144954
20
5.3157805
11
13.4203954
21
5.4744805
0
LINE
8
DEFAULT_255_2_778
10
13.4203954
20
5.4744805
11
12.7397954
21
5.8946805
0
LINE
8
DEFAULT_255_2_778
10
12.7397954
20
5.8946805
11
13.8028954
21
6.5909805
0
LINE
8
DEFAULT_255_2_778
10
13.8028954
20
6.5909805
11
13.7986954
21
6.5899805
0
LINE
8
DEFAULT_255_2_778
10
12.5709954
20
6.0157805
11
11.7682954
21
6.5206805
0
LINE
8
DEFAULT_255_2_778
10
11.7682954
20
6.5206805
11
13.3361954
21
6.5206805
0
LINE
8
DEFAULT_255_2_778
10
13.3361954
20
6.5206805
11
12.5709954
21
6.0157805
0
LINE
8
DEFAULT_255_2_778
10
8.9615954
20
9.4389805
11
8.9562954
21
9.4389805
0
LINE
8
DEFAULT_255_2_778
10
16.0576954
20
9.5453805
11
16.0571954
21
9.5453805
0
LINE
8
DEFAULT_255_2_778
10
14.3511954
20
10.1459805
11
14.3511954
21
10.1459805
0
LINE
8
DEFAULT_255_2_778
10
14.2240954
20
10.1671805
11
14.2240954
21
10.1671805
0
LINE
8
DEFAULT_255_2_778
10
15.7385954
20
9.3220805
11
15.7396954
21
9.3220805
0
ARC
8
DEFAULT_255_2_778
10
16.132728
20
-0.4941914
40
1.2811318
50
42.7777316
51
62.4895073
0
ARC
8
DEFAULT_255_2_778
10
15.7292569
20
-1.2736987
40
2.1588662
50
62.5482631
51
81.4332443
0
ARC
8
DEFAULT_255_2_778
10
15.6548521
20
-1.6117411
40
2.5043283
50
80.9020098
51
82.0013654
0
ARC
8
DEFAULT_255_2_778
10
15.6590168
20
-1.5737766
40
2.466154
50
81.9744484
51
88.9226503
0
ARC
8
DEFAULT_255_2_778
10
15.6635771
20
-1.4335221
40
2.3258394
50
88.9700086
51
89.9977354
0
ARC
8
DEFAULT_255_2_778
10
15.6634226
20
-1.3582969
40
2.2506141
50
89.9937248
51
91.7250703
0
ARC
8
DEFAULT_255_2_778
10
12.8789277
20
-1.3761495
40
3.5386449
50
39.8490301
51
40.7300195
0
ARC
8
DEFAULT_255_2_778
10
10.0177841
20
-3.8405754
40
7.3148251
50
40.7350342
51
41.4812813
0
ARC
8
DEFAULT_255_2_778
10
4.7292101
20
-8.5112972
40
14.3706488
50
41.4659469
51
41.9544503
0
ARC
8
DEFAULT_255_2_778
10
-3.1478743
20
-15.5877491
40
24.9595403
50
41.9462973
51
42.2797419
0
ARC
8
DEFAULT_255_2_778
10
-13.0545703
20
-24.5902679
40
38.3456509
50
42.2736835
51
42.4860097
0
ARC
8
DEFAULT_255_2_778
10
-26.3391017
20
-36.759264
40
56.3612897
50
42.4874581
51
42.6956051
0
ARC
8
DEFAULT_255_2_778
10
-45.5896334
20
-54.5181415
40
82.5521412
50
42.6944481
51
42.8617336
0
ARC
8
DEFAULT_255_2_778
10
-74.3206812
20
-81.1854063
40
121.7518366
50
42.8632734
51
43.034318
0
ARC
8
DEFAULT_255_2_778
10
-115.9532434
20
-120.0508622
40
178.7061507
50
43.0333377
51
43.1714635
0
ARC
8
DEFAULT_255_2_778
10
-142.9323369
20
-145.3422783
40
215.6862408
50
43.1679057
51
43.1780677
0
ARC
8
DEFAULT_255_2_778
10
-172.1322853
20
-172.7610349
40
255.7415156
50
43.1812056
51
43.299104
0
ARC
8
DEFAULT_255_2_778
10
-212.3393617
20
-210.6327228
40
310.9762296
50
43.2969106
51
43.3469134
0
ARC
8
DEFAULT_255_2_778
10
-233.6357584
20
-230.7325218
40
340.2599868
50
43.3466859
51
43.3843409
0
ARC
8
DEFAULT_255_2_778
10
-243.2601459
20
-239.8269777
40
353.501511
50
43.3841178
51
43.4135869
0
ARC
8
DEFAULT_255_2_778
10
-249.3012259
20
-245.5413289
40
361.8170661
50
43.4134571
51
43.4366262
0
ARC
8
DEFAULT_255_2_778
10
-244.7268567
20
-241.2091117
40
355.5168312
50
43.4365199
51
43.4640535
0
ARC
8
DEFAULT_255_2_778
10
-231.1485285
20
-228.3400828
40
336.8090013
50
43.4640712
51
43.4872766
0
ARC
8
DEFAULT_255_2_778
10
-198.021579
20
-196.9169461
40
291.1493003
50
43.4871605
51
43.5064403
0
ARC
8
DEFAULT_255_2_778
10
-164.1989301
20
-164.8118879
40
244.5155534
50
43.5062132
51
43.5196184
0
ARC
8
DEFAULT_255_2_778
10
-116.8635003
20
-119.858633
40
179.2358625
50
43.5189704
51
43.5356053
0
ARC
8
DEFAULT_255_2_778
10
-56.464264
20
-62.4689418
40
95.9193311
50
43.5349213
51
43.5489079
0
ARC
8
DEFAULT_255_2_778
10
-22.123275
20
-29.822702
40
48.5370507
50
43.5471099
51
43.5490009
0
ARC
8
DEFAULT_255_2_778
10
15.7704986
20
-1.2119241
40
1.8416038
50
91.608212
51
94.2577728
0
ARC
8
DEFAULT_255_2_778
10
15.7684633
20
-1.1471659
40
1.7768139
50
90.0032793
51
91.6012116
0
ARC
8
DEFAULT_255_2_778
10
15.7707313
20
-1.0255349
40
1.6551846
50
81.4086105
51
90.0820291
0
ARC
8
DEFAULT_255_2_778
10
15.7902324
20
-0.8927656
40
1.520992
50
72.4173266
51
81.387831
0
ARC
8
DEFAULT_255_2_778
10
15.8098863
20
-0.829157
40
1.4544181
50
63.940622
51
72.398446
0
ARC
8
DEFAULT_255_2_778
10
15.8271833
20
-0.7936862
40
1.4149547
50
56.421933
51
63.9388446
0
ARC
8
DEFAULT_255_2_778
10
15.8590057
20
-0.7457593
40
1.357425
50
51.3318998
51
56.4221533
0
ARC
8
DEFAULT_255_2_778
10
15.9218474
20
-0.6674907
40
1.2570505
50
47.2403934
51
51.3393115
0
ARC
8
DEFAULT_255_2_778
10
16.0397614
20
-0.5405847
40
1.0838204
50
43.5051568
51
47.2622817
0
ARC
8
DEFAULT_255_2_778
10
16.2104023
20
-0.3782771
40
0.8483167
50
40.9757053
51
43.4881961
0
ARC
8
DEFAULT_255_2_778
10
16.3417824
20
-0.3158187
40
0.7092427
50
21.9589514
51
44.1275381
0
ARC
8
DEFAULT_255_2_778
10
-15.688272
20
-59.8211417
40
67.4483692
50
62.3955129
51
63.2075265
0
ARC
8
DEFAULT_255_2_778
10
-9.2902322
20
-47.1584414
40
53.2610905
50
63.2111154
51
64.0885369
0
ARC
8
DEFAULT_255_2_778
10
-4.6547354
20
-37.5959846
40
42.6343175
50
64.0762711
51
65.4778302
0
ARC
8
DEFAULT_255_2_778
10
-1.0300663
20
-29.6415617
40
33.8929759
50
65.4715429
51
67.3264961
0
ARC
8
DEFAULT_255_2_778
10
1.5315273
20
-23.4972383
40
27.2360664
50
67.3162187
51
69.8378432
0
ARC
8
DEFAULT_255_2_778
10
3.2957187
20
-18.6774922
40
22.1035923
50
69.82442
51
73.2847991
0
ARC
8
DEFAULT_255_2_778
10
4.1117332
20
-16.0144989
40
19.3184291
50
73.3311229
51
75.0989979
0
ARC
8
DEFAULT_255_2_778
10
4.6012825
20
-14.1349384
40
17.376191
50
75.0652265
51
79.1585861
0
ARC
8
DEFAULT_255_2_778
10
4.9553325
20
-12.2736547
40
15.4815348
50
79.1498504
51
85.0139915
0
ARC
8
DEFAULT_255_2_778
10
10.7843755
20
3.0793056
40
4.4840508
50
172.6082831
51
179.1056339
0
ARC
8
DEFAULT_255_2_778
10
12.6157308
20
2.8452095
40
6.3303051
50
167.6255583
51
172.6395749
0
ARC
8
DEFAULT_255_2_778
10
14.7072848
20
2.399106
40
8.4688772
50
164.9349614
51
167.709989
0
ARC
8
DEFAULT_255_2_778
10
14.1256536
20
2.549703
40
8.1591534
50
164.9065617
51
169.2186452
0
ARC
8
DEFAULT_255_2_778
10
12.2292907
20
2.9083126
40
6.2291831
50
169.1960426
51
174.3451628
0
ARC
8
DEFAULT_255_2_778
10
10.8642514
20
3.0481982
40
4.8570053
50
174.400609
51
178.5642256
0
ARC
8
DEFAULT_255_2_778
10
5.0461227
20
-11.3844601
40
14.586158
50
86.215878
51
90.0005025
0
ARC
8
DEFAULT_255_2_778
10
5.0448637
20
-5.3253412
40
8.5270391
50
89.9924001
51
90.0227971
0
ARC
8
DEFAULT_255_2_778
10
5.0390468
20
0.5898908
40
2.6118074
50
89.9468213
51
90.0177319
0
ARC
8
DEFAULT_255_2_778
10
5.0388431
20
-0.9068634
40
4.1085618
50
90.008431
51
100.5460445
0
ARC
8
DEFAULT_255_2_778
10
11.7927271
20
10.6664887
40
10.6349386
50
218.8975286
51
225.107945
0
ARC
8
DEFAULT_255_2_778
10
10.2412785
20
-2.4933707
40
9.3405416
50
131.5066707
51
136.0564035
0
ARC
8
DEFAULT_255_2_778
10
11.6117995
20
-4.0403917
40
11.4073268
50
127.0215675
51
131.5123559
0
ARC
8
DEFAULT_255_2_778
10
12.7995875
20
-5.6161148
40
13.3805838
50
121.6693511
51
127.0197393
0
ARC
8
DEFAULT_255_2_778
10
13.1467688
20
-6.1436599
40
14.0118612
50
113.1087416
51
121.7450538
0
ARC
8
DEFAULT_255_2_778
10
12.6600149
20
-5.0564733
40
12.820886
50
112.3969861
51
113.014888
0
ARC
8
DEFAULT_255_2_778
10
12.4203699
20
-4.4657663
40
12.1834286
50
109.908205
51
112.413467
0
ARC
8
DEFAULT_255_2_778
10
12.0344858
20
-3.3983651
40
11.0484172
50
107.3128989
51
109.9115338
0
ARC
8
DEFAULT_255_2_778
10
11.6817423
20
-2.2661404
40
9.8625162
50
104.6955919
51
107.3139243
0
ARC
8
DEFAULT_255_2_778
10
11.47017
20
-1.4731987
40
9.0418419
50
103.5790161
51
104.6734454
0
ARC
8
DEFAULT_255_2_778
10
11.553993
20
-1.7844269
40
9.6577433
50
103.5956045
51
106.0761984
0
ARC
8
DEFAULT_255_2_778
10
11.848466
20
-2.8070767
40
10.7219458
50
106.0749683
51
108.4681027
0
ARC
8
DEFAULT_255_2_778
10
12.1144521
20
-3.6120048
40
11.5696787
50
108.4547585
51
109.8033078
0
ARC
8
DEFAULT_255_2_778
10
13.0456704
20
-5.9851623
40
14.1181643
50
110.0960746
51
121.5739629
0
ARC
8
DEFAULT_255_2_778
10
13.0742493
20
-6.1088282
40
14.2385446
50
121.4113808
51
125.5637657
0
ARC
8
DEFAULT_255_2_778
10
12.078268
20
-4.7183324
40
12.5281485
50
125.5570185
51
129.1934234
0
ARC
8
DEFAULT_255_2_778
10
10.7810932
20
-3.1288371
40
10.4765255
50
129.1886857
51
132.742805
0
ARC
8
DEFAULT_255_2_778
10
9.9055786
20
-2.1677612
40
9.1764894
50
132.8009075
51
133.7006364
0
ARC
8
DEFAULT_255_2_778
10
9.5523192
20
-1.7982404
40
8.6652773
50
133.7000158
51
134.6696182
0
ARC
8
DEFAULT_255_2_778
10
9.1933844
20
-1.4351295
40
8.1547053
50
134.669681
51
135.6454905
0
ARC
8
DEFAULT_255_2_778
10
8.9603475
20
-1.2063469
40
7.8281364
50
135.6504005
51
135.9851077
0
ARC
8
DEFAULT_255_2_778
10
9.0404913
20
8.469299
40
7.1097328
50
212.8212752
51
216.5729246
0
ARC
8
DEFAULT_255_2_778
10
8.0148706
20
7.8096103
40
5.8902723
50
208.3807531
51
212.8361351
0
ARC
8
DEFAULT_255_2_778
10
7.0901133
20
7.3108784
40
4.8396015
50
203.3687593
51
208.3899311
0
ARC
8
DEFAULT_255_2_778
10
6.2947875
20
6.9678559
40
3.9734566
50
197.7804584
51
203.377111
0
ARC
8
DEFAULT_255_2_778
10
5.6065337
20
6.7482963
40
3.2510313
50
191.2660493
51
197.7998518
0
ARC
8
DEFAULT_255_2_778
10
5.1521046
20
6.6537585
40
2.786892
50
187.6119697
51
191.1851181
0
ARC
8
DEFAULT_255_2_778
10
5.0708093
20
6.6522316
40
2.7061266
50
182.0387277
51
187.8079272
0
ARC
8
DEFAULT_255_2_778
10
4.9203569
20
6.6451662
40
2.5555186
50
180.004777
51
182.0004211
0
ARC
8
DEFAULT_255_2_778
10
4.6311688
20
6.6583562
40
2.2663701
50
159.5072794
51
180.3388426
0
ARC
8
DEFAULT_255_2_778
10
4.4870973
20
6.7010757
40
2.1164859
50
140.7985938
51
159.2251506
0
ARC
8
DEFAULT_255_2_778
10
4.4133324
20
6.7866631
40
2.0053249
50
130.0886704
51
141.361501
0
ARC
8
DEFAULT_255_2_778
10
4.2853581
20
6.9339954
40
1.8101992
50
111.5530568
51
129.9928085
0
ARC
8
DEFAULT_255_2_778
10
4.4467303
20
6.4412298
40
2.3279972
50
90.1031053
51
110.7916753
0
ARC
8
DEFAULT_255_2_778
10
4.4999896
20
5.5389717
40
3.2307622
50
89.9960235
51
91.0188725
0
ARC
8
DEFAULT_255_2_778
10
4.4866496
20
4.8206983
40
3.949059
50
83.5627997
51
89.8031998
0
ARC
8
DEFAULT_255_2_778
10
4.3232709
20
3.2777898
40
5.5005672
50
80.5301547
51
83.6735586
0
ARC
8
DEFAULT_255_2_778
10
6.1543255
20
8.598827
40
0.9319399
50
173.5574467
51
179.8894959
0
ARC
8
DEFAULT_255_2_778
10
5.8217619
20
8.589733
40
0.5994735
50
178.9589767
51
197.7917345
0
ARC
8
DEFAULT_255_2_778
10
5.5574695
20
8.5106413
40
0.3237
50
198.7560237
51
211.3986082
0
ARC
8
DEFAULT_255_2_778
10
5.5986603
20
8.5651323
40
0.3880577
50
215.0999884
51
235.9202911
0
ARC
8
DEFAULT_255_2_778
10
5.8347476
20
8.8992841
40
0.7971556
50
235.3236551
51
246.7303821
0
ARC
8
DEFAULT_255_2_778
10
6.0889634
20
9.4796512
40
1.4307496
50
246.5598668
51
254.7079801
0
ARC
8
DEFAULT_255_2_778
10
6.3114694
20
10.2796993
40
2.2611578
50
254.616143
51
261.2167779
0
ARC
8
DEFAULT_255_2_778
10
6.441559
20
11.1055348
40
3.0971739
50
261.1712342
51
267.8269832
0
ARC
8
DEFAULT_255_2_778
10
6.4602388
20
11.4364539
40
3.4285688
50
267.7247295
51
270.0034769
0
ARC
8
DEFAULT_255_2_778
10
6.4607026
20
11.4492631
40
3.4413781
50
269.9957427
51
273.5780958
0
ARC
8
DEFAULT_255_2_778
10
6.4980229
20
11.017324
40
3.0079694
50
273.3820793
51
283.114648
0
ARC
8
DEFAULT_255_2_778
10
6.6867558
20
10.1915383
40
2.1609013
50
283.2090569
51
290.963379
0
ARC
8
DEFAULT_255_2_778
10
6.8386587
20
9.7792365
40
1.7215528
50
291.1517987
51
294.2586898
0
ARC
8
DEFAULT_255_2_778
10
5.5619133
20
6.7596676
40
2.457452
50
36.1608448
51
56.7270531
0
ARC
8
DEFAULT_255_2_778
10
5.2294741
20
6.3104256
40
3.0155979
50
56.129033
51
61.739814
0
ARC
8
DEFAULT_255_2_778
10
5.2421847
20
6.3384034
40
2.9849372
50
61.7004393
51
67.6331675
0
ARC
8
DEFAULT_255_2_778
10
5.3803287
20
6.6780563
40
2.6182694
50
67.6003681
51
72.9333402
0
ARC
8
DEFAULT_255_2_778
10
5.5421947
20
7.2072564
40
2.064868
50
72.9174188
51
77.9914347
0
ARC
8
DEFAULT_255_2_778
10
5.6657006
20
7.7966629
40
1.4626645
50
77.9198443
51
84.1631511
0
ARC
8
DEFAULT_255_2_778
10
5.7162772
20
8.2800261
40
0.9766645
50
84.2310994
51
89.8131563
0
ARC
8
DEFAULT_255_2_778
10
5.717561
20
8.5830988
40
0.6735893
50
89.8382881
51
95.5104664
0
ARC
8
DEFAULT_255_2_778
10
5.6964302
20
8.7970693
40
0.4585787
50
95.4497341
51
102.8061077
0
ARC
8
DEFAULT_255_2_778
10
5.6599008
20
8.9551021
40
0.2963807
50
102.6915957
51
113.0024017
0
ARC
8
DEFAULT_255_2_778
10
5.6341323
20
9.0198596
40
0.2267082
50
113.4031381
51
115.4330533
0
ARC
8
DEFAULT_255_2_778
10
5.7804143
20
8.7663411
40
0.5189997
50
117.9984676
51
156.9440127
0
ARC
8
DEFAULT_255_2_778
10
3.8015657
20
0.4319512
40
8.6686398
50
80.0267662
51
83.4011768
0
ARC
8
DEFAULT_255_2_778
10
4.3981313
20
5.569893
40
3.4961814
50
83.4368667
51
88.0075291
0
ARC
8
DEFAULT_255_2_778
10
4.461923
20
7.070487
40
1.9943104
50
88.340227
51
89.9670189
0
ARC
8
DEFAULT_255_2_778
10
4.4689426
20
6.153585
40
2.911218
50
90.1155599
51
100.8124766
0
ARC
8
DEFAULT_255_2_778
10
4.3287614
20
6.8547793
40
2.1961837
50
100.6519838
51
121.238257
0
ARC
8
DEFAULT_255_2_778
10
4.3611392
20
6.8408871
40
2.2249472
50
121.7656333
51
140.8901445
0
ARC
8
DEFAULT_255_2_778
10
4.6268443
20
6.6015513
40
2.5821566
50
140.4885069
51
141.0444705
0
ARC
8
DEFAULT_255_2_778
10
4.537334
20
6.679977
40
2.4632474
50
141.1540237
51
179.2029581
0
ARC
8
DEFAULT_255_2_778
10
4.7990794
20
6.6580187
40
2.7253345
50
178.8179102
51
180.0016188
0
ARC
8
DEFAULT_255_2_778
10
4.9315029
20
6.6599991
40
2.8577589
50
180.0412474
51
186.0673018
0
ARC
8
DEFAULT_255_2_778
10
5.1085912
20
6.6768446
40
3.0356362
50
186.030187
51
188.1309361
0
ARC
8
DEFAULT_255_2_778
10
5.7798957
20
6.8143298
40
3.7198654
50
188.7648702
51
198.8790562
0
ARC
8
DEFAULT_255_2_778
10
6.6681037
20
7.1147536
40
4.6575007
50
198.8404685
51
206.6295478
0
ARC
8
DEFAULT_255_2_778
10
7.7197068
20
7.6389635
40
5.8325153
50
206.6025692
51
212.9180105
0
ARC
8
DEFAULT_255_2_778
10
8.7991183
20
8.3302866
40
7.1143202
50
212.8675703
51
217.2402295
0
ARC
8
DEFAULT_255_2_778
10
17.0747682
20
-8.9993062
40
19.0768334
50
138.1980886
51
138.9206897
0
ARC
8
DEFAULT_255_2_778
10
17.5489372
20
-9.4127741
40
19.7059534
50
138.9204149
51
139.6143451
0
ARC
8
DEFAULT_255_2_778
10
18.3436653
20
-10.0828438
40
20.7454564
50
139.6268703
51
142.0800052
0
ARC
8
DEFAULT_255_2_778
10
18.5228302
20
-10.2275593
40
20.9757312
50
142.0689316
51
143.6144449
0
ARC
8
DEFAULT_255_2_778
10
17.6857598
20
-9.6122313
40
19.9368308
50
143.6110026
51
144.9470713
0
ARC
8
DEFAULT_255_2_778
10
15.9342172
20
-8.3868033
40
17.7991762
50
144.9380374
51
146.4479329
0
ARC
8
DEFAULT_255_2_778
10
13.2101821
20
-6.5833203
40
14.5322342
50
146.4378173
51
148.0492365
0
ARC
8
DEFAULT_255_2_778
10
10.1234855
20
-4.6591745
40
10.894923
50
148.0449971
51
149.6657054
0
ARC
8
DEFAULT_255_2_778
10
7.0851247
20
-2.8855061
40
7.3767536
50
149.6372368
51
151.7259007
0
ARC
8
DEFAULT_255_2_778
10
4.3318563
20
-1.4091049
40
4.2526184
50
151.6727892
51
154.5578667
0
ARC
8
DEFAULT_255_2_778
10
2.2769041
20
-0.4366958
40
1.9792154
50
154.4217627
51
159.0255073
0
ARC
8
DEFAULT_255_2_778
10
1.0309724
20
0.0342283
40
0.6473011
50
158.4710923
51
168.1679552
0
ARC
8
DEFAULT_255_2_778
10
0.5867526
20
0.129457
40
0.1930055
50
168.797586
51
179.0974587
0
ARC
8
DEFAULT_255_2_778
10
3.7673746
20
0.4458044
40
1.5555722
50
182.4060005
51
190.6246466
0
ARC
8
DEFAULT_255_2_778
10
3.9474296
20
0.4564362
40
1.7359175
50
179.9889221
51
182.5071189
0
ARC
8
DEFAULT_255_2_778
10
4.1725458
20
0.4518082
40
1.96104
50
170.7659676
51
179.8549768
0
ARC
8
DEFAULT_255_2_778
10
4.4390164
20
0.4122426
40
2.2304097
50
165.8778282
51
170.861196
0
ARC
8
DEFAULT_255_2_778
10
4.7019775
20
0.340082
40
2.5030368
50
150.9884979
51
165.7446089
0
ARC
8
DEFAULT_255_2_778
10
4.7173609
20
0.3382009
40
2.5174091
50
140.4962491
51
151.1208612
0
ARC
8
DEFAULT_255_2_778
10
4.6628238
20
0.3875952
40
2.4439104
50
137.4895648
51
140.5764109
0
ARC
8
DEFAULT_255_2_778
10
4.6866105
20
0.3659182
40
2.4760926
50
134.9877399
51
137.4917379
0
ARC
8
DEFAULT_255_2_778
10
4.7155722
20
0.3360962
40
2.5176592
50
126.940058
51
134.9740986
0
ARC
8
DEFAULT_255_2_778
10
4.7628942
20
0.2724171
40
2.5969952
50
118.5565746
51
126.9301976
0
ARC
8
DEFAULT_255_2_778
10
4.8377005
20
0.1333303
40
2.7549211
50
110.3103275
51
118.5403226
0
ARC
8
DEFAULT_255_2_778
10
4.9240024
20
-0.0984516
40
3.0022479
50
103.8588602
51
110.3195569
0
ARC
8
DEFAULT_255_2_778
10
13.4912308
20
12.2744249
40
13.2548394
50
225.5247213
51
227.6862608
0
ARC
8
DEFAULT_255_2_778
10
15.2962414
20
14.2564186
40
15.9355785
50
227.6844896
51
229.7765892
0
ARC
8
DEFAULT_255_2_778
10
17.027408
20
16.2999218
40
18.6137942
50
229.7699125
51
231.6508014
0
ARC
8
DEFAULT_255_2_778
10
18.4878224
20
18.142704
40
20.965103
50
231.6454396
51
233.3563018
0
ARC
8
DEFAULT_255_2_778
10
19.6391414
20
19.6888261
40
22.8928034
50
233.3538182
51
235.075744
0
ARC
8
DEFAULT_255_2_778
10
7.4398742
20
1.0626488
40
0.4861163
50
0.5125212
51
54.6362785
0
ARC
8
DEFAULT_255_2_778
10
7.3636887
20
0.9804544
40
0.5974163
50
53.239982
51
56.0449655
0
ARC
8
DEFAULT_255_2_778
10
7.3032613
20
0.8544465
40
0.7359671
50
57.6222389
51
79.286735
0
ARC
8
DEFAULT_255_2_778
10
7.2372956
20
0.5581613
40
1.0393964
50
78.7499188
51
90.2040852
0
ARC
8
DEFAULT_255_2_778
10
7.2364481
20
0.3517004
40
1.2458538
50
90.1312887
51
101.0710753
0
ARC
8
DEFAULT_255_2_778
10
7.2495882
20
0.2741517
40
1.324484
50
100.9847355
51
108.6621175
0
ARC
8
DEFAULT_255_2_778
10
8.1828638
20
2.7371521
40
1.8169589
50
198.8327226
51
221.6771465
0
ARC
8
DEFAULT_255_2_778
10
8.8194631
20
2.9652634
40
2.4931353
50
187.212976
51
199.0717559
0
ARC
8
DEFAULT_255_2_778
10
9.4604831
20
3.0616782
40
3.1412247
50
183.8292458
51
187.489616
0
ARC
8
DEFAULT_255_2_778
10
4.9787023
20
-12.2795019
40
15.1912862
50
78.3297137
51
84.910792
0
ARC
8
DEFAULT_255_2_778
10
4.6475185
20
-13.9820753
40
16.9256673
50
76.4112719
51
78.397613
0
ARC
8
DEFAULT_255_2_778
10
4.0838446
20
-16.2236384
40
19.2369301
50
71.8904176
51
76.3480167
0
ARC
8
DEFAULT_255_2_778
10
2.6837412
20
-20.5294676
40
23.7646678
50
68.7293913
51
71.9088773
0
ARC
8
DEFAULT_255_2_778
10
0.6353207
20
-25.8195116
40
29.4374545
50
66.5914033
51
68.7492627
0
ARC
8
DEFAULT_255_2_778
10
-2.3453778
20
-32.703472
40
36.9390194
50
64.7642654
51
66.5906682
0
ARC
8
DEFAULT_255_2_778
10
-7.0279495
20
-42.6485935
40
47.9313759
50
63.3834806
51
64.7694832
0
ARC
8
DEFAULT_255_2_778
10
-14.5172534
20
-57.5988713
40
64.6526341
50
62.3250585
51
63.3855641
0
ARC
8
DEFAULT_255_2_778
10
16.9831933
20
-0.1700262
40
0.3500312
50
350.7480556
51
0.2114524
0
ARC
8
DEFAULT_255_2_778
10
16.7811163
20
-0.1779059
40
0.5521821
50
0.9516984
51
18.2407713
0
ARC
8
DEFAULT_255_2_778
10
16.4420891
20
-0.2840756
40
0.9074207
50
17.907097
51
30.7482773
0
ARC
8
DEFAULT_255_2_778
10
16.2767476
20
-0.3742432
40
1.0956413
50
30.3800347
51
32.0285248
0
ARC
8
DEFAULT_255_2_778
10
16.1858773
20
-0.4334026
40
1.2040559
50
32.1218915
51
40.1780182
0
ARC
8
DEFAULT_255_2_778
10
16.1201789
20
-0.4865718
40
1.2885563
50
40.0996396
51
41.9196577
0
ARC
8
DEFAULT_255_2_778
10
4.7731775
20
0.3033863
40
2.8834463
50
140.6899565
51
161.6289328
0
ARC
8
DEFAULT_255_2_778
10
4.5922142
20
0.3657327
40
2.6920568
50
161.6743682
51
166.6923532
0
ARC
8
DEFAULT_255_2_778
10
4.3301253
20
0.424299
40
2.4235269
50
166.6135353
51
175.4442821
0
ARC
8
DEFAULT_255_2_778
10
4.0445111
20
0.4503876
40
2.1367453
50
175.5333139
51
179.9668208
0
ARC
8
DEFAULT_255_2_778
10
3.8516277
20
0.4502111
40
1.943862
50
179.9583254
51
185.002817
0
ARC
8
DEFAULT_255_2_778
10
3.6486157
20
-1.0858195
40
3.2189966
50
151.8182652
51
154.8799464
0
ARC
8
DEFAULT_255_2_778
10
6.2692718
20
-2.4795297
40
6.1871984
50
149.8636409
51
151.9031382
0
ARC
8
DEFAULT_255_2_778
10
9.2794747
20
-4.2219698
40
9.665331
50
148.2173142
51
149.8896158
0
ARC
8
DEFAULT_255_2_778
10
12.261552
20
-6.0654936
40
13.1712338
50
146.7751078
51
148.2328268
0
ARC
8
DEFAULT_255_2_778
10
14.8996779
20
-7.7915406
40
16.3238431
50
145.317096
51
146.7807794
0
ARC
8
DEFAULT_255_2_778
10
16.9350285
20
-9.19741
40
18.7975279
50
143.8892468
51
145.3235522
0
ARC
8
DEFAULT_255_2_778
10
18.2493621
20
-10.1546852
40
20.423519
50
142.3266768
51
143.8927174
0
ARC
8
DEFAULT_255_2_778
10
18.8569214
20
-10.6220398
40
21.190035
50
140.4924348
51
142.3304624
0
ARC
8
DEFAULT_255_2_778
10
18.712258
20
-10.4997022
40
21.0005928
50
138.222794
51
140.4988637
0
ARC
8
DEFAULT_255_2_778
10
18.1813693
20
-10.0276978
40
20.2902212
50
137.1022436
51
138.2179822
0
ARC
8
DEFAULT_255_2_778
10
10.8958904
20
9.9128612
40
9.7468256
50
218.964367
51
223.0871386
0
ARC
8
DEFAULT_255_2_778
10
16.4558552
20
15.0256119
40
17.3000441
50
222.8746972
51
223.7569161
0
ARC
8
DEFAULT_255_2_778
10
4.7830591
20
0.2581966
40
2.9209495
50
106.3587617
51
140.1317357
0
LINE
8
DEFAULT_255_2_778
10
13.055671
20
3.6180971
11
12.907471
21
3.4265971
0
LINE
8
DEFAULT_255_2_778
10
12.907471
20
3.4265971
11
15.527971
21
0.6139971
0
LINE
8
DEFAULT_255_2_778
10
15.527971
20
0.6139971
11
15.633771
21
0.6245971
0
LINE
8
DEFAULT_255_2_778
10
16.999571
20
-0.0506029
11
15.564971
21
-0.0506029
0
LINE
8
DEFAULT_255_2_778
10
6.529471
20
4.6002971
11
6.247971
21
4.6742971
0
LINE
8
DEFAULT_255_2_778
10
9.347271
20
7.3158971
11
9.283771
21
7.6026971
0
LINE
8
DEFAULT_255_2_778
10
3.135371
20
4.0249971
11
2.853871
21
3.7164971
0
LINE
8
DEFAULT_255_2_778
10
0.393771
20
0.1324971
11
0.393771
21
-0.0157029
0
LINE
8
DEFAULT_255_2_778
10
0.393771
20
-0.0157029
11
2.270171
21
-0.0157029
0
LINE
8
DEFAULT_255_2_778
10
2.270171
20
-0.0157029
11
2.238471
21
0.1589971
0
LINE
8
DEFAULT_255_2_778
10
6.533171
20
0.9187971
11
7.925971
21
0.9187971
0
LINE
8
DEFAULT_255_2_778
10
7.925971
20
0.9187971
11
7.925971
21
1.0669971
0
LINE
8
DEFAULT_255_2_778
10
15.510971
20
-0.3427029
11
17.307571
21
-0.3427029
0
LINE
8
DEFAULT_255_2_778
10
17.307571
20
-0.3427029
11
17.328671
21
-0.2263029
0
LINE
8
DEFAULT_255_2_778
10
17.078971
20
0.3742971
11
17.073071
21
0.3758971
0
LINE
8
DEFAULT_255_2_778
10
1.915171
20
0.2806971
11
0.734071
21
0.2806971
0
LINE
8
DEFAULT_255_2_778
10
2.541171
20
2.1305971
11
2.542171
21
2.1300971
0
ENDSEC
0
EOF