0
SECTION
2
HEADER
9
$MEASUREMENT
70
1
0
ENDSEC
0
SECTION
2
TABLES
0
TABLE
2
LTYPE
0
LTYPE
72
65
70
64
2
CONTINUOUS
3
______
73
0
40
0
0
ENDTAB
0
TABLE
2
LAYER
0
LAYER
2
DEFAULT_255_2_778
70
0
62
255
6
CONTINUOUS
0
ENDTAB
0
ENDSEC
0
SECTION
2
ENTITIES
0
ARC
8
DEFAULT_255_2_778
10
5.2940228
20
4.8728724
40
5.0872966
50
76.4682564
51
90.0420128
0
ARC
8
DEFAULT_255_2_778
10
5.3025888
20
4.9228488
40
5.0367044
50
55.9985378
51
76.4299716
0
ARC
8
DEFAULT_255_2_778
10
5.2683676
20
4.8706361
40
5.0991272
50
20.822855
51
56.0078411
0
ARC
8
DEFAULT_255_2_778
10
5.2692969
20
4.8746701
40
5.0968257
50
5.543376
51
20.7841822
0
ARC
8
DEFAULT_255_2_778
10
5.1613948
20
4.8625151
40
5.2053976
50
359.9906717
51
5.5618114
0
ARC
8
DEFAULT_255_2_778
10
5.3009028
20
4.8579397
40
5.0658911
50
346.3395913
51
0.0421636
0
ARC
8
DEFAULT_255_2_778
10
5.3425795
20
4.8517168
40
5.0239251
50
325.2623742
51
346.2963014
0
ARC
8
DEFAULT_255_2_778
10
5.2759527
20
4.8974909
40
5.10476
50
291.6009016
51
325.266297
0
ARC
8
DEFAULT_255_2_778
10
5.2754299
20
4.9046432
40
5.1116029
50
276.0985886
51
291.5768362
0
ARC
8
DEFAULT_255_2_778
10
5.2624021
20
5.0127399
40
5.2204723
50
269.9889191
51
276.1147207
0
ARC
8
DEFAULT_255_2_778
10
5.2577575
20
4.8391614
40
5.0468951
50
256.2245491
51
270.041267
0
ARC
8
DEFAULT_255_2_778
10
5.2543825
20
4.8078249
40
5.015658
50
234.568257
51
256.1767552
0
ARC
8
DEFAULT_255_2_778
10
5.3063083
20
4.8819314
40
5.1061436
50
201.8619682
51
234.5755779
0
ARC
8
DEFAULT_255_2_778
10
5.3149683
20
4.8835173
40
5.1147716
50
186.3482299
51
201.842333
0
ARC
8
DEFAULT_255_2_778
10
5.4220255
20
4.8967685
40
5.2226377
50
179.988141
51
186.3628482
0
ARC
8
DEFAULT_255_2_778
10
5.6391775
20
4.8976916
40
5.4397895
50
179.9254698
51
179.9983372
0
ARC
8
DEFAULT_255_2_778
10
5.21875
20
4.9011086
40
5.0193588
50
165.7549431
51
179.9582322
0
ARC
8
DEFAULT_255_2_778
10
5.2323625
20
4.8919746
40
5.0348034
50
142.5380412
51
165.6923135
0
ARC
8
DEFAULT_255_2_778
10
5.3021785
20
4.8447089
40
5.1189714
50
110.2913571
51
142.5934128
0
ARC
8
DEFAULT_255_2_778
10
5.2823049
20
4.885238
40
5.0740677
50
94.6203025
51
110.2395832
0
ARC
8
DEFAULT_255_2_778
10
5.2899977
20
4.8059341
40
5.1537336
50
89.9944987
51
94.6345289
0
LINE
8
DEFAULT_255_2_778
10
5.2904925
20
9.9596676
11
5.2902925
21
9.9601676
0
ARC
8
DEFAULT_255_2_778
10
4.5593545
20
2.6624842
40
0.1173103
50
176.0109849
51
268.9915749
0
ARC
8
DEFAULT_255_2_778
10
4.7559347
20
2.6852201
40
0.3139451
50
179.9503725
51
182.6609624
0
ARC
8
DEFAULT_255_2_778
10
6.1934497
20
2.7184785
40
1.7517705
50
179.9997368
51
181.0789639
0
ARC
8
DEFAULT_255_2_778
10
6.9105826
20
2.6327458
40
2.4703918
50
153.0387289
51
178.0110152
0
ARC
8
DEFAULT_255_2_778
10
4.8865129
20
3.6715438
40
0.1955052
50
150.158144
51
155.4440961
0
ARC
8
DEFAULT_255_2_778
10
4.7544778
20
3.7545998
40
0.0401523
50
95.7746118
51
159.2449235
0
ARC
8
DEFAULT_255_2_778
10
4.7441362
20
3.7236718
40
0.0711561
50
55.0301514
51
84.9191686
0
ARC
8
DEFAULT_255_2_778
10
4.6688863
20
3.5881835
40
0.2258783
50
57.1264963
51
59.0896916
0
ARC
8
DEFAULT_255_2_778
10
5.8733298
20
5.5966041
40
2.1161501
50
239.2541899
51
256.7967966
0
ARC
8
DEFAULT_255_2_778
10
5.3725119
20
3.4282841
40
0.1095117
50
56.8716272
51
80.8163794
0
ARC
8
DEFAULT_255_2_778
10
5.4179033
20
3.4995325
40
0.025055
50
359.2240862
51
54.7547053
0
ARC
8
DEFAULT_255_2_778
10
5.3548679
20
3.5081575
40
0.0885432
50
328.7145727
51
354.1892872
0
ARC
8
DEFAULT_255_2_778
10
5.0478542
20
3.6593352
40
0.4304844
50
331.4494476
51
332.7424061
0
ARC
8
DEFAULT_255_2_778
10
6.9544999
20
2.5735866
40
1.7637325
50
150.0697772
51
171.6441958
0
ARC
8
DEFAULT_255_2_778
10
5.0624343
20
2.8560465
40
0.1493633
50
342.4954871
51
349.9151702
0
ARC
8
DEFAULT_255_2_778
10
5.5017427
20
2.7243017
40
0.3092966
50
163.6980924
51
165.3057
0
ARC
8
DEFAULT_255_2_778
10
5.274057
20
2.7824328
40
0.0743279
50
164.1297982
51
178.4073246
0
ARC
8
DEFAULT_255_2_778
10
5.2315719
20
2.7839669
40
0.0318187
50
179.0423449
51
248.8470986
0
ARC
8
DEFAULT_255_2_778
10
5.2408438
20
2.7955361
40
0.0461714
50
243.2884966
51
267.4157628
0
ARC
8
DEFAULT_255_2_778
10
5.2350711
20
2.7796518
40
0.0304645
50
276.9588678
51
344.6398101
0
ARC
8
DEFAULT_255_2_778
10
6.2567683
20
2.2655862
40
1.1138817
50
152.5470271
51
152.9824324
0
ARC
8
DEFAULT_255_2_778
10
5.3445278
20
2.7410829
40
0.0851666
50
141.5929414
51
153.481694
0
ARC
8
DEFAULT_255_2_778
10
5.3432443
20
2.7492626
40
0.079278
50
89.9928869
51
145.6525377
0
ARC
8
DEFAULT_255_2_778
10
5.3432485
20
2.7489563
40
0.0795845
50
82.678962
51
89.9959496
0
ARC
8
DEFAULT_255_2_778
10
5.3433123
20
2.7491947
40
0.07934
50
19.7400729
51
82.7027483
0
ARC
8
DEFAULT_255_2_778
10
4.633622
20
2.4580111
40
0.8463716
50
10.8404398
51
22.0675227
0
ARC
8
DEFAULT_255_2_778
10
5.3626142
20
2.5989384
40
0.1038918
50
0.3314342
51
10.1193323
0
ARC
8
DEFAULT_255_2_778
10
5.3855312
20
2.60871
40
0.0814906
50
267.5797049
51
353.5384828
0
ARC
8
DEFAULT_255_2_778
10
5.2184117
20
3.3422981
40
0.8312794
50
274.4294935
51
281.3556841
0
ARC
8
DEFAULT_255_2_778
10
5.1591546
20
4.2012938
40
1.6923015
50
269.5152911
51
274.1836247
0
ARC
8
DEFAULT_255_2_778
10
5.1515016
20
11.5091577
40
9.0001074
50
269.7015898
51
269.9575802
0
ARC
8
DEFAULT_255_2_778
10
5.0578005
20
-6.464982
40
8.9742766
50
89.7010368
51
89.9566538
0
ARC
8
DEFAULT_255_2_778
10
5.9747068
20
2.664122
40
0.1152612
50
235.0074051
51
271.3338729
0
ARC
8
DEFAULT_255_2_778
10
5.9441531
20
2.6131103
40
0.0561087
50
177.8916393
51
230.6905809
0
ARC
8
DEFAULT_255_2_778
10
6.0109828
20
2.610915
40
0.1229742
50
154.406992
51
178.0150512
0
ARC
8
DEFAULT_255_2_778
10
6.1067913
20
2.5721142
40
0.2262338
50
151.174328
51
156.0263091
0
ARC
8
DEFAULT_255_2_778
10
6.0941623
20
2.5846336
40
0.2091905
50
101.4068131
51
152.5107813
0
ARC
8
DEFAULT_255_2_778
10
6.0433652
20
2.8902855
40
0.1010339
50
275.3524344
51
10.554573
0
ARC
8
DEFAULT_255_2_778
10
4.632714
20
2.9439222
40
1.5103844
50
358.6672342
51
0.0024339
0
ARC
8
DEFAULT_255_2_778
10
4.2283198
20
2.9243665
40
1.9148793
50
0.5870612
51
13.6910406
0
ARC
8
DEFAULT_255_2_778
10
6.2517688
20
3.4191132
40
0.1681849
50
184.2122069
51
194.2928415
0
ARC
8
DEFAULT_255_2_778
10
6.1642484
20
3.4111242
40
0.0803288
50
180.0585097
51
183.114395
0
ARC
8
DEFAULT_255_2_778
10
6.1145938
20
3.4138249
40
0.0308002
50
73.0357904
51
185.1836814
0
ARC
8
DEFAULT_255_2_778
10
6.1217439
20
3.1990197
40
0.2442721
50
85.0809209
51
89.569186
0
ARC
8
DEFAULT_255_2_778
10
6.4938295
20
6.5262926
40
3.1038269
50
263.5041531
51
270.4931774
0
ARC
8
DEFAULT_255_2_778
10
6.5173229
20
9.8720225
40
6.4494426
50
270.0286297
51
270.8585216
0
ARC
8
DEFAULT_255_2_778
10
6.4675751
20
13.3579153
40
9.9356899
50
270.8441712
51
271.2238643
0
ARC
8
DEFAULT_255_2_778
10
6.6866094
20
3.3627556
40
0.0621119
50
3.7260913
51
96.3034459
0
ARC
8
DEFAULT_255_2_778
10
4.8564267
20
2.9391377
40
1.9398891
50
1.825882
51
12.7356401
0
ARC
8
DEFAULT_255_2_778
10
5.5351841
20
2.980928
40
1.2603057
50
0.002911
51
0.910136
0
ARC
8
DEFAULT_255_2_778
10
6.4986455
20
2.973585
40
0.2969367
50
359.9999569
51
1.4293836
0
ARC
8
DEFAULT_255_2_778
10
6.2801637
20
3.0141642
40
0.5170136
50
325.3257093
51
355.4983333
0
LINE
8
DEFAULT_255_2_778
10
6.7053554
20
2.7200297
11
6.7052411
21
2.7198283
0
ARC
8
DEFAULT_255_2_778
10
7.5550407
20
2.2098503
40
0.9910787
50
149.0313758
51
157.3514658
0
ARC
8
DEFAULT_255_2_778
10
6.5735208
20
2.6317028
40
0.078028
50
268.4398865
51
328.9800398
0
ARC
8
DEFAULT_255_2_778
10
6.5370395
20
2.8769312
40
0.3250484
50
269.5682052
51
276.0673818
0
ARC
8
DEFAULT_255_2_778
10
6.6165327
20
3.5222899
40
0.1502156
50
3.9290659
51
21.1920162
0
ARC
8
DEFAULT_255_2_778
10
6.7324661
20
3.5317484
40
0.0339394
50
263.7381845
51
1.4088717
0
ARC
8
DEFAULT_255_2_778
10
6.7138484
20
3.6330648
40
0.1358744
50
269.7223084
51
276.3024805
0
ARC
8
DEFAULT_255_2_778
10
0.9467192
20
-228.6917407
40
232.2605276
50
88.5773373
51
88.5842058
0
ARC
8
DEFAULT_255_2_778
10
8.0432199
20
59.2447305
40
55.7633835
50
268.4740806
51
268.6046832
0
ARC
8
DEFAULT_255_2_778
10
6.5064838
20
8.0802061
40
4.5793774
50
254.9908802
51
270.6481649
0
ARC
8
DEFAULT_255_2_778
10
6.0106693
20
5.9068758
40
2.353286
50
244.1930717
51
252.9468967
0
ARC
8
DEFAULT_255_2_778
10
5.5671151
20
5.0134095
40
1.3558712
50
238.2991865
51
244.6306633
0
ARC
8
DEFAULT_255_2_778
10
-7.4051782
20
-16.7878715
40
24.0131292
50
59.2998001
51
59.3374452
0
ARC
8
DEFAULT_255_2_778
10
3.9457688
20
2.3818943
40
1.7348477
50
58.9315203
51
62.0576102
0
ARC
8
DEFAULT_255_2_778
10
4.7862451
20
3.9893687
40
0.079786
50
209.9146773
51
249.795929
0
ARC
8
DEFAULT_255_2_778
10
4.7582716
20
3.9682138
40
0.0452025
50
179.3130208
51
204.3468698
0
ARC
8
DEFAULT_255_2_778
10
4.8304997
20
3.961006
40
0.117683
50
152.4197778
51
176.2241884
0
ARC
8
DEFAULT_255_2_778
10
4.8038749
20
4.5334074
40
0.1300331
50
349.4019657
51
357.2115434
0
ARC
8
DEFAULT_255_2_778
10
6.0301949
20
4.4503429
40
1.099123
50
175.9109088
51
175.9964626
0
ARC
8
DEFAULT_255_2_778
10
5.0120483
20
4.5270596
40
0.0781961
50
153.1379389
51
178.7843263
0
ARC
8
DEFAULT_255_2_778
10
4.9766738
20
4.5143622
40
0.0590688
50
125.5983535
51
137.6377159
0
ARC
8
DEFAULT_255_2_778
10
5.7490869
20
3.7698415
40
1.1318627
50
136.1360694
51
136.3272407
0
ARC
8
DEFAULT_255_2_778
10
4.8967701
20
4.5783886
40
0.0431095
50
287.5786569
51
321.3030693
0
ARC
8
DEFAULT_255_2_778
10
2.694463
20
5.0143645
40
2.147752
50
314.3747441
51
330.6693961
0
ARC
8
DEFAULT_255_2_778
10
5.623384
20
1.9952489
40
2.0586681
50
133.8772143
51
144.9918549
0
ARC
8
DEFAULT_255_2_778
10
4.6019937
20
2.7084213
40
0.8129374
50
144.8631672
51
169.0750235
0
ARC
8
DEFAULT_255_2_778
10
-1.0179316
20
3.6923919
40
4.8926201
50
350.1739425
51
350.2341128
0
ARC
8
DEFAULT_255_2_778
10
3.9541997
20
2.8291329
40
0.1539075
50
169.405861
51
176.3425797
0
ARC
8
DEFAULT_255_2_778
10
3.8785178
20
2.8351342
40
0.0780056
50
177.1955555
51
179.9576245
0
ARC
8
DEFAULT_255_2_778
10
3.8362889
20
2.8319535
40
0.0359229
50
174.8279812
51
252.5054684
0
ARC
8
DEFAULT_255_2_778
10
3.8483944
20
2.8495785
40
0.056717
50
246.1815919
51
267.8532738
0
ARC
8
DEFAULT_255_2_778
10
3.8458439
20
2.8256879
40
0.0327893
50
270.7444244
51
316.2875613
0
ARC
8
DEFAULT_255_2_778
10
3.794508
20
2.8798441
40
0.1073826
50
314.3290439
51
325.6747201
0
ARC
8
DEFAULT_255_2_778
10
3.9790194
20
2.7550139
40
0.1153906
50
108.3228028
51
146.1480491
0
ARC
8
DEFAULT_255_2_778
10
3.9692781
20
2.7772929
40
0.0912062
50
98.1989016
51
106.9132305
0
ARC
8
DEFAULT_255_2_778
10
3.9687551
20
2.7807925
40
0.0876679
50
90.0168916
51
98.1867635
0
ARC
8
DEFAULT_255_2_778
10
3.9657846
20
2.7729197
40
0.095586
50
19.6961428
51
88.2346674
0
ARC
8
DEFAULT_255_2_778
10
3.9268339
20
2.7504416
40
0.1400645
50
18.2015063
51
22.9849526
0
ARC
8
DEFAULT_255_2_778
10
-0.0983888
20
1.4286207
40
4.3767644
50
17.0802122
51
18.180089
0
ARC
8
DEFAULT_255_2_778
10
3.6557984
20
2.5777145
40
0.4506767
50
9.2647423
51
17.6180731
0
ARC
8
DEFAULT_255_2_778
10
3.9445835
20
2.6273373
40
0.1576893
50
0.4049143
51
8.3628406
0
ARC
8
DEFAULT_255_2_778
10
4.0330569
20
2.6253853
40
0.0692798
50
277.5994278
51
2.5368199
0
ARC
8
DEFAULT_255_2_778
10
3.94712
20
2.9066291
40
0.3626078
50
273.301522
51
285.2044341
0
ARC
8
DEFAULT_255_2_778
10
3.8895638
20
3.6059215
40
1.0641931
50
270.6259541
51
274.2269596
0
ARC
8
DEFAULT_255_2_778
10
4.3211163
20
-24.8613849
40
27.4063943
50
90.8779321
51
91.1013304
0
ARC
8
DEFAULT_255_2_778
10
3.5235252
20
15.0569357
40
12.5199186
50
270.1756917
51
271.2394791
0
ARC
8
DEFAULT_255_2_778
10
3.560762
20
8.1079929
40
5.5709171
50
269.3977824
51
270.0118711
0
ARC
8
DEFAULT_255_2_778
10
3.5122121
20
5.6294907
40
3.0921234
50
263.0954392
51
269.814644
0
ARC
8
DEFAULT_255_2_778
10
3.1708433
20
2.8542828
40
0.2960509
50
262.6117594
51
264.1152414
0
ARC
8
DEFAULT_255_2_778
10
3.2205866
20
3.1626553
40
0.6083369
50
255.6078591
51
261.7003951
0
ARC
8
DEFAULT_255_2_778
10
2.7182358
20
1.144754
40
1.4711763
50
76.1911923
51
77.5784439
0
ARC
8
DEFAULT_255_2_778
10
3.0480299
20
2.696465
40
0.1157443
50
171.3903973
51
263.3816991
0
ARC
8
DEFAULT_255_2_778
10
5.0695046
20
2.7923617
40
2.1373593
50
180.0001417
51
182.1066747
0
ARC
8
DEFAULT_255_2_778
10
5.0701494
20
2.7922848
40
2.138004
50
150.5891385
51
179.9980827
0
ARC
8
DEFAULT_255_2_778
10
19.8609237
20
-5.3669324
40
19.0299283
50
143.3549536
51
151.0577062
0
ARC
8
DEFAULT_255_2_778
10
4.8434141
20
5.7968443
40
0.3175444
50
120.4494016
51
142.2633339
0
ARC
8
DEFAULT_255_2_778
10
5.729215
20
5.0079046
40
1.4426374
50
118.4033301
51
120.5337126
0
ARC
8
DEFAULT_255_2_778
10
5.1087705
20
6.1639518
40
0.1306897
50
104.626082
51
120.2218272
0
ARC
8
DEFAULT_255_2_778
10
5.0819218
20
6.2597577
40
0.03126
50
90.5202216
51
101.3493569
0
ARC
8
DEFAULT_255_2_778
10
5.0786817
20
6.2676833
40
0.0235196
50
354.1381116
51
82.7792788
0
ARC
8
DEFAULT_255_2_778
10
4.7297732
20
6.2059056
40
0.37701
50
2.0019679
51
9.0612928
0
ARC
8
DEFAULT_255_2_778
10
3.0073973
20
6.1026359
40
2.1023829
50
2.9378758
51
3.1749393
0
ARC
8
DEFAULT_255_2_778
10
-1.4570745
20
5.875931
40
6.5726067
50
2.7632634
51
2.9168567
0
ARC
8
DEFAULT_255_2_778
10
5.003208
20
6.4229599
40
0.4793621
50
316.8947175
51
326.2143369
0
ARC
8
DEFAULT_255_2_778
10
13.1940721
20
0.6339724
40
9.5508891
50
144.6108251
51
144.6752535
0
ARC
8
DEFAULT_255_2_778
10
5.6116108
20
6.0450498
40
0.2365383
50
122.9448183
51
149.486041
0
ARC
8
DEFAULT_255_2_778
10
5.5123875
20
6.1847052
40
0.065788
50
90.3463445
51
116.5576417
0
ARC
8
DEFAULT_255_2_778
10
5.4955254
20
6.1405304
40
0.1111875
50
28.9187736
51
81.4844318
0
ARC
8
DEFAULT_255_2_778
10
4.8844872
20
5.6728595
40
0.8795867
50
33.2495388
51
36.3574648
0
ARC
8
DEFAULT_255_2_778
10
17.1428819
20
13.8526938
40
13.8574021
50
213.7440762
51
213.7681508
0
ARC
8
DEFAULT_255_2_778
10
6.0266314
20
6.4053624
40
0.4772117
50
212.3112468
51
221.0941183
0
ARC
8
DEFAULT_255_2_778
10
4.3175559
20
4.8180439
40
1.8555732
50
40.5476978
51
43.345077
0
ARC
8
DEFAULT_255_2_778
10
-1.8959923
20
-0.4112991
40
9.9767435
50
39.0593133
51
40.1703057
0
ARC
8
DEFAULT_255_2_778
10
8.0242153
20
10.9491609
40
5.0836136
50
245.6301669
51
246.9660832
0
ARC
8
DEFAULT_255_2_778
10
5.7191718
20
5.3685586
40
0.9560057
50
44.1286474
51
70.701644
0
ARC
8
DEFAULT_255_2_778
10
6.0052523
20
5.6836403
40
0.5319649
50
41.1216031
51
41.2226783
0
ARC
8
DEFAULT_255_2_778
10
6.0781519
20
3.8674128
40
1.7077978
50
25.603846
51
46.3533215
0
ARC
8
DEFAULT_255_2_778
10
5.3382199
20
3.5318383
40
2.5201468
50
12.2066119
51
25.2142408
0
ARC
8
DEFAULT_255_2_778
10
7.3036092
20
3.0907709
40
0.7167752
50
0.7897221
51
11.0939885
0
ARC
8
DEFAULT_255_2_778
10
7.6579195
20
3.0931431
40
0.3624745
50
325.4543688
51
1.1867063
0
ARC
8
DEFAULT_255_2_778
10
7.627367
20
3.1134127
40
0.3991345
50
324.6687497
51
325.5447496
0
ARC
8
DEFAULT_255_2_778
10
8.4802286
20
2.5399038
40
0.6288211
50
146.9774246
51
162.3086847
0
ARC
8
DEFAULT_255_2_778
10
45.0815907
20
-10.9694331
40
39.643093
50
159.7819195
51
159.7927748
0
ARC
8
DEFAULT_255_2_778
10
6.4250542
20
3.2463046
40
1.5445097
50
337.4897914
51
340.2325845
0
ARC
8
DEFAULT_255_2_778
10
7.6826742
20
2.7157439
40
0.1797908
50
269.9912423
51
340.2508463
0
ARC
8
DEFAULT_255_2_778
10
7.6826598
20
2.7181784
40
0.1822252
50
268.8145617
51
269.995893
0
ARC
8
DEFAULT_255_2_778
10
7.4166907
20
11.9906268
40
9.4582697
50
269.9995018
51
271.5885391
0
ARC
8
DEFAULT_255_2_778
10
7.4166904
20
12.0595535
40
9.5271964
50
269.8596079
51
269.9995073
0
ARC
8
DEFAULT_255_2_778
10
7.4169459
20
12.0469473
40
9.5145909
50
267.2779504
51
269.8578829
0
ARC
8
DEFAULT_255_2_778
10
6.9620092
20
2.6478172
40
0.1047704
50
233.3197407
51
271.6849475
0
ARC
8
DEFAULT_255_2_778
10
6.9355896
20
2.6035523
40
0.0537463
50
177.4304423
51
227.7102828
0
ARC
8
DEFAULT_255_2_778
10
7.0111878
20
2.6017121
40
0.1293604
50
156.950941
51
178.1173605
0
ARC
8
DEFAULT_255_2_778
10
7.106209
20
2.5681173
40
0.2300351
50
155.8605788
51
158.5177495
0
ARC
8
DEFAULT_255_2_778
10
7.0778772
20
2.5903887
40
0.1952682
50
95.6980409
51
158.4251426
0
ARC
8
DEFAULT_255_2_778
10
7.0579435
20
2.8874449
40
0.1027543
50
270.3046708
51
308.4619214
0
ARC
8
DEFAULT_255_2_778
10
7.0692527
20
2.8576628
40
0.0730427
50
316.0686913
51
4.7191494
0
ARC
8
DEFAULT_255_2_778
10
6.8672077
20
2.8587512
40
0.274884
50
1.0257433
51
10.149827
0
ARC
8
DEFAULT_255_2_778
10
5.1137049
20
2.4833158
40
2.0679921
50
11.8277401
51
24.359834
0
ARC
8
DEFAULT_255_2_778
10
-2.9809978
20
-0.7271446
40
10.7742159
50
22.1569204
51
27.4176403
0
ARC
8
DEFAULT_255_2_778
10
6.5905488
20
4.2519226
40
0.0193666
50
208.5754431
51
247.0264499
0
ARC
8
DEFAULT_255_2_778
10
7.4889807
20
4.8536683
40
1.1006186
50
213.6247157
51
213.7210835
0
ARC
8
DEFAULT_255_2_778
10
6.5603228
20
4.2387879
40
0.0133391
50
23.9358581
51
85.8426318
0
ARC
8
DEFAULT_255_2_778
10
6.4145019
20
4.2538588
40
0.1467986
50
353.8939449
51
359.3104406
0
ARC
8
DEFAULT_255_2_778
10
6.6996341
20
4.2229047
40
0.1400092
50
173.7101068
51
179.0168906
0
ARC
8
DEFAULT_255_2_778
10
6.6234539
20
4.2253069
40
0.0638085
50
180.0000003
51
180.2868358
0
ARC
8
DEFAULT_255_2_778
10
6.6064359
20
4.2246889
40
0.0467907
50
179.6344695
51
195.2365713
0
ARC
8
DEFAULT_255_2_778
10
2.6057724
20
5.8065637
40
0.6944134
50
297.3295032
51
332.9801309
0
ARC
8
DEFAULT_255_2_778
10
-0.3004523
20
10.3048992
40
6.0470258
50
301.9587469
51
302.2304416
0
ARC
8
DEFAULT_255_2_778
10
-30.4883317
20
58.6841092
40
63.0720733
50
301.9393409
51
301.9630677
0
ARC
8
DEFAULT_255_2_778
10
4.8225612
20
2.0244366
40
3.6900347
50
121.7990456
51
122.9876797
0
ARC
8
DEFAULT_255_2_778
10
2.7433395
20
5.2215796
40
0.1237842
50
271.1493171
51
304.5214775
0
ARC
8
DEFAULT_255_2_778
10
2.7530769
20
5.23667
40
0.1390391
50
220.6514832
51
267.0091511
0
ARC
8
DEFAULT_255_2_778
10
2.8318312
20
5.3250817
40
0.2568699
50
189.0297414
51
224.1716557
0
ARC
8
DEFAULT_255_2_778
10
2.7897553
20
5.315629
40
0.2138493
50
180.0551312
51
188.2977834
0
ARC
8
DEFAULT_255_2_778
10
2.7593849
20
5.3171151
40
0.1834867
50
149.8074252
51
180.528321
0
ARC
8
DEFAULT_255_2_778
10
3.2839809
20
4.9761406
40
0.808985
50
127.1448339
51
147.6188215
0
ARC
8
DEFAULT_255_2_778
10
2.643795
20
5.827071
40
0.2558903
50
306.3568118
51
306.5634313
0
ARC
8
DEFAULT_255_2_778
10
2.7626274
20
5.6844756
40
0.0713451
50
298.1003043
51
351.097054
0
ARC
8
DEFAULT_255_2_778
10
2.7737875
20
5.6696538
40
0.0594458
50
3.6460966
51
42.7529252
0
ARC
8
DEFAULT_255_2_778
10
2.7152675
20
5.6279012
40
0.1310736
50
38.7862659
51
41.464349
0
ARC
8
DEFAULT_255_2_778
10
2.8633788
20
5.7619975
40
0.0687511
50
196.4425958
51
223.477386
0
ARC
8
DEFAULT_255_2_778
10
2.8480305
20
5.7564547
40
0.0524706
50
180.0387121
51
195.3814052
0
ARC
8
DEFAULT_255_2_778
10
2.8772898
20
5.7487175
40
0.0820918
50
120.8531656
51
174.6166646
0
ARC
8
DEFAULT_255_2_778
10
2.6356248
20
6.086314
40
0.3334371
50
306.7631632
51
314.8427214
0
ARC
8
DEFAULT_255_2_778
10
3.4344467
20
5.2774071
40
0.8034241
50
131.8283255
51
134.5567108
0
ARC
8
DEFAULT_255_2_778
10
3.0525807
20
5.6992372
40
0.2344542
50
129.3290409
51
131.0396372
0
ARC
8
DEFAULT_255_2_778
10
2.7069578
20
6.1865937
40
0.3639487
50
302.7771609
51
328.3047497
0
ARC
8
DEFAULT_255_2_778
10
2.8629785
20
6.0810092
40
0.1758994
50
330.8670314
51
0.0160215
0
ARC
8
DEFAULT_255_2_778
10
2.8161681
20
6.0783703
40
0.222726
50
0.6915269
51
19.9778955
0
ARC
8
DEFAULT_255_2_778
10
2.7062419
20
6.0421046
40
0.3384456
50
19.3898097
51
26.7412209
0
ARC
8
DEFAULT_255_2_778
10
3.100228
20
6.2444763
40
0.1045194
50
181.8198283
51
208.6322412
0
ARC
8
DEFAULT_255_2_778
10
3.1024331
20
6.2445011
40
0.1067242
50
179.993352
51
181.7955311
0
ARC
8
DEFAULT_255_2_778
10
3.1485832
20
6.2376334
40
0.1530291
50
140.6841071
51
177.4231698
0
ARC
8
DEFAULT_255_2_778
10
9.5879682
20
1.8473237
40
7.9460704
50
138.6659321
51
145.6174692
0
ARC
8
DEFAULT_255_2_778
10
3.4558778
20
7.2598618
40
0.233475
50
315.1808646
51
318.9031341
0
ARC
8
DEFAULT_255_2_778
10
4.8310956
20
6.0593034
40
1.5920564
50
138.3142387
51
138.8756882
0
ARC
8
DEFAULT_255_2_778
10
3.7598833
20
7.0160607
40
0.1557988
50
126.0078239
51
139.0885909
0
ARC
8
DEFAULT_255_2_778
10
4.0447323
20
6.7340551
40
0.5551604
50
121.7995671
51
132.6936866
0
ARC
8
DEFAULT_255_2_778
10
3.8869521
20
6.9923413
40
0.2525095
50
99.721346
51
122.2549496
0
ARC
8
DEFAULT_255_2_778
10
3.8730657
20
7.0521392
40
0.1912592
50
90.0172636
51
98.6458933
0
ARC
8
DEFAULT_255_2_778
10
3.86787
20
7.0101246
40
0.2333304
50
60.2421118
51
88.7382053
0
ARC
8
DEFAULT_255_2_778
10
3.7430182
20
6.7739949
40
0.5003678
50
50.5001956
51
61.2512039
0
ARC
8
DEFAULT_255_2_778
10
2.747322
20
4.3538426
40
2.997719
50
48.3886863
51
49.8208403
0
ARC
8
DEFAULT_255_2_778
10
4.4730653
20
6.2892761
40
0.4046692
50
40.461765
51
49.098116
0
ARC
8
DEFAULT_255_2_778
10
4.705881
20
6.4866462
40
0.0994567
50
18.8051389
51
40.9898176
0
ARC
8
DEFAULT_255_2_778
10
4.7429108
20
6.5011725
40
0.0597485
50
0.0046917
51
17.0650511
0
ARC
8
DEFAULT_255_2_778
10
4.6971183
20
6.5076055
40
0.1057366
50
327.1464103
51
356.5146263
0
ARC
8
DEFAULT_255_2_778
10
4.2806653
20
6.7474135
40
0.5861873
50
323.2343774
51
329.5389082
0
ARC
8
DEFAULT_255_2_778
10
1.2658894
20
8.9376169
40
4.3125159
50
323.1630571
51
323.8976489
0
ARC
8
DEFAULT_255_2_778
10
3.2122881
20
5.4970458
40
0.7221545
50
292.1352086
51
325.6903094
0
ARC
8
DEFAULT_255_2_778
10
3.1119538
20
5.7845407
40
1.0263809
50
270.4541828
51
291.2762354
0
ARC
8
DEFAULT_255_2_778
10
3.1264696
20
5.0269532
40
0.2688368
50
236.9591629
51
268.6402029
0
ARC
8
DEFAULT_255_2_778
10
3.541329
20
5.7994841
40
1.1449901
50
236.4585933
51
240.6368017
0
ARC
8
DEFAULT_255_2_778
10
12.7959881
20
20.0667387
40
18.1509143
50
236.9442416
51
236.9939215
0
ARC
8
DEFAULT_255_2_778
10
2.4389314
20
4.194733
40
0.8016944
50
55.2858726
51
66.1188561
0
ARC
8
DEFAULT_255_2_778
10
2.7784393
20
4.9783064
40
0.05268
50
185.6150299
51
253.5142252
0
ARC
8
DEFAULT_255_2_778
10
2.7815768
20
4.9727563
40
0.0555661
50
166.7500241
51
179.5919664
0
ARC
8
DEFAULT_255_2_778
10
2.7696053
20
4.9709127
40
0.0445676
50
95.2361604
51
160.905337
0
ARC
8
DEFAULT_255_2_778
10
2.6920611
20
5.2831849
40
0.2777845
50
285.3378867
51
289.4092476
0
ARC
8
DEFAULT_255_2_778
10
2.7404407
20
5.1402209
40
0.1268819
50
290.2575952
51
290.6515139
0
ARC
8
DEFAULT_255_2_778
10
2.5892664
20
5.728584
40
0.7337336
50
285.4871738
51
316.208976
0
ARC
8
DEFAULT_255_2_778
10
50.3336982
20
-48.8581204
40
71.7897371
50
131.1153979
51
131.1232796
0
ARC
8
DEFAULT_255_2_778
10
4.4681058
20
3.7210103
40
2.0172293
50
127.9130253
51
131.6930873
0
ARC
8
DEFAULT_255_2_778
10
3.1699216
20
5.3628322
40
0.0773052
50
319.3688726
51
8.262831
0
ARC
8
DEFAULT_255_2_778
10
2.5488516
20
5.3721068
40
0.697575
50
0.1507345
51
1.358996
0
ARC
8
DEFAULT_255_2_778
10
-0.2166107
20
5.3154256
40
3.4636152
50
1.2113991
51
1.2594293
0
ARC
8
DEFAULT_255_2_778
10
4.0576284
20
5.4121943
40
0.8117231
50
180.2215188
51
181.4570747
0
ARC
8
DEFAULT_255_2_778
10
3.4685906
20
5.4104638
40
0.2226837
50
175.5111816
51
180.3622206
0
ARC
8
DEFAULT_255_2_778
10
3.2586145
20
5.4307738
40
0.0123652
50
179.2344554
51
193.4769684
0
ARC
8
DEFAULT_255_2_778
10
3.3173118
20
5.4252804
40
0.0712863
50
163.0344301
51
175.4471214
0
ARC
8
DEFAULT_255_2_778
10
3.1529471
20
5.4718629
40
0.0995763
50
344.9945305
51
352.7340058
0
ARC
8
DEFAULT_255_2_778
10
3.2067181
20
5.4643134
40
0.0452876
50
353.6047278
51
359.8205851
0
ARC
8
DEFAULT_255_2_778
10
3.224526
20
5.4644795
40
0.0274812
50
359.3579807
51
81.6236995
0
ARC
8
DEFAULT_255_2_778
10
3.2071591
20
5.4227228
40
0.0721808
50
72.7786276
51
75.780135
0
ARC
8
DEFAULT_255_2_778
10
5.8657482
20
6.329001
40
0.0844755
50
61.0099867
51
82.3451594
0
ARC
8
DEFAULT_255_2_778
10
5.8740895
20
6.376447
40
0.0363933
50
85.4117722
51
89.9306076
0
ARC
8
DEFAULT_255_2_778
10
5.8790988
20
6.3773685
40
0.0358175
50
97.9682033
51
183.9430765
0
ARC
8
DEFAULT_255_2_778
10
6.0421588
20
6.3341419
40
0.2029293
50
168.4118121
51
170.7125708
0
ARC
8
DEFAULT_255_2_778
10
5.4276947
20
6.2376313
40
0.1553174
50
35.2138961
51
53.2380319
0
ARC
8
DEFAULT_255_2_778
10
5.4960745
20
6.3286981
40
0.0414375
50
53.6227973
51
88.1361282
0
ARC
8
DEFAULT_255_2_778
10
5.4974633
20
6.3368385
40
0.0332752
50
90.0707805
51
102.3339961
0
ARC
8
DEFAULT_255_2_778
10
5.5144969
20
6.2951687
40
0.0780066
50
108.027856
51
141.8272011
0
ARC
8
DEFAULT_255_2_778
10
5.6937725
20
6.1214265
40
0.3273406
50
137.3085881
51
141.0532413
0
ARC
8
DEFAULT_255_2_778
10
6.0520595
20
6.2490025
40
0.8887887
50
179.5131801
51
193.21025
0
ARC
8
DEFAULT_255_2_778
10
29.3356668
20
6.8501771
40
24.1796518
50
181.3919561
51
181.4067823
0
ARC
8
DEFAULT_255_2_778
10
1.8226799
20
6.1897417
40
3.3412692
50
1.2530533
51
2.1071015
0
ARC
8
DEFAULT_255_2_778
10
-1.2642497
20
5.9670337
40
6.4352242
50
3.0781467
51
3.2853378
0
ARC
8
DEFAULT_255_2_778
10
4.6000486
20
6.3127378
40
0.5608252
50
2.359539
51
7.9451843
0
ARC
8
DEFAULT_255_2_778
10
5.1143528
20
6.3898231
40
0.0411399
50
0.6060633
51
48.0725968
0
ARC
8
DEFAULT_255_2_778
10
5.1331482
20
6.4052105
40
0.0175281
50
60.2654091
51
91.5375092
0
ARC
8
DEFAULT_255_2_778
10
5.1401085
20
6.3481769
40
0.0749249
50
95.6915792
51
119.9469283
0
ARC
8
DEFAULT_255_2_778
10
5.40644
20
5.8160259
40
0.6698878
50
116.9626702
51
120.843386
0
ARC
8
DEFAULT_255_2_778
10
8.2857196
20
0.868396
40
6.3942967
50
120.2650029
51
120.4384427
0
ARC
8
DEFAULT_255_2_778
10
39.3739725
20
-18.9141248
40
42.7764803
50
143.9090463
51
144.0047472
0
ARC
8
DEFAULT_255_2_778
10
8.0568898
20
4.0281447
40
3.9561613
50
135.6027083
51
145.2320116
0
ARC
8
DEFAULT_255_2_778
10
5.4198019
20
6.6088544
40
0.266408
50
101.3519041
51
135.3763059
0
ARC
8
DEFAULT_255_2_778
10
5.4120376
20
6.6268733
40
0.2472468
50
89.9160535
51
100.4096989
0
ARC
8
DEFAULT_255_2_778
10
5.4056669
20
6.5368267
40
0.3373603
50
65.5100525
51
88.8564306
0
ARC
8
DEFAULT_255_2_778
10
5.3685331
20
6.4329756
40
0.4473574
50
66.3919407
51
66.6957007
0
ARC
8
DEFAULT_255_2_778
10
5.1523724
20
6.0488268
40
0.8870262
50
44.4312465
51
63.5340412
0
ARC
8
DEFAULT_255_2_778
10
6.0400467
20
6.3679785
40
0.0580045
50
315.3190129
51
344.3098881
0
LINE
8
DEFAULT_255_2_778
10
5.0652899
20
2.5092921
11
4.5572899
21
2.5451921
0
LINE
8
DEFAULT_255_2_778
10
5.0645899
20
2.5092921
11
5.0652899
21
2.5092921
0
LINE
8
DEFAULT_255_2_778
10
6.2551899
20
2.5488921
11
5.9773899
21
2.5488921
0
LINE
8
DEFAULT_255_2_778
10
6.5345899
20
2.5518921
11
6.2567899
21
2.5518921
0
LINE
8
DEFAULT_255_2_778
10
6.2567899
20
2.5518921
11
6.2551899
21
2.5488921
0
LINE
8
DEFAULT_255_2_778
10
6.5580899
20
4.2110921
11
6.7565899
21
3.5765921
0
LINE
8
DEFAULT_255_2_778
10
4.7261899
20
4.0154921
11
4.9316899
21
4.5094921
0
LINE
8
DEFAULT_255_2_778
10
4.9097899
20
4.5372921
11
4.5668899
21
3.9622921
0
LINE
8
DEFAULT_255_2_778
10
4.6824899
20
6.0705921
11
4.9962899
21
6.2504921
0
LINE
8
DEFAULT_255_2_778
10
5.1078899
20
6.1927921
11
5.1295899
21
5.8501921
0
LINE
8
DEFAULT_255_2_778
10
5.1295899
20
5.8501921
11
5.3531899
21
6.0953921
0
LINE
8
DEFAULT_255_2_778
10
5.8508899
20
5.8752921
11
5.8868899
21
6.0988921
0
LINE
8
DEFAULT_255_2_778
10
5.8868899
20
6.0988921
11
5.9265899
21
6.3184921
0
LINE
8
DEFAULT_255_2_778
10
6.4059899
20
6.0334921
11
7.2568899
21
5.1031921
0
LINE
8
DEFAULT_255_2_778
10
7.8013899
20
4.0646921
11
8.0069899
21
3.2286921
0
LINE
8
DEFAULT_255_2_778
10
6.5612899
20
4.2123921
11
6.5580899
21
4.2110921
0
LINE
8
DEFAULT_255_2_778
10
4.0612899
20
7.1600921
11
4.6813899
21
6.6441921
0
LINE
8
DEFAULT_255_2_778
10
4.7173899
20
6.3520921
11
3.8087899
21
5.0899921
0
LINE
8
DEFAULT_255_2_778
10
3.2248899
20
5.4926921
11
3.2243899
21
5.4910921
0
LINE
8
DEFAULT_255_2_778
10
6.0834899
20
6.3271921
11
5.9066899
21
6.4028921
0
LINE
8
DEFAULT_255_2_778
10
5.8418899
20
6.3668921
11
5.7889899
21
6.0493921
0
LINE
8
DEFAULT_255_2_778
10
5.7889899
20
6.0493921
11
5.5545899
21
6.3271921
0
LINE
8
DEFAULT_255_2_778
10
5.4391899
20
6.3271921
11
5.1867899
21
6.0458921
0
LINE
8
DEFAULT_255_2_778
10
5.0462899
20
6.3813921
11
4.7649899
21
6.2263921
0
LINE
8
DEFAULT_255_2_778
10
5.7857899
20
6.6697921
11
6.0958899
21
6.3522921
0
LINE
8
DEFAULT_255_2_778
10
6.0812899
20
6.3271921
11
6.0834899
21
6.3271921
0
ARC
8
DEFAULT_255_2_778
10
5.2858728
20
6.1294388
40
0.1536448
50
123.8412127
51
163.041504
0
ARC
8
DEFAULT_255_2_778
10
5.0216048
20
6.2651533
40
0.1788877
50
320.9910219
51
357.404927
0
LINE
8
DEFAULT_255_2_778
10
5.160609
20
6.1525538
11
5.138909
21
6.1742538
0
LINE
8
DEFAULT_255_2_778
10
5.138909
20
6.1742538
11
5.138909
21
6.1742538
0
ARC
8
DEFAULT_255_2_778
10
3.6025559
20
7.079503
40
0.16151
50
152.5917253
51
159.1808219
0
ARC
8
DEFAULT_255_2_778
10
2.8631881
20
7.4477499
40
0.6645133
50
333.750709
51
334.1028676
0
ARC
8
DEFAULT_255_2_778
10
3.3389218
20
7.2182109
40
0.1363063
50
333.560044
51
339.0196696
0
ARC
8
DEFAULT_255_2_778
10
3.4735106
20
7.1768036
40
0.0104059
50
225.3017383
51
231.5617924
0
ARC
8
DEFAULT_255_2_778
10
3.5099879
20
7.2280477
40
0.0732949
50
234.130641
51
239.5365383
0
ARC
8
DEFAULT_255_2_778
10
3.4675541
20
7.1526468
40
0.0133135
50
9.3370068
51
66.6622119
0
ARC
8
DEFAULT_255_2_778
10
4.3347869
20
7.1571565
40
0.8540988
50
180.1576222
51
181.1015055
0
ARC
8
DEFAULT_255_2_778
10
2.6302867
20
7.1243414
40
0.8507173
50
0.162427
51
1.1043473
0
ARC
8
DEFAULT_255_2_778
10
3.3642637
20
7.118682
40
0.1170155
50
330.5821468
51
3.955099
0
ARC
8
DEFAULT_255_2_778
10
3.5346403
20
7.0790574
40
0.0707382
50
178.5739157
51
194.6164653
0
ARC
8
DEFAULT_255_2_778
10
3.7082741
20
7.0800469
40
0.2443513
50
178.105131
51
179.8192079
0
ARC
8
DEFAULT_255_2_778
10
4.7283403
20
7.0498898
40
1.2648619
50
178.1655023
51
178.2676876
0
ARC
8
DEFAULT_255_2_778
10
3.1631891
20
7.1015515
40
0.3011449
50
357.8742641
51
359.6890592
0
ARC
8
DEFAULT_255_2_778
10
3.4165138
20
7.1041389
40
0.0480017
50
354.9544208
51
43.0502168
0
LINE
8
DEFAULT_255_2_778
10
3.4515914
20
7.1369068
11
3.4515914
21
7.1369068
0
ARC
8
DEFAULT_255_2_778
10
6.8436377
20
5.9147067
40
0.0836646
50
169.949198
51
223.5074198
0
ARC
8
DEFAULT_255_2_778
10
6.7593628
20
5.8919408
40
0.0374151
50
1.3310228
51
87.0980103
0
ARC
8
DEFAULT_255_2_778
10
5.8256381
20
5.6780215
40
0.9945989
50
12.3219205
51
12.4715487
0
ARC
8
DEFAULT_255_2_778
10
6.9129264
20
5.913145
40
0.117842
50
191.1915656
51
198.1646217
0
ARC
8
DEFAULT_255_2_778
10
6.7075759
20
5.9355516
40
0.1105351
50
312.9974577
51
327.6515984
0
LINE
8
DEFAULT_255_2_778
10
6.7829571
20
5.854708
11
6.7829571
21
5.857108
0
ARC
8
DEFAULT_255_2_778
10
20.4975066
20
7.1020779
40
0.3470126
50
162.8024215
51
182.3117984
0
ARC
8
DEFAULT_255_2_778
10
20.2900878
20
7.1571744
40
0.132862
50
88.5431733
51
159.0505673
0
ARC
8
DEFAULT_255_2_778
10
20.3519878
20
6.7566443
40
0.53655
50
89.5847544
51
96.2617768
0
ARC
8
DEFAULT_255_2_778
10
22.6480589
20
6.9526741
40
0.3409195
50
72.8973105
51
92.8216578
0
ARC
8
DEFAULT_255_2_778
10
22.7046868
20
7.168451
40
0.1183995
50
1.00039
51
68.3762134
0
ARC
8
DEFAULT_255_2_778
10
22.384967
20
7.1109809
40
0.4421283
50
359.468596
51
7.7390002
0
ARC
8
DEFAULT_255_2_778
10
-6.3785467
20
6.5452613
40
29.2110224
50
0.9749886
51
1.1016519
0
ARC
8
DEFAULT_255_2_778
10
14.4809425
20
6.9006841
40
8.3485055
50
0.6337183
51
0.9720549
0
ARC
8
DEFAULT_255_2_778
10
18.5566489
20
6.945362
40
4.2725544
50
0.0307372
51
0.6391244
0
ARC
8
DEFAULT_255_2_778
10
21.4589347
20
6.9322658
40
1.3703543
50
355.0528632
51
0.6434106
0
ARC
8
DEFAULT_255_2_778
10
22.5293699
20
6.8311082
40
0.2953048
50
334.8129964
51
356.6964792
0
ARC
8
DEFAULT_255_2_778
10
22.6608293
20
6.7837205
40
0.1567224
50
275.7586063
51
330.0316292
0
ARC
8
DEFAULT_255_2_778
10
22.5368755
20
7.3956511
40
0.7804629
50
271.2388866
51
280.3097258
0
ARC
8
DEFAULT_255_2_778
10
22.4221666
20
10.5916439
40
3.9784499
50
269.8165693
51
271.895347
0
ARC
8
DEFAULT_255_2_778
10
22.362351
20
37.5033684
40
30.8901898
50
269.9811279
51
270.0873228
0
ARC
8
DEFAULT_255_2_778
10
21.0437451
20
6.3075666
40
0.3059265
50
87.4087108
51
107.3255252
0
ARC
8
DEFAULT_255_2_778
10
20.9956729
20
6.4948742
40
0.1132342
50
112.3357942
51
183.2357355
0
ARC
8
DEFAULT_255_2_778
10
21.3963378
20
6.4392475
40
0.5160724
50
174.5254312
51
180.3738386
0
ARC
8
DEFAULT_255_2_778
10
21.4189154
20
5.4905062
40
0.5396231
50
176.5392694
51
179.8978693
0
ARC
8
DEFAULT_255_2_778
10
21.0883426
20
5.479309
40
0.2094027
50
176.6712087
51
206.9857767
0
ARC
8
DEFAULT_255_2_778
10
21.018153
20
5.4628236
40
0.1404271
50
214.0045471
51
267.847586
0
ARC
8
DEFAULT_255_2_778
10
21.0803466
20
5.8330172
40
0.5149604
50
262.4717273
51
270.5485012
0
ARC
8
DEFAULT_255_2_778
10
22.5636575
20
4.9264973
40
0.4011015
50
73.9729229
51
92.2834446
0
ARC
8
DEFAULT_255_2_778
10
22.6306747
20
5.1822911
40
0.1368882
50
0.7080596
51
71.3727247
0
ARC
8
DEFAULT_255_2_778
10
22.3141069
20
5.1256532
40
0.4571818
50
359.5772897
51
7.3300535
0
ARC
8
DEFAULT_255_2_778
10
15.6296112
20
5.0877729
40
7.1417485
50
358.8848796
51
0.2768422
0
ARC
8
DEFAULT_255_2_778
10
21.7748537
20
4.9579015
40
0.9951952
50
351.6718633
51
359.4751427
0
ARC
8
DEFAULT_255_2_778
10
22.6038912
20
4.8167983
40
0.1556928
50
278.8508669
51
358.880099
0
ARC
8
DEFAULT_255_2_778
10
22.4899076
20
5.3496689
40
0.7004263
50
270.8930977
51
281.3578323
0
ARC
8
DEFAULT_255_2_778
10
22.3666618
20
9.1189175
40
4.4716029
50
269.6804935
51
271.7193248
0
ARC
8
DEFAULT_255_2_778
10
22.3216565
20
57.1216898
40
52.4743096
50
269.9925969
51
270.0219139
0
ARC
8
DEFAULT_255_2_778
10
21.0483502
20
4.3239298
40
0.3237993
50
87.3401905
51
107.0158209
0
ARC
8
DEFAULT_255_2_778
10
20.9909127
20
4.5349602
40
0.1054204
50
110.7315768
51
184.2191248
0
ARC
8
DEFAULT_255_2_778
10
21.1920882
20
4.5074492
40
0.3069464
50
176.3098826
51
180.091034
0
ARC
8
DEFAULT_255_2_778
10
21.311964
20
4.5078173
40
0.4268227
50
180.1148776
51
183.7932473
0
ARC
8
DEFAULT_255_2_778
10
21.1582141
20
3.3210385
40
0.2724453
50
177.2772862
51
200.1554204
0
ARC
8
DEFAULT_255_2_778
10
21.0133142
20
3.2814647
40
0.1234461
50
206.0965405
51
273.757454
0
ARC
8
DEFAULT_255_2_778
10
21.0613026
20
3.652555
40
0.4958789
50
265.3849735
51
270.2396156
0
ARC
8
DEFAULT_255_2_778
10
22.632153
20
2.7980113
40
0.3682012
50
73.7049255
51
92.0352852
0
ARC
8
DEFAULT_255_2_778
10
22.6892029
20
3.0200661
40
0.139264
50
356.7764754
51
70.5984952
0
ARC
8
DEFAULT_255_2_778
10
22.2432418
20
2.9576663
40
0.5875444
50
359.6698063
51
5.3290822
0
ARC
8
DEFAULT_255_2_778
10
87.9987281
20
1.6571756
40
65.1808592
50
178.8597338
51
178.8824436
0
ARC
8
DEFAULT_255_2_778
10
-49.2051681
20
4.3342951
40
72.0491522
50
358.8621855
51
358.8819564
0
ARC
8
DEFAULT_255_2_778
10
18.6192597
20
2.9600541
40
4.2108966
50
357.0706502
51
359.2317391
0
ARC
8
DEFAULT_255_2_778
10
22.1850827
20
2.7678828
40
0.6399858
50
346.8343155
51
357.9382467
0
ARC
8
DEFAULT_255_2_778
10
22.6564015
20
2.6540555
40
0.1551683
50
269.82555
51
348.1209581
0
ARC
8
DEFAULT_255_2_778
10
22.5217139
20
3.4839831
40
0.9941964
50
270.7362777
51
277.7585432
0
ARC
8
DEFAULT_255_2_778
10
22.3996898
20
9.1162323
40
6.6277345
50
269.7140021
51
271.1654029
0
LINE
8
DEFAULT_255_2_778
10
22.3666069
20
2.4885803
11
22.3650764
21
2.4885803
0
ARC
8
DEFAULT_255_2_778
10
22.4551794
20
68.7729652
40
66.2844462
50
269.4470798
51
269.9221156
0
ARC
8
DEFAULT_255_2_778
10
21.0379662
20
-82.8229605
40
85.3181092
50
89.4778188
51
89.7631978
0
ARC
8
DEFAULT_255_2_778
10
21.2654506
20
-34.6644243
40
37.1590549
50
89.8070571
51
89.9959844
0
ARC
8
DEFAULT_255_2_778
10
21.210576
20
-16.5522474
40
19.0469646
50
89.8270955
51
92.2994304
0
ARC
8
DEFAULT_255_2_778
10
20.4096958
20
3.4516482
40
0.9729595
50
270.1886162
51
272.16056
0
ARC
8
DEFAULT_255_2_778
10
20.4108315
20
3.2994497
40
0.8207585
50
269.99483
51
270.144315
0
ARC
8
DEFAULT_255_2_778
10
20.3987908
20
2.9273915
40
0.44886
50
255.1113692
51
271.5276858
0
ARC
8
DEFAULT_255_2_778
10
20.3342885
20
2.665997
40
0.1797327
50
179.3515142
51
253.572685
0
ARC
8
DEFAULT_255_2_778
10
21.0498153
20
2.7757564
40
0.9017061
50
179.2995096
51
186.8614111
0
ARC
8
DEFAULT_255_2_778
10
23.4703519
20
3.2286244
40
0.9259491
50
318.493489
51
331.8501076
0
ARC
8
DEFAULT_255_2_778
10
23.8361398
20
2.8968403
40
0.4321852
50
268.61411
51
319.2965197
0
ARC
8
DEFAULT_255_2_778
10
23.8275015
20
3.1304213
40
0.6656423
50
263.0712229
51
269.8438088
0
ARC
8
DEFAULT_255_2_778
10
23.844678
20
3.2865802
40
0.8227349
50
260.5203928
51
263.1956909
0
ARC
8
DEFAULT_255_2_778
10
23.5930132
20
1.6666394
40
0.8167439
50
81.8232585
51
90.5393818
0
ARC
8
DEFAULT_255_2_778
10
23.6081127
20
-0.202658
40
2.6861016
50
90.486089
51
93.2158588
0
ARC
8
DEFAULT_255_2_778
10
23.3061645
20
5.1906373
40
2.7156397
50
270.4475424
51
273.1930822
0
ARC
8
DEFAULT_255_2_778
10
23.5162692
20
2.5235421
40
0.1950104
50
180.2563065
51
194.3892942
0
ARC
8
DEFAULT_255_2_778
10
23.5664066
20
2.5059554
40
0.2457149
50
136.5479441
51
176.0995325
0
ARC
8
DEFAULT_255_2_778
10
22.335347
20
3.5197992
40
1.349785
50
321.2504406
51
323.5139426
0
ARC
8
DEFAULT_255_2_778
10
24.095298
20
5.093876
40
0.6485084
50
325.7700901
51
336.7781195
0
ARC
8
DEFAULT_255_2_778
10
24.3468439
20
4.9880172
40
0.375607
50
336.488282
51
359.5193314
0
ARC
8
DEFAULT_255_2_778
10
24.3754301
20
4.9848517
40
0.3470076
50
0.0023778
51
1.6065302
0
ARC
8
DEFAULT_255_2_778
10
24.2775558
20
4.9736924
40
0.4452358
50
2.6889761
51
24.0509432
0
ARC
8
DEFAULT_255_2_778
10
23.7907577
20
4.7724772
40
0.9718872
50
23.1873896
51
30.1130325
0
ARC
8
DEFAULT_255_2_778
10
24.2011402
20
7.1413786
40
0.142697
50
50.228943
51
92.9982371
0
ARC
8
DEFAULT_255_2_778
10
24.1022963
20
7.0640898
40
0.2666572
50
19.7725387
51
44.5193392
0
ARC
8
DEFAULT_255_2_778
10
9.4509331
20
0.5216129
40
16.3116833
50
23.9837525
51
23.992788
0
ARC
8
DEFAULT_255_2_778
10
25.1257914
20
7.4882582
40
0.8416285
50
203.5529615
51
206.2374848
0
ARC
8
DEFAULT_255_2_778
10
26.4922269
20
6.8430494
40
0.5078613
50
130.7878531
51
151.1785228
0
ARC
8
DEFAULT_255_2_778
10
26.3290619
20
7.0135691
40
0.2724368
50
87.9402686
51
128.2330335
0
ARC
8
DEFAULT_255_2_778
10
26.3378677
20
6.8200848
40
0.4657462
50
84.4914926
51
89.8787056
0
ARC
8
DEFAULT_255_2_778
10
26.5601505
20
9.1788469
40
1.9034676
50
264.6471034
51
270.3435935
0
ARC
8
DEFAULT_255_2_778
10
26.5378994
20
13.3659396
40
6.090619
50
270.3167031
51
272.1345656
0
ARC
8
DEFAULT_255_2_778
10
26.9921885
20
1.1489334
40
6.1348308
50
90.2999102
51
92.1245923
0
ARC
8
DEFAULT_255_2_778
10
26.341919
20
7.4248315
40
0.634068
50
325.7998429
51
347.1374993
0
ARC
8
DEFAULT_255_2_778
10
24.5248926
20
8.5336478
40
2.7621099
50
327.4869573
51
327.9627768
0
ARC
8
DEFAULT_255_2_778
10
32.3143193
20
3.5433436
40
6.488755
50
147.2978347
51
147.8253364
0
ARC
8
DEFAULT_255_2_778
10
27.6976039
20
6.4475711
40
1.0345272
50
147.8148838
51
151.0468238
0
ARC
8
DEFAULT_255_2_778
10
26.1411862
20
4.8843602
40
0.5153924
50
146.4258497
51
158.337879
0
ARC
8
DEFAULT_255_2_778
10
25.9191065
20
4.9750956
40
0.2755134
50
158.8266983
51
172.743166
0
ARC
8
DEFAULT_255_2_778
10
25.8783636
20
4.98171
40
0.2342656
50
173.0892218
51
179.9885882
0
ARC
8
DEFAULT_255_2_778
10
25.9278257
20
4.9868527
40
0.2837735
50
181.0289803
51
205.3089418
0
ARC
8
DEFAULT_255_2_778
10
26.1686869
20
5.0893013
40
0.545411
50
204.2213091
51
211.2839638
0
ARC
8
DEFAULT_255_2_778
10
26.3342081
20
2.6220925
40
0.1449722
50
217.4910148
51
271.6476001
0
ARC
8
DEFAULT_255_2_778
10
26.5607818
20
2.8062493
40
0.4369087
50
210.0868363
51
218.5687531
0
ARC
8
DEFAULT_255_2_778
10
40.6629205
20
11.3629752
40
16.9319076
50
211.1757767
51
211.2180731
0
ARC
8
DEFAULT_255_2_778
10
25.6683797
20
2.2974686
40
0.590097
50
30.6068955
51
34.9462064
0
ARC
8
DEFAULT_255_2_778
10
14.1013664
20
7.1482464
40
0.1180048
50
35.5848465
51
83.0348182
0
ARC
8
DEFAULT_255_2_778
10
14.0139383
20
7.1038023
40
0.2154727
50
10.4494517
51
31.6647798
0
ARC
8
DEFAULT_255_2_778
10
11.9657624
20
6.6117832
40
2.3216383
50
12.8748679
51
13.2241025
0
ARC
8
DEFAULT_255_2_778
10
14.817485
20
7.2593303
40
0.6026916
50
192.479307
51
195.5579892
0
ARC
8
DEFAULT_255_2_778
10
15.5051303
20
2.3233835
40
0.8050587
50
21.0718548
51
25.7612883
0
ARC
8
DEFAULT_255_2_778
10
15.9560888
20
2.4951367
40
0.3225091
50
12.0814833
51
21.4038631
0
ARC
8
DEFAULT_255_2_778
10
16.13476
20
2.5339664
40
0.1396693
50
0.6609638
51
11.8463109
0
ARC
8
DEFAULT_255_2_778
10
16.2071784
20
2.535732
40
0.0672416
50
267.758728
51
359.8683992
0
ARC
8
DEFAULT_255_2_778
10
16.1190921
20
3.0112758
40
0.5494206
50
269.8525388
51
278.9480834
0
ARC
8
DEFAULT_255_2_778
10
16.0836034
20
4.5492742
40
2.0876952
50
269.9361358
51
270.9352055
0
ARC
8
DEFAULT_255_2_778
10
13.3611673
20
5.7918388
40
2.2501816
50
267.6779507
51
269.7405101
0
ARC
8
DEFAULT_255_2_778
10
13.4550365
20
8.3888719
40
4.8488988
50
267.0773415
51
267.8130114
0
ARC
8
DEFAULT_255_2_778
10
13.5282894
20
9.8605196
40
6.3223675
50
266.5753167
51
267.0943659
0
ARC
8
DEFAULT_255_2_778
10
13.4317088
20
8.2639844
40
4.722914
50
266.3259843
51
266.5878953
0
ARC
8
DEFAULT_255_2_778
10
13.2281876
20
5.0866846
40
1.5391028
50
266.248167
51
266.3074584
0
ARC
8
DEFAULT_255_2_778
10
12.5621269
20
2.6790438
40
0.2116075
50
264.4988307
51
335.4966381
0
ARC
8
DEFAULT_255_2_778
10
12.5426622
20
2.9336552
40
0.4652449
50
265.1437536
51
269.8988636
0
ARC
8
DEFAULT_255_2_778
10
12.3178394
20
-1.6708289
40
4.1450592
50
87.435911
51
90.1621874
0
ARC
8
DEFAULT_255_2_778
10
12.3460238
20
-11.7007666
40
14.1750364
50
90.1613486
51
90.991599
0
ARC
8
DEFAULT_255_2_778
10
11.8300928
20
19.1013027
40
16.6313576
50
270.2676586
51
270.9323412
0
ARC
8
DEFAULT_255_2_778
10
11.87872
20
11.5738598
40
9.1037795
50
270.0009842
51
270.182933
0
ARC
8
DEFAULT_255_2_778
10
17.2497493
20
7.0732493
40
0.4707435
50
167.0612988
51
181.5421733
0
ARC
8
DEFAULT_255_2_778
10
16.9248487
20
7.1486355
40
0.1372143
50
82.8495161
51
167.3636741
0
ARC
8
DEFAULT_255_2_778
10
16.9641695
20
6.8039596
40
0.4813372
50
89.9349268
51
92.64838
0
ARC
8
DEFAULT_255_2_778
10
16.9632436
20
6.5864374
40
0.6988607
50
86.8087349
51
89.8792748
0
ARC
8
DEFAULT_255_2_778
10
17.4964871
20
16.4062166
40
9.1353871
50
266.8980682
51
266.9020108
0
ARC
8
DEFAULT_255_2_778
10
17.3211778
20
15.6876381
40
8.4094876
50
267.8301391
51
270.250925
0
ARC
8
DEFAULT_255_2_778
10
17.343887
20
48.8329924
40
41.5547638
50
270.0194682
51
270.1557834
0
LINE
8
DEFAULT_255_2_778
10
17.4568716
20
7.2783824
11
17.4647417
21
7.2784012
0
ARC
8
DEFAULT_255_2_778
10
17.5892896
20
-37.3600111
40
44.6385861
50
90.0228614
51
90.1598634
0
ARC
8
DEFAULT_255_2_778
10
17.6666605
20
2.2226863
40
5.0567809
50
82.6202826
51
91.078522
0
ARC
8
DEFAULT_255_2_778
10
18.0979108
20
5.8314355
40
1.4229838
50
55.7881291
51
81.1768089
0
ARC
8
DEFAULT_255_2_778
10
18.145015
20
5.9155849
40
1.326937
50
13.0068837
51
55.427152
0
ARC
8
DEFAULT_255_2_778
10
17.9920673
20
5.8693942
40
1.4863943
50
5.7138611
51
13.4147895
0
ARC
8
DEFAULT_255_2_778
10
17.7287194
20
5.8497729
40
1.7504
50
1.0710068
51
5.4947041
0
ARC
8
DEFAULT_255_2_778
10
17.8018214
20
5.8518661
40
1.6772716
50
0.0010552
51
1.0461938
0
ARC
8
DEFAULT_255_2_778
10
18.0023585
20
5.8421467
40
1.4767668
50
340.3280268
51
0.3782927
0
ARC
8
DEFAULT_255_2_778
10
18.1618812
20
5.7940427
40
1.310388
50
296.0747019
51
339.9605453
0
ARC
8
DEFAULT_255_2_778
10
18.0430149
20
5.9948271
40
1.5430946
50
291.0782048
51
296.7621906
0
ARC
8
DEFAULT_255_2_778
10
17.9024207
20
6.4151782
40
1.9859844
50
269.6974841
51
290.5015178
0
ARC
8
DEFAULT_255_2_778
10
17.8923748
20
6.6461897
40
2.2169681
50
266.3250601
51
269.9886326
0
ARC
8
DEFAULT_255_2_778
10
17.6938021
20
3.8232859
40
0.6131009
50
84.7148532
51
88.4417193
0
ARC
8
DEFAULT_255_2_778
10
17.6980455
20
3.9492546
40
0.4870641
50
88.5377413
51
89.9869878
0
ARC
8
DEFAULT_255_2_778
10
17.6871454
20
4.1943624
40
0.2422067
50
87.3944275
51
114.9268781
0
ARC
8
DEFAULT_255_2_778
10
17.6694604
20
4.2726543
40
0.1646304
50
120.839704
51
177.5573264
0
ARC
8
DEFAULT_255_2_778
10
18.1525772
20
4.1902172
40
0.6537467
50
172.1354136
51
180.6780941
0
ARC
8
DEFAULT_255_2_778
10
17.1616161
20
2.6595994
40
0.3468421
50
342.7984606
51
2.3101653
0
ARC
8
DEFAULT_255_2_778
10
17.3688165
20
2.6045426
40
0.1329115
50
268.5645916
51
339.053144
0
ARC
8
DEFAULT_255_2_778
10
17.3069574
20
3.0042276
40
0.5357614
50
269.5849472
51
276.2718388
0
ARC
8
DEFAULT_255_2_778
10
17.3065812
20
-78.7840455
40
81.2525259
50
90.0024715
51
90.0206469
0
ARC
8
DEFAULT_255_2_778
10
17.2482848
20
81.8061197
40
79.3376499
50
270.002965
51
270.0209552
0
ARC
8
DEFAULT_255_2_778
10
17.2267533
20
8.3640979
40
5.8956837
50
268.7397388
51
270.2491492
0
ARC
8
DEFAULT_255_2_778
10
17.1082572
20
3.4628859
40
0.9931083
50
261.4663313
51
269.3553684
0
ARC
8
DEFAULT_255_2_778
10
16.9661514
20
2.6480518
40
0.167362
50
190.979951
51
268.1982512
0
ARC
8
DEFAULT_255_2_778
10
17.4436393
20
2.7638523
40
0.6585575
50
181.868042
51
192.9583893
0
ARC
8
DEFAULT_255_2_778
10
19.3749994
20
2.8705857
40
2.5927391
50
180.3912769
51
182.8342106
0
ARC
8
DEFAULT_255_2_778
10
29.9014994
20
2.9638988
40
13.1196483
50
179.8874077
51
180.4848447
0
LINE
8
DEFAULT_255_2_778
10
20.1507764
20
4.8809803
11
20.1507764
21
7.0880803
0
LINE
8
DEFAULT_255_2_778
10
20.3558764
20
7.2931803
11
22.6312764
21
7.2931803
0
LINE
8
DEFAULT_255_2_778
10
22.3521764
20
6.6131803
11
21.0575764
21
6.6131803
0
LINE
8
DEFAULT_255_2_778
10
20.8802764
20
6.4358803
11
20.8802764
21
5.5230803
0
LINE
8
DEFAULT_255_2_778
10
21.0852764
20
5.3180803
11
22.5476764
21
5.3272803
0
LINE
8
DEFAULT_255_2_778
10
22.3148764
20
4.6473803
11
21.0633764
21
4.6473803
0
LINE
8
DEFAULT_255_2_778
10
20.8860764
20
4.4795803
11
20.8860764
21
3.3339803
0
LINE
8
DEFAULT_255_2_778
10
21.0633764
20
3.1566803
11
22.6190764
21
3.1659803
0
LINE
8
DEFAULT_255_2_778
10
20.1481764
20
2.7867803
11
20.1481764
21
4.8822803
0
LINE
8
DEFAULT_255_2_778
10
20.1481764
20
4.8822803
11
20.1507764
21
4.8809803
0
LINE
8
DEFAULT_255_2_778
10
25.1902764
20
4.3099803
11
24.2867764
21
2.7917803
0
LINE
8
DEFAULT_255_2_778
10
23.4205764
20
2.7171803
11
24.6314764
21
4.7290803
0
LINE
8
DEFAULT_255_2_778
10
24.6314764
20
5.2600803
11
23.4580764
21
7.2838803
0
LINE
8
DEFAULT_255_2_778
10
23.4580764
20
7.2838803
11
24.1936764
21
7.2838803
0
LINE
8
DEFAULT_255_2_778
10
24.3708764
20
7.1161803
11
25.1998764
21
5.6537803
0
LINE
8
DEFAULT_255_2_778
10
25.1998764
20
5.6537803
11
26.0472764
21
7.0878803
0
LINE
8
DEFAULT_255_2_778
10
26.7923764
20
6.9483803
11
25.7117764
21
5.1693803
0
LINE
8
DEFAULT_255_2_778
10
25.7025764
20
4.8060803
11
27.0526764
21
2.4771803
0
LINE
8
DEFAULT_255_2_778
10
27.0526764
20
2.4771803
11
26.3383764
21
2.4771803
0
LINE
8
DEFAULT_255_2_778
10
26.1520764
20
2.6354803
11
25.1926764
21
4.3120803
0
LINE
8
DEFAULT_255_2_778
10
25.1926764
20
4.3120803
11
25.1902764
21
4.3099803
0
LINE
8
DEFAULT_255_2_778
10
11.8799764
20
2.4684803
11
14.1156764
21
7.2653803
0
LINE
8
DEFAULT_255_2_778
10
14.2368764
20
7.0976803
11
16.2301764
21
2.6732803
0
LINE
8
DEFAULT_255_2_778
10
16.0812764
20
2.4615803
11
15.5224764
21
2.4615803
0
LINE
8
DEFAULT_255_2_778
10
15.5224764
20
2.4615803
11
15.2988764
21
2.9828803
0
LINE
8
DEFAULT_255_2_778
10
15.2988764
20
2.9828803
11
15.0078764
21
3.5323803
0
LINE
8
DEFAULT_255_2_778
10
15.0078764
20
3.5323803
11
14.4302764
21
3.5416803
0
LINE
8
DEFAULT_255_2_778
10
14.4302764
20
3.5416803
11
13.3509764
21
3.5416803
0
LINE
8
DEFAULT_255_2_778
10
13.1274764
20
3.5508803
11
13.0528764
21
3.3458803
0
LINE
8
DEFAULT_255_2_778
10
13.0528764
20
3.3458803
11
12.7546764
21
2.5912803
0
LINE
8
DEFAULT_255_2_778
10
11.8788764
20
2.4700803
11
11.8799764
21
2.4684803
0
LINE
8
DEFAULT_255_2_778
10
16.7791764
20
4.8809803
11
16.7791764
21
7.0605803
0
LINE
8
DEFAULT_255_2_778
10
17.4988764
20
4.1824803
11
17.5081764
21
2.6735803
0
LINE
8
DEFAULT_255_2_778
10
16.7818764
20
2.9896803
11
16.7818764
21
4.8806803
0
LINE
8
DEFAULT_255_2_778
10
16.7818764
20
4.8806803
11
16.7791764
21
4.8809803
0
ARC
8
DEFAULT_255_2_778
10
13.5867785
20
4.4935956
40
0.2717401
50
257.2880026
51
271.5003864
0
ARC
8
DEFAULT_255_2_778
10
13.5314668
20
4.2780671
40
0.0497534
50
178.9130979
51
264.8281796
0
ARC
8
DEFAULT_255_2_778
10
13.6342029
20
4.2718093
40
0.1526504
50
158.3540571
51
177.295958
0
ARC
8
DEFAULT_255_2_778
10
14.0142602
20
4.1377752
40
0.555567
50
155.184113
51
159.9640852
0
ARC
8
DEFAULT_255_2_778
10
18.023425
20
6.4637617
40
0.5205996
50
181.8296384
51
186.1212498
0
ARC
8
DEFAULT_255_2_778
10
17.9079441
20
6.4592147
40
0.4050334
50
180.0181416
51
181.7083126
0
ARC
8
DEFAULT_255_2_778
10
17.7055113
20
6.4682287
40
0.2028068
50
154.9298026
51
182.5836833
0
ARC
8
DEFAULT_255_2_778
10
17.6311189
20
6.4895216
40
0.1269912
50
87.2899049
51
149.4009434
0
ARC
8
DEFAULT_255_2_778
10
17.6579956
20
6.2894964
40
0.3275401
50
89.9209687
51
93.6536089
0
ARC
8
DEFAULT_255_2_778
10
17.6561285
20
6.1291884
40
0.4878532
50
83.9476522
51
89.7276589
0
ARC
8
DEFAULT_255_2_778
10
17.6395027
20
5.9457744
40
0.6720036
50
83.3439711
51
84.1868534
0
ARC
8
DEFAULT_255_2_778
10
17.9114263
20
8.4142373
40
1.8114107
50
263.8508558
51
269.525667
0
ARC
8
DEFAULT_255_2_778
10
17.9099244
20
5.3507288
40
1.2522326
50
78.1442467
51
90.6174253
0
ARC
8
DEFAULT_255_2_778
10
17.8769322
20
5.3851255
40
1.2259797
50
64.3195021
51
76.3046803
0
ARC
8
DEFAULT_255_2_778
10
18.1360439
20
5.9067314
40
0.6436524
50
37.7154777
51
64.9852439
0
ARC
8
DEFAULT_255_2_778
10
18.1484363
20
5.9412771
40
0.6130343
50
6.3599139
51
35.8695835
0
ARC
8
DEFAULT_255_2_778
10
17.7796536
20
5.8808162
40
0.9864324
50
359.7922923
51
7.4773635
0
ARC
8
DEFAULT_255_2_778
10
17.5060719
20
5.8780384
40
1.260008
50
357.1407005
51
359.9637077
0
ARC
8
DEFAULT_255_2_778
10
17.3702029
20
5.8840391
40
1.3960072
50
356.2957698
51
357.1728905
0
ARC
8
DEFAULT_255_2_778
10
18.0540936
20
5.8160249
40
0.7095466
50
329.7078109
51
358.2089849
0
ARC
8
DEFAULT_255_2_778
10
18.1059223
20
5.8064211
40
0.6601916
50
291.1915347
51
328.1584454
0
ARC
8
DEFAULT_255_2_778
10
17.9552884
20
6.1548519
40
1.0396138
50
277.0726433
51
291.9903894
0
ARC
8
DEFAULT_255_2_778
10
14.9091314
20
29.9432026
40
25.0221978
50
277.0513247
51
277.2878261
0
ARC
8
DEFAULT_255_2_778
10
17.2485449
20
11.0107247
40
5.9457318
50
276.1864468
51
277.0744633
0
ARC
8
DEFAULT_255_2_778
10
17.6293694
20
7.4777322
40
2.3922755
50
274.2170664
51
276.237302
0
ARC
8
DEFAULT_255_2_778
10
17.7245989
20
6.1622487
40
1.0733521
50
270.3190738
51
274.3111604
0
LINE
8
DEFAULT_255_2_778
10
17.7305763
20
5.0889131
11
17.7300418
21
5.0889129
0
ARC
8
DEFAULT_255_2_778
10
17.7194667
20
5.456325
40
0.3675642
50
254.9518206
51
271.6486726
0
ARC
8
DEFAULT_255_2_778
10
17.6679637
20
5.2472248
40
0.1523308
50
187.4240132
51
253.2394052
0
ARC
8
DEFAULT_255_2_778
10
18.1691562
20
5.3742395
40
0.6685397
50
182.9093007
51
192.6755461
0
ARC
8
DEFAULT_255_2_778
10
19.8803809
20
5.4856745
40
2.3833401
50
180.4572543
51
183.4968052
0
ARC
8
DEFAULT_255_2_778
10
30.1033942
20
5.5955868
40
12.6069369
50
179.8624662
51
180.5859806
0
ARC
8
DEFAULT_255_2_778
10
16.2562706
20
5.771038
40
1.2486925
50
353.3229426
51
358.6788979
0
ARC
8
DEFAULT_255_2_778
10
13.5439299
20
5.8400139
40
3.9619076
50
358.5860096
51
0.2694919
0
LINE
8
DEFAULT_255_2_778
10
14.1335936
20
5.7123487
11
14.7765936
21
4.2219487
0
LINE
8
DEFAULT_255_2_778
10
14.7765936
20
4.2219487
11
13.5938936
21
4.2219487
0
LINE
8
DEFAULT_255_2_778
10
13.5099936
20
4.3709487
11
14.1343936
21
5.7123487
0
LINE
8
DEFAULT_255_2_778
10
14.1343936
20
5.7123487
11
14.1335936
21
5.7123487
0
LINE
8
DEFAULT_255_2_778
10
17.5057936
20
5.8615487
11
17.5057936
21
6.4082487
0
LINE
8
DEFAULT_255_2_778
10
17.5057936
20
5.8586487
11
17.5057936
21
5.8615487
0
ENDSEC
0
EOF