0
SECTION
2
HEADER
9
$MEASUREMENT
70
1
0
ENDSEC
0
SECTION
2
TABLES
0
TABLE
2
LTYPE
0
LTYPE
72
65
70
64
2
CONTINUOUS
3
______
73
0
40
0
0
ENDTAB
0
TABLE
2
LAYER
0
LAYER
2
DEFAULT_255_2_778
70
0
62
255
6
CONTINUOUS
0
ENDTAB
0
ENDSEC
0
SECTION
2
ENTITIES
0
ARC
8
DEFAULT_255_2_778
10
8.7470592
20
8.2964222
40
8.5045451
50
79.8762896
51
90.0264699
0
ARC
8
DEFAULT_255_2_778
10
8.7682824
20
8.4262105
40
8.3730473
50
66.6781559
51
79.8631471
0
ARC
8
DEFAULT_255_2_778
10
8.7152834
20
8.3305887
40
8.4818453
50
25.7177643
51
66.6051161
0
ARC
8
DEFAULT_255_2_778
10
8.7335526
20
8.3385767
40
8.4619196
50
12.1644725
51
25.7227139
0
ARC
8
DEFAULT_255_2_778
10
8.6214982
20
8.3162786
40
8.5761568
50
1.6927259
51
12.1523499
0
ARC
8
DEFAULT_255_2_778
10
8.4622504
20
8.3080153
40
8.7355799
50
359.9990236
51
1.7160467
0
ARC
8
DEFAULT_255_2_778
10
8.7295734
20
8.3039224
40
8.4682577
50
349.8466021
51
0.0266852
0
ARC
8
DEFAULT_255_2_778
10
8.855794
20
8.2833837
40
8.3403934
50
336.4653504
51
349.8326319
0
ARC
8
DEFAULT_255_2_778
10
8.7350288
20
8.3508126
40
8.4780487
50
295.572034
51
336.373452
0
ARC
8
DEFAULT_255_2_778
10
8.7271361
20
8.3590007
40
8.4888422
50
282.1070517
51
295.5962325
0
ARC
8
DEFAULT_255_2_778
10
8.7036261
20
8.4765006
40
8.6086599
50
271.6848314
51
282.0960221
0
ARC
8
DEFAULT_255_2_778
10
8.6953882
20
8.6357126
40
8.768046
50
269.9989675
51
271.7080502
0
ARC
8
DEFAULT_255_2_778
10
8.6914697
20
8.2996729
40
8.4320073
50
259.8207996
51
270.0255526
0
ARC
8
DEFAULT_255_2_778
10
8.6737161
20
8.1884358
40
8.319384
50
246.4126551
51
259.805755
0
ARC
8
DEFAULT_255_2_778
10
8.7532991
20
8.3327201
40
8.4834719
50
205.3028559
51
246.3100035
0
ARC
8
DEFAULT_255_2_778
10
8.7621159
20
8.3417497
40
8.4953033
50
191.9798168
51
205.3324977
0
ARC
8
DEFAULT_255_2_778
10
8.874104
20
8.3637817
40
8.6094258
50
181.5739238
51
191.968551
0
ARC
8
DEFAULT_255_2_778
10
9.0279692
20
8.3714996
40
8.7634458
50
179.9991685
51
181.5967334
0
ARC
8
DEFAULT_255_2_778
10
8.9053154
20
8.3717854
40
8.6407919
50
179.9291757
51
180.001052
0
ARC
8
DEFAULT_255_2_778
10
8.6516189
20
8.3747584
40
8.3870923
50
169.366727
51
179.9473432
0
ARC
8
DEFAULT_255_2_778
10
8.5876906
20
8.3839399
40
8.322568
50
155.4310838
51
169.347641
0
ARC
8
DEFAULT_255_2_778
10
8.756007
20
8.2932308
40
8.5133702
50
113.1955249
51
155.3468723
0
ARC
8
DEFAULT_255_2_778
10
8.7254444
20
8.3588998
40
8.4409719
50
99.8838781
51
113.1804082
0
ARC
8
DEFAULT_255_2_778
10
8.7399788
20
8.2645865
40
8.5363806
50
89.9788481
51
99.8713246
0
LINE
8
DEFAULT_255_2_778
10
8.7431302
20
16.8009664
11
8.7431302
21
16.8009664
0
ARC
8
DEFAULT_255_2_778
10
11.3300483
20
8.8169001
40
0.2476213
50
6.0476887
51
22.2982
0
ARC
8
DEFAULT_255_2_778
10
11.4810552
20
8.8379307
40
0.0953703
50
0.0347831
51
3.0400702
0
ARC
8
DEFAULT_255_2_778
10
11.5229221
20
8.8353662
40
0.0535678
50
272.5154167
51
2.8060194
0
ARC
8
DEFAULT_255_2_778
10
11.4895882
20
8.9724892
40
0.1939503
50
269.2805345
51
280.6022316
0
ARC
8
DEFAULT_255_2_778
10
4.5158315
20
-249.1739859
40
258.0467251
50
88.4519242
51
88.4680429
0
ARC
8
DEFAULT_255_2_778
10
15.5301012
20
163.1865681
40
154.4609001
50
268.4261341
51
268.473208
0
ARC
8
DEFAULT_255_2_778
10
11.3066602
20
18.5425752
40
9.7586548
50
259.8756936
51
269.8888343
0
ARC
8
DEFAULT_255_2_778
10
10.4055667
20
13.0531597
40
4.1970413
50
244.6882945
51
258.812305
0
ARC
8
DEFAULT_255_2_778
10
9.581546
20
11.3023884
40
2.2620515
50
238.3332754
51
244.5966421
0
ARC
8
DEFAULT_255_2_778
10
-4.2557832
20
-11.9108241
40
24.7627559
50
59.2802103
51
59.3747622
0
ARC
8
DEFAULT_255_2_778
10
6.9453257
20
7.0409952
40
2.7483497
50
59.047608
51
62.0671485
0
ARC
8
DEFAULT_255_2_778
10
8.2997833
20
9.6194396
40
0.1645562
50
220.1867096
51
245.9621137
0
ARC
8
DEFAULT_255_2_778
10
8.2351497
20
9.5605896
40
0.0772733
50
179.2041854
51
217.7751635
0
ARC
8
DEFAULT_255_2_778
10
8.3200445
20
9.5550628
40
0.1622948
50
155.9049472
51
177.6693145
0
ARC
8
DEFAULT_255_2_778
10
8.5170534
20
9.4811417
40
0.3725416
50
155.242471
51
157.8968499
0
ARC
8
DEFAULT_255_2_778
10
-8.9164446
20
17.1458461
40
18.6715352
50
336.2875675
51
338.0803732
0
ARC
8
DEFAULT_255_2_778
10
343.6648317
20
-126.7075252
40
362.1269971
50
157.7829779
51
157.7902875
0
ARC
8
DEFAULT_255_2_778
10
39.5981836
20
-2.4800177
40
33.6624041
50
157.3980315
51
157.8378341
0
ARC
8
DEFAULT_255_2_778
10
8.3060879
20
10.497369
40
0.2187558
50
349.4601452
51
357.0167207
0
ARC
8
DEFAULT_255_2_778
10
8.9084966
20
10.4599375
40
0.3848319
50
174.227766
51
176.1190953
0
ARC
8
DEFAULT_255_2_778
10
8.6241309
20
10.4910385
40
0.0988079
50
149.3201444
51
175.5867895
0
ARC
8
DEFAULT_255_2_778
10
8.5977565
20
10.459042
40
0.1011246
50
125.4167427
51
138.0829044
0
ARC
8
DEFAULT_255_2_778
10
10.7094446
20
8.4412978
40
3.0217826
50
136.3627923
51
136.4595902
0
ARC
8
DEFAULT_255_2_778
10
8.4613323
20
10.5690742
40
0.073866
50
288.8131051
51
321.3110466
0
ARC
8
DEFAULT_255_2_778
10
-11.4258897
20
22.5799717
40
23.2893916
50
327.8285015
51
328.7531546
0
ARC
8
DEFAULT_255_2_778
10
399.8578682
20
-234.8818189
40
461.9331962
50
147.9599262
51
147.9684585
0
ARC
8
DEFAULT_255_2_778
10
19.1968632
20
3.159276
40
12.9721375
50
147.5424205
51
150.4832913
0
ARC
8
DEFAULT_255_2_778
10
4.7362406
20
11.3306496
40
3.6375469
50
314.7217444
51
330.6974064
0
ARC
8
DEFAULT_255_2_778
10
9.7085063
20
6.2404204
40
3.4783758
50
133.9169481
51
144.874836
0
ARC
8
DEFAULT_255_2_778
10
8.0165211
20
7.4428368
40
1.4027134
50
145.2810431
51
168.6266269
0
ARC
8
DEFAULT_255_2_778
10
4.65318
20
8.0603631
40
2.0171887
50
350.0116599
51
350.2702073
0
ARC
8
DEFAULT_255_2_778
10
6.8985535
20
7.6616907
40
0.2633198
50
169.3208475
51
175.3400554
0
ARC
8
DEFAULT_255_2_778
10
6.7600268
20
7.6745952
40
0.1242129
50
176.0816661
51
179.9092604
0
ARC
8
DEFAULT_255_2_778
10
6.6955186
20
7.670647
40
0.0598482
50
176.0286514
51
252.2296554
0
ARC
8
DEFAULT_255_2_778
10
6.7184374
20
7.7124918
40
0.1070747
50
247.3790039
51
267.3291683
0
LINE
8
DEFAULT_255_2_778
10
6.7134479
20
7.6055332
11
6.7136867
21
7.6055327
0
ARC
8
DEFAULT_255_2_778
10
6.7135438
20
7.6556594
40
0.0501269
50
270.1633264
51
316.4920521
0
ARC
8
DEFAULT_255_2_778
10
6.6131869
20
7.757913
40
0.1933771
50
314.9893694
51
325.9200981
0
ARC
8
DEFAULT_255_2_778
10
6.9424023
20
7.5331954
40
0.2052246
50
118.8584537
51
145.4598636
0
ARC
8
DEFAULT_255_2_778
10
6.9176187
20
7.5747671
40
0.1568624
50
98.2733709
51
118.2589009
0
ARC
8
DEFAULT_255_2_778
10
6.9153984
20
7.5864179
40
0.1450145
50
90.0166404
51
98.0676437
0
ARC
8
DEFAULT_255_2_778
10
6.9123683
20
7.5776709
40
0.1537906
50
29.5118754
51
88.8867505
0
ARC
8
DEFAULT_255_2_778
10
6.8577599
20
7.5382829
40
0.2208396
50
18.1987829
51
31.4262228
0
ARC
8
DEFAULT_255_2_778
10
-6.833419
20
3.0958831
40
14.6147012
50
17.5463273
51
17.9801334
0
ARC
8
DEFAULT_255_2_778
10
5.7508699
20
7.0714028
40
1.4173921
50
14.1264994
51
17.6804921
0
ARC
8
DEFAULT_255_2_778
10
6.7256919
20
7.3129661
40
0.4131087
50
3.9821531
51
14.6341561
0
ARC
8
DEFAULT_255_2_778
10
6.9215765
20
7.3307768
40
0.2165001
50
0.0408525
51
2.8800295
0
ARC
8
DEFAULT_255_2_778
10
7.0264757
20
7.3242029
40
0.1118037
50
283.9545568
51
3.4500807
0
ARC
8
DEFAULT_255_2_778
10
6.9148365
20
7.6109402
40
0.4188387
50
277.2562973
51
289.3244592
0
ARC
8
DEFAULT_255_2_778
10
6.8113059
20
8.3427789
40
1.1579385
50
272.2125232
51
277.7641927
0
ARC
8
DEFAULT_255_2_778
10
6.7562415
20
9.4060746
40
2.2226112
50
271.2042418
51
272.5727427
0
ARC
8
DEFAULT_255_2_778
10
7.3778884
20
-30.4110633
40
37.5994136
50
90.8761484
51
91.1799666
0
ARC
8
DEFAULT_255_2_778
10
6.1551512
20
26.6797724
40
19.5045516
50
270.1882434
51
271.3174891
0
ARC
8
DEFAULT_255_2_778
10
6.218663
20
16.3060257
40
9.1306997
50
269.6817886
51
270.0035745
0
ARC
8
DEFAULT_255_2_778
10
6.1520277
20
12.1832767
40
5.0078352
50
262.8988585
51
270.182204
0
ARC
8
DEFAULT_255_2_778
10
5.5863737
20
7.7164418
40
0.5054186
50
258.7695203
51
263.9327158
0
ARC
8
DEFAULT_255_2_778
10
5.7747999
20
8.6481289
40
1.4559664
50
256.3290728
51
258.6370455
0
ARC
8
DEFAULT_255_2_778
10
5.1709632
20
6.1921839
40
1.0731319
50
75.9938356
51
80.2307526
0
ARC
8
DEFAULT_255_2_778
10
5.3703417
20
7.4319392
40
0.1830033
50
184.6223275
51
264.5790287
0
ARC
8
DEFAULT_255_2_778
10
5.5691394
20
7.4641787
40
0.3840907
50
179.7351198
51
187.0268154
0
ARC
8
DEFAULT_255_2_778
10
9.2660191
20
7.576391
40
4.0824603
50
180.0038724
51
181.5501253
0
ARC
8
DEFAULT_255_2_778
10
8.7289984
20
7.6025951
40
3.5455385
50
150.5547124
51
180.4279207
0
ARC
8
DEFAULT_255_2_778
10
34.0067179
20
-6.3978147
40
32.4413615
50
143.4443764
51
150.9687263
0
ARC
8
DEFAULT_255_2_778
10
8.3659376
20
12.5996
40
0.5298701
50
120.4567564
51
142.2009251
0
ARC
8
DEFAULT_255_2_778
10
10.5441595
20
9.9919241
40
3.8762767
50
118.7236256
51
119.769312
0
ARC
8
DEFAULT_255_2_778
10
8.9404738
20
12.9274738
40
0.5312629
50
113.25555
51
119.2016663
0
ARC
8
DEFAULT_255_2_778
10
8.7703862
20
13.3302158
40
0.0941263
50
93.5797232
51
114.9280836
0
ARC
8
DEFAULT_255_2_778
10
8.7623231
20
13.3899688
40
0.0342595
50
358.8635391
51
86.3414991
0
ARC
8
DEFAULT_255_2_778
10
8.4353823
20
13.3190371
40
0.367962
50
1.8530789
51
11.0066296
0
ARC
8
DEFAULT_255_2_778
10
6.4461077
20
13.209254
40
2.3601831
50
1.7195207
51
2.9552551
0
ARC
8
DEFAULT_255_2_778
10
-8.5262806
20
12.7129609
40
17.3407846
50
1.809938
51
1.8741408
0
ARC
8
DEFAULT_255_2_778
10
20.8974093
20
2.0929048
40
16.0511102
50
137.2251572
51
138.6834152
0
ARC
8
DEFAULT_255_2_778
10
16.9164488
20
5.7545109
40
10.6423183
50
136.4516216
51
137.1399623
0
ARC
8
DEFAULT_255_2_778
10
16.387443
20
6.2554216
40
9.9137879
50
136.3497731
51
136.4434675
0
ARC
8
DEFAULT_255_2_778
10
8.6106641
20
13.6641417
40
0.8271644
50
316.8518218
51
325.8663924
0
ARC
8
DEFAULT_255_2_778
10
20.3554746
20
5.2744198
40
13.606672
50
144.2941357
51
144.3750175
0
ARC
8
DEFAULT_255_2_778
10
9.7542327
20
12.9250381
40
0.5337263
50
130.7978205
51
147.0155753
0
ARC
8
DEFAULT_255_2_778
10
9.4824096
20
13.2358685
40
0.1208442
50
91.7814567
51
129.5263147
0
ARC
8
DEFAULT_255_2_778
10
9.4644468
20
13.2071159
40
0.1502118
50
35.9815411
51
84.5732174
0
ARC
8
DEFAULT_255_2_778
10
8.873623
20
12.6928822
40
0.9329898
50
32.7588821
51
40.2226253
0
ARC
8
DEFAULT_255_2_778
10
29.0792576
20
26.3153431
40
23.4360476
50
214.0364098
51
214.0639418
0
ARC
8
DEFAULT_255_2_778
10
10.3729618
20
13.6446017
40
0.8426133
50
212.7801431
51
220.7476553
0
ARC
8
DEFAULT_255_2_778
10
9.9868233
20
13.3245215
40
0.3412861
50
222.3517351
51
222.9335915
0
ARC
8
DEFAULT_255_2_778
10
7.8897117
20
11.3189246
40
2.5605251
50
40.4948494
51
43.8272809
0
ARC
8
DEFAULT_255_2_778
10
2.5627935
20
6.8141552
40
9.536821
50
38.8686584
51
40.2937302
0
ARC
8
DEFAULT_255_2_778
10
21.4698401
20
22.1557258
40
14.8115732
50
219.1775995
51
219.5132975
0
ARC
8
DEFAULT_255_2_778
10
24.9088687
20
10.6070668
40
15.0147817
50
169.1197044
51
170.4275108
0
ARC
8
DEFAULT_255_2_778
10
-1.1977466
20
15.5200311
40
11.5503538
50
349.6315282
51
349.777392
0
ARC
8
DEFAULT_255_2_778
10
13.6284018
20
21.1897094
40
8.4591514
50
245.8627478
51
247.2535815
0
ARC
8
DEFAULT_255_2_778
10
9.7828517
20
11.7969276
40
1.6921534
50
48.8382377
51
70.1426055
0
ARC
8
DEFAULT_255_2_778
10
10.1653603
20
12.3070292
40
1.0574384
50
40.6407904
51
46.2490544
0
ARC
8
DEFAULT_255_2_778
10
25.8381144
20
25.176277
40
19.2221952
50
219.3213885
51
225.5824908
0
ARC
8
DEFAULT_255_2_778
10
10.4563295
20
9.4170614
40
2.7997232
50
32.2541968
51
46.4627161
0
ARC
8
DEFAULT_255_2_778
10
9.5899932
20
8.9559351
40
3.7791592
50
11.6234301
51
31.1568695
0
ARC
8
DEFAULT_255_2_778
10
25.0584699
20
12.3858379
40
12.0656035
50
192.7774406
51
195.6955745
0
LINE
8
DEFAULT_255_2_778
10
13.442761
20
9.1217774
11
13.4428882
21
9.1213095
0
ARC
8
DEFAULT_255_2_778
10
4.7198658
20
6.6088585
40
9.0776391
50
10.8926447
51
16.0677382
0
ARC
8
DEFAULT_255_2_778
10
12.4531413
20
8.0931371
40
1.203217
50
0.8113407
51
11.0743596
0
ARC
8
DEFAULT_255_2_778
10
13.0491879
20
8.0988972
40
0.6071543
50
330.859592
51
1.0642914
0
ARC
8
DEFAULT_255_2_778
10
13.0227012
20
8.1178111
40
0.6395091
50
324.6108561
51
330.5350739
0
ARC
8
DEFAULT_255_2_778
10
14.3707227
20
7.202592
40
0.9900798
50
146.6109196
51
162.5705321
0
ARC
8
DEFAULT_255_2_778
10
68.7135724
20
-12.7318034
40
58.8727106
50
159.9012666
51
159.9127923
0
ARC
8
DEFAULT_255_2_778
10
11.2203344
20
8.2712893
40
2.3368719
50
337.291441
51
340.416863
0
ARC
8
DEFAULT_255_2_778
10
13.094407
20
7.4700586
40
0.2991756
50
270.0012487
51
340.28911
0
ARC
8
DEFAULT_255_2_778
10
13.0944103
20
7.4720411
40
0.3011581
50
268.7523382
51
270.0006225
0
ARC
8
DEFAULT_255_2_778
10
12.6688792
20
21.2596687
40
14.0949427
50
269.9833271
51
271.703374
0
ARC
8
DEFAULT_255_2_778
10
12.6655326
20
22.5222811
40
15.3575544
50
269.3576205
51
269.9971833
0
ARC
8
DEFAULT_255_2_778
10
12.697509
20
24.5426178
40
17.3781252
50
267.3658982
51
269.3268805
0
ARC
8
DEFAULT_255_2_778
10
11.9005559
20
7.3942157
40
0.2113682
50
244.7452125
51
269.5383533
0
ARC
8
DEFAULT_255_2_778
10
11.8492194
20
7.2826828
40
0.0886008
50
177.1824392
51
243.9981764
0
ARC
8
DEFAULT_255_2_778
10
11.9538083
20
7.2829334
40
0.1931261
50
160.9773945
51
178.7821647
0
ARC
8
DEFAULT_255_2_778
10
12.1014167
20
7.2376363
40
0.347478
50
155.5686135
51
161.8494067
0
ARC
8
DEFAULT_255_2_778
10
12.0887635
20
7.2603962
40
0.3269114
50
95.9364024
51
158.2841963
0
ARC
8
DEFAULT_255_2_778
10
12.0458951
20
7.7932816
40
0.2079246
50
272.4967544
51
297.0360034
0
ARC
8
DEFAULT_255_2_778
10
12.082138
20
7.7047834
40
0.1129031
50
301.0710329
51
6.3507249
0
ARC
8
DEFAULT_255_2_778
10
11.7355488
20
7.7090594
40
0.4588729
50
1.0255037
51
10.1410833
0
ARC
8
DEFAULT_255_2_778
10
8.5783195
20
7.0021244
40
3.6939029
50
12.3129605
51
23.992941
0
ARC
8
DEFAULT_255_2_778
10
-6.2337692
20
1.0409471
40
19.6585849
50
22.311455
51
27.1089681
0
ARC
8
DEFAULT_255_2_778
10
11.2772802
20
10.0287871
40
0.0321109
50
208.8380213
51
247.8105833
0
ARC
8
DEFAULT_255_2_778
10
12.644231
20
10.9471006
40
1.6787592
50
213.6736925
51
213.7965224
0
ARC
8
DEFAULT_255_2_778
10
11.2275276
20
10.007519
40
0.0214968
50
24.0855046
51
85.6640771
0
ARC
8
DEFAULT_255_2_778
10
10.9466515
20
10.0318804
40
0.2825165
50
354.3536094
51
359.4065695
0
ARC
8
DEFAULT_255_2_778
10
11.4868521
20
9.9770704
40
0.2604595
50
174.0468486
51
178.8880754
0
ARC
8
DEFAULT_255_2_778
10
11.2859713
20
9.9806736
40
0.0595473
50
178.6035732
51
197.4122913
0
ARC
8
DEFAULT_255_2_778
10
4.8325607
20
12.4800567
40
0.9271581
50
304.2944459
51
335.7567088
0
ARC
8
DEFAULT_255_2_778
10
3.3947999
20
14.4436516
40
3.3604749
50
300.865819
51
305.6829665
0
LINE
8
DEFAULT_255_2_778
10
5.1188219
20
11.559117
11
5.1106306
21
11.5540698
0
ARC
8
DEFAULT_255_2_778
10
8.6943497
20
5.6960208
40
6.8672979
50
121.4566201
51
122.6098782
0
ARC
8
DEFAULT_255_2_778
10
4.8724546
20
11.6603557
40
0.2165577
50
279.2935581
51
303.9683323
0
ARC
8
DEFAULT_255_2_778
10
4.881868
20
11.6190133
40
0.1742573
50
270.0233606
51
278.4342477
0
ARC
8
DEFAULT_255_2_778
10
4.8918405
20
11.6641906
40
0.219658
50
222.0749598
51
267.4164341
0
ARC
8
DEFAULT_255_2_778
10
4.9925561
20
11.7831621
40
0.3747179
50
222.7185688
51
225.2599099
0
ARC
8
DEFAULT_255_2_778
10
5.0283343
20
11.8311733
40
0.4337142
50
189.9984512
51
224.1720981
0
ARC
8
DEFAULT_255_2_778
10
4.9664369
20
11.8144283
40
0.3698941
50
188.4874703
51
189.1086933
0
ARC
8
DEFAULT_255_2_778
10
4.9458785
20
11.8117267
40
0.3491622
50
180.0640238
51
188.5469124
0
ARC
8
DEFAULT_255_2_778
10
4.8937415
20
11.8141637
40
0.2970385
50
148.9539633
51
180.5453455
0
ARC
8
DEFAULT_255_2_778
10
5.7210384
20
11.2849409
40
1.2790419
50
126.3153311
51
147.7553925
0
ARC
8
DEFAULT_255_2_778
10
4.7469037
20
12.5956953
40
0.3541409
50
307.7168455
51
315.7579484
0
ARC
8
DEFAULT_255_2_778
10
4.9472281
20
12.4070537
40
0.0791501
50
312.4102839
51
356.8880532
0
ARC
8
DEFAULT_255_2_778
10
4.9354221
20
12.3989017
40
0.0909211
50
2.4301622
51
33.4902958
0
ARC
8
DEFAULT_255_2_778
10
4.8221274
20
12.3343056
40
0.2212194
50
31.2510053
51
39.2439946
0
ARC
8
DEFAULT_255_2_778
10
5.0780314
20
12.5534741
40
0.1158848
50
196.9473424
51
223.1261796
0
ARC
8
DEFAULT_255_2_778
10
5.0520508
20
12.5439627
40
0.0882731
50
180.047927
51
195.9573252
0
ARC
8
DEFAULT_255_2_778
10
5.0911377
20
12.5346566
40
0.1276942
50
125.7018835
51
175.8539524
0
ARC
8
DEFAULT_255_2_778
10
5.1692627
20
12.4557288
40
0.2380157
50
125.9725809
51
129.8900501
0
ARC
8
DEFAULT_255_2_778
10
4.7192569
20
13.069851
40
0.5233363
50
306.3508096
51
314.9968751
0
ARC
8
DEFAULT_255_2_778
10
5.9054369
20
11.8848212
40
1.1533626
50
131.3636952
51
135.0418184
0
ARC
8
DEFAULT_255_2_778
10
4.7406258
20
13.3477616
40
0.7203364
50
303.9827371
51
320.6305236
0
ARC
8
DEFAULT_255_2_778
10
5.0588396
20
13.0873347
40
0.3091411
50
320.5340968
51
359.4195247
0
ARC
8
DEFAULT_255_2_778
10
5.0158039
20
13.0816884
40
0.3521699
50
0.409064
51
16.0952782
0
ARC
8
DEFAULT_255_2_778
10
4.8551788
20
13.0363858
40
0.5190593
50
15.9844363
51
26.3327038
0
ARC
8
DEFAULT_255_2_778
10
4.7376586
20
12.98264
40
0.6482375
50
25.9825928
51
26.5861813
0
ARC
8
DEFAULT_255_2_778
10
5.4695286
20
13.3565948
40
0.1737432
50
181.6006819
51
208.852323
0
ARC
8
DEFAULT_255_2_778
10
5.4746198
20
13.3566363
40
0.1788335
50
180.002464
51
181.5684242
0
ARC
8
DEFAULT_255_2_778
10
5.5516186
20
13.3448444
40
0.2561035
50
140.7292021
51
177.3626855
0
ARC
8
DEFAULT_255_2_778
10
16.6255669
20
5.7837401
40
13.6642178
50
138.8404577
51
145.5828109
0
ARC
8
DEFAULT_255_2_778
10
5.8035325
20
15.3099835
40
0.7548722
50
315.0800304
51
317.1805755
0
ARC
8
DEFAULT_255_2_778
10
2.4479846
20
18.4384258
40
5.3425542
50
317.0306658
51
317.1703623
0
ARC
8
DEFAULT_255_2_778
10
6.7161082
20
14.4953521
40
0.4682808
50
129.8325267
51
138.3688134
0
ARC
8
DEFAULT_255_2_778
10
7.1130525
20
14.0885555
40
1.0358746
50
124.7971552
51
132.2807873
0
ARC
8
DEFAULT_255_2_778
10
6.8312004
20
14.4993789
40
0.5376786
50
110.781627
51
125.1163173
0
ARC
8
DEFAULT_255_2_778
10
6.7638219
20
14.667553
40
0.356555
50
98.6307572
51
110.2472563
0
ARC
8
DEFAULT_255_2_778
10
6.7571798
20
14.7055741
40
0.317969
50
90.0158541
51
98.4755755
0
ARC
8
DEFAULT_255_2_778
10
6.7520425
20
14.6564351
40
0.3671427
50
64.6035866
51
89.2119778
0
ARC
8
DEFAULT_255_2_778
10
6.6303829
20
14.3854984
40
0.6641038
50
54.2567095
51
65.1468037
0
ARC
8
DEFAULT_255_2_778
10
6.4119739
20
14.0684123
40
1.0490792
50
51.1002836
51
54.691303
0
ARC
8
DEFAULT_255_2_778
10
3.7822919
20
8.8355154
40
6.7541816
50
49.3718322
51
50.2227001
0
ARC
8
DEFAULT_255_2_778
10
7.4229061
20
13.0716398
40
1.1686024
50
45.5005913
51
49.6026306
0
ARC
8
DEFAULT_255_2_778
10
8.0264024
20
13.6802464
40
0.3115415
50
33.3106271
51
46.2132405
0
ARC
8
DEFAULT_255_2_778
10
8.1735201
20
13.7795343
40
0.1340854
50
19.1245964
51
32.3783346
0
ARC
8
DEFAULT_255_2_778
10
8.2058794
20
13.791233
40
0.0996803
50
0.0089812
51
18.8651442
0
ARC
8
DEFAULT_255_2_778
10
8.1491064
20
13.7976179
40
0.1565828
50
331.5191442
51
357.668758
0
ARC
8
DEFAULT_255_2_778
10
7.7695536
20
13.9861447
40
0.580304
50
325.3179937
51
333.0284512
0
ARC
8
DEFAULT_255_2_778
10
6.5781
20
14.7853189
40
2.014918
50
324.0667102
51
325.9089948
0
ARC
8
DEFAULT_255_2_778
10
0.5516413
20
19.1409016
40
9.4505944
50
323.6550704
51
324.1265225
0
ARC
8
DEFAULT_255_2_778
10
5.6417214
20
12.1316399
40
1.2238642
50
304.4672328
51
325.5010647
0
ARC
8
DEFAULT_255_2_778
10
5.5479115
20
12.3361136
40
1.4460422
50
272.7790746
51
302.9464546
0
ARC
8
DEFAULT_255_2_778
10
5.4466939
20
13.135784
40
2.2505429
50
271.4426121
51
274.3660266
0
ARC
8
DEFAULT_255_2_778
10
5.5180132
20
11.3505422
40
0.4648191
50
237.6295028
51
268.1925938
0
ARC
8
DEFAULT_255_2_778
10
6.1378177
20
12.4972434
40
1.7674811
50
236.0902413
51
240.5627173
0
ARC
8
DEFAULT_255_2_778
10
19.8170485
20
33.3340365
40
26.6931387
50
236.621961
51
236.6739493
0
ARC
8
DEFAULT_255_2_778
10
4.4381186
20
10.0635968
40
1.2005904
50
54.7208489
51
66.9156654
0
ARC
8
DEFAULT_255_2_778
10
4.9347683
20
11.2529631
40
0.0887756
50
185.7142377
51
253.0269887
0
ARC
8
DEFAULT_255_2_778
10
4.9385233
20
11.2435099
40
0.0920914
50
167.1095518
51
179.6179422
0
ARC
8
DEFAULT_255_2_778
10
4.9215253
20
11.2419895
40
0.076044
50
91.1283021
51
163.1325189
0
ARC
8
DEFAULT_255_2_778
10
4.7988502
20
11.85959
40
0.5549626
50
282.6123128
51
285.1980376
0
ARC
8
DEFAULT_255_2_778
10
4.878657
20
11.5575658
40
0.2425894
50
285.7086505
51
285.8107066
0
ARC
8
DEFAULT_255_2_778
10
4.6825734
20
12.3664904
40
1.0748035
50
284.1187535
51
313.6760865
0
ARC
8
DEFAULT_255_2_778
10
0.1329372
20
17.8757762
40
8.2174097
50
310.0894908
51
310.7232247
0
ARC
8
DEFAULT_255_2_778
10
166.3912552
20
-175.8820461
40
247.0940227
50
130.6257437
51
130.6289622
0
ARC
8
DEFAULT_255_2_778
10
7.6017242
20
9.2683375
40
3.1787157
50
127.0693788
51
131.2810573
0
ARC
8
DEFAULT_255_2_778
10
5.6113441
20
11.8812633
40
0.1067273
50
314.1267869
51
6.3618519
0
ARC
8
DEFAULT_255_2_778
10
5.3175275
20
11.9003562
40
0.3999527
50
358.9589341
51
0.0184811
0
ARC
8
DEFAULT_255_2_778
10
4.972207
20
11.8972108
40
0.7452803
50
0.251737
51
2.5703078
0
ARC
8
DEFAULT_255_2_778
10
2.0837461
20
11.7811706
40
3.6360646
50
2.3558384
51
2.5129137
0
ARC
8
DEFAULT_255_2_778
10
6.636836
20
11.9875582
40
0.9217194
50
180.4710112
51
182.9207544
0
ARC
8
DEFAULT_255_2_778
10
6.0298671
20
11.980678
40
0.3147201
50
177.0902047
51
180.1268689
0
ARC
8
DEFAULT_255_2_778
10
5.7386957
20
12.0017324
40
0.0236934
50
179.4316856
51
192.3758302
0
ARC
8
DEFAULT_255_2_778
10
5.8248164
20
11.9937166
40
0.1101224
50
162.29603
51
175.7031615
0
ARC
8
DEFAULT_255_2_778
10
5.5621904
20
12.0714549
40
0.1638088
50
344.3278218
51
351.4199364
0
ARC
8
DEFAULT_255_2_778
10
5.6550799
20
12.056515
40
0.0697359
50
352.171245
51
359.7303747
0
ARC
8
DEFAULT_255_2_778
10
5.6833795
20
12.0569958
40
0.0414435
50
358.8815609
51
69.7106462
0
ARC
8
DEFAULT_255_2_778
10
5.6517557
20
11.9987956
40
0.1074176
50
64.647482
51
75.0025464
0
ARC
8
DEFAULT_255_2_778
10
9.5636529
20
5.8803008
40
0.1783078
50
154.3122841
51
184.3248779
0
ARC
8
DEFAULT_255_2_778
10
9.4836319
20
5.8987996
40
0.099816
50
85.6253343
51
143.9139544
0
ARC
8
DEFAULT_255_2_778
10
9.5170362
20
5.59851
40
0.4006457
50
89.8403038
51
93.6908094
0
ARC
8
DEFAULT_255_2_778
10
10.9991032
20
5.8347821
40
0.1651251
50
62.7974608
51
95.4734383
0
ARC
8
DEFAULT_255_2_778
10
11.0147591
20
5.908921
40
0.0941707
50
356.5345746
51
50.555917
0
ARC
8
DEFAULT_255_2_778
10
10.7661848
20
5.8798562
40
0.3433692
50
359.8495149
51
3.9030365
0
ARC
8
DEFAULT_255_2_778
10
-3.4063977
20
5.5914741
40
14.518797
50
0.930114
51
1.1345624
0
ARC
8
DEFAULT_255_2_778
10
7.6370194
20
5.7693195
40
3.4739483
50
0.153535
51
0.953931
0
ARC
8
DEFAULT_255_2_778
10
8.8388098
20
5.7754627
40
2.2721476
50
0.0040056
51
0.0798321
0
ARC
8
DEFAULT_255_2_778
10
10.4162195
20
5.7608648
40
0.6948945
50
352.455925
51
1.2168256
0
ARC
8
DEFAULT_255_2_778
10
10.9993442
20
5.6735802
40
0.1058286
50
270.1932119
51
357.8624112
0
ARC
8
DEFAULT_255_2_778
10
10.8961467
20
6.360708
40
0.7996888
50
269.719908
51
277.4403162
0
ARC
8
DEFAULT_255_2_778
10
10.8203824
20
12.0733112
40
6.5126789
50
269.8510612
51
270.6321626
0
ARC
8
DEFAULT_255_2_778
10
9.9557594
20
5.4161502
40
0.1450871
50
84.8619311
51
118.4485708
0
ARC
8
DEFAULT_255_2_778
10
9.9487817
20
5.4730452
40
0.0941041
50
131.3230797
51
186.301384
0
ARC
8
DEFAULT_255_2_778
10
10.2536519
20
5.4474218
40
0.3986993
50
177.8015099
51
180.0671734
0
ARC
8
DEFAULT_255_2_778
10
10.2015691
20
4.8363421
40
0.3472708
50
176.4815058
51
179.8942417
0
ARC
8
DEFAULT_255_2_778
10
9.9606893
20
4.8246102
40
0.1071074
50
173.36649
51
223.4207953
0
ARC
8
DEFAULT_255_2_778
10
9.9623413
20
4.8626052
40
0.1370029
50
234.5570708
51
272.9964989
0
ARC
8
DEFAULT_255_2_778
10
9.9867937
20
5.171259
40
0.4458048
50
267.7772225
51
270.0590084
0
ARC
8
DEFAULT_255_2_778
10
10.9447587
20
4.5359264
40
0.1960877
50
64.3389908
51
94.3303055
0
ARC
8
DEFAULT_255_2_778
10
10.9697336
20
4.6277038
40
0.1039847
50
356.2295504
51
54.80005
0
ARC
8
DEFAULT_255_2_778
10
10.740184
20
4.5998771
40
0.3339693
50
359.8931546
51
3.603197
0
ARC
8
DEFAULT_255_2_778
10
7.6313471
20
4.5719666
40
3.4429139
50
358.2521075
51
0.4541187
0
ARC
8
DEFAULT_255_2_778
10
10.7177285
20
4.4668358
40
0.3549306
50
343.5893057
51
0.0186998
0
ARC
8
DEFAULT_255_2_778
10
10.9586554
20
4.4044614
40
0.1065154
50
266.6653391
51
339.1560477
0
ARC
8
DEFAULT_255_2_778
10
10.8473592
20
5.3833595
40
1.0903106
50
269.2695921
51
275.5316079
0
ARC
8
DEFAULT_255_2_778
10
10.7896378
20
15.2968283
40
11.0037782
50
269.9495712
51
270.2281808
0
ARC
8
DEFAULT_255_2_778
10
9.9616162
20
4.1305394
40
0.1631115
50
85.0985274
51
115.6649781
0
ARC
8
DEFAULT_255_2_778
10
9.9363202
20
4.2166279
40
0.0759544
50
126.659256
51
188.1387654
0
ARC
8
DEFAULT_255_2_778
10
10.1178772
20
4.2065058
40
0.2567472
50
180.140794
51
184.3002012
0
ARC
8
DEFAULT_255_2_778
10
10.0002156
20
3.4339269
40
0.1389287
50
174.8265151
51
210.3433876
0
ARC
8
DEFAULT_255_2_778
10
9.9536034
20
3.4325891
40
0.1005511
50
223.2112223
51
276.9268972
0
ARC
8
DEFAULT_255_2_778
10
9.9753644
20
3.7272048
40
0.3945506
50
268.6007963
51
270.027366
0
ARC
8
DEFAULT_255_2_778
10
10.993852
20
3.1603451
40
0.1788749
50
62.9868061
51
94.1353499
0
ARC
8
DEFAULT_255_2_778
10
11.0090313
20
3.2318351
40
0.1099351
50
355.2123602
51
53.0624006
0
ARC
8
DEFAULT_255_2_778
10
10.7204152
20
3.2013395
40
0.398738
50
359.9015492
51
3.065001
0
ARC
8
DEFAULT_255_2_778
10
140.4250241
20
0.5986447
40
129.3320486
50
178.8471981
51
178.8601302
0
ARC
8
DEFAULT_255_2_778
10
-9.2200944
20
3.5794645
40
20.342755
50
358.8395038
51
358.8507952
0
ARC
8
DEFAULT_255_2_778
10
9.124726
20
3.184576
40
1.9938353
50
355.9461591
51
359.5081636
0
ARC
8
DEFAULT_255_2_778
10
10.9020393
20
3.0482291
40
0.2115835
50
333.2220853
51
358.7528818
0
ARC
8
DEFAULT_255_2_778
10
10.9997452
20
3.0181932
40
0.1121512
50
269.9854324
51
324.3976011
0
ARC
8
DEFAULT_255_2_778
10
10.896973
20
3.8527158
40
0.952233
50
269.4422205
51
276.1941369
0
ARC
8
DEFAULT_255_2_778
10
10.8316742
20
11.4784056
40
8.5780607
50
269.9143616
51
270.3742382
0
ARC
8
DEFAULT_255_2_778
10
10.8763304
20
45.5703578
40
42.6700421
50
269.4497518
51
269.9228212
0
ARC
8
DEFAULT_255_2_778
10
9.7911787
20
-75.1440106
40
78.049216
50
89.5042059
51
89.6450993
0
ARC
8
DEFAULT_255_2_778
10
10.1079909
20
-24.5842035
40
27.4884167
50
89.6526682
51
89.983918
0
ARC
8
DEFAULT_255_2_778
10
10.0788034
20
-9.4327048
40
12.3369722
50
89.8286133
51
92.3085789
0
ARC
8
DEFAULT_255_2_778
10
9.5580032
20
3.5140928
40
0.6202971
50
270.0525919
51
272.2034923
0
ARC
8
DEFAULT_255_2_778
10
9.5467688
20
3.1345847
40
0.2410778
50
248.5045535
51
272.8064703
0
ARC
8
DEFAULT_255_2_778
10
9.5173314
20
3.0201472
40
0.1246643
50
177.7867663
51
241.8052767
0
ARC
8
DEFAULT_255_2_778
10
10.0267245
20
3.0870401
40
0.6369964
50
179.4950083
51
185.5926407
0
ARC
8
DEFAULT_255_2_778
10
11.5825335
20
3.3419432
40
0.5291696
50
313.7690953
51
332.579866
0
ARC
8
DEFAULT_255_2_778
10
11.7626474
20
3.1617086
40
0.2744747
50
268.4302906
51
312.6442358
0
ARC
8
DEFAULT_255_2_778
10
11.7570246
20
3.3330505
40
0.4457176
50
261.5074784
51
269.7562739
0
ARC
8
DEFAULT_255_2_778
10
11.7704445
20
3.4383228
40
0.5518222
50
260.5721309
51
261.7435779
0
ARC
8
DEFAULT_255_2_778
10
11.6051605
20
2.368704
40
0.5305628
50
81.8852297
51
90.537586
0
ARC
8
DEFAULT_255_2_778
10
11.6148545
20
1.1535358
40
1.7457691
50
90.4815395
51
93.1905729
0
ARC
8
DEFAULT_255_2_778
10
11.4127353
20
4.841847
40
1.9480775
50
270.8628845
51
273.0883599
0
ARC
8
DEFAULT_255_2_778
10
11.4338603
20
3.8305532
40
0.9365989
50
270.0056605
51
270.5023887
0
ARC
8
DEFAULT_255_2_778
10
11.5560067
20
2.9251982
40
0.1259893
50
180.259561
51
194.3584668
0
ARC
8
DEFAULT_255_2_778
10
11.5944838
20
2.9124473
40
0.1649154
50
137.3005582
51
175.7644819
0
ARC
8
DEFAULT_255_2_778
10
10.0922477
20
4.0704096
40
1.7325234
50
322.8563475
51
323.5005656
0
ARC
8
DEFAULT_255_2_778
10
11.1854585
20
3.2610725
40
0.3723264
50
323.5525701
51
325.9784875
0
ARC
8
DEFAULT_255_2_778
10
11.9594032
20
4.5673389
40
0.3829652
50
325.3781581
51
340.6405508
0
ARC
8
DEFAULT_255_2_778
10
12.1004264
20
4.5155362
40
0.2327532
50
341.1637473
51
359.7819134
0
ARC
8
DEFAULT_255_2_778
10
12.1098829
20
4.5146431
40
0.2232951
50
0.0018482
51
1.6067994
0
ARC
8
DEFAULT_255_2_778
10
12.0239721
20
4.5034083
40
0.309613
50
3.2394767
51
27.3384012
0
ARC
8
DEFAULT_255_2_778
10
11.6613229
20
4.3396393
40
0.7072816
50
25.6315281
51
29.8854098
0
ARC
8
DEFAULT_255_2_778
10
11.9969361
20
5.9021822
40
0.09309
50
22.1919199
51
92.8837135
0
ARC
8
DEFAULT_255_2_778
10
11.707416
20
5.7435629
40
0.4227435
50
24.2111492
51
27.2831059
0
ARC
8
DEFAULT_255_2_778
10
7.203089
20
3.6831667
40
5.3759357
50
24.484052
51
24.5515364
0
ARC
8
DEFAULT_255_2_778
10
12.5075429
20
6.0950916
40
0.4511342
50
204.0597234
51
207.1321541
0
ARC
8
DEFAULT_255_2_778
10
13.8452514
20
5.4760561
40
0.7679514
50
148.1796797
51
149.019668
0
ARC
8
DEFAULT_255_2_778
10
13.373859
20
5.8015854
40
0.1977696
50
90.7142354
51
156.3361848
0
ARC
8
DEFAULT_255_2_778
10
13.3705699
20
5.7049612
40
0.2943798
50
83.6844476
51
89.8396528
0
ARC
8
DEFAULT_255_2_778
10
13.5175235
20
7.2307506
40
1.238507
50
264.6921451
51
270.3390703
0
ARC
8
DEFAULT_255_2_778
10
13.5031689
20
9.9452518
40
3.9530458
50
270.3142909
51
272.1192864
0
ARC
8
DEFAULT_255_2_778
10
13.7959178
20
2.015321
40
3.982287
50
90.2973216
51
92.1092024
0
ARC
8
DEFAULT_255_2_778
10
13.3536045
20
6.0964608
40
0.4330933
50
325.638132
51
346.798747
0
ARC
8
DEFAULT_255_2_778
10
16.4884333
20
4.1152693
40
3.275632
50
147.9809095
51
148.7412951
0
ARC
8
DEFAULT_255_2_778
10
14.1725009
20
5.5214938
40
0.5662021
50
148.7759533
51
152.6803837
0
ARC
8
DEFAULT_255_2_778
10
13.2150521
20
4.4699285
40
0.2928221
50
145.8389362
51
162.9089332
0
ARC
8
DEFAULT_255_2_778
10
13.0951125
20
4.5112126
40
0.1660996
50
164.3619183
51
173.0343336
0
ARC
8
DEFAULT_255_2_778
10
13.0805861
20
4.5132177
40
0.1514373
50
173.1208176
51
179.9884507
0
ARC
8
DEFAULT_255_2_778
10
13.1241129
20
4.5184723
40
0.1950342
50
181.5348699
51
208.841643
0
ARC
8
DEFAULT_255_2_778
10
13.2971965
20
4.5992965
40
0.3858457
50
206.9561182
51
211.0549238
0
ARC
8
DEFAULT_255_2_778
10
13.3762226
20
3.0118916
40
0.1127259
50
201.6782288
51
267.7275492
0
ARC
8
DEFAULT_255_2_778
10
22.6963958
20
8.6882821
40
11.0238429
50
211.2059908
51
211.2448684
0
ARC
8
DEFAULT_255_2_778
10
12.9405973
20
2.7831917
40
0.3799348
50
30.6093821
51
35.0443804
0
ARC
8
DEFAULT_255_2_778
10
5.4830964
20
5.9001677
40
0.0811989
50
7.548619
51
81.8890125
0
ARC
8
DEFAULT_255_2_778
10
5.2417944
20
5.8259656
40
0.3328006
50
14.1013219
51
14.774447
0
ARC
8
DEFAULT_255_2_778
10
4.6732014
20
5.686183
40
0.9183209
50
13.0608544
51
13.9166407
0
ARC
8
DEFAULT_255_2_778
10
5.8910031
20
5.966938
40
0.3314282
50
192.7645638
51
196.1492514
0
ARC
8
DEFAULT_255_2_778
10
6.4194047
20
2.8096058
40
0.4873358
50
19.9137598
51
25.9103767
0
ARC
8
DEFAULT_255_2_778
10
6.7388372
20
2.9228483
40
0.1484506
50
5.4654506
51
20.8127338
0
ARC
8
DEFAULT_255_2_778
10
6.8161249
20
2.9325011
40
0.0706307
50
0.05168
51
3.6418637
0
ARC
8
DEFAULT_255_2_778
10
6.8403785
20
2.9341548
40
0.0464044
50
263.5907339
51
358.0364956
0
ARC
8
DEFAULT_255_2_778
10
6.7728164
20
3.4114405
40
0.5271044
50
268.7864453
51
276.7968077
0
ARC
8
DEFAULT_255_2_778
10
5.0085733
20
4.9946156
40
1.4135767
50
267.6097439
51
269.7316577
0
ARC
8
DEFAULT_255_2_778
10
5.0693845
20
6.6302447
40
3.050328
50
266.9973699
51
267.7498081
0
ARC
8
DEFAULT_255_2_778
10
5.1169697
20
7.5602208
40
3.9815202
50
266.4825063
51
267.0145513
0
ARC
8
DEFAULT_255_2_778
10
5.040676
20
6.3365384
40
2.7554625
50
266.1939264
51
266.5048187
0
ARC
8
DEFAULT_255_2_778
10
4.493829
20
3.0246489
40
0.1358462
50
264.4442587
51
335.611171
0
ARC
8
DEFAULT_255_2_778
10
4.4812282
20
3.1905327
40
0.3010923
50
265.0700131
51
269.8951432
0
ARC
8
DEFAULT_255_2_778
10
4.3565728
20
0.8464884
40
2.0464514
50
87.2333186
51
87.3210196
0
ARC
8
DEFAULT_255_2_778
10
4.3355692
20
0.2468457
40
2.6464297
50
87.4735817
51
90.1568778
0
ARC
8
DEFAULT_255_2_778
10
4.35402
20
-6.0682056
40
8.9615079
50
90.1642938
51
91.0100459
0
ARC
8
DEFAULT_255_2_778
10
4.034957
20
12.3407657
40
9.4502289
50
270.1103198
51
270.9767327
0
ARC
8
DEFAULT_255_2_778
10
7.4547853
20
5.8575802
40
0.2430253
50
160.8253663
51
182.8127816
0
ARC
8
DEFAULT_255_2_778
10
7.3110701
20
5.8966153
40
0.0950255
50
80.9952722
51
154.5823857
0
ARC
8
DEFAULT_255_2_778
10
7.332509
20
5.6558314
40
0.3347027
50
89.9872784
51
91.1240544
0
ARC
8
DEFAULT_255_2_778
10
7.3316806
20
5.5466942
40
0.443841
50
86.8263269
51
89.8834674
0
ARC
8
DEFAULT_255_2_778
10
7.5614863
20
11.4198114
40
5.4338342
50
267.8354492
51
270.2501081
0
ARC
8
DEFAULT_255_2_778
10
7.5734986
20
34.8114279
40
28.8254012
50
270.0232707
51
270.161265
0
ARC
8
DEFAULT_255_2_778
10
7.7357613
20
-22.8379095
40
28.8241645
50
90.0232763
51
90.1612692
0
ARC
8
DEFAULT_255_2_778
10
7.7266786
20
-4.2817911
40
10.268044
50
89.7049602
51
90.0146593
0
ARC
8
DEFAULT_255_2_778
10
7.807379
20
2.9988194
40
2.987427
50
82.3928891
51
90.5336856
0
ARC
8
DEFAULT_255_2_778
10
8.0826013
20
5.1004024
40
0.8679228
50
4.8216023
51
82.0359964
0
ARC
8
DEFAULT_255_2_778
10
7.8365256
20
5.0653798
40
1.1161621
50
0.039592
51
5.5513236
0
ARC
8
DEFAULT_255_2_778
10
8.0319928
20
5.0561128
40
0.9207494
50
333.5009226
51
0.6246639
0
ARC
8
DEFAULT_255_2_778
10
8.0945721
20
5.0388825
40
0.8571477
50
293.2222842
51
332.6652188
0
ARC
8
DEFAULT_255_2_778
10
8.0188371
20
5.1788307
40
1.0157221
50
291.0128985
51
294.0355942
0
ARC
8
DEFAULT_255_2_778
10
7.9353425
20
5.4264499
40
1.27686
50
269.6799969
51
290.5260905
0
ARC
8
DEFAULT_255_2_778
10
7.9284311
20
5.579724
40
1.4301143
50
266.8579891
51
269.9911848
0
ARC
8
DEFAULT_255_2_778
10
7.9295133
20
5.6036627
40
1.4540766
50
266.338476
51
266.8671129
0
ARC
8
DEFAULT_255_2_778
10
7.8019083
20
3.7792276
40
0.3749401
50
84.6829458
51
89.627813
0
ARC
8
DEFAULT_255_2_778
10
7.8036179
20
3.9589085
40
0.1952527
50
89.78698
51
90.0709734
0
ARC
8
DEFAULT_255_2_778
10
7.7923392
20
4.0235347
40
0.1310922
50
85.1704519
51
127.2588787
0
ARC
8
DEFAULT_255_2_778
10
7.814149
20
4.0335457
40
0.1383254
50
137.006428
51
181.2709101
0
ARC
8
DEFAULT_255_2_778
10
8.1894065
20
3.992411
40
0.5149577
50
175.7607121
51
180.2288278
0
ARC
8
DEFAULT_255_2_778
10
7.5018356
20
3.0041795
40
0.179217
50
334.5178197
51
4.2799257
0
ARC
8
DEFAULT_255_2_778
10
7.582922
20
2.9852975
40
0.0995074
50
265.5732584
51
324.1894238
0
ARC
8
DEFAULT_255_2_778
10
7.5493748
20
3.2867244
40
0.4014715
50
269.8398857
51
273.6941341
0
ARC
8
DEFAULT_255_2_778
10
7.5521917
20
-56.1897149
40
59.0749694
50
90.0038203
51
90.0203642
0
ARC
8
DEFAULT_255_2_778
10
7.5102716
20
60.9359404
40
58.0506935
50
270.0043952
51
270.0206515
0
ARC
8
DEFAULT_255_2_778
10
7.4906706
20
5.4277565
40
2.5426232
50
267.596307
51
270.5420463
0
ARC
8
DEFAULT_255_2_778
10
7.3862895
20
3.1878588
40
0.3004968
50
250.2451272
51
269.569731
0
ARC
8
DEFAULT_255_2_778
10
7.333372
20
3.0077643
40
0.1136555
50
180.1702473
51
244.6565959
0
ARC
8
DEFAULT_255_2_778
10
8.1080343
20
3.1198154
40
0.8953987
50
179.7157197
51
187.2106811
0
ARC
8
DEFAULT_255_2_778
10
14.5971061
20
3.2027222
40
7.3848765
50
179.8562178
51
180.6087783
0
ARC
8
DEFAULT_255_2_778
10
7.9355024
20
7.4767722
40
0.2862934
50
234.7957637
51
262.1606
0
ARC
8
DEFAULT_255_2_778
10
7.8910471
20
7.382458
40
0.1844859
50
180.841906
51
229.1819402
0
ARC
8
DEFAULT_255_2_778
10
8.1974707
20
7.4255448
40
0.4930213
50
179.7897044
51
185.3299851
0
ARC
8
DEFAULT_255_2_778
10
10.6181374
20
7.4822559
40
2.9142018
50
179.9994135
51
181.0794766
0
ARC
8
DEFAULT_255_2_778
10
11.4288467
20
7.4032755
40
3.7257491
50
156.3990409
51
178.7848634
0
ARC
8
DEFAULT_255_2_778
10
15.1880688
20
5.9723784
40
7.745841
50
155.3346467
51
157.8330745
0
ARC
8
DEFAULT_255_2_778
10
8.430313
20
9.0771008
40
0.3090057
50
150.3705389
51
155.5792415
0
ARC
8
DEFAULT_255_2_778
10
8.2426286
20
9.1905866
40
0.0899474
50
120.7717683
51
154.1043144
0
ARC
8
DEFAULT_255_2_778
10
8.2176387
20
9.2253894
40
0.0474011
50
89.4287068
51
116.3362818
0
ARC
8
DEFAULT_255_2_778
10
8.2115318
20
9.1637547
40
0.1092316
50
61.1174287
51
86.5467033
0
ARC
8
DEFAULT_255_2_778
10
8.1078623
20
8.9413541
40
0.3544334
50
59.6308675
51
63.8097914
0
ARC
8
DEFAULT_255_2_778
10
10.0791249
20
12.2520535
40
3.4987057
50
239.1888502
51
256.8598816
0
ARC
8
DEFAULT_255_2_778
10
9.2321536
20
8.6083437
40
0.2421716
50
62.9648788
51
77.6977467
0
ARC
8
DEFAULT_255_2_778
10
9.3242233
20
8.7805529
40
0.0470791
50
1.2816396
51
67.5135219
0
ARC
8
DEFAULT_255_2_778
10
9.2551641
20
8.7895721
40
0.1163993
50
332.259945
51
356.0756927
0
ARC
8
DEFAULT_255_2_778
10
8.8981997
20
8.9501007
40
0.5076282
50
331.3680074
51
334.9782086
0
ARC
8
DEFAULT_255_2_778
10
11.8865127
20
7.2427128
40
2.9341674
50
150.0663172
51
171.6629718
0
ARC
8
DEFAULT_255_2_778
10
8.7460117
20
7.7091059
40
0.2408482
50
342.4110878
51
350.2103963
0
ARC
8
DEFAULT_255_2_778
10
9.5617068
20
7.465172
40
0.6105853
50
163.7213028
51
164.8642571
0
ARC
8
DEFAULT_255_2_778
10
9.0949536
20
7.5880984
40
0.1279672
50
163.4266904
51
178.1661581
0
ARC
8
DEFAULT_255_2_778
10
9.0185817
20
7.5910773
40
0.0515419
50
178.7591566
51
245.1189268
0
ARC
8
DEFAULT_255_2_778
10
9.0454439
20
7.6304249
40
0.0988485
50
240.58497
51
243.5097338
0
ARC
8
DEFAULT_255_2_778
10
9.0400598
20
7.6229724
40
0.0897895
50
244.4635598
51
260.8753138
0
ARC
8
DEFAULT_255_2_778
10
9.0326261
20
7.5832698
40
0.0494214
50
262.085035
51
269.8336332
0
ARC
8
DEFAULT_255_2_778
10
9.0263712
20
7.5842482
40
0.0507687
50
276.9138653
51
344.6675624
0
ARC
8
DEFAULT_255_2_778
10
10.6930907
20
6.7469624
40
1.815458
50
152.5662342
51
153.012014
0
ARC
8
DEFAULT_255_2_778
10
9.209077
20
7.5198841
40
0.1422459
50
141.6953173
51
153.4858011
0
ARC
8
DEFAULT_255_2_778
10
9.2100038
20
7.5223943
40
0.1414403
50
93.7490061
51
142.7260452
0
ARC
8
DEFAULT_255_2_778
10
9.2082391
20
7.530553
40
0.1331893
50
90.0019041
51
93.2209512
0
ARC
8
DEFAULT_255_2_778
10
9.2077818
20
7.5315209
40
0.1322222
50
21.2661429
51
89.803746
0
ARC
8
DEFAULT_255_2_778
10
9.1800943
20
7.5157208
40
0.163822
50
22.4022278
51
22.9038525
0
ARC
8
DEFAULT_255_2_778
10
8.0984201
20
7.0703537
40
1.3335958
50
10.5075205
51
22.3817285
0
ARC
8
DEFAULT_255_2_778
10
9.2406724
20
7.2827406
40
0.171767
50
0.3428176
51
10.3343905
0
ARC
8
DEFAULT_255_2_778
10
9.2867445
20
7.2935216
40
0.1260696
50
271.0227827
51
355.562938
0
ARC
8
DEFAULT_255_2_778
10
9.1437524
20
7.7733051
40
0.623
50
281.837529
51
283.4816508
0
ARC
8
DEFAULT_255_2_778
10
8.9224889
20
9.1230225
40
1.9903168
50
268.6433963
51
280.1008371
0
ARC
8
DEFAULT_255_2_778
10
8.88625
20
22.0250378
40
14.8917782
50
269.7035165
51
269.9581325
0
ARC
8
DEFAULT_255_2_778
10
8.7321711
20
-7.7371622
40
14.8708206
50
89.7032484
51
89.9576885
0
ARC
8
DEFAULT_255_2_778
10
10.2671769
20
7.42882
40
0.2295755
50
245.560796
51
269.4698822
0
ARC
8
DEFAULT_255_2_778
10
10.2099468
20
7.3053904
40
0.0935333
50
178.4649342
51
246.1955018
0
ARC
8
DEFAULT_255_2_778
10
10.2929138
20
7.3036927
40
0.1765168
50
157.6609341
51
178.6355018
0
ARC
8
DEFAULT_255_2_778
10
10.43216
20
7.2520081
40
0.3249976
50
149.8069464
51
158.5635896
0
ARC
8
DEFAULT_255_2_778
10
10.4576136
20
7.2566748
40
0.3450621
50
101.0371762
51
152.603354
0
ARC
8
DEFAULT_255_2_778
10
10.3776929
20
7.7631249
40
0.1683421
50
274.7226104
51
315.0720922
0
ARC
8
DEFAULT_255_2_778
10
10.3192942
20
7.7768001
40
0.2216048
50
323.2597921
51
1.3426066
0
ARC
8
DEFAULT_255_2_778
10
9.7573626
20
7.835496
40
0.7853004
50
356.0933422
51
356.9530826
0
ARC
8
DEFAULT_255_2_778
10
8.0124921
20
7.8519729
40
2.5297307
50
358.6812928
51
0.0022573
0
ARC
8
DEFAULT_255_2_778
10
7.4464092
20
7.8269857
40
3.0959152
50
0.4642865
51
12.7903025
0
ARC
8
DEFAULT_255_2_778
10
6.2142303
20
7.5880177
40
4.3506049
50
12.266861
51
13.1036018
0
ARC
8
DEFAULT_255_2_778
10
10.7510402
20
8.6546093
40
0.310054
50
187.7856511
51
195.0013466
0
ARC
8
DEFAULT_255_2_778
10
10.588859
20
8.6317293
40
0.1462701
50
180.3629985
51
187.5119142
0
ARC
8
DEFAULT_255_2_778
10
10.4907148
20
8.6353592
40
0.0483382
50
75.4129207
51
185.4090385
0
ARC
8
DEFAULT_255_2_778
10
10.5057463
20
8.4717402
40
0.2104184
50
89.991661
51
90.7780889
0
ARC
8
DEFAULT_255_2_778
10
10.5019393
20
8.2933468
40
0.3888307
50
84.152643
51
89.4345129
0
ARC
8
DEFAULT_255_2_778
10
11.1281777
20
13.85585
40
5.2088342
50
263.5335651
51
270.501836
0
ARC
8
DEFAULT_255_2_778
10
11.1553912
20
21.5815748
40
12.9343724
50
270.0815448
51
271.2446824
0
ARC
8
DEFAULT_255_2_778
10
11.4482378
20
8.549589
40
0.1013645
50
4.3236591
51
96.7333943
0
ARC
8
DEFAULT_255_2_778
10
11.1298674
20
8.4411664
40
0.4352082
50
15.0474145
51
15.4672428
0
ARC
8
DEFAULT_255_2_778
10
8.7614356
20
7.8896143
40
2.8668026
50
0.4424947
51
13.4033811
0
ARC
8
DEFAULT_255_2_778
10
11.1363742
20
7.8995666
40
0.4919296
50
0.0000805
51
1.4196717
0
ARC
8
DEFAULT_255_2_778
10
10.8182573
20
7.9549836
40
0.81194
50
326.0944418
51
356.0864248
0
ARC
8
DEFAULT_255_2_778
10
-0.4388179
20
14.2359898
40
13.7001232
50
330.4397963
51
330.5592598
0
ARC
8
DEFAULT_255_2_778
10
60.7030826
20
-20.4244281
40
56.5827097
50
150.4546513
51
150.4610058
0
ARC
8
DEFAULT_255_2_778
10
12.8735547
20
6.6356434
40
1.6294448
50
149.1282409
51
157.3343619
0
ARC
8
DEFAULT_255_2_778
10
11.2520467
20
7.3395649
40
0.1402835
50
266.7749692
51
327.1913281
0
ARC
8
DEFAULT_255_2_778
10
11.1938188
20
7.8132374
40
0.6157946
50
269.6495973
51
274.6886668
0
LINE
8
DEFAULT_255_2_778
10
10.7275528
20
7.1974544
11
10.7275528
21
7.1974544
0
ARC
8
DEFAULT_255_2_778
10
10.069134
20
13.4683029
40
0.1698562
50
62.1999329
51
76.293156
0
ARC
8
DEFAULT_255_2_778
10
10.0936256
20
13.5634905
40
0.0715869
50
77.2848765
51
89.4431957
0
ARC
8
DEFAULT_255_2_778
10
10.0983188
20
13.5841731
40
0.0510576
50
94.4904867
51
179.5923316
0
ARC
8
DEFAULT_255_2_778
10
10.3076128
20
13.5239264
40
0.2673124
50
166.8948766
51
172.5569262
0
ARC
8
DEFAULT_255_2_778
10
9.3229506
20
13.3125263
40
0.3042536
50
36.3013888
51
48.4069794
0
ARC
8
DEFAULT_255_2_778
10
9.4692373
20
13.4831612
40
0.0796232
50
45.6220076
51
86.5709039
0
ARC
8
DEFAULT_255_2_778
10
9.4740859
20
13.5060154
40
0.0566264
50
90.0870945
51
102.8249999
0
ARC
8
DEFAULT_255_2_778
10
9.494308
20
13.4516048
40
0.1144236
50
106.6534078
51
136.6481019
0
ARC
8
DEFAULT_255_2_778
10
9.7394111
20
13.1881444
40
0.474084
50
133.8288637
51
140.0355335
0
ARC
8
DEFAULT_255_2_778
10
10.1635568
20
13.3265422
40
1.2480408
50
181.4862396
51
194.0122761
0
ARC
8
DEFAULT_255_2_778
10
14.0726236
20
13.500025
40
5.1607948
50
181.340007
51
182.2860123
0
LINE
8
DEFAULT_255_2_778
10
8.91324
20
13.3793377
11
8.9131711
21
13.3819726
0
ARC
8
DEFAULT_255_2_778
10
4.1552159
20
13.2711136
40
4.7592466
50
1.3347338
51
2.3812534
0
ARC
8
DEFAULT_255_2_778
10
-5.3610676
20
12.6881401
40
14.2927589
50
3.1312294
51
3.2465874
0
ARC
8
DEFAULT_255_2_778
10
3.5712946
20
13.1929279
40
5.3461453
50
3.2668616
51
3.3631268
0
ARC
8
DEFAULT_255_2_778
10
7.6449738
20
13.4427041
40
1.2648715
50
2.8934744
51
6.1360409
0
ARC
8
DEFAULT_255_2_778
10
8.7207399
20
13.5634431
40
0.1824328
50
4.546946
51
20.527509
0
ARC
8
DEFAULT_255_2_778
10
8.8623181
20
13.6184417
40
0.0306154
50
17.0424291
51
90.9790225
0
ARC
8
DEFAULT_255_2_778
10
8.8686828
20
13.5470086
40
0.1022765
50
93.861539
51
115.8665018
0
ARC
8
DEFAULT_255_2_778
10
9.046815
20
13.1335671
40
0.5523766
50
113.7823088
51
119.0332538
0
ARC
8
DEFAULT_255_2_778
10
10.5275573
20
10.4231962
40
3.6408459
50
118.7071828
51
119.7981662
0
LINE
8
DEFAULT_255_2_778
10
8.2499528
20
13.3243544
11
8.2512854
21
13.3261854
0
ARC
8
DEFAULT_255_2_778
10
505.6340786
20
-348.3503508
40
614.9793166
50
143.965098
51
143.9768765
0
ARC
8
DEFAULT_255_2_778
10
13.4403765
20
9.9076006
40
6.2094019
50
135.3273432
51
145.4576395
0
ARC
8
DEFAULT_255_2_778
10
9.3690031
20
13.9185269
40
0.4943054
50
113.4896033
51
134.1576311
0
ARC
8
DEFAULT_255_2_778
10
9.3273908
20
14.0033314
40
0.3999662
50
89.8165673
51
112.8646651
0
ARC
8
DEFAULT_255_2_778
10
9.3220191
20
13.8799704
40
0.5233674
50
69.8080807
51
89.27173
0
ARC
8
DEFAULT_255_2_778
10
9.2561235
20
13.6738239
40
0.739648
50
66.3313416
51
70.5292085
0
ARC
8
DEFAULT_255_2_778
10
8.9289437
20
13.0862907
40
1.4105479
50
43.6629823
51
63.7391384
0
ARC
8
DEFAULT_255_2_778
10
10.1911025
20
13.6249097
40
0.2900811
50
340.9217036
51
341.2892538
0
ARC
8
DEFAULT_255_2_778
10
10.3844166
20
13.5529308
40
0.0839977
50
314.2888535
51
344.2240181
0
ARC
8
DEFAULT_255_2_778
10
10.3765965
20
13.5628604
40
0.0965753
50
310.5277893
51
313.4963146
0
LINE
8
DEFAULT_255_2_778
10
11.2289528
20
9.9676544
11
11.5591528
21
8.9108544
0
LINE
8
DEFAULT_255_2_778
10
8.0973528
20
13.0563544
11
8.6195528
21
13.3566544
0
LINE
8
DEFAULT_255_2_778
10
8.8058528
20
13.2606544
11
8.8418528
21
12.6901544
0
LINE
8
DEFAULT_255_2_778
10
10.0430528
20
12.7317544
11
10.1031528
21
13.1039544
0
LINE
8
DEFAULT_255_2_778
10
11.2291528
20
9.9628544
11
11.2289528
21
9.9676544
0
LINE
8
DEFAULT_255_2_778
10
7.0707528
20
14.8848544
11
8.1036528
21
14.0263544
0
LINE
8
DEFAULT_255_2_778
10
8.1637528
20
13.5400544
11
6.6503528
21
11.4384544
0
LINE
8
DEFAULT_255_2_778
10
5.6795528
20
12.1025544
11
5.6779528
21
12.0993544
0
LINE
8
DEFAULT_255_2_778
10
9.3858528
20
4.4433544
11
9.3858528
21
5.8668544
0
LINE
8
DEFAULT_255_2_778
10
9.5181528
20
5.9991544
11
10.9833528
21
5.9991544
0
LINE
8
DEFAULT_255_2_778
10
10.8034528
20
5.5606544
11
9.9687528
21
5.5606544
0
LINE
8
DEFAULT_255_2_778
10
9.8549528
20
5.4469544
11
9.8549528
21
4.8576544
0
LINE
8
DEFAULT_255_2_778
10
9.9872528
20
4.7254544
11
10.9299528
21
4.7314544
0
LINE
8
DEFAULT_255_2_778
10
10.7799528
20
4.2930544
11
9.9755528
21
4.2930544
0
LINE
8
DEFAULT_255_2_778
10
9.8618528
20
4.1872544
11
9.8618528
21
3.4464544
0
LINE
8
DEFAULT_255_2_778
10
9.9755528
20
3.3326544
11
10.9809528
21
3.3387544
0
LINE
8
DEFAULT_255_2_778
10
9.3897528
20
3.0926544
11
9.3897528
21
4.4436544
0
LINE
8
DEFAULT_255_2_778
10
9.3897528
20
4.4436544
11
9.3858528
21
4.4433544
0
LINE
8
DEFAULT_255_2_778
10
12.6343528
20
4.0771544
11
12.0522528
21
3.0982544
0
LINE
8
DEFAULT_255_2_778
10
11.4940528
20
3.0527544
11
12.2745528
21
4.3497544
0
LINE
8
DEFAULT_255_2_778
10
12.2745528
20
4.6920544
11
11.5178528
21
5.9951544
0
LINE
8
DEFAULT_255_2_778
10
11.5178528
20
5.9951544
11
11.9922528
21
5.9951544
0
LINE
8
DEFAULT_255_2_778
10
12.1060528
20
5.8893544
11
12.6404528
21
4.9465544
0
LINE
8
DEFAULT_255_2_778
10
12.6404528
20
4.9465544
11
13.1868528
21
5.8713544
0
LINE
8
DEFAULT_255_2_778
10
13.6694528
20
5.7813544
11
12.9727528
21
4.6343544
0
LINE
8
DEFAULT_255_2_778
10
12.9666528
20
4.4002544
11
13.7413528
21
3.0672544
0
LINE
8
DEFAULT_255_2_778
10
13.7413528
20
3.0672544
11
13.8374528
21
2.8992544
0
LINE
8
DEFAULT_255_2_778
10
13.8374528
20
2.8992544
11
13.3717528
21
2.8992544
0
LINE
8
DEFAULT_255_2_778
10
13.2516528
20
3.0013544
11
12.6365528
21
4.0798544
0
LINE
8
DEFAULT_255_2_778
10
12.6365528
20
4.0798544
11
12.6343528
21
4.0771544
0
LINE
8
DEFAULT_255_2_778
10
4.0534528
20
2.8881544
11
5.4945528
21
5.9805544
0
LINE
8
DEFAULT_255_2_778
10
5.5726528
20
5.8747544
11
6.8577528
21
3.0225544
0
LINE
8
DEFAULT_255_2_778
10
6.7616528
20
2.8844544
11
6.4013528
21
2.8844544
0
LINE
8
DEFAULT_255_2_778
10
6.4013528
20
2.8844544
11
6.2571528
21
3.2204544
0
LINE
8
DEFAULT_255_2_778
10
6.2571528
20
3.2204544
11
6.0708528
21
3.5749544
0
LINE
8
DEFAULT_255_2_778
10
6.0708528
20
3.5749544
11
5.6985528
21
3.5810544
0
LINE
8
DEFAULT_255_2_778
10
5.6985528
20
3.5810544
11
5.0019528
21
3.5810544
0
LINE
8
DEFAULT_255_2_778
10
4.8577528
20
3.5871544
11
4.8095528
21
3.4548544
0
LINE
8
DEFAULT_255_2_778
10
4.8095528
20
3.4548544
11
4.6175528
21
2.9685544
0
LINE
8
DEFAULT_255_2_778
10
4.0531528
20
2.8905544
11
4.0534528
21
2.8881544
0
LINE
8
DEFAULT_255_2_778
10
7.2120528
20
4.4433544
11
7.2120528
21
5.8456544
0
LINE
8
DEFAULT_255_2_778
10
7.6744528
20
3.9903544
11
7.6805528
21
3.0175544
0
LINE
8
DEFAULT_255_2_778
10
7.2122528
20
3.2212544
11
7.2122528
21
4.4401544
0
LINE
8
DEFAULT_255_2_778
10
7.2122528
20
4.4401544
11
7.2120528
21
4.4433544
0
LINE
8
DEFAULT_255_2_778
10
8.7431528
20
7.1331544
11
7.8964528
21
7.1931544
0
LINE
8
DEFAULT_255_2_778
10
8.7431528
20
7.1336544
11
8.7431528
21
7.1331544
0
LINE
8
DEFAULT_255_2_778
10
10.7275528
20
7.1992544
11
10.2650528
21
7.1992544
0
LINE
8
DEFAULT_255_2_778
10
11.1900528
20
7.1974544
11
10.7275528
21
7.1974544
0
LINE
8
DEFAULT_255_2_778
10
10.7275528
20
7.1974544
11
10.7275528
21
7.1992544
0
LINE
8
DEFAULT_255_2_778
10
10.4425528
20
13.4923544
11
10.1483528
21
13.6185544
0
LINE
8
DEFAULT_255_2_778
10
10.0425528
20
13.5585544
11
9.9583528
21
13.0301544
0
LINE
8
DEFAULT_255_2_778
10
9.9583528
20
13.0301544
11
9.5681528
21
13.4926544
0
LINE
8
DEFAULT_255_2_778
10
9.3760528
20
13.4926544
11
8.9526528
21
13.0243544
0
LINE
8
DEFAULT_255_2_778
10
8.7182528
20
13.5826544
11
8.2499528
21
13.3243544
0
LINE
8
DEFAULT_255_2_778
10
9.9493528
20
14.0601544
11
10.4658528
21
13.5318544
0
LINE
8
DEFAULT_255_2_778
10
10.4393528
20
13.4894544
11
10.4425528
21
13.4923544
0
ARC
8
DEFAULT_255_2_778
10
8.7357392
20
10.4192238
40
0.2556908
50
123.8999276
51
163.1475726
0
ARC
8
DEFAULT_255_2_778
10
8.2821926
20
10.6499052
40
0.3114837
50
321.8162958
51
356.603377
0
LINE
8
DEFAULT_255_2_778
10
8.5270292
20
10.4573506
11
8.4910292
21
10.4933506
0
LINE
8
DEFAULT_255_2_778
10
8.4910292
20
10.4933506
11
8.4910292
21
10.4933506
0
ARC
8
DEFAULT_255_2_778
10
5.8517831
20
12.0361431
40
0.1848907
50
150.8149464
51
160.025632
0
ARC
8
DEFAULT_255_2_778
10
6.731732
20
11.569417
40
1.1809179
50
151.4755444
51
151.8637816
0
ARC
8
DEFAULT_255_2_778
10
5.3365324
20
12.3315329
40
0.4088731
50
331.0060694
51
334.1568901
0
ARC
8
DEFAULT_255_2_778
10
5.7132838
20
12.1619607
40
0.0123239
50
224.6367607
51
228.7215879
0
ARC
8
DEFAULT_255_2_778
10
5.7673718
20
12.2376436
40
0.1052934
50
233.7787908
51
241.3536346
0
ARC
8
DEFAULT_255_2_778
10
5.7076264
20
12.1236416
40
0.0235016
50
7.7277436
51
66.7751564
0
ARC
8
DEFAULT_255_2_778
10
7.1378953
20
12.1303747
40
1.4069855
50
180.1454995
51
181.0399144
0
ARC
8
DEFAULT_255_2_778
10
4.332004
20
12.0793538
40
1.3993697
50
0.1515364
51
1.0435422
0
ARC
8
DEFAULT_255_2_778
10
5.4483817
20
12.0769593
40
0.2830527
50
348.5520315
51
1.233964
0
ARC
8
DEFAULT_255_2_778
10
5.5599985
20
12.0571459
40
0.1697462
50
328.3604998
51
347.6290544
0
ARC
8
DEFAULT_255_2_778
10
5.8236259
20
11.9984418
40
0.1229148
50
178.5271667
51
194.2905065
0
ARC
8
DEFAULT_255_2_778
10
6.0910658
20
12.0010516
40
0.3903147
50
178.7226865
51
179.9193372
0
ARC
8
DEFAULT_255_2_778
10
7.0017704
20
11.981647
40
1.3012258
50
178.4998942
51
178.7623662
0
ARC
8
DEFAULT_255_2_778
10
5.1477793
20
12.0321476
40
0.5534554
50
358.298224
51
359.7538238
0
ARC
8
DEFAULT_255_2_778
10
5.6210866
20
12.0373805
40
0.0805036
50
354.5751332
51
44.9966714
0
LINE
8
DEFAULT_255_2_778
10
5.6780144
20
12.0943017
11
5.6780144
21
12.0993017
0
ARC
8
DEFAULT_255_2_778
10
11.3298657
20
10.0633636
40
0.1390951
50
169.8976909
51
223.4744894
0
ARC
8
DEFAULT_255_2_778
10
11.1930878
20
10.0319228
40
0.0558392
50
19.3772541
51
90.1648804
0
ARC
8
DEFAULT_255_2_778
10
11.1166372
20
10.0022314
40
0.1378357
50
13.2425312
51
20.4764517
0
ARC
8
DEFAULT_255_2_778
10
10.5796442
20
9.8699452
40
0.6908767
50
12.971135
51
13.7200384
0
ARC
8
DEFAULT_255_2_778
10
11.3987544
20
10.0553596
40
0.1489845
50
191.7502548
51
200.3040268
0
ARC
8
DEFAULT_255_2_778
10
11.0180432
20
10.1573852
40
0.2858394
50
322.3071026
51
327.4662278
0
ARC
8
DEFAULT_255_2_778
10
11.1743129
20
10.0382338
40
0.0893396
50
310.5576619
51
321.4968014
0
ARC
8
DEFAULT_255_2_778
10
11.1623388
20
10.0521464
40
0.1076955
50
308.3276702
51
310.5848864
0
LINE
8
DEFAULT_255_2_778
10
11.2291271
20
9.9676617
11
11.2289271
21
9.9676617
0
ARC
8
DEFAULT_255_2_778
10
5.1515099
20
4.1590099
40
0.1417332
50
251.583426
51
272.8548069
0
ARC
8
DEFAULT_255_2_778
10
5.115631
20
4.0525498
40
0.0293933
50
177.0452009
51
252.3789686
0
ARC
8
DEFAULT_255_2_778
10
5.2003572
20
4.0466522
40
0.1143209
50
155.6689401
51
176.2822134
0
ARC
8
DEFAULT_255_2_778
10
5.4920669
20
3.935037
40
0.4265081
50
155.2716349
51
158.1529835
0
LINE
8
DEFAULT_255_2_778
10
5.5067689
20
4.9778526
11
5.9211689
21
4.0174526
0
LINE
8
DEFAULT_255_2_778
10
5.9211689
20
4.0174526
11
5.1585689
21
4.0174526
0
LINE
8
DEFAULT_255_2_778
10
5.1046689
20
4.1134526
11
5.5067689
21
4.9781526
0
LINE
8
DEFAULT_255_2_778
10
5.5067689
20
4.9781526
11
5.5067689
21
4.9778526
0
ARC
8
DEFAULT_255_2_778
10
7.9841288
20
5.4613755
40
0.3056713
50
180.2457713
51
186.193983
0
ARC
8
DEFAULT_255_2_778
10
7.7870318
20
5.4692929
40
0.108963
50
141.791616
51
184.8584974
0
ARC
8
DEFAULT_255_2_778
10
7.770728
20
5.4608274
40
0.1027603
50
84.4254042
51
132.4183278
0
ARC
8
DEFAULT_255_2_778
10
7.7786827
20
5.2360009
40
0.3271073
50
83.0362079
51
89.6448389
0
ARC
8
DEFAULT_255_2_778
10
7.8948842
20
6.1795598
40
0.6235802
50
262.9493615
51
263.8095902
0
ARC
8
DEFAULT_255_2_778
10
7.9489197
20
6.8312653
40
1.2774197
50
264.5521454
51
269.0969038
0
ARC
8
DEFAULT_255_2_778
10
7.9359624
20
4.7857674
40
0.7682702
50
76.9497632
51
90.5352229
0
ARC
8
DEFAULT_255_2_778
10
7.9439504
20
4.8310572
40
0.7223505
50
60.3686907
51
76.7558254
0
ARC
8
DEFAULT_255_2_778
10
8.1093627
20
5.1252024
40
0.3848931
50
359.7720562
51
60.1230907
0
ARC
8
DEFAULT_255_2_778
10
7.7966675
20
5.0836863
40
0.6987301
50
359.9569743
51
3.2805379
0
ARC
8
DEFAULT_255_2_778
10
7.6586744
20
5.0840737
40
0.8367234
50
356.2874506
51
359.9375483
0
ARC
8
DEFAULT_255_2_778
10
8.0731835
20
5.0332887
40
0.4204721
50
288.7275681
51
359.537559
0
ARC
8
DEFAULT_255_2_778
10
7.969601
20
5.2777988
40
0.6855739
50
277.1760528
51
290.3653185
0
ARC
8
DEFAULT_255_2_778
10
6.1611961
20
19.3958814
40
14.9190042
50
277.0220661
51
277.2936828
0
ARC
8
DEFAULT_255_2_778
10
7.580794
20
7.8475836
40
3.2837817
50
275.879252
51
277.0717592
0
ARC
8
DEFAULT_255_2_778
10
7.7966001
20
5.7268681
40
1.1521186
50
272.7837162
51
276.0065058
0
ARC
8
DEFAULT_255_2_778
10
7.8265878
20
5.1529677
40
0.5774426
50
270.0895219
51
272.577298
0
ARC
8
DEFAULT_255_2_778
10
7.8172337
20
4.7727123
40
0.1974531
50
248.2093563
51
272.977452
0
ARC
8
DEFAULT_255_2_778
10
7.793962
20
4.6832121
40
0.1063453
50
185.1883441
51
241.939014
0
ARC
8
DEFAULT_255_2_778
10
8.2756437
20
4.7811518
40
0.5973542
50
180.9901274
51
190.3729502
0
ARC
8
DEFAULT_255_2_778
10
10.8801023
20
4.8697179
40
3.2032504
50
179.8307754
51
181.769075
0
ARC
8
DEFAULT_255_2_778
10
32.4538995
20
4.9144753
40
24.7770588
50
179.9826108
51
180.0816216
0
ARC
8
DEFAULT_255_2_778
10
6.8956478
20
5.0151746
40
0.7867316
50
353.1979926
51
358.588493
0
ARC
8
DEFAULT_255_2_778
10
5.2166616
20
5.0598288
40
2.4663104
50
358.5122411
51
0.2826403
0
LINE
8
DEFAULT_255_2_778
10
7.6802419
20
5.0738951
11
7.6802419
21
5.4283951
0
LINE
8
DEFAULT_255_2_778
10
7.6829419
20
5.0719951
11
7.6802419
21
5.0738951
0
ENDSEC
0
EOF