0
SECTION
2
HEADER
9
$MEASUREMENT
70
1
0
ENDSEC
0
SECTION
2
TABLES
0
TABLE
2
LTYPE
0
LTYPE
72
65
70
64
2
CONTINUOUS
3
______
73
0
40
0
0
ENDTAB
0
TABLE
2
LAYER
0
LAYER
2
DEFAULT_255_2_778
70
0
62
255
6
CONTINUOUS
0
ENDTAB
0
ENDSEC
0
SECTION
2
ENTITIES
0
ARC
8
DEFAULT_255_2_778
10
6.3455456
20
-1.3927973
40
5.3473583
50
153.9087532
51
157.9543176
0
ARC
8
DEFAULT_255_2_778
10
28.003848
20
-10.3793868
40
28.7958852
50
157.5560068
51
157.8129263
0
LINE
8
DEFAULT_255_2_778
10
1.3401309
20
0.494858
11
1.3399631
21
0.4944474
0
ARC
8
DEFAULT_255_2_778
10
-5.5130423
20
3.2070649
40
7.3703444
50
334.7249575
51
338.4049098
0
ARC
8
DEFAULT_255_2_778
10
-1.7053006
20
1.4520448
40
3.178029
50
333.4791705
51
334.0261637
0
ARC
8
DEFAULT_255_2_778
10
0.6646938
20
0.2635632
40
0.5267649
50
306.4486165
51
334.0407351
0
ARC
8
DEFAULT_255_2_778
10
0.6495651
20
0.3036331
40
0.5681038
50
269.023929
51
305.2749786
0
ARC
8
DEFAULT_255_2_778
10
0.6399178
20
0.4131459
40
0.6775344
50
268.1593313
51
269.9974416
0
ARC
8
DEFAULT_255_2_778
10
0.6427453
20
0.4541341
40
0.7185937
50
251.5234404
51
268.03897
0
ARC
8
DEFAULT_255_2_778
10
0.6062031
20
0.2810241
40
0.543202
50
239.9205132
51
249.3919958
0
ARC
8
DEFAULT_255_2_778
10
0.4821389
20
0.0699358
40
0.2983637
50
224.3825441
51
240.2198855
0
ARC
8
DEFAULT_255_2_778
10
0.3948448
20
-0.0138833
40
0.1773527
50
187.7656405
51
224.7550824
0
ARC
8
DEFAULT_255_2_778
10
0.4152516
20
-0.0117923
40
0.1978561
50
179.903313
51
187.5671204
0
ARC
8
DEFAULT_255_2_778
10
0.5614017
20
-0.0234768
40
0.3442158
50
156.8448404
51
177.9990939
0
ARC
8
DEFAULT_255_2_778
10
1.6162001
20
-0.4614728
40
1.486322
50
150.9905603
51
157.3096639
0
ARC
8
DEFAULT_255_2_778
10
-16.4318184
20
9.1223748
40
18.9487436
50
332.1124251
51
332.1475291
0
ARC
8
DEFAULT_255_2_778
10
-0.9286909
20
0.9551296
40
1.426059
50
331.2672393
51
337.1159969
0
ARC
8
DEFAULT_255_2_778
10
-0.213384
20
0.6409821
40
0.6449878
50
338.1165807
51
338.9373997
0
ARC
8
DEFAULT_255_2_778
10
7.4533638
20
16.1134229
40
0.5799194
50
56.9451308
51
73.4029862
0
ARC
8
DEFAULT_255_2_778
10
7.4759813
20
16.1611862
40
0.5275978
50
29.0153872
51
56.1745831
0
ARC
8
DEFAULT_255_2_778
10
7.0868689
20
15.9390052
40
0.9756559
50
20.4812958
51
29.3417897
0
ARC
8
DEFAULT_255_2_778
10
3.8617901
20
14.7203795
40
4.4232846
50
19.0753763
51
20.6513965
0
ARC
8
DEFAULT_255_2_778
10
9.2944001
20
16.5909206
40
1.3223546
50
198.7455495
51
204.5471459
0
ARC
8
DEFAULT_255_2_778
10
8.5963035
20
16.280108
40
0.5582751
50
205.2960876
51
209.6674398
0
ARC
8
DEFAULT_255_2_778
10
8.7876997
20
-1.9585514
40
6.711725
50
22.0880476
51
23.5906862
0
ARC
8
DEFAULT_255_2_778
10
12.0594654
20
-0.6334306
40
3.1817982
50
19.28848
51
22.1316063
0
ARC
8
DEFAULT_255_2_778
10
13.4928275
20
-0.1333784
40
1.6637155
50
14.7618896
51
19.3398561
0
ARC
8
DEFAULT_255_2_778
10
14.2448756
20
0.0625933
40
0.8865586
50
7.1764209
51
14.8989357
0
ARC
8
DEFAULT_255_2_778
10
14.5920483
20
0.1085173
40
0.536373
50
0.2114686
51
6.9420872
0
ARC
8
DEFAULT_255_2_778
10
14.8373352
20
0.1009552
40
0.291239
50
331.5258241
51
1.8774921
0
ARC
8
DEFAULT_255_2_778
10
14.8739414
20
0.0936533
40
0.2558177
50
296.2139083
51
329.0537859
0
ARC
8
DEFAULT_255_2_778
10
14.7644044
20
0.3012823
40
0.4905211
50
283.0045956
51
296.9797804
0
ARC
8
DEFAULT_255_2_778
10
14.6593439
20
0.7345544
40
0.936335
50
275.1305887
51
283.3024214
0
ARC
8
DEFAULT_255_2_778
10
14.5905537
20
1.4441683
40
1.6492652
50
270.379338
51
275.3062558
0
ARC
8
DEFAULT_255_2_778
10
14.5792564
20
2.0022232
40
2.2073958
50
269.9970654
51
270.5766679
0
ARC
8
DEFAULT_255_2_778
10
14.5796567
20
2.2386143
40
2.443787
50
268.9437456
51
269.9879636
0
ARC
8
DEFAULT_255_2_778
10
14.5879158
20
2.661521
40
2.866774
50
267.6134835
51
268.9345158
0
ARC
8
DEFAULT_255_2_778
10
14.6096443
20
3.1930808
40
3.3987776
50
266.618468
51
267.6206435
0
ARC
8
DEFAULT_255_2_778
10
14.6314285
20
3.5738202
40
3.7801392
50
266.3185849
51
266.6292528
0
ARC
8
DEFAULT_255_2_778
10
11.0940882
20
-461.6470725
40
461.4603151
50
89.59093
51
90.0202516
0
ARC
8
DEFAULT_255_2_778
10
10.9036124
20
-416.3399619
40
416.1531766
50
89.9962318
51
90.0012561
0
ARC
8
DEFAULT_255_2_778
10
11.4812994
20
-1390.3953704
40
1390.208709
50
90.0241847
51
90.1682034
0
ARC
8
DEFAULT_255_2_778
10
2.3124806
20
1851.1337031
40
1851.3333456
50
270.0759823
51
270.1574528
0
ARC
8
DEFAULT_255_2_778
10
3.8658673
20
805.7513384
40
805.9498573
50
270.0014534
51
270.0641057
0
ARC
8
DEFAULT_255_2_778
10
3.4013731
20
0.1501528
40
0.3493608
50
207.5148843
51
273.6002231
0
ARC
8
DEFAULT_255_2_778
10
3.5174936
20
0.1935146
40
0.4726235
50
185.4554644
51
205.6733382
0
ARC
8
DEFAULT_255_2_778
10
3.4388572
20
0.1590675
40
0.3919865
50
152.9653591
51
181.5329116
0
ARC
8
DEFAULT_255_2_778
10
3.3652128
20
0.1767095
40
0.3188653
50
88.2489842
51
149.7726047
0
ARC
8
DEFAULT_255_2_778
10
3.3941182
20
-0.0209659
40
0.5167471
50
89.989704
51
92.1251316
0
ARC
8
DEFAULT_255_2_778
10
13.2653121
20
4.5778621
40
4.0822215
50
269.5241782
51
273.0502728
0
ARC
8
DEFAULT_255_2_778
10
13.4286094
20
1.6006219
40
1.1005198
50
272.8086707
51
282.5861313
0
ARC
8
DEFAULT_255_2_778
10
13.5939648
20
0.8920366
40
0.3729953
50
281.5144683
51
307.071203
0
ARC
8
DEFAULT_255_2_778
10
13.6732996
20
0.7704082
40
0.2283459
50
309.5857644
51
356.6046645
0
ARC
8
DEFAULT_255_2_778
10
13.5280731
20
0.7936203
40
0.3749754
50
354.3777761
51
0.1043604
0
ARC
8
DEFAULT_255_2_778
10
13.3768392
20
0.7911093
40
0.5262182
50
0.3477702
51
9.1864769
0
ARC
8
DEFAULT_255_2_778
10
13.0902058
20
0.7464758
40
0.8163026
50
9.0671909
51
14.965172
0
ARC
8
DEFAULT_255_2_778
10
12.7021204
20
0.6438499
40
1.2177269
50
14.9147893
51
19.3019315
0
ARC
8
DEFAULT_255_2_778
10
12.1785335
20
0.4613988
40
1.7721915
50
19.2736673
51
22.6939883
0
ARC
8
DEFAULT_255_2_778
10
11.6046568
20
0.2241824
40
2.3931596
50
22.6327895
51
24.5650533
0
ARC
8
DEFAULT_255_2_778
10
7.8246577
20
14.4688801
40
0.0233528
50
266.0641695
51
10.613662
0
ARC
8
DEFAULT_255_2_778
10
7.8332252
20
14.5577454
40
0.1126232
50
238.2394132
51
264.8188876
0
ARC
8
DEFAULT_255_2_778
10
8.0104148
20
14.8818428
40
0.4818688
50
230.646529
51
240.6109188
0
ARC
8
DEFAULT_255_2_778
10
8.43829
20
15.4168381
40
1.1669004
50
225.2040728
51
231.0583921
0
LINE
8
DEFAULT_255_2_778
10
7.619011
20
14.5860814
11
1.543111
21
0.9589814
0
LINE
8
DEFAULT_255_2_778
10
0.388511
20
0.4091814
11
7.619011
21
16.6691814
0
LINE
8
DEFAULT_255_2_778
10
8.111211
20
16.0037814
11
14.938511
21
0.7274814
0
LINE
8
DEFAULT_255_2_778
10
3.886311
20
-0.1985186
11
3.423311
21
-0.1985186
0
LINE
8
DEFAULT_255_2_778
10
3.394211
20
0.4957814
11
13.231411
21
0.4957814
0
LINE
8
DEFAULT_255_2_778
10
13.781211
20
1.2190814
11
7.847611
21
14.4731814
0
LINE
8
DEFAULT_255_2_778
10
7.616111
20
14.5887814
11
7.619011
21
14.5860814
0
ENDSEC
0
EOF