0
SECTION
2
HEADER
9
$MEASUREMENT
70
1
0
ENDSEC
0
SECTION
2
TABLES
0
TABLE
2
LTYPE
0
LTYPE
72
65
70
64
2
CONTINUOUS
3
______
73
0
40
0
0
ENDTAB
0
TABLE
2
LAYER
0
LAYER
2
DEFAULT_255_2_778
70
0
62
255
6
CONTINUOUS
0
ENDTAB
0
ENDSEC
0
SECTION
2
ENTITIES
0
ARC
8
DEFAULT_255_2_778
10
28.6648549
20
3.4420855
40
0.5787079
50
33.5749217
51
87.858781
0
ARC
8
DEFAULT_255_2_778
10
28.5619023
20
2.7998434
40
1.2268869
50
84.1723056
51
90.1437439
0
LINE
8
DEFAULT_255_2_778
10
28.5588243
20
4.0267264
11
28.5581131
21
4.0267266
0
ARC
8
DEFAULT_255_2_778
10
28.5581432
20
3.0798671
40
0.9468595
50
90.0018203
51
96.3468501
0
ARC
8
DEFAULT_255_2_778
10
28.5001355
20
3.3646511
40
0.657929
50
94.067226
51
132.126589
0
ARC
8
DEFAULT_255_2_778
10
28.3314536
20
3.5813571
40
0.3845927
50
135.1454702
51
177.5575787
0
ARC
8
DEFAULT_255_2_778
10
28.4232121
20
3.5701858
40
0.4767991
50
176.6862377
51
180.0191365
0
ARC
8
DEFAULT_255_2_778
10
28.3587001
20
3.5598794
40
0.4124119
50
178.5901266
51
206.6824143
0
ARC
8
DEFAULT_255_2_778
10
28.3779104
20
3.6075887
40
0.4522799
50
210.9939743
51
255.7518555
0
ARC
8
DEFAULT_255_2_778
10
28.7372427
20
4.7072248
40
1.6084044
50
252.9852327
51
263.6056444
0
ARC
8
DEFAULT_255_2_778
10
28.4562851
20
2.0855559
40
1.0283248
50
70.8811663
51
84.317076
0
ARC
8
DEFAULT_255_2_778
10
28.7429672
20
2.8412351
40
0.2216659
50
1.8850378
51
76.9311209
0
ARC
8
DEFAULT_255_2_778
10
28.7250804
20
2.851384
40
0.2394498
50
280.7354119
51
359.3162555
0
ARC
8
DEFAULT_255_2_778
10
28.5813585
20
3.2499121
40
0.6611748
50
272.3105855
51
286.548926
0
ARC
8
DEFAULT_255_2_778
10
28.5626201
20
3.4858527
40
0.8977262
50
269.9804087
51
272.8984698
0
ARC
8
DEFAULT_255_2_778
10
28.5620699
20
3.3161956
40
0.7280691
50
265.7747252
51
270.0191364
0
ARC
8
DEFAULT_255_2_778
10
28.5318272
20
3.1352547
40
0.5456512
50
219.5206824
51
267.5421435
0
ARC
8
DEFAULT_255_2_778
10
28.5357423
20
3.1262428
40
0.5430186
50
210.7591609
51
218.5242504
0
ARC
8
DEFAULT_255_2_778
10
28.476248
20
3.0386344
40
0.678077
50
207.95885
51
233.95795
0
ARC
8
DEFAULT_255_2_778
10
28.494138
20
3.1081887
40
0.7453135
50
235.9923855
51
267.5798944
0
ARC
8
DEFAULT_255_2_778
10
28.5555916
20
3.6263617
40
1.2662361
50
265.7914434
51
270.0778956
0
ARC
8
DEFAULT_255_2_778
10
28.5807747
20
3.2512792
40
0.8914614
50
268.4919059
51
296.2519202
0
ARC
8
DEFAULT_255_2_778
10
28.7837692
20
2.8366804
40
0.429839
50
296.4288844
51
354.4104834
0
ARC
8
DEFAULT_255_2_778
10
28.6639149
20
2.8548908
40
0.550935
50
353.7397019
51
359.3381287
0
ARC
8
DEFAULT_255_2_778
10
28.7690398
20
2.8585494
40
0.445886
50
358.7119659
51
25.6975918
0
ARC
8
DEFAULT_255_2_778
10
28.7515591
20
2.8112282
40
0.4834304
50
29.8566445
51
75.4833426
0
ARC
8
DEFAULT_255_2_778
10
28.3936035
20
1.7513606
40
1.60123
50
72.5887552
51
83.3218731
0
ARC
8
DEFAULT_255_2_778
10
28.7005469
20
4.4765634
40
1.1412411
50
252.3611961
51
263.927219
0
ARC
8
DEFAULT_255_2_778
10
28.4166042
20
3.6204249
40
0.239575
50
212.464456
51
255.0335845
0
ARC
8
DEFAULT_255_2_778
10
28.3599073
20
3.5672197
40
0.1638183
50
179.0182247
51
207.4015135
0
ARC
8
DEFAULT_255_2_778
10
28.4212285
20
3.5609782
40
0.2252972
50
106.0407303
51
177.6982746
0
ARC
8
DEFAULT_255_2_778
10
28.5518903
20
3.2586119
40
0.5535931
50
89.0350626
51
110.3943677
0
ARC
8
DEFAULT_255_2_778
10
28.5690818
20
3.2835653
40
0.5286198
50
54.1467231
51
90.8529042
0
ARC
8
DEFAULT_255_2_778
10
28.6701038
20
3.4356055
40
0.3462928
50
34.9587545
51
52.9600956
0
ARC
8
DEFAULT_255_2_778
10
23.7514318
20
2.5538102
40
0.1543207
50
271.2555179
51
358.7065002
0
ARC
8
DEFAULT_255_2_778
10
22.3777175
20
2.5537222
40
0.154233
50
271.2615268
51
358.7384732
0
ARC
8
DEFAULT_255_2_778
10
17.9351175
20
2.5582222
40
0.154233
50
271.2615268
51
358.7384732
0
ARC
8
DEFAULT_255_2_778
10
19.0857087
20
3.834131
40
0.154233
50
91.2615268
51
178.7384732
0
ARC
8
DEFAULT_255_2_778
10
16.3478502
20
2.5579894
40
0.1543017
50
271.2859747
51
358.7140528
0
ARC
8
DEFAULT_255_2_778
10
14.3532062
20
3.127645
40
0.6186484
50
69.3646544
51
90.84218
0
ARC
8
DEFAULT_255_2_778
10
14.3688883
20
3.2302685
40
0.5175288
50
0.1231025
51
66.9847541
0
ARC
8
DEFAULT_255_2_778
10
14.1706612
20
3.1887341
40
0.717024
50
1.8455866
51
3.409782
0
ARC
8
DEFAULT_255_2_778
10
14.1820462
20
3.2004221
40
0.7053591
50
359.9989561
51
0.9264157
0
ARC
8
DEFAULT_255_2_778
10
14.1965078
20
3.2003262
40
0.6908976
50
359.8690304
51
0.006893
0
ARC
8
DEFAULT_255_2_778
10
14.365102
20
3.1698077
40
0.5231025
50
294.7275346
51
3.1713417
0
ARC
8
DEFAULT_255_2_778
10
14.355976
20
3.2570545
40
0.6068228
50
270.1021505
51
292.0633444
0
ARC
8
DEFAULT_255_2_778
10
14.3441433
20
3.4354199
40
0.7852934
50
269.9977951
51
270.9422993
0
ARC
8
DEFAULT_255_2_778
10
14.3601221
20
3.33565
40
0.9316632
50
269.4705533
51
287.0186995
0
ARC
8
DEFAULT_255_2_778
10
14.4255898
20
3.1216353
40
0.7078589
50
287.0217625
51
316.8716571
0
ARC
8
DEFAULT_255_2_778
10
14.3435408
20
3.1726354
40
0.8028276
50
318.2185133
51
0.5873791
0
ARC
8
DEFAULT_255_2_778
10
14.2425649
20
3.1869082
40
0.9037815
50
359.6169234
51
0.0018848
0
ARC
8
DEFAULT_255_2_778
10
14.2375144
20
3.1869307
40
0.908832
50
0.0004557
51
1.2985424
0
ARC
8
DEFAULT_255_2_778
10
14.3893092
20
3.2308422
40
0.757163
50
358.2353895
51
61.3963286
0
ARC
8
DEFAULT_255_2_778
10
14.3868122
20
3.164587
40
0.817061
50
63.4673604
51
84.3612143
0
ARC
8
DEFAULT_255_2_778
10
14.3530657
20
2.9207812
40
1.0630466
50
83.842296
51
90.0836815
0
ARC
8
DEFAULT_255_2_778
10
12.465866
20
3.5637917
40
0.6760652
50
269.9785682
51
284.9378877
0
ARC
8
DEFAULT_255_2_778
10
12.5027608
20
3.4263911
40
0.5337976
50
284.9132065
51
307.1813513
0
ARC
8
DEFAULT_255_2_778
10
12.4859508
20
3.4293909
40
0.5464692
50
308.3955809
51
0.9047315
0
ARC
8
DEFAULT_255_2_778
10
12.8185566
20
3.4383297
40
0.2137954
50
359.9168824
51
0.0277059
0
ARC
8
DEFAULT_255_2_778
10
12.4899676
20
3.4489198
40
0.5424857
50
358.8923543
51
55.9399727
0
ARC
8
DEFAULT_255_2_778
10
12.4988433
20
3.4398641
40
0.5451588
50
57.2459265
51
78.1917094
0
ARC
8
DEFAULT_255_2_778
10
12.4685648
20
3.3033821
40
0.6849508
50
78.0488019
51
90.2469061
0
ARC
8
DEFAULT_255_2_778
10
11.8277175
20
2.5582222
40
0.154233
50
271.2615268
51
358.7384732
0
ARC
8
DEFAULT_255_2_778
10
12.4697605
20
3.4206735
40
0.3348787
50
67.4046158
51
90.7096205
0
ARC
8
DEFAULT_255_2_778
10
12.4682696
20
3.4476103
40
0.3108037
50
358.2329941
51
65.2424234
0
ARC
8
DEFAULT_255_2_778
10
12.4050946
20
3.4366871
40
0.3738334
50
4e-7
51
0.2052995
0
ARC
8
DEFAULT_255_2_778
10
12.4727424
20
3.4252962
40
0.3063975
50
293.2372377
51
2.1305643
0
ARC
8
DEFAULT_255_2_778
10
12.4696455
20
3.4626863
40
0.3421836
50
269.3247988
51
291.243254
0
ARC
8
DEFAULT_255_2_778
10
10.4431669
20
3.56377
40
0.6760434
50
269.9784897
51
284.9381302
0
ARC
8
DEFAULT_255_2_778
10
10.4800691
20
3.4263437
40
0.5337491
50
284.9134482
51
307.1829105
0
ARC
8
DEFAULT_255_2_778
10
10.4632372
20
3.4293579
40
0.5464459
50
308.3980729
51
0.9082347
0
LINE
8
DEFAULT_255_2_778
10
11.0096144
20
3.4380196
11
11.0096145
21
3.4384058
0
ARC
8
DEFAULT_255_2_778
10
10.4671771
20
3.4488932
40
0.5425388
50
358.8923865
51
55.9356843
0
ARC
8
DEFAULT_255_2_778
10
10.4761274
20
3.4399399
40
0.5450843
50
57.242308
51
78.1898038
0
ARC
8
DEFAULT_255_2_778
10
10.4458613
20
3.3035214
40
0.6848116
50
78.0471859
51
90.2466625
0
ARC
8
DEFAULT_255_2_778
10
9.8079175
20
2.5582222
40
0.154233
50
271.2615268
51
358.7384732
0
ARC
8
DEFAULT_255_2_778
10
10.447057
20
3.4207957
40
0.3347566
50
67.4004595
51
90.7092734
0
ARC
8
DEFAULT_255_2_778
10
10.4454906
20
3.4475888
40
0.3108446
50
358.2371923
51
65.2355526
0
ARC
8
DEFAULT_255_2_778
10
10.4219648
20
3.4367073
40
0.3342259
50
359.9916239
51
0.2261671
0
ARC
8
DEFAULT_255_2_778
10
10.4500439
20
3.4252568
40
0.3063591
50
293.2379457
51
2.1328471
0
ARC
8
DEFAULT_255_2_778
10
10.4469471
20
3.4626613
40
0.3421584
50
269.324473
51
291.2427568
0
ARC
8
DEFAULT_255_2_778
10
24.8838318
20
2.5583102
40
0.1543207
50
271.2555179
51
358.7065002
0
ARC
8
DEFAULT_255_2_778
10
24.9409087
20
3.834131
40
0.154233
50
91.2615268
51
178.7384732
0
ARC
8
DEFAULT_255_2_778
10
26.6415579
20
3.1946713
40
0.5808454
50
180.0833202
51
269.9068004
0
ARC
8
DEFAULT_255_2_778
10
26.6414724
20
3.1929673
40
0.5807599
50
90.0847718
51
179.9152282
0
ARC
8
DEFAULT_255_2_778
10
26.6429265
20
3.1922908
40
0.5814404
50
90.005088
51
90.2279668
0
ARC
8
DEFAULT_255_2_778
10
26.6429547
20
3.1949112
40
0.5788198
50
45.1019821
51
90.0079041
0
ARC
8
DEFAULT_255_2_778
10
26.6441068
20
3.2024114
40
0.8182158
50
44.7578146
51
89.929534
0
ARC
8
DEFAULT_255_2_778
10
26.6434151
20
3.2021195
40
0.8185088
50
89.8811374
51
137.2142884
0
ARC
8
DEFAULT_255_2_778
10
26.6432495
20
3.1998408
40
0.8199371
50
137.0895692
51
180.0708701
0
ARC
8
DEFAULT_255_2_778
10
26.641748
20
3.1970691
40
0.8184368
50
179.8769638
51
226.8934694
0
ARC
8
DEFAULT_255_2_778
10
26.6440807
20
3.1970298
40
0.8200038
50
226.7725974
51
270.0721394
0
ARC
8
DEFAULT_255_2_778
10
26.65066
20
3.1797263
40
0.8027189
50
269.6040762
51
314.6459589
0
ARC
8
DEFAULT_255_2_778
10
26.6606773
20
3.1656111
40
0.7856419
50
314.8495891
51
315.925759
0
ARC
8
DEFAULT_255_2_778
10
26.6377718
20
3.1842318
40
0.5696123
50
270.2857985
51
316.581761
0
ARC
8
DEFAULT_255_2_778
10
2.6070781
20
2.8368922
40
2.4550022
50
132.4648599
51
168.2889612
0
ARC
8
DEFAULT_255_2_778
10
2.6019278
20
2.8470403
40
2.4479154
50
168.4970738
51
180.0447919
0
ARC
8
DEFAULT_255_2_778
10
2.5736879
20
2.8426076
40
2.4196761
50
179.9403526
51
201.5656471
0
ARC
8
DEFAULT_255_2_778
10
2.5957172
20
2.8539421
40
2.4443307
50
201.6229306
51
260.1233248
0
ARC
8
DEFAULT_255_2_778
10
2.5873819
20
2.8468724
40
2.435946
50
260.2879504
51
270.0195502
0
ARC
8
DEFAULT_255_2_778
10
2.5915643
20
2.7404326
40
2.3295084
50
269.9175756
51
275.1097407
0
ARC
8
DEFAULT_255_2_778
10
2.5589139
20
3.0478638
40
2.638631
50
275.2213458
51
278.8752887
0
ARC
8
DEFAULT_255_2_778
10
2.5630015
20
3.0187081
40
2.2656587
50
89.3624162
51
100.7471327
0
ARC
8
DEFAULT_255_2_778
10
2.5907289
20
2.8646389
40
2.419589
50
68.4348599
51
90.0595752
0
ARC
8
DEFAULT_255_2_778
10
2.5794176
20
2.842637
40
2.4442095
50
9.8767519
51
68.3778386
0
ARC
8
DEFAULT_255_2_778
10
2.586392
20
2.850958
40
2.4359213
50
359.9804436
51
9.7120702
0
ARC
8
DEFAULT_255_2_778
10
2.6066137
20
2.8467214
40
2.4157018
50
8e-7
51
0.0807654
0
ARC
8
DEFAULT_255_2_778
10
2.6014122
20
2.8467396
40
2.4209033
50
310.2902381
51
359.9995689
0
ARC
8
DEFAULT_255_2_778
10
2.5732343
20
2.8615817
40
3.8076519
50
305.1176392
51
342.6723367
0
ARC
8
DEFAULT_255_2_778
10
2.5976731
20
2.8464004
40
3.7798076
50
342.7816833
51
359.4670621
0
ARC
8
DEFAULT_255_2_778
10
2.5249613
20
2.8501038
40
3.8525518
50
359.4220451
51
0.0003387
0
ARC
8
DEFAULT_255_2_778
10
2.5304324
20
2.8686928
40
3.8471255
50
359.7234902
51
359.9999219
0
ARC
8
DEFAULT_255_2_778
10
2.6049133
20
2.8719588
40
3.7726459
50
359.9503185
51
16.2343123
0
ARC
8
DEFAULT_255_2_778
10
2.5976416
20
2.8633103
40
3.7820506
50
16.3293108
51
48.8115426
0
ARC
8
DEFAULT_255_2_778
10
2.591242
20
2.8650868
40
3.7849329
50
48.7209289
51
75.461031
0
ARC
8
DEFAULT_255_2_778
10
2.5913983
20
2.850882
40
3.7986455
50
75.5170994
51
90.0405021
0
ARC
8
DEFAULT_255_2_778
10
2.5746234
20
3.0188428
40
3.6307111
50
89.7776525
51
106.4840803
0
LINE
8
DEFAULT_255_2_778
10
28.0691131
20
2.8485266
11
27.8773131
21
2.7207266
0
LINE
8
DEFAULT_255_2_778
10
28.9539131
20
3.6340266
11
29.1470131
21
3.7621266
0
LINE
8
DEFAULT_255_2_778
10
23.6543131
20
2.3995266
11
23.7548131
21
2.3995266
0
LINE
8
DEFAULT_255_2_778
10
23.9057131
20
2.5503266
11
23.9057131
21
3.9838266
0
LINE
8
DEFAULT_255_2_778
10
23.9057131
20
3.9838266
11
23.6135131
21
3.9838266
0
LINE
8
DEFAULT_255_2_778
10
23.6135131
20
3.9838266
11
23.0931131
21
3.2395266
0
LINE
8
DEFAULT_255_2_778
10
23.0931131
20
3.2395266
11
22.5727131
21
3.9838266
0
LINE
8
DEFAULT_255_2_778
10
22.5727131
20
3.9838266
11
22.2806131
21
3.9838266
0
LINE
8
DEFAULT_255_2_778
10
22.2806131
20
3.9838266
11
22.2806131
21
2.3995266
0
LINE
8
DEFAULT_255_2_778
10
22.2806131
20
2.3995266
11
22.3811131
21
2.3995266
0
LINE
8
DEFAULT_255_2_778
10
22.5319131
20
2.5503266
11
22.5319131
21
3.6139266
0
LINE
8
DEFAULT_255_2_778
10
22.5319131
20
3.6139266
11
23.0616131
21
2.8652266
0
LINE
8
DEFAULT_255_2_778
10
23.0616131
20
2.8652266
11
23.1164131
21
2.8652266
0
LINE
8
DEFAULT_255_2_778
10
23.1164131
20
2.8652266
11
23.6551131
21
3.6139266
0
LINE
8
DEFAULT_255_2_778
10
23.6551131
20
3.6139266
11
23.6543131
21
2.3995266
0
LINE
8
DEFAULT_255_2_778
10
21.0614131
20
2.9657266
11
20.3901131
21
2.9657266
0
LINE
8
DEFAULT_255_2_778
10
20.3901131
20
2.9657266
11
20.7235131
21
3.7190266
0
LINE
8
DEFAULT_255_2_778
10
20.7235131
20
3.7190266
11
21.0614131
21
2.9657266
0
LINE
8
DEFAULT_255_2_778
10
21.3080131
20
2.4040266
11
21.5773131
21
2.4040266
0
LINE
8
DEFAULT_255_2_778
10
21.5773131
20
2.4040266
11
20.8651131
21
3.9883266
0
LINE
8
DEFAULT_255_2_778
10
20.8651131
20
3.9883266
11
20.5912131
21
3.9883266
0
LINE
8
DEFAULT_255_2_778
10
20.5912131
20
3.9883266
11
19.8790131
21
2.4040266
0
LINE
8
DEFAULT_255_2_778
10
19.8790131
20
2.4040266
11
20.1483131
21
2.4040266
0
LINE
8
DEFAULT_255_2_778
10
20.1483131
20
2.4040266
11
20.2991131
21
2.7374266
0
LINE
8
DEFAULT_255_2_778
10
20.2991131
20
2.7374266
11
21.1574131
21
2.7374266
0
LINE
8
DEFAULT_255_2_778
10
21.1574131
20
2.7374266
11
21.3080131
21
2.4040266
0
LINE
8
DEFAULT_255_2_778
10
18.0271131
20
3.9883266
11
17.8335131
21
3.9883266
0
LINE
8
DEFAULT_255_2_778
10
17.8335131
20
3.9883266
11
17.8335131
21
2.4040266
0
LINE
8
DEFAULT_255_2_778
10
17.8335131
20
2.4040266
11
17.9385131
21
2.4040266
0
LINE
8
DEFAULT_255_2_778
10
18.0893131
20
2.5548266
11
18.0893131
21
3.5227266
0
LINE
8
DEFAULT_255_2_778
10
18.0893131
20
3.5227266
11
18.9889131
21
2.4040266
0
LINE
8
DEFAULT_255_2_778
10
18.9889131
20
2.4040266
11
19.1828131
21
2.4040266
0
LINE
8
DEFAULT_255_2_778
10
19.1828131
20
2.4040266
11
19.1828131
21
3.9883266
0
LINE
8
DEFAULT_255_2_778
10
19.1828131
20
3.9883266
11
19.0823131
21
3.9883266
0
LINE
8
DEFAULT_255_2_778
10
18.9315131
20
3.8375266
11
18.9315131
21
2.8604266
0
LINE
8
DEFAULT_255_2_778
10
18.9315131
20
2.8604266
11
18.0271131
21
3.9883266
0
LINE
8
DEFAULT_255_2_778
10
15.9406131
20
3.9883266
11
15.6390131
21
3.9883266
0
LINE
8
DEFAULT_255_2_778
10
15.6390131
20
3.9883266
11
15.6390131
21
3.9791266
0
LINE
8
DEFAULT_255_2_778
10
15.6390131
20
3.9791266
11
16.2507131
21
3.0567266
0
LINE
8
DEFAULT_255_2_778
10
16.2507131
20
3.0567266
11
16.2507131
21
2.4037266
0
LINE
8
DEFAULT_255_2_778
10
16.2507131
20
2.4037266
11
16.3513131
21
2.4037266
0
LINE
8
DEFAULT_255_2_778
10
16.5021131
20
2.5545266
11
16.5021131
21
3.0520266
0
LINE
8
DEFAULT_255_2_778
10
16.5021131
20
3.0520266
11
17.1318131
21
3.9743266
0
LINE
8
DEFAULT_255_2_778
10
17.1318131
20
3.9743266
11
17.1318131
21
3.9836266
0
LINE
8
DEFAULT_255_2_778
10
17.1318131
20
3.9836266
11
16.8259131
21
3.9836266
0
LINE
8
DEFAULT_255_2_778
10
16.8259131
20
3.9836266
11
16.3740131
21
3.2851266
0
LINE
8
DEFAULT_255_2_778
10
16.3740131
20
3.2851266
11
15.9406131
21
3.9883266
0
LINE
8
DEFAULT_255_2_778
10
14.0002131
20
3.7462266
11
14.3441131
21
3.7462266
0
LINE
8
DEFAULT_255_2_778
10
14.3441131
20
2.6501266
11
14.0002131
21
2.6501266
0
LINE
8
DEFAULT_255_2_778
10
14.0002131
20
2.6501266
11
14.0002131
21
3.7462266
0
LINE
8
DEFAULT_255_2_778
10
13.7488131
20
3.9883266
11
13.7488131
21
2.4040266
0
LINE
8
DEFAULT_255_2_778
10
13.7488131
20
2.4040266
11
14.3515131
21
2.4040266
0
LINE
8
DEFAULT_255_2_778
10
14.3515131
20
3.9838266
11
13.7488131
21
3.9838266
0
LINE
8
DEFAULT_255_2_778
10
13.7488131
20
3.9838266
11
13.7488131
21
3.9883266
0
LINE
8
DEFAULT_255_2_778
10
12.4656131
20
3.9883266
11
11.7306131
21
3.9883266
0
LINE
8
DEFAULT_255_2_778
10
11.7306131
20
3.9883266
11
11.7306131
21
2.4040266
0
LINE
8
DEFAULT_255_2_778
10
11.7306131
20
2.4040266
11
11.8311131
21
2.4040266
0
LINE
8
DEFAULT_255_2_778
10
11.9819131
20
2.5548266
11
11.9819131
21
2.8882266
0
LINE
8
DEFAULT_255_2_778
10
11.9819131
20
2.8882266
11
12.4656131
21
2.8877266
0
LINE
8
DEFAULT_255_2_778
10
11.9862131
20
3.7555266
11
12.4656131
21
3.7555266
0
LINE
8
DEFAULT_255_2_778
10
12.4656131
20
3.1205266
11
11.9862131
21
3.1205266
0
LINE
8
DEFAULT_255_2_778
10
11.9862131
20
3.1205266
11
11.9862131
21
3.7555266
0
LINE
8
DEFAULT_255_2_778
10
10.4429131
20
3.9883266
11
9.7107131
21
3.9883266
0
LINE
8
DEFAULT_255_2_778
10
9.7107131
20
3.9883266
11
9.7107131
21
2.4040266
0
LINE
8
DEFAULT_255_2_778
10
9.7107131
20
2.4040266
11
9.8113131
21
2.4040266
0
LINE
8
DEFAULT_255_2_778
10
9.9621131
20
2.5548266
11
9.9621131
21
2.8882266
0
LINE
8
DEFAULT_255_2_778
10
9.9621131
20
2.8882266
11
10.4429131
21
2.8877266
0
LINE
8
DEFAULT_255_2_778
10
9.9634131
20
3.7555266
11
10.4429131
21
3.7555266
0
LINE
8
DEFAULT_255_2_778
10
10.4429131
20
3.1205266
11
9.9634131
21
3.1205266
0
LINE
8
DEFAULT_255_2_778
10
9.9634131
20
3.1205266
11
9.9634131
21
3.7555266
0
LINE
8
DEFAULT_255_2_778
10
8.4976131
20
2.9657266
11
7.8322131
21
2.9657266
0
LINE
8
DEFAULT_255_2_778
10
7.8322131
20
2.9657266
11
8.1656131
21
3.7190266
0
LINE
8
DEFAULT_255_2_778
10
8.1656131
20
3.7190266
11
8.4976131
21
2.9657266
0
LINE
8
DEFAULT_255_2_778
10
8.7397131
20
2.4040266
11
9.0091131
21
2.4040266
0
LINE
8
DEFAULT_255_2_778
10
9.0091131
20
2.4040266
11
8.2968131
21
3.9883266
0
LINE
8
DEFAULT_255_2_778
10
8.2968131
20
3.9883266
11
8.0227131
21
3.9883266
0
LINE
8
DEFAULT_255_2_778
10
8.0227131
20
3.9883266
11
7.3149131
21
2.4040266
0
LINE
8
DEFAULT_255_2_778
10
7.3149131
20
2.4040266
11
7.5843131
21
2.4040266
0
LINE
8
DEFAULT_255_2_778
10
7.5843131
20
2.4040266
11
7.7351131
21
2.7374266
0
LINE
8
DEFAULT_255_2_778
10
7.7351131
20
2.7374266
11
8.5995131
21
2.7374266
0
LINE
8
DEFAULT_255_2_778
10
8.5995131
20
2.7374266
11
8.7397131
21
2.4040266
0
LINE
8
DEFAULT_255_2_778
10
24.7867131
20
3.8375266
11
24.7867131
21
2.4040266
0
LINE
8
DEFAULT_255_2_778
10
24.7867131
20
2.4040266
11
24.8872131
21
2.4040266
0
LINE
8
DEFAULT_255_2_778
10
25.0381131
20
2.5548266
11
25.0381131
21
3.9883266
0
LINE
8
DEFAULT_255_2_778
10
25.0381131
20
3.9883266
11
24.9375131
21
3.9883266
0
LINE
8
DEFAULT_255_2_778
10
27.0515131
20
3.6049266
11
27.2251131
21
3.7785266
0
LINE
8
DEFAULT_255_2_778
10
27.2251131
20
2.6191266
11
27.0515131
21
2.7927266
0
LINE
8
DEFAULT_255_2_778
10
2.9684131
20
0.4411266
11
0.9496131
21
4.6479266
0
LINE
8
DEFAULT_255_2_778
10
4.1669131
20
1.0001266
11
4.7636131
21
-0.2529734
0
LINE
8
DEFAULT_255_2_778
10
1.5444131
20
6.5003266
11
2.1405131
21
5.2446266
0
ENDSEC
0
EOF