0
SECTION
2
HEADER
9
$MEASUREMENT
70
1
0
ENDSEC
0
SECTION
2
TABLES
0
TABLE
2
LTYPE
0
LTYPE
72
65
70
64
2
CONTINUOUS
3
______
73
0
40
0
0
ENDTAB
0
TABLE
2
LAYER
0
LAYER
2
DEFAULT_255_2_778
70
0
62
255
6
CONTINUOUS
0
ENDTAB
0
ENDSEC
0
SECTION
2
ENTITIES
0
ARC
8
DEFAULT_255_2_778
10
3.6314452
20
1.9340992
40
2.132539
50
239.8764361
51
260.703332
0
ARC
8
DEFAULT_255_2_778
10
3.5293261
20
1.7726077
40
1.9416213
50
207.4220686
51
240.091271
0
ARC
8
DEFAULT_255_2_778
10
3.3669053
20
1.6798936
40
1.7547677
50
180.1150257
51
207.1773447
0
ARC
8
DEFAULT_255_2_778
10
4.74817
20
1.6800897
40
3.1360311
50
180.0032692
51
180.0679458
0
ARC
8
DEFAULT_255_2_778
10
3.8077379
20
1.6886166
40
2.1956162
50
174.4217389
51
180.2271833
0
ARC
8
DEFAULT_255_2_778
10
3.1524029
20
1.7531098
40
1.5371157
50
163.0080805
51
174.4398451
0
ARC
8
DEFAULT_255_2_778
10
3.3080943
20
1.6956014
40
1.7028431
50
153.2952343
51
162.68846
0
ARC
8
DEFAULT_255_2_778
10
4.100853
20
1.3019985
40
2.5879281
50
148.3767654
51
153.3979963
0
ARC
8
DEFAULT_255_2_778
10
5.4228638
20
0.4937438
40
4.1374354
50
145.4643607
51
148.4450525
0
ARC
8
DEFAULT_255_2_778
10
7.6756992
20
-1.0535415
40
6.8704476
50
143.4738419
51
145.4857236
0
ARC
8
DEFAULT_255_2_778
10
9.557762
20
-2.4298647
40
9.2020298
50
143.5367172
51
143.5622038
0
ARC
8
DEFAULT_255_2_778
10
-14.2520273
20
15.1844017
40
20.4150018
50
323.4925888
51
324.1576742
0
ARC
8
DEFAULT_255_2_778
10
-6.784329
20
9.7954469
40
11.2059129
50
324.1356671
51
325.2687604
0
ARC
8
DEFAULT_255_2_778
10
-2.4632161
20
6.8035178
40
5.9500931
50
325.2399684
51
327.0439867
0
ARC
8
DEFAULT_255_2_778
10
0.0212292
20
5.1975819
40
2.9918054
50
326.9673128
51
330.1199051
0
ARC
8
DEFAULT_255_2_778
10
1.4383385
20
4.3880648
40
1.3597882
50
329.948123
51
335.7522492
0
ARC
8
DEFAULT_255_2_778
10
2.1864905
20
4.0558629
40
0.5412273
50
335.2908017
51
347.2131178
0
ARC
8
DEFAULT_255_2_778
10
2.4680734
20
3.9894537
40
0.2519416
50
347.7682256
51
359.478376
0
ARC
8
DEFAULT_255_2_778
10
2.5750928
20
3.990713
40
0.1449552
50
358.595465
51
53.1917731
0
ARC
8
DEFAULT_255_2_778
10
3.4062169
20
5.0126667
40
1.1724307
50
227.6029724
51
230.5937897
0
ARC
8
DEFAULT_255_2_778
10
2.7154219
20
4.2619847
40
0.1523333
50
214.0281565
51
229.1029124
0
ARC
8
DEFAULT_255_2_778
10
2.6121902
20
4.192055
40
0.0276466
50
183.0441728
51
213.6414581
0
ARC
8
DEFAULT_255_2_778
10
2.6081766
20
4.1877467
40
0.0237643
50
108.3576912
51
173.136062
0
ARC
8
DEFAULT_255_2_778
10
2.6723554
20
4.0640727
40
0.1628451
50
104.6434139
51
116.1083579
0
ARC
8
DEFAULT_255_2_778
10
2.8072226
20
3.5869216
40
0.6586659
50
101.8513487
51
105.5012747
0
ARC
8
DEFAULT_255_2_778
10
3.1782469
20
1.8555048
40
2.4293853
50
100.7717407
51
102.028911
0
ARC
8
DEFAULT_255_2_778
10
4.2067162
20
-3.4591739
40
7.8426532
50
100.7450307
51
100.8963073
0
ARC
8
DEFAULT_255_2_778
10
2.6319083
20
4.8656278
40
0.6298102
50
280.3019768
51
290.1956023
0
ARC
8
DEFAULT_255_2_778
10
2.7432505
20
4.5700563
40
0.313982
50
289.7470927
51
305.6208333
0
ARC
8
DEFAULT_255_2_778
10
2.8578011
20
4.4161312
40
0.1221907
50
303.994384
51
338.9470146
0
ARC
8
DEFAULT_255_2_778
10
2.9025495
20
4.395201
40
0.0729925
50
341.6624406
51
359.8734899
0
ARC
8
DEFAULT_255_2_778
10
2.9043959
20
4.3950316
40
0.0711458
50
0.0066149
51
5.7726962
0
ARC
8
DEFAULT_255_2_778
10
2.8756408
20
4.387145
40
0.1006703
50
8.5935647
51
49.6558269
0
ARC
8
DEFAULT_255_2_778
10
2.7689786
20
4.2745923
40
0.2556445
50
47.766004
51
64.8913524
0
ARC
8
DEFAULT_255_2_778
10
2.6526761
20
4.0372824
40
0.5199015
50
64.3829344
51
74.6336776
0
ARC
8
DEFAULT_255_2_778
10
2.5890203
20
3.8282946
40
0.7383108
50
74.1679976
51
76.095372
0
ARC
8
DEFAULT_255_2_778
10
2.9179376
20
5.1573751
40
0.6308647
50
255.6935833
51
256.1051389
0
ARC
8
DEFAULT_255_2_778
10
2.8219199
20
4.8031879
40
0.2639924
50
246.7675689
51
256.891192
0
ARC
8
DEFAULT_255_2_778
10
2.7279071
20
4.594092
40
0.0349861
50
201.7055849
51
253.1828419
0
ARC
8
DEFAULT_255_2_778
10
2.7113023
20
4.5846209
40
0.0162747
50
179.9256002
51
192.3041031
0
ARC
8
DEFAULT_255_2_778
10
2.741984
20
4.5760386
40
0.0477379
50
124.6084272
51
169.6172327
0
ARC
8
DEFAULT_255_2_778
10
2.9690109
20
4.3203175
40
0.3893832
50
121.7983066
51
130.7435226
0
ARC
8
DEFAULT_255_2_778
10
3.6819718
20
3.2091408
40
1.7095846
50
119.5892915
51
122.4833006
0
ARC
8
DEFAULT_255_2_778
10
4.5501426
20
1.7151161
40
3.4374973
50
119.7626435
51
119.876508
0
ARC
8
DEFAULT_255_2_778
10
2.3376426
20
5.5959397
40
1.0297233
50
299.4385513
51
304.8861708
0
ARC
8
DEFAULT_255_2_778
10
2.6891451
20
5.0966303
40
0.4191128
50
304.509533
51
314.6193107
0
ARC
8
DEFAULT_255_2_778
10
2.8989903
20
4.8890994
40
0.1240529
50
312.9575548
51
338.5891957
0
ARC
8
DEFAULT_255_2_778
10
2.9663211
20
4.8601071
40
0.0508422
50
341.3086965
51
359.4608307
0
ARC
8
DEFAULT_255_2_778
10
2.9617455
20
4.8550632
40
0.0556033
50
4.7096755
51
66.9862661
0
ARC
8
DEFAULT_255_2_778
10
2.8674529
20
4.6923563
40
0.2433308
50
61.5205098
51
76.712335
0
ARC
8
DEFAULT_255_2_778
10
2.7541906
20
4.250684
40
0.6992654
50
75.9981536
51
83.3676857
0
ARC
8
DEFAULT_255_2_778
10
2.6920033
20
3.8028628
40
1.151316
50
82.8675898
51
83.6750202
0
ARC
8
DEFAULT_255_2_778
10
3.1971177
20
8.4040255
40
3.4774902
50
263.2757223
51
263.7550871
0
ARC
8
DEFAULT_255_2_778
10
2.9807802
20
6.5567249
40
1.6175664
50
262.9116087
51
263.2242209
0
ARC
8
DEFAULT_255_2_778
10
2.8344625
20
5.4341541
40
0.4855654
50
257.7968092
51
263.6991136
0
ARC
8
DEFAULT_255_2_778
10
2.7410812
20
5.0200092
40
0.0611535
50
231.8064268
51
261.2933204
0
ARC
8
DEFAULT_255_2_778
10
2.7133165
20
4.9825757
40
0.0146263
50
179.7797955
51
226.6093366
0
ARC
8
DEFAULT_255_2_778
10
2.7502292
20
4.9741895
40
0.0522257
50
133.7340073
51
170.6971324
0
ARC
8
DEFAULT_255_2_778
10
3.0419172
20
4.7252187
40
0.4354866
50
131.9434347
51
138.8251026
0
ARC
8
DEFAULT_255_2_778
10
4.3805713
20
3.2693626
40
2.4132175
50
130.6981536
51
132.4802225
0
ARC
8
DEFAULT_255_2_778
10
10.4926061
20
-3.7673754
40
11.7337447
50
130.769654
51
130.9198331
0
ARC
8
DEFAULT_255_2_778
10
2.4057352
20
5.6190533
40
0.655887
50
310.3326442
51
318.5082815
0
ARC
8
DEFAULT_255_2_778
10
2.6639707
20
5.3937273
40
0.3131827
50
318.0868872
51
332.0805625
0
ARC
8
DEFAULT_255_2_778
10
2.828279
20
5.3087476
40
0.1282219
50
331.2559682
51
357.9925265
0
ARC
8
DEFAULT_255_2_778
10
2.8718004
20
5.3014841
40
0.0846672
50
1.8761302
51
70.6618066
0
ARC
8
DEFAULT_255_2_778
10
2.7875384
20
5.1267059
40
0.2783291
50
66.2043639
51
83.8457548
0
ARC
8
DEFAULT_255_2_778
10
2.7424639
20
4.8023554
40
0.6057257
50
82.8957862
51
90.3332278
0
ARC
8
DEFAULT_255_2_778
10
2.7331165
20
5.6733152
40
0.2653083
50
257.1349856
51
271.2579852
0
ARC
8
DEFAULT_255_2_778
10
2.6821307
20
5.4702288
40
0.0561473
50
213.6616265
51
261.719372
0
ARC
8
DEFAULT_255_2_778
10
2.6611469
20
5.4519676
40
0.028782
50
179.5168769
51
206.5401389
0
ARC
8
DEFAULT_255_2_778
10
2.6998226
20
5.4458365
40
0.0677572
50
137.3858726
51
174.6023128
0
ARC
8
DEFAULT_255_2_778
10
2.8573823
20
5.320452
40
0.2689884
50
127.7675107
51
140.4551811
0
ARC
8
DEFAULT_255_2_778
10
3.0168874
20
5.1286648
40
0.5183589
50
125.9539237
51
128.7211732
0
ARC
8
DEFAULT_255_2_778
10
2.5118399
20
5.8332225
40
0.3485376
50
305.158343
51
314.8803209
0
ARC
8
DEFAULT_255_2_778
10
2.5835061
20
5.7609142
40
0.2467315
50
314.936372
51
324.7454065
0
ARC
8
DEFAULT_255_2_778
10
2.6516658
20
5.7146043
40
0.1643492
50
324.2133824
51
344.4326221
0
ARC
8
DEFAULT_255_2_778
10
2.6962228
20
5.7010005
40
0.1177814
50
344.9905604
51
359.775412
0
ARC
8
DEFAULT_255_2_778
10
2.6976509
20
5.6966522
40
0.1164173
50
1.9132009
51
65.6821543
0
ARC
8
DEFAULT_255_2_778
10
2.6245465
20
5.56587
40
0.2660064
50
62.9321908
51
85.2239778
0
ARC
8
DEFAULT_255_2_778
10
2.6036916
20
5.4154877
40
0.4176845
50
84.0906166
51
89.8423095
0
ARC
8
DEFAULT_255_2_778
10
2.6111742
20
6.5773053
40
0.7441615
50
263.533569
51
269.5123859
0
ARC
8
DEFAULT_255_2_778
10
2.5395908
20
5.9885841
40
0.1512008
50
245.2628899
51
265.3624613
0
ARC
8
DEFAULT_255_2_778
10
2.4869013
20
5.8768754
40
0.0277167
50
181.6470343
51
247.5570078
0
ARC
8
DEFAULT_255_2_778
10
2.5246558
20
5.8698171
40
0.0657587
50
141.8052301
51
174.5358994
0
ARC
8
DEFAULT_255_2_778
10
2.739479
20
5.7224058
40
0.3261833
50
135.2920566
51
144.7893061
0
ARC
8
DEFAULT_255_2_778
10
3.1050921
20
5.3774508
40
0.8287862
50
133.9162292
51
136.1248609
0
ARC
8
DEFAULT_255_2_778
10
2.168822
20
6.3536746
40
0.5238505
50
313.6244077
51
323.0092989
0
ARC
8
DEFAULT_255_2_778
10
2.4020429
20
6.1809589
40
0.2336608
50
322.4277012
51
339.4373351
0
ARC
8
DEFAULT_255_2_778
10
2.5183849
20
6.1362926
40
0.109047
50
339.9404484
51
359.0840332
0
ARC
8
DEFAULT_255_2_778
10
2.5469265
20
6.1319156
40
0.0805347
50
1.8741408
51
73.9928483
0
ARC
8
DEFAULT_255_2_778
10
2.4695448
20
5.9510361
40
0.2768261
50
68.9148141
51
86.2254962
0
ARC
8
DEFAULT_255_2_778
10
2.4409319
20
5.682867
40
0.5464058
50
85.0827376
51
90.1563216
0
ARC
8
DEFAULT_255_2_778
10
2.4335356
20
6.5579531
40
0.3287354
50
258.3613125
51
271.0293423
0
ARC
8
DEFAULT_255_2_778
10
2.3786916
20
6.3136498
40
0.0785162
50
224.7663718
51
261.5963065
0
ARC
8
DEFAULT_255_2_778
10
2.3450389
20
6.2767091
40
0.0287206
50
179.8857625
51
219.7156866
0
ARC
8
DEFAULT_255_2_778
10
2.3764277
20
6.2710687
40
0.0603787
50
134.6826951
51
174.5852154
0
ARC
8
DEFAULT_255_2_778
10
2.5085472
20
6.1561896
40
0.235331
50
124.1799079
51
137.8878786
0
ARC
8
DEFAULT_255_2_778
10
2.6257482
20
5.9978863
40
0.432209
50
123.0963595
51
125.2436862
0
ARC
8
DEFAULT_255_2_778
10
2.0925427
20
6.8132846
40
0.5420519
50
303.2493696
51
304.3870716
0
ARC
8
DEFAULT_255_2_778
10
2.1857056
20
6.6840623
40
0.3828156
50
303.8034133
51
315.4250178
0
ARC
8
DEFAULT_255_2_778
10
2.3322879
20
6.5425491
40
0.1790924
50
314.7617458
51
335.1910929
0
ARC
8
DEFAULT_255_2_778
10
2.4145533
20
6.5035865
40
0.0880748
50
335.7432808
51
359.0404967
0
ARC
8
DEFAULT_255_2_778
10
2.4256637
20
6.4984701
40
0.0770381
50
2.7093779
51
69.216159
0
ARC
8
DEFAULT_255_2_778
10
2.354571
20
6.3584167
40
0.2338067
50
65.1031898
51
84.7805191
0
ARC
8
DEFAULT_255_2_778
10
2.3273964
20
6.1578165
40
0.4361362
50
83.622644
51
90.1922244
0
ARC
8
DEFAULT_255_2_778
10
2.3264523
20
6.0204912
40
0.5734593
50
90.0518686
51
93.2946795
0
ARC
8
DEFAULT_255_2_778
10
2.3289618
20
5.9672332
40
0.6267737
50
93.2438995
51
93.4502727
0
ARC
8
DEFAULT_255_2_778
10
2.2459896
20
7.3173925
40
0.7259335
50
271.0991052
51
273.5738871
0
ARC
8
DEFAULT_255_2_778
10
2.2502954
20
7.1319101
40
0.5404032
50
270.0127781
51
271.0198916
0
ARC
8
DEFAULT_255_2_778
10
2.2449111
20
6.8559919
40
0.2645424
50
259.0613639
51
271.1923439
0
ARC
8
DEFAULT_255_2_778
10
2.1997844
20
6.6438909
40
0.047904
50
217.7691663
51
263.9219555
0
ARC
8
DEFAULT_255_2_778
10
2.181371
20
6.6257325
40
0.0224385
50
179.2660781
51
209.8897388
0
ARC
8
DEFAULT_255_2_778
10
2.2212754
20
6.6194231
40
0.062689
50
138.8944435
51
173.9595698
0
ARC
8
DEFAULT_255_2_778
10
2.4126824
20
6.4753303
40
0.3021413
50
131.4798484
51
142.170474
0
ARC
8
DEFAULT_255_2_778
10
2.6846136
20
6.1838639
40
0.7007016
50
129.5605948
51
132.352618
0
ARC
8
DEFAULT_255_2_778
10
0.7058198
20
8.5885317
40
2.4134697
50
309.4190019
51
312.5832798
0
ARC
8
DEFAULT_255_2_778
10
1.6065091
20
7.6133037
40
1.0859582
50
312.4105551
51
318.3621293
0
ARC
8
DEFAULT_255_2_778
10
2.096891
20
7.1821062
40
0.432985
50
317.8909942
51
330.2193116
0
ARC
8
DEFAULT_255_2_778
10
2.3374957
20
7.0478839
40
0.1575194
50
329.125139
51
357.8917375
0
ARC
8
DEFAULT_255_2_778
10
2.3751621
20
7.0386887
40
0.1197947
50
1.626595
51
47.9975922
0
ARC
8
DEFAULT_255_2_778
10
2.2307815
20
6.8968185
40
0.322072
50
45.7986745
51
59.5542611
0
ARC
8
DEFAULT_255_2_778
10
2.0751687
20
6.6505244
40
0.6133284
50
58.6805292
51
62.0741275
0
ARC
8
DEFAULT_255_2_778
10
1.9602398
20
6.4348274
40
0.8577331
50
62.0388021
51
64.3870069
0
ARC
8
DEFAULT_255_2_778
10
1.8730062
20
6.2550962
40
1.0575136
50
64.3346968
51
65.0053565
0
ARC
8
DEFAULT_255_2_778
10
3.070798
20
8.8250759
40
1.7778878
50
241.9527083
51
245.0146107
0
ARC
8
DEFAULT_255_2_778
10
2.9471168
20
8.5936664
40
1.5155002
50
238.6616026
51
241.9658386
0
ARC
8
DEFAULT_255_2_778
10
2.7284302
20
8.2417867
40
1.1012256
50
232.0988535
51
238.8579002
0
ARC
8
DEFAULT_255_2_778
10
2.4160054
20
7.8443457
40
0.5956979
50
222.8342852
51
232.3274992
0
ARC
8
DEFAULT_255_2_778
10
2.1487228
20
7.6007745
40
0.2341146
50
206.1789042
51
223.5939151
0
ARC
8
DEFAULT_255_2_778
10
2.0128287
20
7.533583
40
0.0825179
50
181.8162572
51
205.9387176
0
ARC
8
DEFAULT_255_2_778
10
1.9793204
20
7.5302979
40
0.0489728
50
107.5564069
51
179.2163328
0
ARC
8
DEFAULT_255_2_778
10
2.0223939
20
7.4334635
40
0.1547446
50
94.7061636
51
111.9511018
0
ARC
8
DEFAULT_255_2_778
10
2.0411774
20
7.2757517
40
0.313519
50
89.9883643
51
95.7626425
0
ARC
8
DEFAULT_255_2_778
10
2.0420565
20
8.9278136
40
1.3385431
50
269.9650983
51
278.2286082
0
ARC
8
DEFAULT_255_2_778
10
2.1464879
20
8.2556958
40
0.658437
50
277.6054895
51
315.4010917
0
ARC
8
DEFAULT_255_2_778
10
1.9401936
20
8.4927892
40
0.972095
50
313.9879965
51
314.4367
0
ARC
8
DEFAULT_255_2_778
10
1.7686915
20
8.6618142
40
1.2128622
50
314.6312738
51
320.0590907
0
ARC
8
DEFAULT_255_2_778
10
1.2291922
20
9.1154435
40
1.9177293
50
320.0159542
51
323.6506303
0
ARC
8
DEFAULT_255_2_778
10
0.3487014
20
9.7679337
40
3.0136305
50
323.5811637
51
325.5916767
0
ARC
8
DEFAULT_255_2_778
10
-14.0348795
20
19.5995732
40
20.4362735
50
325.6381079
51
325.8658015
0
ARC
8
DEFAULT_255_2_778
10
2.0692023
20
8.6886263
40
0.9840337
50
325.5592759
51
329.7023072
0
ARC
8
DEFAULT_255_2_778
10
2.7349196
20
8.3041304
40
0.2153023
50
328.6724242
51
344.4087022
0
ARC
8
DEFAULT_255_2_778
10
2.8555468
20
8.2679622
40
0.0894253
50
345.9568461
51
359.5614848
0
ARC
8
DEFAULT_255_2_778
10
2.871619
20
8.2668254
40
0.0733518
50
0.3533445
51
37.1011504
0
ARC
8
DEFAULT_255_2_778
10
2.7769367
20
8.1930139
40
0.1934005
50
37.6211846
51
55.7119954
0
ARC
8
DEFAULT_255_2_778
10
2.4758295
20
7.7769069
40
0.7069704
50
54.5477601
51
60.4568207
0
ARC
8
DEFAULT_255_2_778
10
1.6808688
20
6.4016225
40
2.2954646
50
60.1203753
51
62.0892396
0
ARC
8
DEFAULT_255_2_778
10
-1.0316852
20
1.3107344
40
8.0639164
50
61.9897642
51
62.5600366
0
ARC
8
DEFAULT_255_2_778
10
253.1534711
20
490.366967
40
543.1040192
50
242.5266856
51
242.5366707
0
ARC
8
DEFAULT_255_2_778
10
4.4427816
20
12.0550558
40
3.994298
50
240.6101367
51
242.5310629
0
ARC
8
DEFAULT_255_2_778
10
3.7159607
20
10.7667801
40
2.5151357
50
237.7593663
51
240.6342555
0
ARC
8
DEFAULT_255_2_778
10
3.340521
20
10.1675922
40
1.8080466
50
235.4992671
51
237.692817
0
ARC
8
DEFAULT_255_2_778
10
2.9709121
20
9.6475822
40
1.1701872
50
224.7214887
51
235.9918083
0
ARC
8
DEFAULT_255_2_778
10
2.9028723
20
9.5550834
40
1.0569053
50
205.5551169
51
223.7539547
0
ARC
8
DEFAULT_255_2_778
10
3.5510259
20
9.9011486
40
1.7912327
50
205.3700877
51
206.5982639
0
ARC
8
DEFAULT_255_2_778
10
2.8320925
20
9.5548973
40
0.9932897
50
199.3861393
51
205.0919463
0
ARC
8
DEFAULT_255_2_778
10
3.5037708
20
9.7940301
40
1.706264
50
194.7543969
51
199.4742045
0
ARC
8
DEFAULT_255_2_778
10
3.6986284
20
9.8516053
40
1.909369
50
190.01749
51
194.9359771
0
ARC
8
DEFAULT_255_2_778
10
2.9167791
20
9.7152387
40
1.1157198
50
185.5893012
51
190.1055182
0
ARC
8
DEFAULT_255_2_778
10
2.2890692
20
9.6537643
40
0.4850068
50
180.431097
51
185.5839787
0
ARC
8
DEFAULT_255_2_778
10
1.9798078
20
9.6524542
40
0.1757473
50
171.7522291
51
180.762595
0
ARC
8
DEFAULT_255_2_778
10
1.8451014
20
9.6735478
40
0.0394387
50
148.1851966
51
174.0064238
0
ARC
8
DEFAULT_255_2_778
10
1.8188717
20
9.6896603
40
0.0086567
50
91.5301673
51
147.2854293
0
ARC
8
DEFAULT_255_2_778
10
1.8170812
20
9.6817197
40
0.0166674
50
46.1971163
51
84.6317263
0
ARC
8
DEFAULT_255_2_778
10
1.782932
20
9.6404185
40
0.0702234
50
36.9670173
51
49.4147127
0
ARC
8
DEFAULT_255_2_778
10
1.7180084
20
9.5883568
40
0.1534251
50
34.5058993
51
37.9209135
0
ARC
8
DEFAULT_255_2_778
10
9.9935672
20
15.2995242
40
9.9015394
50
214.612136
51
215.291241
0
ARC
8
DEFAULT_255_2_778
10
5.3085356
20
11.9803837
40
4.1599195
50
215.2571958
51
216.8356751
0
ARC
8
DEFAULT_255_2_778
10
3.6845252
20
10.7620106
40
2.1296885
50
216.795188
51
219.7380484
0
ARC
8
DEFAULT_255_2_778
10
3.1193996
20
10.2951389
40
1.3966617
50
219.8307579
51
222.2981904
0
ARC
8
DEFAULT_255_2_778
10
2.7215817
20
9.9163675
40
0.8475968
50
221.4577845
51
246.5448925
0
ARC
8
DEFAULT_255_2_778
10
2.9784813
20
10.4849817
40
1.4715111
50
246.1809543
51
251.8171887
0
ARC
8
DEFAULT_255_2_778
10
3.3068069
20
11.4588475
40
2.4992145
50
251.6329548
51
253.9206826
0
ARC
8
DEFAULT_255_2_778
10
3.7226441
20
12.8971887
40
3.9964603
50
253.903549
51
255.4542067
0
ARC
8
DEFAULT_255_2_778
10
4.311118
20
15.1507967
40
6.3256323
50
255.4215115
51
256.2338528
0
ARC
8
DEFAULT_255_2_778
10
5.2283752
20
18.8957368
40
10.1812694
50
256.2351782
51
256.8579717
0
ARC
8
DEFAULT_255_2_778
10
6.9135092
20
26.0970097
40
17.5770791
50
256.8459858
51
257.1746617
0
ARC
8
DEFAULT_255_2_778
10
10.354629
20
41.205299
40
33.0722947
50
257.1720035
51
257.3613151
0
ARC
8
DEFAULT_255_2_778
10
-3.594264
20
-20.9252233
40
30.6048105
50
77.0808431
51
77.3302164
0
ARC
8
DEFAULT_255_2_778
10
-0.5122204
20
-7.4972406
40
16.8276662
50
76.6395175
51
77.0871469
0
ARC
8
DEFAULT_255_2_778
10
1.1190453
20
-0.6376918
40
9.77682
50
75.8694471
51
76.6514315
0
ARC
8
DEFAULT_255_2_778
10
2.0640813
20
3.1114957
40
5.910362
50
74.6731855
51
75.8805354
0
ARC
8
DEFAULT_255_2_778
10
2.5373104
20
4.8460918
40
4.1123736
50
73.6898743
51
74.6439546
0
ARC
8
DEFAULT_255_2_778
10
2.9270716
20
6.1587465
40
2.7430919
50
70.6886724
51
73.8033855
0
ARC
8
DEFAULT_255_2_778
10
3.2890162
20
7.1837351
40
1.6560803
50
64.9000985
51
70.7791529
0
ARC
8
DEFAULT_255_2_778
10
3.4519089
20
7.5392201
40
1.2650695
50
52.6462159
51
64.7513027
0
ARC
8
DEFAULT_255_2_778
10
3.0829365
20
7.0533099
40
1.8751907
50
48.1762737
51
52.6926892
0
ARC
8
DEFAULT_255_2_778
10
2.1139108
20
5.9635216
40
3.3334902
50
46.0354581
51
48.2552984
0
ARC
8
DEFAULT_255_2_778
10
-0.10638
20
3.6542974
40
6.5369563
50
45.0007371
51
46.0792467
0
ARC
8
DEFAULT_255_2_778
10
-3.5186178
20
0.2257552
40
11.3741241
50
44.835639
51
45.0584996
0
ARC
8
DEFAULT_255_2_778
10
7.1183552
20
10.8065809
40
3.6291789
50
224.888321
51
228.1748384
0
ARC
8
DEFAULT_255_2_778
10
6.4934048
20
10.106763
40
2.6909321
50
228.1540179
51
232.733613
0
ARC
8
DEFAULT_255_2_778
10
6.2704496
20
9.8205764
40
2.3281761
50
232.8355445
51
233.5591868
0
ARC
8
DEFAULT_255_2_778
10
6.0512317
20
9.5050652
40
1.9441742
50
233.2333383
51
254.3276666
0
ARC
8
DEFAULT_255_2_778
10
5.2799926
20
6.7263947
40
0.9395652
50
65.7864329
51
74.8186602
0
ARC
8
DEFAULT_255_2_778
10
5.5514662
20
7.3119554
40
0.2942722
50
40.3481966
51
67.233028
0
ARC
8
DEFAULT_255_2_778
10
5.6004569
20
7.372482
40
0.2182248
50
357.0504195
51
36.5618503
0
ARC
8
DEFAULT_255_2_778
10
5.3354976
20
7.3632967
40
0.4828995
50
353.6505852
51
359.7574859
0
ARC
8
DEFAULT_255_2_778
10
5.1709556
20
7.3791314
40
0.6481881
50
352.7357509
51
353.8679845
0
ARC
8
DEFAULT_255_2_778
10
4.6711831
20
7.4317891
40
1.1506598
50
343.460226
51
353.2814484
0
ARC
8
DEFAULT_255_2_778
10
5.200547
20
7.2698485
40
0.5971158
50
324.5214355
51
343.895873
0
ARC
8
DEFAULT_255_2_778
10
5.3321823
20
7.1872471
40
0.4420737
50
283.6022355
51
323.3372778
0
ARC
8
DEFAULT_255_2_778
10
5.2340639
20
7.535461
40
0.8037093
50
271.6754775
51
284.5627864
0
ARC
8
DEFAULT_255_2_778
10
5.211126
20
7.9069918
40
1.1758137
50
269.9720234
51
272.2634032
0
ARC
8
DEFAULT_255_2_778
10
5.2147338
20
8.2604797
40
1.5293073
50
265.0286955
51
269.8433224
0
ARC
8
DEFAULT_255_2_778
10
5.2750148
20
8.9650587
40
2.2364598
50
261.3372974
51
265.0543761
0
ARC
8
DEFAULT_255_2_778
10
5.4241724
20
9.9548249
40
3.237401
50
258.617554
51
261.3659659
0
ARC
8
DEFAULT_255_2_778
10
5.668805
20
11.1833535
40
4.4900473
50
256.8359984
51
258.6512118
0
ARC
8
DEFAULT_255_2_778
10
6.0169067
20
12.6747183
40
6.0214986
50
255.3731523
51
256.842543
0
ARC
8
DEFAULT_255_2_778
10
3.24124
20
2.0472782
40
4.9624358
50
75.3496081
51
76.5277324
0
ARC
8
DEFAULT_255_2_778
10
3.8468087
20
4.580022
40
2.3583041
50
76.4995462
51
78.4449501
0
ARC
8
DEFAULT_255_2_778
10
4.1020846
20
5.8395947
40
1.0731278
50
78.3273818
51
82.0656741
0
ARC
8
DEFAULT_255_2_778
10
4.1903246
20
6.4876721
40
0.4190792
50
81.7834861
51
89.2323371
0
LINE
8
DEFAULT_255_2_778
10
4.1959394
20
6.9067137
11
4.1957592
21
6.9067138
0
ARC
8
DEFAULT_255_2_778
10
4.1928573
20
6.764559
40
0.1421843
50
88.8305616
51
102.9037449
0
ARC
8
DEFAULT_255_2_778
10
4.1645739
20
6.869201
40
0.0341284
50
95.832763
51
180.7870642
0
ARC
8
DEFAULT_255_2_778
10
4.2348509
20
6.8754955
40
0.1046209
50
183.706551
51
208.0986721
0
ARC
8
DEFAULT_255_2_778
10
4.5192827
20
7.0120908
40
0.4200801
50
206.2612727
51
214.7704189
0
ARC
8
DEFAULT_255_2_778
10
5.1399484
20
7.4319603
40
1.1694044
50
214.3265158
51
217.9921861
0
ARC
8
DEFAULT_255_2_778
10
6.4058413
20
8.4151646
40
2.7722668
50
217.9019241
51
219.9280855
0
ARC
8
DEFAULT_255_2_778
10
8.5025504
20
10.1575245
40
5.4984291
50
219.8281349
51
220.5453701
0
ARC
8
DEFAULT_255_2_778
10
2.8674048
20
5.3188787
40
1.9290803
50
37.5892184
51
40.9528527
0
ARC
8
DEFAULT_255_2_778
10
4.0703588
20
6.2359551
40
0.4165017
50
26.3045114
51
38.5662139
0
ARC
8
DEFAULT_255_2_778
10
4.3308725
20
6.3651873
40
0.1256963
50
0.9425063
51
26.1195017
0
ARC
8
DEFAULT_255_2_778
10
4.346303
20
6.3672746
40
0.1102489
50
356.7804989
51
359.9897738
0
ARC
8
DEFAULT_255_2_778
10
4.3267063
20
6.368905
40
0.1299073
50
347.3114837
51
356.5479363
0
ARC
8
DEFAULT_255_2_778
10
4.6263419
20
6.2983863
40
0.1779252
50
166.3513524
51
178.3880773
0
ARC
8
DEFAULT_255_2_778
10
4.5245591
20
6.3032063
40
0.0760722
50
179.8606783
51
180.0464019
0
ARC
8
DEFAULT_255_2_778
10
4.5101181
20
6.3020502
40
0.061641
50
178.9826794
51
246.9935145
0
ARC
8
DEFAULT_255_2_778
10
4.6210986
20
6.4761856
40
0.2674827
50
239.6703339
51
244.5941339
0
ARC
8
DEFAULT_255_2_778
10
4.4737828
20
6.1352043
40
0.1045646
50
359.3789073
51
71.8581621
0
ARC
8
DEFAULT_255_2_778
10
4.691108
20
6.1384265
40
0.112851
50
182.212012
51
252.4782115
0
ARC
8
DEFAULT_255_2_778
10
4.8293552
20
6.3703878
40
0.380753
50
243.1072121
51
243.9994953
0
ARC
8
DEFAULT_255_2_778
10
4.5793418
20
5.7823842
40
0.2594543
50
41.6527911
51
71.3198409
0
ARC
8
DEFAULT_255_2_778
10
4.5797795
20
5.8173971
40
0.2372717
50
3.9971422
51
35.393264
0
ARC
8
DEFAULT_255_2_778
10
3.8500409
20
5.7152385
40
0.9736952
50
1.6320892
51
7.0020436
0
ARC
8
DEFAULT_255_2_778
10
5.6084762
20
5.7734095
40
0.7857249
50
182.2201725
51
187.950276
0
ARC
8
DEFAULT_255_2_778
10
5.7265676
20
5.7871764
40
0.9045895
50
187.7793222
51
202.2335159
0
ARC
8
DEFAULT_255_2_778
10
5.2677963
20
5.595774
40
0.4075205
50
201.7300876
51
215.9634741
0
ARC
8
DEFAULT_255_2_778
10
5.0806457
20
5.4660124
40
0.1799036
50
217.5178273
51
222.1901486
0
ARC
8
DEFAULT_255_2_778
10
5.0169823
20
5.4049733
40
0.0917739
50
220.6483843
51
241.8017808
0
ARC
8
DEFAULT_255_2_778
10
4.9917999
20
5.3592129
40
0.0395493
50
242.6287895
51
268.9006778
0
ARC
8
DEFAULT_255_2_778
10
4.9838633
20
5.5714275
40
0.2518591
50
271.6331078
51
286.2770554
0
ARC
8
DEFAULT_255_2_778
10
4.8712982
20
5.9828111
40
0.6783421
50
285.6646533
51
293.3217324
0
ARC
8
DEFAULT_255_2_778
10
4.5996298
20
6.6250378
40
1.3756566
50
293.122584
51
298.1293927
0
ARC
8
DEFAULT_255_2_778
10
4.250851
20
7.2863267
40
2.1232784
50
298.01629
51
301.6255438
0
ARC
8
DEFAULT_255_2_778
10
4.0771806
20
7.5751665
40
2.4602929
50
301.5422071
51
307.2018733
0
ARC
8
DEFAULT_255_2_778
10
4.5477768
20
6.9595838
40
1.6854428
50
307.1122015
51
312.0110899
0
ARC
8
DEFAULT_255_2_778
10
5.1063952
20
6.3420424
40
0.8527329
50
311.8930129
51
318.3721597
0
ARC
8
DEFAULT_255_2_778
10
5.4988145
20
5.9966846
40
0.3300012
50
317.9322714
51
329.5116785
0
ARC
8
DEFAULT_255_2_778
10
5.7076808
20
5.8768755
40
0.0892693
50
327.7607756
51
356.0787517
0
ARC
8
DEFAULT_255_2_778
10
5.9429765
20
5.8515969
40
0.147487
50
150.6348547
51
172.5301919
0
ARC
8
DEFAULT_255_2_778
10
6.6152866
20
5.5198882
40
0.8969939
50
145.2367565
51
153.2287543
0
ARC
8
DEFAULT_255_2_778
10
7.0309178
20
5.2474622
40
1.3938375
50
143.3849296
51
145.7787675
0
ARC
8
DEFAULT_255_2_778
10
7.0356188
20
5.2444735
40
1.3993934
50
141.4343452
51
143.40151
0
ARC
8
DEFAULT_255_2_778
10
3.9744917
20
7.7000719
40
2.5249586
50
321.1693492
51
324.7705235
0
ARC
8
DEFAULT_255_2_778
10
4.8113125
20
7.1122097
40
1.5022952
50
324.6741057
51
331.4196465
0
ARC
8
DEFAULT_255_2_778
10
5.0605024
20
6.9707588
40
1.2158115
50
331.6554894
51
332.7733413
0
ARC
8
DEFAULT_255_2_778
10
5.0569926
20
6.9664039
40
1.2169523
50
333.0312609
51
349.5039777
0
ARC
8
DEFAULT_255_2_778
10
4.262435
20
7.1407443
40
2.0301496
50
348.7509565
51
350.7773902
0
ARC
8
DEFAULT_255_2_778
10
8.0704057
20
6.5250986
40
1.8272676
50
166.6853646
51
170.8595071
0
ARC
8
DEFAULT_255_2_778
10
7.6892386
20
6.6161625
40
1.4353747
50
162.3896532
51
166.718655
0
ARC
8
DEFAULT_255_2_778
10
7.256694
20
6.7542853
40
0.9813132
50
157.641704
51
162.435594
0
ARC
8
DEFAULT_255_2_778
10
7.0246054
20
6.8470517
40
0.7313884
50
156.6314415
51
157.4463793
0
ARC
8
DEFAULT_255_2_778
10
6.8185684
20
6.939526
40
0.5055827
50
150.2161627
51
156.9901727
0
ARC
8
DEFAULT_255_2_778
10
6.5615536
20
7.0886231
40
0.2084645
50
138.8659003
51
150.6931609
0
ARC
8
DEFAULT_255_2_778
10
6.4459434
20
7.1926652
40
0.0529991
50
109.5546087
51
141.3644904
0
ARC
8
DEFAULT_255_2_778
10
6.4334573
20
7.2228468
40
0.0204471
50
90.3134818
51
104.8867562
0
ARC
8
DEFAULT_255_2_778
10
6.4310559
20
7.2195136
40
0.0238901
50
17.9660732
51
84.5004125
0
ARC
8
DEFAULT_255_2_778
10
6.3501463
20
7.1799763
40
0.1137558
50
8.3944047
51
24.3520185
0
ARC
8
DEFAULT_255_2_778
10
6.1401583
20
7.1443303
40
0.3267303
50
1.4031915
51
9.2026312
0
ARC
8
DEFAULT_255_2_778
10
5.9012617
20
7.1337205
40
0.5658349
50
359.9592527
51
1.8848351
0
ARC
8
DEFAULT_255_2_778
10
5.7024038
20
7.1342374
40
0.7646933
50
357.5932355
51
359.931122
0
ARC
8
DEFAULT_255_2_778
10
5.4085267
20
7.1464213
40
1.0588228
50
355.5990329
51
357.6023165
0
ARC
8
DEFAULT_255_2_778
10
5.1215467
20
7.1676775
40
1.3465878
50
354.5922401
51
355.6342695
0
ARC
8
DEFAULT_255_2_778
10
8.5674776
20
6.842192
40
2.1146809
50
174.6117097
51
176.6336089
0
ARC
8
DEFAULT_255_2_778
10
7.9794248
20
6.8764269
40
1.5256326
50
176.6202741
51
178.9985104
0
ARC
8
DEFAULT_255_2_778
10
7.641073
20
6.883674
40
1.1872066
50
179.0627994
51
179.9894342
0
ARC
8
DEFAULT_255_2_778
10
7.2049512
20
6.8787163
40
0.7511027
50
179.6051109
51
185.8658448
0
ARC
8
DEFAULT_255_2_778
10
6.7227418
20
6.8261144
40
0.2660596
50
185.2101162
51
197.7856497
0
ARC
8
DEFAULT_255_2_778
10
6.519171
20
6.7565714
40
0.0511356
50
193.257433
51
236.9808219
0
ARC
8
DEFAULT_255_2_778
10
6.5000958
20
6.732179
40
0.0204677
50
244.5678603
51
270.0855332
0
ARC
8
DEFAULT_255_2_778
10
6.4959581
20
6.7527512
40
0.041251
50
275.799503
51
318.3013953
0
ARC
8
DEFAULT_255_2_778
10
6.4020325
20
6.8514757
40
0.1774097
50
314.6713214
51
328.0860975
0
ARC
8
DEFAULT_255_2_778
10
6.1576347
20
7.0105405
40
0.4689898
50
327.3748567
51
333.689933
0
ARC
8
DEFAULT_255_2_778
10
7.0131835
20
6.5786931
40
0.4894025
50
145.1508879
51
152.7640907
0
ARC
8
DEFAULT_255_2_778
10
7.4493199
20
6.2779496
40
1.019175
50
139.906385
51
145.2862481
0
ARC
8
DEFAULT_255_2_778
10
7.8138024
20
5.9786805
40
1.4907535
50
138.3106018
51
140.1293757
0
ARC
8
DEFAULT_255_2_778
10
8.0831826
20
5.7361411
40
1.8532283
50
133.7590329
51
138.2501191
0
ARC
8
DEFAULT_255_2_778
10
7.8875154
20
5.9485136
40
1.5645223
50
128.8895028
51
133.9626838
0
ARC
8
DEFAULT_255_2_778
10
7.3603349
20
6.6054229
40
0.7222398
50
122.6833478
51
129.0549795
0
ARC
8
DEFAULT_255_2_778
10
7.0820029
20
7.0451508
40
0.2018622
50
109.7376157
51
123.5882766
0
ARC
8
DEFAULT_255_2_778
10
7.0293153
20
7.1895518
40
0.0481587
50
91.7500286
51
108.7548027
0
ARC
8
DEFAULT_255_2_778
10
7.0292373
20
7.2236794
40
0.0140777
50
353.1998917
51
95.6778165
0
ARC
8
DEFAULT_255_2_778
10
7.0082681
20
7.2206799
40
0.0349732
50
359.9851262
51
2.1838427
0
ARC
8
DEFAULT_255_2_778
10
6.9238077
20
7.2426791
40
0.1214443
50
335.1807318
51
349.5590655
0
ARC
8
DEFAULT_255_2_778
10
5.2379231
20
7.9277119
40
1.9410636
50
334.9139692
51
337.7171863
0
ARC
8
DEFAULT_255_2_778
10
-0.9036145
20
10.7609424
40
8.7045953
50
334.165918
51
335.1634535
0
ARC
8
DEFAULT_255_2_778
10
10.3112378
20
5.2627864
40
3.7858555
50
153.2334443
51
155.4403806
0
ARC
8
DEFAULT_255_2_778
10
8.8074803
20
5.9479191
40
2.1333764
50
155.3900686
51
158.6867562
0
ARC
8
DEFAULT_255_2_778
10
7.8431765
20
6.3216445
40
1.0991898
50
158.5654666
51
163.9489982
0
ARC
8
DEFAULT_255_2_778
10
7.2554681
20
6.487754
40
0.488473
50
163.6131336
51
173.6134508
0
ARC
8
DEFAULT_255_2_778
10
7.0261442
20
6.5164667
40
0.2573962
50
174.2869422
51
179.8315499
0
ARC
8
DEFAULT_255_2_778
10
6.8963002
20
6.5124025
40
0.1276423
50
177.8354756
51
205.2749242
0
ARC
8
DEFAULT_255_2_778
10
6.8539479
20
6.4985479
40
0.0836136
50
209.083949
51
267.6686511
0
ARC
8
DEFAULT_255_2_778
10
6.8721415
20
6.5972538
40
0.1835253
50
263.2425195
51
270.2003334
0
ARC
8
DEFAULT_255_2_778
10
6.8707978
20
6.7035722
40
0.2898493
50
270.3924745
51
278.444786
0
ARC
8
DEFAULT_255_2_778
10
6.842193
20
6.9028645
40
0.4911826
50
278.331325
51
283.7646585
0
ARC
8
DEFAULT_255_2_778
10
6.8018988
20
7.0777724
40
0.6706593
50
283.5528218
51
283.6916141
0
ARC
8
DEFAULT_255_2_778
10
7.076349
20
5.9507574
40
0.4892916
50
96.404479
51
103.6789063
0
ARC
8
DEFAULT_255_2_778
10
7.0821684
20
5.9052865
40
0.5351282
50
90.0102531
51
96.4805986
0
ARC
8
DEFAULT_255_2_778
10
7.0888004
20
6.0457387
40
0.3947334
50
73.0653667
51
90.976581
0
ARC
8
DEFAULT_255_2_778
10
7.1813878
20
6.3300679
40
0.0959371
50
35.780242
51
76.5032801
0
ARC
8
DEFAULT_255_2_778
10
7.2268093
20
6.3685932
40
0.0368638
50
18.6319904
51
28.4595131
0
ARC
8
DEFAULT_255_2_778
10
7.2576608
20
6.379054
40
0.0042875
50
359.4001554
51
17.8861119
0
ARC
8
DEFAULT_255_2_778
10
7.2179332
20
6.3939739
40
0.0464894
50
306.2205591
51
341.2222805
0
ARC
8
DEFAULT_255_2_778
10
6.8177825
20
6.8308274
40
0.6386518
50
303.9868648
51
312.0337694
0
ARC
8
DEFAULT_255_2_778
10
6.1021136
20
7.8531876
40
1.8865461
50
300.0968489
51
304.6521787
0
ARC
8
DEFAULT_255_2_778
10
5.9105603
20
8.1721681
40
2.2585855
50
300.1667594
51
300.2432459
0
ARC
8
DEFAULT_255_2_778
10
8.9126832
20
2.9866772
40
3.7332524
50
120.0091432
51
122.6031781
0
ARC
8
DEFAULT_255_2_778
10
7.9524977
20
4.4808109
40
1.9571996
50
122.4914523
51
126.8495678
0
ARC
8
DEFAULT_255_2_778
10
7.2946769
20
5.3523621
40
0.8652754
50
126.6036788
51
134.3539047
0
ARC
8
DEFAULT_255_2_778
10
6.8972466
20
5.7525479
40
0.3013221
50
133.5150303
51
150.3393167
0
ARC
8
DEFAULT_255_2_778
10
6.7244089
20
5.8508686
40
0.1024758
50
150.2873139
51
178.0631363
0
ARC
8
DEFAULT_255_2_778
10
6.6974162
20
5.8566236
40
0.0754596
50
181.7401517
51
236.8464339
0
ARC
8
DEFAULT_255_2_778
10
6.7816509
20
5.9660412
40
0.2133991
50
233.9769295
51
249.8583906
0
ARC
8
DEFAULT_255_2_778
10
6.8496332
20
6.1307318
40
0.3914917
50
248.8170411
51
252.3974302
0
ARC
8
DEFAULT_255_2_778
10
6.6148736
20
5.3748411
40
0.4000293
50
64.9423352
51
73.0883113
0
ARC
8
DEFAULT_255_2_778
10
6.7050516
20
5.5645211
40
0.1900134
50
51.5357316
51
65.3510192
0
ARC
8
DEFAULT_255_2_778
10
6.7788243
20
5.654536
40
0.0736649
50
22.2751077
51
52.9142039
0
ARC
8
DEFAULT_255_2_778
10
6.8029838
20
5.6666514
40
0.0467609
50
17.7743093
51
19.7581367
0
ARC
8
DEFAULT_255_2_778
10
6.8070819
20
5.6677916
40
0.0425107
50
0.1308726
51
17.9969841
0
ARC
8
DEFAULT_255_2_778
10
6.7820075
20
5.6752376
40
0.0679833
50
299.3680458
51
353.7942898
0
ARC
8
DEFAULT_255_2_778
10
6.6669947
20
5.8376961
40
0.2667618
50
285.6406123
51
303.7882888
0
ARC
8
DEFAULT_255_2_778
10
6.5725297
20
6.1464336
40
0.589586
50
275.140778
51
286.3919067
0
ARC
8
DEFAULT_255_2_778
10
6.5438826
20
6.4018166
40
0.8465274
50
269.9109151
51
275.5231027
0
ARC
8
DEFAULT_255_2_778
10
6.5430775
20
6.5326205
40
0.9773305
50
266.376922
51
269.9700379
0
ARC
8
DEFAULT_255_2_778
10
6.5459937
20
6.5862815
40
1.0310687
50
265.5860661
51
266.4036282
0
ARC
8
DEFAULT_255_2_778
10
7.3607864
20
5.0473421
40
1.2347138
50
159.265847
51
162.2718834
0
ARC
8
DEFAULT_255_2_778
10
8.258451
20
4.7525133
40
2.1795385
50
162.0750201
51
163.3384072
0
ARC
8
DEFAULT_255_2_778
10
8.4330384
20
4.6992425
40
2.3620698
50
163.3147128
51
165.136783
0
ARC
8
DEFAULT_255_2_778
10
7.9097384
20
4.8366164
40
1.8210413
50
165.0909907
51
167.2869247
0
ARC
8
DEFAULT_255_2_778
10
5.0693949
20
5.4687483
40
1.0888145
50
339.8521482
51
347.7308619
0
ARC
8
DEFAULT_255_2_778
10
5.566508
20
5.2873926
40
0.5596553
50
313.0464549
51
339.7528845
0
ARC
8
DEFAULT_255_2_778
10
5.2622076
20
5.6024413
40
0.9976328
50
306.0075751
51
313.4676345
0
ARC
8
DEFAULT_255_2_778
10
4.7062868
20
6.3586128
40
1.936158
50
302.1892807
51
306.1602379
0
ARC
8
DEFAULT_255_2_778
10
3.6909941
20
7.9607783
40
3.832928
50
300.1341317
51
302.274974
0
ARC
8
DEFAULT_255_2_778
10
1.7026554
20
11.3750106
40
7.7839354
50
299.0106937
51
300.1752505
0
ARC
8
DEFAULT_255_2_778
10
-0.0323927
20
14.4758044
40
11.3371294
50
299.0212916
51
299.0791699
0
ARC
8
DEFAULT_255_2_778
10
-19.7533653
20
49.8191016
40
51.810124
50
299.1232548
51
299.1302659
0
ARC
8
DEFAULT_255_2_778
10
-34.3899675
20
76.0955861
40
81.8880854
50
299.1172607
51
299.1216208
0
ARC
8
DEFAULT_255_2_778
10
449.2832808
20
-793.0690234
40
912.7912312
50
119.0931003
51
119.0991556
0
ARC
8
DEFAULT_255_2_778
10
9.9043601
20
-3.652266
40
9.3352863
50
119.0432279
51
119.670336
0
ARC
8
DEFAULT_255_2_778
10
6.2196055
20
2.8015552
40
1.9036654
50
119.4614616
51
122.207651
0
ARC
8
DEFAULT_255_2_778
10
5.4031626
20
4.0875154
40
0.3804691
50
121.3933183
51
131.2841555
0
ARC
8
DEFAULT_255_2_778
10
5.1861438
20
4.3274129
40
0.0572125
50
126.4764268
51
173.0554791
0
ARC
8
DEFAULT_255_2_778
10
5.1632289
20
4.3336317
40
0.0338848
50
178.8187377
51
179.9999579
0
ARC
8
DEFAULT_255_2_778
10
5.1937101
20
4.3398036
40
0.0646613
50
185.4771781
51
222.4384057
0
ARC
8
DEFAULT_255_2_778
10
5.6651649
20
4.7102649
40
0.664091
50
218.5758954
51
222.9027929
0
ARC
8
DEFAULT_255_2_778
10
3.6223782
20
2.8577605
40
2.0936453
50
41.4167007
51
41.9815113
0
ARC
8
DEFAULT_255_2_778
10
5.852981
20
4.9016163
40
0.9329471
50
224.9264197
51
243.5164033
0
ARC
8
DEFAULT_255_2_778
10
5.166453
20
3.4851545
40
0.6412556
50
50.7056174
51
65.0510802
0
ARC
8
DEFAULT_255_2_778
10
5.394608
20
3.7651256
40
0.2800947
50
28.3361581
51
50.5547585
0
ARC
8
DEFAULT_255_2_778
10
6.0000841
20
4.0741417
40
0.3998013
50
206.1291579
51
220.0175954
0
ARC
8
DEFAULT_255_2_778
10
5.8066999
20
3.9050888
40
0.1430853
50
217.9676834
51
260.0656165
0
ARC
8
DEFAULT_255_2_778
10
5.7978789
20
3.8817677
40
0.1186839
50
262.3184373
51
270.047962
0
ARC
8
DEFAULT_255_2_778
10
5.7919456
20
3.9404869
40
0.1775058
50
271.9476204
51
299.484232
0
ARC
8
DEFAULT_255_2_778
10
5.6688854
20
4.1756536
40
0.4428684
50
298.368642
51
309.9749247
0
ARC
8
DEFAULT_255_2_778
10
5.4504816
20
4.4508466
40
0.794126
50
309.2945416
51
312.319778
0
ARC
8
DEFAULT_255_2_778
10
6.2872377
20
3.5397116
40
0.4429581
50
115.4717141
51
132.9999798
0
ARC
8
DEFAULT_255_2_778
10
6.2005884
20
3.7211888
40
0.241856
50
90.894983
51
115.4291312
0
ARC
8
DEFAULT_255_2_778
10
6.1959218
20
3.7643161
40
0.1987011
50
52.6967998
51
89.7436919
0
ARC
8
DEFAULT_255_2_778
10
6.1602838
20
3.6966182
40
0.2744415
50
47.4422962
51
55.3448373
0
ARC
8
DEFAULT_255_2_778
10
6.3335949
20
3.8832845
40
0.0197784
50
8.2964757
51
51.5358729
0
ARC
8
DEFAULT_255_2_778
10
6.3430223
20
3.8865084
40
0.0101509
50
314.45324
51
357.9111199
0
ARC
8
DEFAULT_255_2_778
10
6.3079654
20
3.9257778
40
0.0627824
50
291.0363317
51
312.1920462
0
ARC
8
DEFAULT_255_2_778
10
6.0430773
20
4.5238775
40
0.7168438
50
290.2799827
51
293.6381028
0
ARC
8
DEFAULT_255_2_778
10
6.4286016
20
3.4887623
40
0.387741
50
110.7006021
51
115.1656101
0
ARC
8
DEFAULT_255_2_778
10
6.3781934
20
3.5970418
40
0.2683039
50
115.2554825
51
118.6089797
0
ARC
8
DEFAULT_255_2_778
10
6.3154835
20
3.7066084
40
0.1421106
50
117.5647495
51
132.2151199
0
ARC
8
DEFAULT_255_2_778
10
6.2460075
20
3.780126
40
0.0410311
50
129.3399343
51
170.4875874
0
ARC
8
DEFAULT_255_2_778
10
6.2290205
20
3.7848354
40
0.023571
50
174.9582088
51
179.983556
0
ARC
8
DEFAULT_255_2_778
10
6.2452538
20
3.7910828
40
0.0402907
50
188.910501
51
253.3173282
0
ARC
8
DEFAULT_255_2_778
10
6.3240429
20
3.957607
40
0.224138
50
246.226393
51
263.0550558
0
ARC
8
DEFAULT_255_2_778
10
6.3759496
20
4.3015201
40
0.5718904
50
262.0590117
51
270.4247059
0
ARC
8
DEFAULT_255_2_778
10
6.3795784
20
4.5831066
40
0.8534615
50
270.0409702
51
272.5846185
0
ARC
8
DEFAULT_255_2_778
10
6.3681053
20
4.8514237
40
1.1220234
50
272.5520259
51
272.617251
0
ARC
8
DEFAULT_255_2_778
10
6.5943134
20
-0.0495137
40
3.7841319
50
91.9078057
51
92.6502113
0
ARC
8
DEFAULT_255_2_778
10
6.5122992
20
2.4411024
40
1.2921664
50
90.1451087
51
91.9498042
0
ARC
8
DEFAULT_255_2_778
10
6.5163772
20
3.3507174
40
0.3826177
50
80.8440236
51
91.1007908
0
ARC
8
DEFAULT_255_2_778
10
6.5483653
20
3.5619534
40
0.1689955
50
60.6580098
51
80.1551275
0
ARC
8
DEFAULT_255_2_778
10
6.4738247
20
3.4387008
40
0.3129961
50
49.6529078
51
59.8193321
0
ARC
8
DEFAULT_255_2_778
10
5.9069922
20
2.7471768
40
1.2071107
50
48.3799098
51
50.3981455
0
ARC
8
DEFAULT_255_2_778
10
6.0942677
20
2.9408844
40
0.937984
50
44.2829589
51
49.0727581
0
ARC
8
DEFAULT_255_2_778
10
6.5270589
20
3.3592485
40
0.3360564
50
35.0905472
51
44.7379783
0
ARC
8
DEFAULT_255_2_778
10
6.7424678
20
3.506488
40
0.0752305
50
8.6990244
51
37.645993
0
ARC
8
DEFAULT_255_2_778
10
6.7877227
20
3.5160244
40
0.0291684
50
0.0376461
51
3.6203536
0
ARC
8
DEFAULT_255_2_778
10
6.7917982
20
3.5172403
40
0.0251212
50
273.5182896
51
357.2693572
0
ARC
8
DEFAULT_255_2_778
10
6.7678701
20
3.6070435
40
0.1176666
50
268.9022824
51
282.5009785
0
ARC
8
DEFAULT_255_2_778
10
6.7692699
20
3.8105337
40
0.321156
50
261.8060468
51
269.3481058
0
ARC
8
DEFAULT_255_2_778
10
6.8263834
20
4.2263633
40
0.7408856
50
257.5211434
51
262.0175922
0
ARC
8
DEFAULT_255_2_778
10
6.9413598
20
4.7664785
40
1.2930927
50
255.8587944
51
257.7182088
0
ARC
8
DEFAULT_255_2_778
10
6.4702782
20
2.9097309
40
0.6224881
50
75.5661231
51
83.8819576
0
ARC
8
DEFAULT_255_2_778
10
6.4945595
20
3.1192814
40
0.4115474
50
84.1339106
51
89.8577191
0
ARC
8
DEFAULT_255_2_778
10
6.4866123
20
3.3141725
40
0.2168406
50
87.6294055
51
119.5851046
0
ARC
8
DEFAULT_255_2_778
10
6.4559423
20
3.3802423
40
0.1443651
50
121.9465534
51
156.2127465
0
ARC
8
DEFAULT_255_2_778
10
6.4484828
20
3.3799486
40
0.1376968
50
154.8488323
51
179.4035026
0
ARC
8
DEFAULT_255_2_778
10
6.4092711
20
3.3781016
40
0.0985323
50
178.0920867
51
272.6001675
0
ARC
8
DEFAULT_255_2_778
10
6.4059043
20
3.2127306
40
0.0673973
50
56.3062801
51
83.3226964
0
ARC
8
DEFAULT_255_2_778
10
6.2484015
20
2.943757
40
0.3789985
50
50.2479223
51
59.0541083
0
ARC
8
DEFAULT_255_2_778
10
5.8276807
20
2.4267133
40
1.0455729
50
45.2621794
51
50.641067
0
ARC
8
DEFAULT_255_2_778
10
5.5557277
20
2.1436577
40
1.4380678
50
42.2676568
51
45.5034187
0
ARC
8
DEFAULT_255_2_778
10
5.8624089
20
2.4152451
40
1.0284658
50
36.6657893
51
42.5626166
0
ARC
8
DEFAULT_255_2_778
10
6.4140193
20
2.8228452
40
0.342613
50
27.5204054
51
37.0743262
0
ARC
8
DEFAULT_255_2_778
10
6.6612562
20
2.9493335
40
0.064939
50
5.0686247
51
29.3415055
0
ARC
8
DEFAULT_255_2_778
10
6.6828035
20
2.9491284
40
0.043545
50
319.4387965
51
7.8433738
0
ARC
8
DEFAULT_255_2_778
10
6.699044
20
2.9427839
40
0.0276832
50
266.2175582
51
307.470784
0
ARC
8
DEFAULT_255_2_778
10
6.7064046
20
3.0599207
40
0.1450508
50
248.2203957
51
266.3687286
0
ARC
8
DEFAULT_255_2_778
10
6.9255992
20
3.6762961
40
0.7991533
50
245.2120344
51
250.0238521
0
ARC
8
DEFAULT_255_2_778
10
7.8281901
20
5.6765959
40
2.9936398
50
244.1909901
51
245.5798417
0
ARC
8
DEFAULT_255_2_778
10
6.1904378
20
2.3054781
40
0.7542724
50
63.6824663
51
68.1154756
0
ARC
8
DEFAULT_255_2_778
10
5.7461293
20
1.2128747
40
1.9337565
50
67.9662507
51
70.8136281
0
ARC
8
DEFAULT_255_2_778
10
5.4389437
20
0.3517747
40
2.8479893
50
70.6702024
51
71.3951831
0
ARC
8
DEFAULT_255_2_778
10
5.2702409
20
-0.1541329
40
3.381282
50
71.4208982
51
73.7351909
0
ARC
8
DEFAULT_255_2_778
10
5.3924235
20
0.2765234
40
2.9336428
50
73.6702632
51
76.0441739
0
ARC
8
DEFAULT_255_2_778
10
4.8793157
20
-1.79235
40
5.0651953
50
76.0554415
51
77.062728
0
ARC
8
DEFAULT_255_2_778
10
5.5779556
20
1.2618879
40
1.9320747
50
76.9770213
51
79.4585488
0
ARC
8
DEFAULT_255_2_778
10
5.7861585
20
2.3917484
40
0.7831957
50
79.3111144
51
84.4502347
0
ARC
8
DEFAULT_255_2_778
10
5.8256246
20
2.7837557
40
0.3892113
50
84.6519044
51
89.7707883
0
ARC
8
DEFAULT_255_2_778
10
5.8178542
20
3.0312443
40
0.1420263
50
86.2344396
51
122.4020401
0
ARC
8
DEFAULT_255_2_778
10
5.8283017
20
3.0452329
40
0.1367906
50
129.2527894
51
169.0177289
0
ARC
8
DEFAULT_255_2_778
10
6.2976913
20
2.920517
40
0.6222192
50
165.9765768
51
175.1998505
0
ARC
8
DEFAULT_255_2_778
10
7.9723544
20
2.7472417
40
2.3057379
50
174.3914543
51
176.3315124
0
ARC
8
DEFAULT_255_2_778
10
5.190149
20
2.9225224
40
0.4819917
50
349.985749
51
356.6992619
0
ARC
8
DEFAULT_255_2_778
10
5.5445834
20
2.8567449
40
0.1215597
50
332.7944693
51
351.4666686
0
ARC
8
DEFAULT_255_2_778
10
5.6326115
20
2.8098771
40
0.0218901
50
274.1433546
51
336.5609817
0
ARC
8
DEFAULT_255_2_778
10
5.6429966
20
2.8377303
40
0.05046
50
215.5325005
51
259.9524536
0
ARC
8
DEFAULT_255_2_778
10
5.8690931
20
3.0421944
40
0.3550101
50
210.8226384
51
221.1889018
0
ARC
8
DEFAULT_255_2_778
10
6.6210403
20
3.5081375
40
1.2395804
50
207.2880316
51
211.5089464
0
ARC
8
DEFAULT_255_2_778
10
8.0847311
20
4.275596
40
2.8922543
50
205.679618
51
207.505962
0
ARC
8
DEFAULT_255_2_778
10
2.9629392
20
1.8183973
40
2.7884677
50
25.5775903
51
28.969492
0
ARC
8
DEFAULT_255_2_778
10
4.3109931
20
2.5687351
40
1.2456688
50
28.8070224
51
34.7375256
0
ARC
8
DEFAULT_255_2_778
10
4.9561894
20
3.0222493
40
0.4570726
50
34.1056733
51
47.0713577
0
ARC
8
DEFAULT_255_2_778
10
5.180033
20
3.2719088
40
0.1219691
50
44.1853672
51
84.7001606
0
ARC
8
DEFAULT_255_2_778
10
5.1898713
20
3.3184255
40
0.0749446
50
88.9084209
51
89.9993554
0
ARC
8
DEFAULT_255_2_778
10
5.1925408
20
3.3059455
40
0.0874654
50
91.7484255
51
133.2493166
0
ARC
8
DEFAULT_255_2_778
10
5.2501074
20
3.2340509
40
0.179425
50
130.9079819
51
140.7101041
0
ARC
8
DEFAULT_255_2_778
10
4.984163
20
3.4491865
40
0.1626478
50
305.5147609
51
321.3805481
0
ARC
8
DEFAULT_255_2_778
10
5.0400816
20
3.3682199
40
0.0642779
50
272.4735091
51
306.8686507
0
ARC
8
DEFAULT_255_2_778
10
5.0481763
20
3.3613249
40
0.0575693
50
196.4425892
51
264.6970327
0
ARC
8
DEFAULT_255_2_778
10
5.1987973
20
3.4284901
40
0.2221126
50
182.0026203
51
202.0711215
0
ARC
8
DEFAULT_255_2_778
10
5.3589043
20
3.4436835
40
0.3827729
50
179.9500217
51
183.4381422
0
ARC
8
DEFAULT_255_2_778
10
5.4715591
20
3.442319
40
0.4954305
50
172.9225672
51
179.803573
0
ARC
8
DEFAULT_255_2_778
10
5.586443
20
3.4296252
40
0.6110051
50
170.2621684
51
173.0686582
0
ARC
8
DEFAULT_255_2_778
10
4.4571224
20
3.6230163
40
0.5347545
50
350.3059759
51
354.1790587
0
ARC
8
DEFAULT_255_2_778
10
4.6677791
20
3.6019994
40
0.3230527
50
354.0981312
51
359.5195794
0
ARC
8
DEFAULT_255_2_778
10
4.7494459
20
3.6001696
40
0.2413763
50
359.7913647
51
359.9996155
0
ARC
8
DEFAULT_255_2_778
10
4.8528577
20
3.6032211
40
0.1379983
50
358.7322657
51
13.5823842
0
ARC
8
DEFAULT_255_2_778
10
4.9542301
20
3.630074
40
0.0332339
50
9.6220848
51
56.7802187
0
ARC
8
DEFAULT_255_2_778
10
4.9637275
20
3.6409489
40
0.0190371
50
62.7727908
51
90.5697859
0
ARC
8
DEFAULT_255_2_778
10
4.9701844
20
3.6072328
40
0.0531693
50
97.1808085
51
137.1607667
0
ARC
8
DEFAULT_255_2_778
10
5.0951918
20
3.469548
40
0.2389844
50
133.3312238
51
146.6673152
0
ARC
8
DEFAULT_255_2_778
10
5.3657899
20
3.2846396
40
0.5667043
50
146.0812719
51
153.8996933
0
ARC
8
DEFAULT_255_2_778
10
5.6438934
20
3.1433789
40
0.8786065
50
153.6058649
51
157.4387988
0
ARC
8
DEFAULT_255_2_778
10
5.8239601
20
3.0674929
40
1.0740082
50
157.3858619
51
159.7644777
0
ARC
8
DEFAULT_255_2_778
10
3.9890487
20
3.7447276
40
0.8818926
50
337.5815828
51
339.7140737
0
ARC
8
DEFAULT_255_2_778
10
3.7210939
20
3.8722066
40
1.1783167
50
319.9132574
51
336.8203203
0
ARC
8
DEFAULT_255_2_778
10
3.2094366
20
4.2930051
40
1.8407577
50
307.2197992
51
320.1479337
0
ARC
8
DEFAULT_255_2_778
10
2.8627893
20
4.7370246
40
2.4040294
50
296.4355487
51
307.3977507
0
ARC
8
DEFAULT_255_2_778
10
5.8391311
20
-1.2289338
40
4.2631528
50
116.558292
51
117.729211
0
ARC
8
DEFAULT_255_2_778
10
4.4886249
20
1.3295636
40
1.3701095
50
117.5218988
51
121.1926691
0
ARC
8
DEFAULT_255_2_778
10
3.9991571
20
2.1310252
40
0.431026
50
120.7121625
51
130.6208848
0
ARC
8
DEFAULT_255_2_778
10
3.8756911
20
2.2811209
40
0.2367496
50
131.5901949
51
133.7247333
0
ARC
8
DEFAULT_255_2_778
10
3.831537
20
2.3289867
40
0.1716434
50
134.1172286
51
185.3643257
0
ARC
8
DEFAULT_255_2_778
10
4.391383
20
2.3006064
40
0.7308419
50
179.0330351
51
180.026311
0
ARC
8
DEFAULT_255_2_778
10
3.2766463
20
2.293884
40
0.3839479
50
350.5799905
51
0.9531355
0
ARC
8
DEFAULT_255_2_778
10
3.584724
20
2.2379247
40
0.071027
50
319.093442
51
354.4399675
0
ARC
8
DEFAULT_255_2_778
10
3.6254973
20
2.2052804
40
0.0189439
50
270.1525792
51
312.9493257
0
ARC
8
DEFAULT_255_2_778
10
3.6313649
20
2.2315046
40
0.0455412
50
220.4314075
51
262.6612971
0
ARC
8
DEFAULT_255_2_778
10
3.7588653
20
2.3628244
40
0.2284119
50
212.6863253
51
224.7675331
0
ARC
8
DEFAULT_255_2_778
10
3.9162052
20
2.4732942
40
0.4205698
50
213.2382352
51
213.7770756
0
ARC
8
DEFAULT_255_2_778
10
3.4672898
20
2.1834254
40
0.1138431
50
31.4189034
51
50.203754
0
ARC
8
DEFAULT_255_2_778
10
3.5048731
20
2.2295447
40
0.0543569
50
49.5261352
51
88.8544843
0
ARC
8
DEFAULT_255_2_778
10
3.5060309
20
2.2336054
40
0.0502854
50
90.0809816
51
101.3767819
0
ARC
8
DEFAULT_255_2_778
10
3.5285544
20
2.179738
40
0.1081456
50
107.4570999
51
150.1140116
0
ARC
8
DEFAULT_255_2_778
10
3.7643446
20
2.0178162
40
0.3939281
50
146.7812888
51
163.7762453
0
ARC
8
DEFAULT_255_2_778
10
4.0980058
20
1.9131751
40
0.7435731
50
163.2173781
51
177.6440542
0
ARC
8
DEFAULT_255_2_778
10
4.1976935
20
1.9041074
40
0.843564
50
177.3070216
51
180.0019344
0
ARC
8
DEFAULT_255_2_778
10
4.1928486
20
1.9040438
40
0.8387189
50
179.9976003
51
180.2987379
0
ARC
8
DEFAULT_255_2_778
10
2.6706018
20
1.894981
40
0.6835554
50
352.909127
51
0.3931061
0
ARC
8
DEFAULT_255_2_778
10
3.1898263
20
1.8251603
40
0.1597676
50
332.5413317
51
354.7713257
0
ARC
8
DEFAULT_255_2_778
10
3.3002617
20
1.7669738
40
0.0349503
50
271.190375
51
333.7032615
0
ARC
8
DEFAULT_255_2_778
10
3.3056469
20
1.800944
40
0.0690704
50
235.0684897
51
266.1322187
0
ARC
8
DEFAULT_255_2_778
10
3.4038672
20
1.9576988
40
0.2539922
50
225.9095523
51
237.1516574
0
ARC
8
DEFAULT_255_2_778
10
2.9974336
20
1.538556
40
0.3298476
50
45.8607132
51
54.5534533
0
ARC
8
DEFAULT_255_2_778
10
3.1500142
20
1.7580976
40
0.0625813
50
51.7867636
51
85.2680932
0
ARC
8
DEFAULT_255_2_778
10
3.1577165
20
1.7817973
40
0.0387517
50
93.7576934
51
150.919761
0
ARC
8
DEFAULT_255_2_778
10
3.2342325
20
1.723345
40
0.1347502
50
145.0013114
51
153.6567872
0
ARC
8
DEFAULT_255_2_778
10
3.4383801
20
1.6243298
40
0.3616399
50
153.9510548
51
161.1422165
0
ARC
8
DEFAULT_255_2_778
10
4.1774727
20
1.3648773
40
1.1449404
50
160.8101107
51
163.7831908
0
ARC
8
DEFAULT_255_2_778
10
5.4774264
20
0.9760793
40
2.5017731
50
163.5476045
51
164.0855292
0
ARC
8
DEFAULT_255_2_778
10
3.9020033
20
1.4266364
40
0.8631899
50
164.1720739
51
180.1207733
0
ARC
8
DEFAULT_255_2_778
10
3.9334172
20
1.4247839
40
0.8946019
50
179.9978859
51
180.344822
0
ARC
8
DEFAULT_255_2_778
10
4.1602382
20
1.4540239
40
1.1219411
50
181.7684689
51
220.5703755
0
ARC
8
DEFAULT_255_2_778
10
4.2105392
20
1.438424
40
1.1508674
50
218.3511727
51
268.2872385
0
ARC
8
DEFAULT_255_2_778
10
4.1849785
20
1.031957
40
0.7439387
50
269.3193549
51
320.6349167
0
ARC
8
DEFAULT_255_2_778
10
3.6961979
20
1.4830676
40
1.4084793
50
319.0584389
51
330.9691086
0
ARC
8
DEFAULT_255_2_778
10
3.0406285
20
1.8659634
40
2.1675577
50
330.5289192
51
334.7038056
0
ARC
8
DEFAULT_255_2_778
10
6.2692262
20
0.3424856
40
1.4024333
50
151.6356023
51
154.7928594
0
ARC
8
DEFAULT_255_2_778
10
5.5720539
20
0.721251
40
0.6090213
50
146.4244175
51
151.8314219
0
ARC
8
DEFAULT_255_2_778
10
5.2107435
20
0.9642923
40
0.1736029
50
134.7433733
51
147.3068876
0
ARC
8
DEFAULT_255_2_778
10
5.1080096
20
1.0705017
40
0.0259106
50
98.3891275
51
138.7173226
0
ARC
8
DEFAULT_255_2_778
10
5.1026437
20
1.0839368
40
0.0123009
50
4.9427922
51
82.5939335
0
ARC
8
DEFAULT_255_2_778
10
5.0365068
20
1.064859
40
0.0809373
50
359.4443048
51
14.4068359
0
ARC
8
DEFAULT_255_2_778
10
4.9529766
20
1.0613471
40
0.1644863
50
359.9864136
51
0.9499042
0
ARC
8
DEFAULT_255_2_778
10
4.7700971
20
1.0673215
40
0.347418
50
350.9437203
51
359.0082308
0
ARC
8
DEFAULT_255_2_778
10
4.1728979
20
1.1560728
40
0.9511637
50
347.0012062
51
351.3266515
0
ARC
8
DEFAULT_255_2_778
10
3.2667314
20
1.3613017
40
1.8802757
50
344.2563793
51
347.1186633
0
ARC
8
DEFAULT_255_2_778
10
2.3375891
20
1.6188556
40
2.8444475
50
342.8008687
51
344.341289
0
ARC
8
DEFAULT_255_2_778
10
3.6821755
20
1.192089
40
1.4338306
50
323.942429
51
343.2043599
0
ARC
8
DEFAULT_255_2_778
10
3.7731277
20
1.1420349
40
1.330905
50
284.8386697
51
323.3797844
0
ARC
8
DEFAULT_255_2_778
10
3.6520188
20
1.5389398
40
1.7456573
50
270.5973884
51
285.3449013
0
ARC
8
DEFAULT_255_2_778
10
3.6386593
20
1.7981675
40
2.0050383
50
269.9990854
51
270.9018957
0
ARC
8
DEFAULT_255_2_778
10
3.6401614
20
1.9194686
40
2.1263399
50
265.1123162
51
269.9586636
0
ARC
8
DEFAULT_255_2_778
10
3.6593064
20
2.1451147
40
2.3527967
50
260.6917428
51
265.1159757
0
ARC
8
DEFAULT_255_2_778
10
3.6670464
20
2.2026032
40
2.4107807
50
260.5888654
51
260.7312061
0
ARC
8
DEFAULT_255_2_778
10
4.2398029
20
3.3312511
40
0.0094993
50
322.5186803
51
359.2006827
0
ARC
8
DEFAULT_255_2_778
10
4.2324083
20
3.3321359
40
0.0169236
50
356.5537241
51
0.0555415
0
ARC
8
DEFAULT_255_2_778
10
4.1776859
20
3.3233574
40
0.0721837
50
6.998364
51
31.7456214
0
ARC
8
DEFAULT_255_2_778
10
3.8405668
20
3.1416739
40
0.4550349
50
28.8644028
51
36.0014567
0
ARC
8
DEFAULT_255_2_778
10
3.062624
20
2.5878031
40
1.4099907
50
35.6277425
51
39.1754851
0
ARC
8
DEFAULT_255_2_778
10
1.7874477
20
1.5550792
40
3.0508994
50
39.0826542
51
41.4810022
0
ARC
8
DEFAULT_255_2_778
10
0.5313842
20
0.4515913
40
4.7228333
50
41.4170094
51
43.1542269
0
ARC
8
DEFAULT_255_2_778
10
0.1367486
20
0.0854315
40
5.2611671
50
43.1237599
51
44.2563058
0
ARC
8
DEFAULT_255_2_778
10
0.7912615
20
0.7312408
40
4.3417018
50
44.1800246
51
46.6812354
0
ARC
8
DEFAULT_255_2_778
10
2.1717846
20
2.1967657
40
2.3283451
50
46.6557373
51
49.3874538
0
ARC
8
DEFAULT_255_2_778
10
3.0409792
20
3.2132855
40
0.9908835
50
49.2797167
51
53.4591141
0
ARC
8
DEFAULT_255_2_778
10
3.4600786
20
3.7845449
40
0.2824057
50
52.7677146
51
62.6837353
0
ARC
8
DEFAULT_255_2_778
10
3.5666061
20
3.9934565
40
0.0479205
50
61.2229678
51
85.2009903
0
ARC
8
DEFAULT_255_2_778
10
3.570527
20
4.0270704
40
0.0141389
50
89.6427132
51
100.5381123
0
ARC
8
DEFAULT_255_2_778
10
3.5820759
20
3.9453857
40
0.0966246
50
98.4117564
51
122.5844724
0
ARC
8
DEFAULT_255_2_778
10
3.5505924
20
3.9961634
40
0.0368932
50
123.8550037
51
181.8025697
0
ARC
8
DEFAULT_255_2_778
10
3.6340696
20
4.0053384
40
0.120795
50
184.9083319
51
213.3776391
0
ARC
8
DEFAULT_255_2_778
10
4.0212762
20
4.2292463
40
0.5679183
50
210.748956
51
219.3553884
0
ARC
8
DEFAULT_255_2_778
10
4.9084631
20
4.9379806
40
1.7034069
50
218.8650455
51
222.4774402
0
ARC
8
DEFAULT_255_2_778
10
6.5194319
20
6.3991381
40
3.8782991
50
222.3264538
51
224.0176974
0
ARC
8
DEFAULT_255_2_778
10
9.3229716
20
9.1022145
40
7.7727117
50
223.9861862
51
225.0094509
0
ARC
8
DEFAULT_255_2_778
10
24.0341655
20
23.7958108
40
28.5650404
50
224.9776128
51
225.2087362
0
ARC
8
DEFAULT_255_2_778
10
10.0292695
20
9.6783804
40
8.6793977
50
225.1616822
51
225.9710154
0
ARC
8
DEFAULT_255_2_778
10
5.8909892
20
5.3906989
40
2.7204123
50
225.8728974
51
227.9836671
0
ARC
8
DEFAULT_255_2_778
10
4.5706702
20
3.9165609
40
0.7414723
50
227.5380459
51
233.886204
0
ARC
8
DEFAULT_255_2_778
10
4.2204154
20
3.4268071
40
0.1395053
50
231.5429774
51
255.5936887
0
ARC
8
DEFAULT_255_2_778
10
4.1950999
20
3.3422578
40
0.0514344
50
259.477596
51
269.7905632
0
ARC
8
DEFAULT_255_2_778
10
4.1932239
20
3.3414023
40
0.0506066
50
271.911464
51
316.7100985
0
ARC
8
DEFAULT_255_2_778
10
4.0967022
20
3.4468271
40
0.1934411
50
313.5824941
51
321.1447066
0
ARC
8
DEFAULT_255_2_778
10
4.24704
20
3.9859639
40
0.0126518
50
340.1641961
51
1.1230633
0
ARC
8
DEFAULT_255_2_778
10
4.1903863
20
3.977611
40
0.0698371
50
7.0910613
51
32.6488526
0
ARC
8
DEFAULT_255_2_778
10
3.8689301
20
3.7983695
40
0.4377783
50
29.7025288
51
37.0995719
0
ARC
8
DEFAULT_255_2_778
10
3.1266718
20
3.2485489
40
1.3614791
50
36.7123514
51
40.3784567
0
ARC
8
DEFAULT_255_2_778
10
1.9010513
20
2.212818
40
2.96612
50
40.2819325
51
42.7459498
0
ARC
8
DEFAULT_255_2_778
10
0.6669257
20
1.0794702
40
4.641687
50
42.6797366
51
44.4474593
0
ARC
8
DEFAULT_255_2_778
10
0.2450546
20
0.6697253
40
5.2297845
50
44.4156512
51
45.5712898
0
ARC
8
DEFAULT_255_2_778
10
0.8437423
20
1.2885434
40
4.3687824
50
45.4971934
51
47.998289
0
ARC
8
DEFAULT_255_2_778
10
2.1797829
20
2.7738663
40
2.3709869
50
47.9726008
51
50.6762894
0
ARC
8
DEFAULT_255_2_778
10
3.0353886
20
3.821265
40
1.0185458
50
50.5716659
51
54.677743
0
ARC
8
DEFAULT_255_2_778
10
3.4516825
20
4.414633
40
0.2937384
50
54.0124472
51
63.6720198
0
ARC
8
DEFAULT_255_2_778
10
3.5584107
20
4.6330836
40
0.0506277
50
62.2826971
51
85.3879653
0
ARC
8
DEFAULT_255_2_778
10
3.5622164
20
4.6708546
40
0.0126955
50
88.8032332
51
109.8612267
0
ARC
8
DEFAULT_255_2_778
10
3.5809683
20
4.6106738
40
0.0757156
50
107.7851544
51
138.4808654
0
ARC
8
DEFAULT_255_2_778
10
3.555009
20
4.6370121
40
0.0389014
50
142.1844019
51
181.1986184
0
ARC
8
DEFAULT_255_2_778
10
3.6315601
20
4.6461979
40
0.1158762
50
184.9504721
51
214.3578777
0
ARC
8
DEFAULT_255_2_778
10
4.0236556
20
4.8808909
40
0.5726762
50
211.6017352
51
220.1030688
0
ARC
8
DEFAULT_255_2_778
10
4.9938507
20
5.6756402
40
1.8267948
50
219.5676128
51
222.8495716
0
ARC
8
DEFAULT_255_2_778
10
6.9061945
20
7.4341916
40
4.4247768
50
222.7036181
51
224.1621269
0
ARC
8
DEFAULT_255_2_778
10
10.6620487
20
11.0745581
40
9.6553309
50
224.1314143
51
224.949982
0
ARC
8
DEFAULT_255_2_778
10
9.6549491
20
10.0440541
40
8.214562
50
224.8257783
51
225.9387688
0
ARC
8
DEFAULT_255_2_778
10
6.2501344
20
6.5188746
40
3.3135829
50
225.855524
51
228.1707866
0
ARC
8
DEFAULT_255_2_778
10
4.8274256
20
4.9229065
40
1.1755549
50
227.9631833
51
232.8919017
0
ARC
8
DEFAULT_255_2_778
10
4.3144657
20
4.2361149
40
0.3184038
50
231.9434034
51
245.3409574
0
ARC
8
DEFAULT_255_2_778
10
4.2162442
20
4.0224515
40
0.0832454
50
245.4236979
51
267.8799784
0
ARC
8
DEFAULT_255_2_778
10
4.2116056
20
3.9850696
40
0.0458329
50
271.9494686
51
343.889325
0
ARC
8
DEFAULT_255_2_778
10
4.1342267
20
4.0260747
40
0.1327668
50
336.1311121
51
340.3234598
0
ARC
8
DEFAULT_255_2_778
10
4.238647
20
4.6368493
40
0.0367249
50
9.7534651
51
36.4531598
0
ARC
8
DEFAULT_255_2_778
10
3.9648715
20
4.4611713
40
0.3619471
50
33.0695096
51
40.2551027
0
ARC
8
DEFAULT_255_2_778
10
3.1037887
20
3.750975
40
1.4780973
50
39.6961006
51
42.5853763
0
ARC
8
DEFAULT_255_2_778
10
1.4931525
20
2.2800609
40
3.6593168
50
42.4772038
51
44.168972
0
ARC
8
DEFAULT_255_2_778
10
-0.8804374
20
-0.0243884
40
6.9675511
50
44.1615025
51
45.8036829
0
ARC
8
DEFAULT_255_2_778
10
-1.9937791
20
-1.1584023
40
8.5567238
50
45.7522999
51
45.8458035
0
ARC
8
DEFAULT_255_2_778
10
-1.8806568
20
-1.0422592
40
8.3945948
50
45.847559
51
46.2879048
0
ARC
8
DEFAULT_255_2_778
10
-1.0610923
20
-0.1768233
40
7.2026937
50
46.2429779
51
47.8461399
0
ARC
8
DEFAULT_255_2_778
10
1.1799286
20
2.3009292
40
3.8618214
50
47.8237601
51
49.5735743
0
ARC
8
DEFAULT_255_2_778
10
2.6714531
20
4.0553839
40
1.5590528
50
49.4888269
51
52.26743
0
ARC
8
DEFAULT_255_2_778
10
3.3801937
20
4.9772247
40
0.396275
50
51.7441162
51
58.5895975
0
ARC
8
DEFAULT_255_2_778
10
3.5630253
20
5.2811284
40
0.0416871
50
55.3647186
51
80.7291392
0
ARC
8
DEFAULT_255_2_778
10
3.565925
20
5.2150266
40
0.1073121
50
87.9621061
51
107.6209458
0
ARC
8
DEFAULT_255_2_778
10
3.5404654
20
5.2907726
40
0.0274456
50
104.8320106
51
181.8097587
0
ARC
8
DEFAULT_255_2_778
10
3.6184508
20
5.3002118
40
0.1059199
50
185.5836817
51
213.8459401
0
ARC
8
DEFAULT_255_2_778
10
4.0088105
20
5.5294826
40
0.5584765
50
211.0751343
51
219.5711755
0
ARC
8
DEFAULT_255_2_778
10
4.9868764
20
6.3177603
40
1.8146299
50
219.083903
51
222.7284175
0
ARC
8
DEFAULT_255_2_778
10
6.8700078
20
8.0396816
40
4.3663209
50
222.5596097
51
224.213842
0
ARC
8
DEFAULT_255_2_778
10
10.1800921
20
11.2526894
40
8.9793531
50
224.1797026
51
225.1658935
0
ARC
8
DEFAULT_255_2_778
10
9.214893
20
10.3070015
40
7.628218
50
225.2989038
51
226.4754203
0
ARC
8
DEFAULT_255_2_778
10
6.2818219
20
7.2124624
40
3.3645303
50
226.4005826
51
228.6895562
0
ARC
8
DEFAULT_255_2_778
10
4.9041205
20
5.6386401
40
1.2728962
50
228.5055034
51
233.1379369
0
ARC
8
DEFAULT_255_2_778
10
4.3632553
20
4.9093438
40
0.3649705
50
232.3904138
51
243.9446947
0
ARC
8
DEFAULT_255_2_778
10
4.2415265
20
4.657758
40
0.0854931
50
243.174912
51
266.9783861
0
ARC
8
DEFAULT_255_2_778
10
4.2362404
20
4.607393
40
0.0350178
50
271.2757129
51
357.4635972
0
ARC
8
DEFAULT_255_2_778
10
4.104504
20
4.6399183
40
0.1701664
50
348.4486855
51
1.0615042
0
ARC
8
DEFAULT_255_2_778
10
4.3246998
20
7.852829
40
0.1232566
50
314.3370568
51
331.961841
0
ARC
8
DEFAULT_255_2_778
10
4.3547679
20
7.83641
40
0.0890003
50
332.1923752
51
354.5087698
0
ARC
8
DEFAULT_255_2_778
10
4.3582539
20
7.8357142
40
0.0854645
50
354.7495158
51
0.007981
0
ARC
8
DEFAULT_255_2_778
10
4.3111986
20
7.8258999
40
0.1328836
50
4.2406216
51
50.5680765
0
ARC
8
DEFAULT_255_2_778
10
4.1612045
20
7.6650946
40
0.3526238
50
48.3390154
51
75.2338269
0
ARC
8
DEFAULT_255_2_778
10
4.1472189
20
7.6361483
40
0.3842279
50
74.317305
51
84.6536865
0
ARC
8
DEFAULT_255_2_778
10
4.151916
20
7.6809447
40
0.3391891
50
84.7386098
51
89.9552343
0
ARC
8
DEFAULT_255_2_778
10
4.1449707
20
7.7832748
40
0.2369687
50
88.2563752
51
125.0915383
0
ARC
8
DEFAULT_255_2_778
10
4.0802661
20
7.8733261
40
0.1260934
50
124.5578432
51
137.1256776
0
ARC
8
DEFAULT_255_2_778
10
4.0218104
20
7.9302471
40
0.0445679
50
139.6226288
51
143.0496905
0
ARC
8
DEFAULT_255_2_778
10
4.0050332
20
7.9415737
40
0.0243735
50
140.6197154
51
178.7143706
0
ARC
8
DEFAULT_255_2_778
10
4.03844
20
7.9508765
40
0.0584339
50
188.6178428
51
227.776485
0
ARC
8
DEFAULT_255_2_778
10
4.4097352
20
8.2780824
40
0.553007
50
222.0619241
51
227.86395
0
ARC
8
DEFAULT_255_2_778
10
6.0002039
20
9.9865056
40
2.8871212
50
227.204109
51
228.1599798
0
ARC
8
DEFAULT_255_2_778
10
4.4095434
20
8.2034048
40
0.4976569
50
227.657499
51
239.6314383
0
ARC
8
DEFAULT_255_2_778
10
4.3760167
20
8.1498762
40
0.4345272
50
239.8773017
51
240.293079
0
ARC
8
DEFAULT_255_2_778
10
4.336001
20
8.0708343
40
0.3460715
50
239.562311
51
258.5867832
0
ARC
8
DEFAULT_255_2_778
10
4.310443
20
7.9575997
40
0.2300338
50
259.2456957
51
269.7590937
0
ARC
8
DEFAULT_255_2_778
10
4.3149714
20
7.8703467
40
0.1428845
50
267.795733
51
312.3035714
0
ARC
8
DEFAULT_255_2_778
10
3.9980651
20
0.6327592
40
0.1645211
50
232.2295496
51
250.0909604
0
ARC
8
DEFAULT_255_2_778
10
3.9185903
20
0.5329063
40
0.0369495
50
183.9572562
51
234.8087791
0
ARC
8
DEFAULT_255_2_778
10
3.9347247
20
0.523457
40
0.0534431
50
123.8685735
51
172.5825308
0
ARC
8
DEFAULT_255_2_778
10
4.0868132
20
0.3426106
40
0.2894855
50
116.3545043
51
128.9217443
0
ARC
8
DEFAULT_255_2_778
10
4.2126912
20
0.115179
40
0.5492866
50
117.3258332
51
117.5888439
0
ARC
8
DEFAULT_255_2_778
10
3.6616335
20
1.1635286
40
0.6350957
50
298.0764796
51
343.5805676
0
ARC
8
DEFAULT_255_2_778
10
3.3434831
20
1.2787171
40
0.9730487
50
342.369824
51
357.8924292
0
ARC
8
DEFAULT_255_2_778
10
3.1388873
20
1.2944931
40
1.1781152
50
357.4916296
51
0.0119928
0
ARC
8
DEFAULT_255_2_778
10
2.9650925
20
1.2906371
40
1.3519161
50
0.1738739
51
9.7131467
0
ARC
8
DEFAULT_255_2_778
10
2.6944733
20
1.2454692
40
1.6262769
50
9.6730809
51
18.1775666
0
ARC
8
DEFAULT_255_2_778
10
2.5002689
20
1.1840244
40
1.829959
50
18.1084881
51
23.5717055
0
ARC
8
DEFAULT_255_2_778
10
2.369385
20
1.1270017
40
1.9727252
50
23.5695216
51
29.3300573
0
ARC
8
DEFAULT_255_2_778
10
2.2709658
20
1.0722032
40
2.0853708
50
29.3180868
51
34.3168594
0
ARC
8
DEFAULT_255_2_778
10
4.5730555
20
2.654752
40
0.7082522
50
210.321858
51
215.063671
0
ARC
8
DEFAULT_255_2_778
10
4.0634037
20
2.3611895
40
0.1201755
50
188.3680081
51
212.1802655
0
ARC
8
DEFAULT_255_2_778
10
4.0049638
20
2.3492765
40
0.0607128
50
180.0366878
51
185.269788
0
ARC
8
DEFAULT_255_2_778
10
4.0002564
20
2.3492762
40
0.0560054
50
158.2071256
51
180.039449
0
ARC
8
DEFAULT_255_2_778
10
4.0560978
20
2.3191892
40
0.1192437
50
126.8773986
51
154.7428454
0
ARC
8
DEFAULT_255_2_778
10
4.3428523
20
1.9760813
40
0.5662728
50
122.0555388
51
129.2538349
0
ARC
8
DEFAULT_255_2_778
10
5.1498815
20
0.7245092
40
2.055441
50
120.6196399
51
122.6053567
0
ARC
8
DEFAULT_255_2_778
10
8.1798407
20
-4.374576
40
7.9868231
50
120.0479573
51
120.693778
0
ARC
8
DEFAULT_255_2_778
10
15.6844273
20
-16.8511861
40
22.5457624
50
120.4219931
51
120.6799247
0
ARC
8
DEFAULT_255_2_778
10
5.3059575
20
0.8349494
40
2.0393826
50
118.1441661
51
120.5928418
0
ARC
8
DEFAULT_255_2_778
10
4.5705812
20
2.219046
40
0.4720866
50
110.0156533
51
118.682908
0
ARC
8
DEFAULT_255_2_778
10
4.4596759
20
2.5258549
40
0.1458512
50
91.3892919
51
110.3327062
0
ARC
8
DEFAULT_255_2_778
10
4.4562049
20
2.5782667
40
0.0933964
50
61.9441854
51
90.0400103
0
ARC
8
DEFAULT_255_2_778
10
4.4002405
20
2.4813642
40
0.2052691
50
44.6276307
51
60.8801563
0
ARC
8
DEFAULT_255_2_778
10
3.9736062
20
2.0375565
40
0.8208314
50
41.784956
51
45.7545402
0
ARC
8
DEFAULT_255_2_778
10
-1.5138684
20
-2.9039765
40
8.2053453
50
41.4750274
51
41.981543
0
ARC
8
DEFAULT_255_2_778
10
2.2087817
20
0.3622491
40
3.2530216
50
38.7275251
51
41.7970975
0
ARC
8
DEFAULT_255_2_778
10
3.262545
20
1.2029761
40
1.9049789
50
33.3393623
51
38.8290782
0
ARC
8
DEFAULT_255_2_778
10
3.8967855
20
1.6174335
40
1.1473332
50
23.9444493
51
33.4555428
0
ARC
8
DEFAULT_255_2_778
10
4.1086324
20
1.7172184
40
0.913235
50
21.0533875
51
23.6170003
0
ARC
8
DEFAULT_255_2_778
10
4.1462934
20
1.7341864
40
0.8719956
50
359.2976878
51
20.9018617
0
ARC
8
DEFAULT_255_2_778
10
3.7154931
20
1.7261038
40
1.302733
50
355.2793185
51
359.8853983
0
ARC
8
DEFAULT_255_2_778
10
3.3987594
20
1.7493133
40
1.6203049
50
354.0862317
51
355.3831317
0
ARC
8
DEFAULT_255_2_778
10
2.8921259
20
1.7957244
40
2.1290325
50
344.2907417
51
354.2486488
0
ARC
8
DEFAULT_255_2_778
10
3.3797209
20
1.6555633
40
1.621703
50
332.2459843
51
344.3934291
0
ARC
8
DEFAULT_255_2_778
10
3.8105973
20
1.4254676
40
1.1332504
50
316.8292495
51
332.396413
0
ARC
8
DEFAULT_255_2_778
10
4.1013244
20
1.1450989
40
0.7294177
50
291.2936904
51
317.2667608
0
ARC
8
DEFAULT_255_2_778
10
4.1681975
20
0.9940859
40
0.5644788
50
270.0711798
51
290.5356903
0
ARC
8
DEFAULT_255_2_778
10
4.1699587
20
1.0109949
40
0.5813882
50
255.863918
51
269.8955409
0
ARC
8
DEFAULT_255_2_778
10
4.1873802
20
1.08316
40
0.6556233
50
248.0246755
51
255.9277741
0
ARC
8
DEFAULT_255_2_778
10
1.4474408
20
5.3216799
40
1.9676347
50
258.0083466
51
260.5458695
0
ARC
8
DEFAULT_255_2_778
10
1.7746377
20
6.8592862
40
3.5396687
50
255.6199026
51
257.9988033
0
ARC
8
DEFAULT_255_2_778
10
2.2087999
20
8.5710299
40
5.3056103
50
253.8194328
51
255.6691214
0
ARC
8
DEFAULT_255_2_778
10
2.3400956
20
9.0387234
40
5.7913668
50
251.8618482
51
253.8613328
0
ARC
8
DEFAULT_255_2_778
10
2.1522412
20
8.4568267
40
5.1799053
50
251.689109
51
251.8327556
0
ARC
8
DEFAULT_255_2_778
10
1.8148734
20
7.4547208
40
4.1225521
50
249.6746548
51
251.7648657
0
ARC
8
DEFAULT_255_2_778
10
1.1399655
20
5.6383144
40
2.184815
50
247.0102497
51
249.7259326
0
ARC
8
DEFAULT_255_2_778
10
0.6241719
20
4.4290817
40
0.870178
50
242.5593071
51
247.177547
0
ARC
8
DEFAULT_255_2_778
10
0.3258561
20
3.8603222
40
0.227953
50
232.8332153
51
243.2254514
0
ARC
8
DEFAULT_255_2_778
10
0.3273409
20
3.8610565
40
0.2294365
50
224.5200205
51
232.6485344
0
ARC
8
DEFAULT_255_2_778
10
0.1771075
20
3.7151539
40
0.0200613
50
188.325414
51
228.2584261
0
ARC
8
DEFAULT_255_2_778
10
0.173066
20
3.7080524
40
0.0163558
50
93.8921302
51
165.1322729
0
ARC
8
DEFAULT_255_2_778
10
0.2332491
20
3.5179422
40
0.2153358
50
97.2044764
51
106.5373561
0
ARC
8
DEFAULT_255_2_778
10
0.3116087
20
3.0171844
40
0.7221218
50
97.0369429
51
98.3899987
0
ARC
8
DEFAULT_255_2_778
10
0.4247571
20
2.0786987
40
1.6674022
50
95.4571285
51
96.9449508
0
ARC
8
DEFAULT_255_2_778
10
0.7290142
20
-1.0401505
40
4.8010549
50
94.9853382
51
95.5319868
0
ARC
8
DEFAULT_255_2_778
10
1.7032772
20
-12.1587627
40
15.9622698
50
94.8023332
51
95.0009912
0
ARC
8
DEFAULT_255_2_778
10
0.0445633
20
7.3141949
40
3.5812636
50
275.1646374
51
282.1438307
0
ARC
8
DEFAULT_255_2_778
10
1.5650873
20
4.1870861
40
0.6368639
50
224.9853083
51
234.2938854
0
ARC
8
DEFAULT_255_2_778
10
1.3376817
20
3.8646797
40
0.2423682
50
233.4647634
51
250.7717453
0
ARC
8
DEFAULT_255_2_778
10
1.2853254
20
3.7193623
40
0.087929
50
251.7999835
51
268.8819742
0
ARC
8
DEFAULT_255_2_778
10
1.2842555
20
3.6747444
40
0.0432991
50
269.1454003
51
3.2983488
0
ARC
8
DEFAULT_255_2_778
10
1.2037387
20
3.6909611
40
0.124503
50
353.670755
51
0.188544
0
ARC
8
DEFAULT_255_2_778
10
1.2265086
20
3.6613606
40
0.1060665
50
16.4355709
51
39.8137309
0
ARC
8
DEFAULT_255_2_778
10
0.2300449
20
2.9635674
40
1.3222158
50
35.3878966
51
39.9972834
0
ARC
8
DEFAULT_255_2_778
10
-1.7503241
20
1.3277582
40
3.8907954
50
39.706704
51
42.5308011
0
ARC
8
DEFAULT_255_2_778
10
-2.5248638
20
0.630664
40
4.9328006
50
42.4160435
51
43.2585417
0
ARC
8
DEFAULT_255_2_778
10
1.4774805
20
5.1223968
40
1.059265
50
219.8873033
51
223.4311454
0
ARC
8
DEFAULT_255_2_778
10
0.8668937
20
4.6160614
40
0.266072
50
210.8071844
51
220.5423739
0
ARC
8
DEFAULT_255_2_778
10
0.6790851
20
4.5060888
40
0.0484723
50
184.9376399
51
212.8540715
0
ARC
8
DEFAULT_255_2_778
10
0.6480562
20
4.5010149
40
0.0172872
50
88.2561599
51
177.0100491
0
ARC
8
DEFAULT_255_2_778
10
0.6629249
20
4.4338436
40
0.0856598
50
89.2625315
51
99.6388672
0
ARC
8
DEFAULT_255_2_778
10
0.6584797
20
4.2414614
40
0.2780902
50
80.3568906
51
88.8569111
0
ARC
8
DEFAULT_255_2_778
10
0.5587748
20
3.6072871
40
0.9200397
50
77.3528252
51
80.8510352
0
ARC
8
DEFAULT_255_2_778
10
0.2149553
20
2.049498
40
2.515316
50
75.810334
51
77.4802825
0
ARC
8
DEFAULT_255_2_778
10
1.1057137
20
5.5452029
40
1.0921076
50
255.4604015
51
265.1794336
0
ARC
8
DEFAULT_255_2_778
10
1.0685196
20
5.1714114
40
0.7165351
50
265.6312837
51
269.9199096
0
ARC
8
DEFAULT_255_2_778
10
1.0699012
20
4.9892994
40
0.5344277
50
269.7445028
51
278.37498
0
ARC
8
DEFAULT_255_2_778
10
1.3443175
20
3.2088416
40
1.2670707
50
96.7647544
51
98.9250549
0
ARC
8
DEFAULT_255_2_778
10
1.2270381
20
4.1954093
40
0.2735567
50
90.4968058
51
96.7119607
0
ARC
8
DEFAULT_255_2_778
10
1.2266147
20
4.343973
40
0.124998
50
72.2750336
51
90.893202
0
ARC
8
DEFAULT_255_2_778
10
1.2006714
20
4.2895982
40
0.1848701
50
49.0404837
51
69.7460359
0
ARC
8
DEFAULT_255_2_778
10
0.7629721
20
3.7494684
40
0.8799993
50
45.6928396
51
50.5726926
0
ARC
8
DEFAULT_255_2_778
10
-2.5039591
20
0.3505832
40
5.5943448
50
45.1047531
51
46.0646544
0
ARC
8
DEFAULT_255_2_778
10
-55.3563634
20
-53.0183135
40
80.705011
50
45.2552095
51
45.2665435
0
ARC
8
DEFAULT_255_2_778
10
2.7659721
20
5.6080285
40
1.8495738
50
224.904204
51
229.120453
0
ARC
8
DEFAULT_255_2_778
10
1.8937731
20
4.5904687
40
0.5094225
50
228.3888217
51
238.8550993
0
ARC
8
DEFAULT_255_2_778
10
1.6788924
20
4.22887
40
0.0888612
50
236.8480221
51
264.7415114
0
ARC
8
DEFAULT_255_2_778
10
1.6711412
20
4.1666317
40
0.0262519
50
269.1425859
51
290.049307
0
ARC
8
DEFAULT_255_2_778
10
1.6604295
20
4.2057584
40
0.0667638
50
287.1721421
51
326.9039473
0
ARC
8
DEFAULT_255_2_778
10
1.6758411
20
4.1916517
40
0.046275
50
331.1206249
51
1.0118326
0
ARC
8
DEFAULT_255_2_778
10
1.5953876
20
4.1827842
40
0.1270907
50
4.3703407
51
33.1914337
0
ARC
8
DEFAULT_255_2_778
10
1.2366769
20
3.9747248
40
0.5416336
50
30.8362321
51
40.201649
0
ARC
8
DEFAULT_255_2_778
10
0.4151153
20
3.2976935
40
1.606188
50
39.730769
51
43.9185946
0
ARC
8
DEFAULT_255_2_778
10
-0.7113062
20
2.2332906
40
3.1559205
50
43.6533683
51
44.8361013
0
ARC
8
DEFAULT_255_2_778
10
4.1367558
20
7.0688296
40
3.6914322
50
223.2559295
51
225.00268
0
ARC
8
DEFAULT_255_2_778
10
2.2687976
20
5.3178543
40
1.1311378
50
218.326273
51
223.4989908
0
ARC
8
DEFAULT_255_2_778
10
1.790795
20
4.9380105
40
0.5205949
50
210.7249306
51
218.1549652
0
ARC
8
DEFAULT_255_2_778
10
1.7833523
20
4.9234803
40
0.5068478
50
194.3867435
51
209.7427645
0
ARC
8
DEFAULT_255_2_778
10
2.4484074
20
5.1228266
40
1.200901
50
194.9437774
51
195.7156766
0
ARC
8
DEFAULT_255_2_778
10
2.7625913
20
5.2068941
40
1.5261377
50
194.496468
51
194.9514862
0
ARC
8
DEFAULT_255_2_778
10
-0.1105411
20
4.445911
40
1.446119
50
15.1919148
51
24.0777967
0
ARC
8
DEFAULT_255_2_778
10
-1.2984176
20
3.925191
40
2.7430984
50
23.885371
51
30.2037878
0
ARC
8
DEFAULT_255_2_778
10
-2.4600613
20
3.2588823
40
4.0822528
50
30.0838608
51
34.9726668
0
ARC
8
DEFAULT_255_2_778
10
3.603831
20
7.5009803
40
3.318165
50
213.3869309
51
214.9786746
0
ARC
8
DEFAULT_255_2_778
10
1.9846143
20
6.4359582
40
1.380092
50
210.6901374
51
213.4605836
0
ARC
8
DEFAULT_255_2_778
10
1.1820468
20
5.963179
40
0.4486383
50
204.5725426
51
211.0815226
0
ARC
8
DEFAULT_255_2_778
10
0.8456389
20
5.8128823
40
0.0802612
50
185.1889379
51
206.8635187
0
ARC
8
DEFAULT_255_2_778
10
0.7756863
20
5.8072342
40
0.0101089
50
82.6871578
51
189.1685081
0
ARC
8
DEFAULT_255_2_778
10
0.7685611
20
5.7383853
40
0.079323
50
60.5585628
51
83.9125145
0
ARC
8
DEFAULT_255_2_778
10
0.5912626
20
5.3781406
40
0.4807283
50
56.7637138
51
63.261561
0
ARC
8
DEFAULT_255_2_778
10
0.0165781
20
4.4821822
40
1.545139
50
54.3455088
51
57.1490846
0
ARC
8
DEFAULT_255_2_778
10
-1.2554132
20
2.6975919
40
3.7366466
50
52.9950288
51
54.4479073
0
ARC
8
DEFAULT_255_2_778
10
-2.7487938
20
0.7014062
40
6.2296157
50
52.7420719
51
53.0767383
0
ARC
8
DEFAULT_255_2_778
10
-2.0553544
20
1.6065267
40
5.089404
50
42.9525563
51
52.7866229
0
ARC
8
DEFAULT_255_2_778
10
-1.5232024
20
2.0928898
40
4.3685132
50
38.8949938
51
43.0394662
0
ARC
8
DEFAULT_255_2_778
10
-0.5453097
20
2.8788557
40
3.1139179
50
34.3412768
51
38.9372826
0
ARC
8
DEFAULT_255_2_778
10
0.4029664
20
3.5254317
40
1.966187
50
29.0674826
51
34.3724511
0
ARC
8
DEFAULT_255_2_778
10
1.168942
20
3.9473576
40
1.0917043
50
21.1707215
51
29.2436992
0
ARC
8
DEFAULT_255_2_778
10
1.5496946
20
4.1005411
40
0.6813482
50
17.5744656
51
20.7219389
0
ARC
8
DEFAULT_255_2_778
10
2.7798938
20
4.4989783
40
0.6117955
50
198.3600168
51
203.7450592
0
ARC
8
DEFAULT_255_2_778
10
2.9603787
20
4.5802129
40
0.8097141
50
203.8641034
51
221.0085097
0
ARC
8
DEFAULT_255_2_778
10
2.7919235
20
4.4417326
40
0.5917598
50
221.592997
51
222.2758732
0
ARC
8
DEFAULT_255_2_778
10
2.647205
20
4.3027081
40
0.3911976
50
221.4682487
51
234.0305609
0
ARC
8
DEFAULT_255_2_778
10
2.4928541
20
4.0847221
40
0.1241553
50
232.5933828
51
258.8994773
0
ARC
8
DEFAULT_255_2_778
10
2.4765702
20
4.018572
40
0.0562012
50
262.207788
51
269.8684473
0
ARC
8
DEFAULT_255_2_778
10
2.4756395
20
3.9409664
40
0.0214194
50
1.8841827
51
87.8552454
0
ARC
8
DEFAULT_255_2_778
10
2.4140822
20
3.925369
40
0.0845516
50
359.2636248
51
11.1163204
0
ARC
8
DEFAULT_255_2_778
10
2.2481339
20
3.9310396
40
0.2505839
50
346.2220107
51
358.4547744
0
ARC
8
DEFAULT_255_2_778
10
1.8207606
20
4.0296417
40
0.6891695
50
339.3425493
51
346.7223742
0
ARC
8
DEFAULT_255_2_778
10
1.4570527
20
4.1603831
40
1.0756328
50
335.4323617
51
339.6607368
0
ARC
8
DEFAULT_255_2_778
10
1.5437835
20
4.1133317
40
0.9772142
50
325.7003827
51
335.8270773
0
ARC
8
DEFAULT_255_2_778
10
1.9202849
20
3.8621534
40
0.5246622
50
320.1050199
51
325.1906788
0
ARC
8
DEFAULT_255_2_778
10
2.0731025
20
3.7339182
40
0.3251695
50
313.5228314
51
320.1702515
0
ARC
8
DEFAULT_255_2_778
10
2.1483088
20
3.6559452
40
0.2168426
50
309.227792
51
313.3018138
0
ARC
8
DEFAULT_255_2_778
10
2.1041238
20
3.7282489
40
0.3010142
50
289.8826443
51
307.0387263
0
ARC
8
DEFAULT_255_2_778
10
1.8836414
20
4.2978656
40
0.9117633
50
282.2492548
51
290.7383218
0
ARC
8
DEFAULT_255_2_778
10
1.6590416
20
5.2927461
40
1.9316648
50
276.8934386
51
282.4986394
0
ARC
8
DEFAULT_255_2_778
10
1.5203228
20
6.4217325
40
3.0691401
50
270.1445306
51
276.9347248
0
ARC
8
DEFAULT_255_2_778
10
1.5157527
20
6.5371047
40
3.1845264
50
270.000942
51
270.2215178
0
ARC
8
DEFAULT_255_2_778
10
1.509604
20
6.1444037
40
2.7918322
50
264.5463066
51
270.1272618
0
ARC
8
DEFAULT_255_2_778
10
1.4351312
20
5.3286266
40
1.9726727
50
260.8471665
51
264.4476482
0
LINE
8
DEFAULT_255_2_778
10
6.4666411
20
5.5582708
11
6.2431411
21
5.5757708
0
LINE
8
DEFAULT_255_2_778
10
6.2431411
20
5.5757708
11
6.2060411
21
5.4844708
0
LINE
8
DEFAULT_255_2_778
10
3.2728411
20
-0.1757292
11
3.2869411
21
-0.1704292
0
LINE
8
DEFAULT_255_2_778
10
4.2473411
20
3.3254708
11
4.2473411
21
3.3254708
0
LINE
8
DEFAULT_255_2_778
10
4.2592411
20
3.9813708
11
4.2589411
21
3.9816708
0
LINE
8
DEFAULT_255_2_778
10
4.2746411
20
4.6430708
11
4.2748411
21
4.6430708
0
LINE
8
DEFAULT_255_2_778
10
4.4111411
20
7.7646708
11
4.4108411
21
7.7646708
0
LINE
8
DEFAULT_255_2_778
10
3.9420411
20
0.4751708
11
3.9420411
21
0.4780708
0
LINE
8
DEFAULT_255_2_778
10
0.7979411
20
3.8130708
11
0.9903411
21
3.8586708
0
LINE
8
DEFAULT_255_2_778
10
0.9903411
20
3.8586708
11
1.1146411
21
3.7368708
0
LINE
8
DEFAULT_255_2_778
10
1.0675411
20
4.0110708
11
0.7082411
21
4.3941708
0
LINE
8
DEFAULT_255_2_778
10
1.1213411
20
3.3810708
11
1.1242411
21
3.3807708
0
LINE
8
DEFAULT_255_2_778
10
8.6632411
20
6.1438708
11
7.6456411
21
3.3524708
0
LINE
8
DEFAULT_255_2_778
10
7.6456411
20
3.3524708
11
7.3757411
21
3.3119708
0
LINE
8
DEFAULT_255_2_778
10
7.3757411
20
3.3119708
11
7.3757411
21
3.0913708
0
LINE
8
DEFAULT_255_2_778
10
7.3757411
20
3.0913708
11
8.3441411
21
3.0913708
0
LINE
8
DEFAULT_255_2_778
10
8.3441411
20
3.0913708
11
8.3441411
21
3.3119708
0
LINE
8
DEFAULT_255_2_778
10
8.3441411
20
3.3119708
11
8.0605411
21
3.3437708
0
LINE
8
DEFAULT_255_2_778
10
8.0605411
20
3.3437708
11
8.0155411
21
3.4019708
0
LINE
8
DEFAULT_255_2_778
10
8.0155411
20
3.4019708
11
8.2854411
21
4.1628708
0
LINE
8
DEFAULT_255_2_778
10
8.2854411
20
4.1628708
11
9.2643411
21
4.1628708
0
LINE
8
DEFAULT_255_2_778
10
9.2643411
20
4.1628708
11
9.5342411
21
3.3974708
0
LINE
8
DEFAULT_255_2_778
10
9.5342411
20
3.3974708
11
9.5025411
21
3.3392708
0
LINE
8
DEFAULT_255_2_778
10
9.5025411
20
3.3392708
11
9.2188411
21
3.3122708
0
LINE
8
DEFAULT_255_2_778
10
9.2188411
20
3.3122708
11
9.2188411
21
3.0915708
0
LINE
8
DEFAULT_255_2_778
10
9.2188411
20
3.0915708
11
10.4343411
21
3.0915708
0
LINE
8
DEFAULT_255_2_778
10
10.4343411
20
3.0915708
11
10.4343411
21
3.3122708
0
LINE
8
DEFAULT_255_2_778
10
10.4343411
20
3.3122708
11
10.1687411
21
3.3572708
0
LINE
8
DEFAULT_255_2_778
10
10.1687411
20
3.3572708
11
9.1331411
21
6.1440708
0
LINE
8
DEFAULT_255_2_778
10
9.1331411
20
6.1440708
11
8.6632411
21
6.1440708
0
LINE
8
DEFAULT_255_2_778
10
8.6632411
20
6.1440708
11
8.6632411
21
6.1438708
0
LINE
8
DEFAULT_255_2_778
10
8.7622411
20
5.5273708
11
9.1627411
21
4.4152708
0
LINE
8
DEFAULT_255_2_778
10
9.1627411
20
4.4152708
11
8.3703411
21
4.4152708
0
LINE
8
DEFAULT_255_2_778
10
8.3703411
20
4.4152708
11
8.7619411
21
5.5273708
0
LINE
8
DEFAULT_255_2_778
10
8.7619411
20
5.5273708
11
8.7622411
21
5.5273708
0
ARC
8
DEFAULT_255_2_778
10
11.6914298
20
4.5362262
40
1.4499217
50
269.5885017
51
285.3938869
0
ARC
8
DEFAULT_255_2_778
10
11.7969248
20
4.1724994
40
1.0712525
50
285.1180235
51
314.8279931
0
ARC
8
DEFAULT_255_2_778
10
11.7807325
20
4.1646263
40
1.0772189
50
315.7340696
51
345.7225579
0
ARC
8
DEFAULT_255_2_778
10
11.4199193
20
4.2656391
40
1.4518264
50
345.3709263
51
0.3631867
0
ARC
8
DEFAULT_255_2_778
10
11.4698026
20
4.2833009
40
1.4019395
50
359.6542841
51
15.881247
0
ARC
8
DEFAULT_255_2_778
10
11.7956431
20
4.3793868
40
1.0622476
50
15.7057367
51
37.7049766
0
ARC
8
DEFAULT_255_2_778
10
12.0174786
20
4.5628715
40
0.7745776
50
37.0026862
51
89.753088
0
ARC
8
DEFAULT_255_2_778
10
12.0351104
20
4.439898
40
0.8976577
50
90.9123866
51
113.5792625
0
ARC
8
DEFAULT_255_2_778
10
12.3690198
20
3.6294397
40
1.7741115
50
112.9925447
51
122.5098237
0
ARC
8
DEFAULT_255_2_778
10
12.9885312
20
2.6129469
40
2.9643682
50
122.0483654
51
124.572221
0
ARC
8
DEFAULT_255_2_778
10
11.7936834
20
3.7302405
40
1.2328845
50
101.1530088
51
112.9969936
0
ARC
8
DEFAULT_255_2_778
10
11.6719174
20
4.3155775
40
0.6350797
50
90.3970384
51
100.5896137
0
ARC
8
DEFAULT_255_2_778
10
11.68158
20
4.3900583
40
0.56076
50
55.6586726
51
91.437088
0
ARC
8
DEFAULT_255_2_778
10
11.6607505
20
4.3930624
40
0.5703431
50
20.5764939
51
53.760313
0
ARC
8
DEFAULT_255_2_778
10
11.3044748
20
4.2484971
40
0.9547518
50
4.6927109
51
21.1842228
0
ARC
8
DEFAULT_255_2_778
10
10.8931851
20
4.2008229
40
1.3686333
50
359.908693
51
5.2732038
0
ARC
8
DEFAULT_255_2_778
10
10.9093545
20
4.1884509
40
1.3525005
50
347.0836317
51
0.4317233
0
ARC
8
DEFAULT_255_2_778
10
11.3718812
20
4.0779369
40
0.8769845
50
327.0723497
51
347.3665057
0
ARC
8
DEFAULT_255_2_778
10
11.611982
20
3.918333
40
0.5887066
50
268.8645882
51
327.4082108
0
ARC
8
DEFAULT_255_2_778
10
11.5998324
20
4.6481212
40
1.3183794
50
257.3901934
51
270.021044
0
LINE
8
DEFAULT_255_2_778
10
10.4566166
20
2.1055419
11
11.6586166
21
2.1055419
0
LINE
8
DEFAULT_255_2_778
10
11.6586166
20
2.1055419
11
11.6631166
21
2.3127419
0
LINE
8
DEFAULT_255_2_778
10
11.6631166
20
2.3127419
11
11.3794166
21
2.3307419
0
LINE
8
DEFAULT_255_2_778
10
11.3794166
20
2.3307419
11
11.3120166
21
2.3936419
0
LINE
8
DEFAULT_255_2_778
10
11.3120166
20
2.3936419
11
11.3120166
21
3.1133419
0
LINE
8
DEFAULT_255_2_778
10
11.3120166
20
3.1133419
11
11.6810166
21
3.0863419
0
LINE
8
DEFAULT_255_2_778
10
11.3064166
20
5.0538419
11
11.3064166
21
5.3236419
0
LINE
8
DEFAULT_255_2_778
10
11.3064166
20
5.3236419
11
11.1037166
21
5.3236419
0
LINE
8
DEFAULT_255_2_778
10
11.1037166
20
5.3236419
11
10.4465166
21
5.1120419
0
LINE
8
DEFAULT_255_2_778
10
10.4465166
20
5.1120419
11
10.4465166
21
4.9321419
0
LINE
8
DEFAULT_255_2_778
10
10.4465166
20
4.9321419
11
10.7571166
21
4.9321419
0
LINE
8
DEFAULT_255_2_778
10
10.7571166
20
4.9321419
11
10.7571166
21
2.4018419
0
LINE
8
DEFAULT_255_2_778
10
10.7571166
20
2.4018419
11
10.6942166
21
2.3344419
0
LINE
8
DEFAULT_255_2_778
10
10.6942166
20
2.3344419
11
10.4507166
21
2.3119419
0
LINE
8
DEFAULT_255_2_778
10
10.4507166
20
2.3119419
11
10.4507166
21
2.1047419
0
LINE
8
DEFAULT_255_2_778
10
10.4507166
20
2.1047419
11
10.4566166
21
2.1055419
0
LINE
8
DEFAULT_255_2_778
10
11.3120166
20
3.3615419
11
11.3120166
21
4.8651419
0
LINE
8
DEFAULT_255_2_778
10
11.3120166
20
3.3615419
11
11.3120166
21
3.3615419
0
ARC
8
DEFAULT_255_2_778
10
14.3557258
20
4.5362262
40
1.4499217
50
269.5885017
51
285.3938869
0
ARC
8
DEFAULT_255_2_778
10
14.4612208
20
4.1724994
40
1.0712525
50
285.1180235
51
314.8279931
0
ARC
8
DEFAULT_255_2_778
10
14.4450284
20
4.1646263
40
1.0772189
50
315.7340696
51
345.7225579
0
ARC
8
DEFAULT_255_2_778
10
14.0842153
20
4.2656391
40
1.4518264
50
345.3709263
51
0.3631867
0
ARC
8
DEFAULT_255_2_778
10
14.1340985
20
4.2833009
40
1.4019395
50
359.6542841
51
15.881247
0
ARC
8
DEFAULT_255_2_778
10
14.459939
20
4.3793868
40
1.0622476
50
15.7057367
51
37.7049766
0
ARC
8
DEFAULT_255_2_778
10
14.6817746
20
4.5628715
40
0.7745776
50
37.0026862
51
89.753088
0
ARC
8
DEFAULT_255_2_778
10
14.6993966
20
4.4401254
40
0.8974302
50
90.9119955
51
113.5822715
0
ARC
8
DEFAULT_255_2_778
10
15.0339721
20
3.6282146
40
1.7754808
50
112.995468
51
122.5055978
0
ARC
8
DEFAULT_255_2_778
10
15.6560579
20
2.6073535
40
2.9708071
50
122.0434313
51
124.5623128
0
ARC
8
DEFAULT_255_2_778
10
14.4579793
20
3.7302405
40
1.2328845
50
101.1530088
51
112.9969936
0
ARC
8
DEFAULT_255_2_778
10
14.3362134
20
4.3155775
40
0.6350797
50
90.3970384
51
100.5896137
0
ARC
8
DEFAULT_255_2_778
10
14.3458876
20
4.3899302
40
0.5608883
50
55.6869426
51
91.4379467
0
ARC
8
DEFAULT_255_2_778
10
14.3252489
20
4.3932297
40
0.5701109
50
20.580472
51
53.7864568
0
ARC
8
DEFAULT_255_2_778
10
13.9687782
20
4.2485559
40
0.9547414
50
4.6920019
51
21.1885899
0
ARC
8
DEFAULT_255_2_778
10
13.5569933
20
4.200827
40
1.3691209
50
359.9085542
51
5.2730859
0
ARC
8
DEFAULT_255_2_778
10
13.5736046
20
4.1884517
40
1.3525464
50
347.0840425
51
0.4316749
0
ARC
8
DEFAULT_255_2_778
10
14.0360999
20
4.0779476
40
0.8770632
50
327.0748515
51
347.3669453
0
ARC
8
DEFAULT_255_2_778
10
14.2763436
20
3.9182321
40
0.5886051
50
268.8677444
51
327.413548
0
ARC
8
DEFAULT_255_2_778
10
14.2642279
20
4.6490224
40
1.3192806
50
257.3945182
51
270.0210492
0
LINE
8
DEFAULT_255_2_778
10
13.1209126
20
2.1055419
11
14.3229126
21
2.1055419
0
LINE
8
DEFAULT_255_2_778
10
14.3229126
20
2.1055419
11
14.3274126
21
2.3127419
0
LINE
8
DEFAULT_255_2_778
10
14.3274126
20
2.3127419
11
14.0437126
21
2.3307419
0
LINE
8
DEFAULT_255_2_778
10
14.0437126
20
2.3307419
11
13.9763126
21
2.3936419
0
LINE
8
DEFAULT_255_2_778
10
13.9763126
20
2.3936419
11
13.9763126
21
3.1133419
0
LINE
8
DEFAULT_255_2_778
10
13.9763126
20
3.1133419
11
14.3453126
21
3.0863419
0
LINE
8
DEFAULT_255_2_778
10
13.9707126
20
5.0538419
11
13.9707126
21
5.3236419
0
LINE
8
DEFAULT_255_2_778
10
13.9707126
20
5.3236419
11
13.7680126
21
5.3236419
0
LINE
8
DEFAULT_255_2_778
10
13.7680126
20
5.3236419
11
13.1108126
21
5.1120419
0
LINE
8
DEFAULT_255_2_778
10
13.1108126
20
5.1120419
11
13.1108126
21
4.9321419
0
LINE
8
DEFAULT_255_2_778
10
13.1108126
20
4.9321419
11
13.4214126
21
4.9321419
0
LINE
8
DEFAULT_255_2_778
10
13.4214126
20
4.9321419
11
13.4214126
21
2.4018419
0
LINE
8
DEFAULT_255_2_778
10
13.4214126
20
2.4018419
11
13.3585126
21
2.3344419
0
LINE
8
DEFAULT_255_2_778
10
13.3585126
20
2.3344419
11
13.1150126
21
2.3119419
0
LINE
8
DEFAULT_255_2_778
10
13.1150126
20
2.3119419
11
13.1150126
21
2.1047419
0
LINE
8
DEFAULT_255_2_778
10
13.1150126
20
2.1047419
11
13.1209126
21
2.1055419
0
LINE
8
DEFAULT_255_2_778
10
13.9763126
20
3.3615419
11
13.9763126
21
4.8651419
0
LINE
8
DEFAULT_255_2_778
10
13.9763126
20
3.3615419
11
13.9763126
21
3.3615419
0
ARC
8
DEFAULT_255_2_778
10
19.6007964
20
4.5563403
40
1.6089827
50
359.4640981
51
8.5954211
0
ARC
8
DEFAULT_255_2_778
10
20.443608
20
4.6904298
40
0.7556258
50
8.0934537
51
26.8478418
0
ARC
8
DEFAULT_255_2_778
10
20.667968
20
4.7910591
40
0.5101338
50
28.1444863
51
73.5358895
0
ARC
8
DEFAULT_255_2_778
10
20.4809181
20
4.2575947
40
1.0751072
50
72.0334524
51
84.7629781
0
ARC
8
DEFAULT_255_2_778
10
20.3771549
20
3.2948473
40
2.0433653
50
84.329637
51
90.2620657
0
ARC
8
DEFAULT_255_2_778
10
20.3610611
20
3.5652842
40
1.77292
50
89.7819338
51
100.7077483
0
ARC
8
DEFAULT_255_2_778
10
20.2752698
20
4.0073088
40
1.3226538
50
100.6137686
51
113.0062901
0
ARC
8
DEFAULT_255_2_778
10
20.0939549
20
4.4244482
40
0.8678377
50
112.7513192
51
128.963531
0
ARC
8
DEFAULT_255_2_778
10
19.8416202
20
4.7279001
40
0.4732457
50
128.311712
51
154.2810675
0
ARC
8
DEFAULT_255_2_778
10
19.6830429
20
4.810783
40
0.2944688
50
155.4206399
51
174.133953
0
ARC
8
DEFAULT_255_2_778
10
19.6494025
20
4.8158291
40
0.2604937
50
174.4817987
51
179.9863122
0
ARC
8
DEFAULT_255_2_778
10
19.542136
20
4.8028184
40
0.1537839
50
175.1234809
51
226.0565764
0
ARC
8
DEFAULT_255_2_778
10
19.5606044
20
4.8593929
40
0.2089542
50
233.1938753
51
269.9888599
0
ARC
8
DEFAULT_255_2_778
10
19.5950802
20
5.1686562
40
0.5193658
50
266.1893814
51
270.1024348
0
ARC
8
DEFAULT_255_2_778
10
20.2388147
20
4.1227989
40
0.9768699
50
90.7217902
51
103.5217251
0
ARC
8
DEFAULT_255_2_778
10
20.2396107
20
4.5068725
40
0.5928636
50
72.4127088
51
91.2663046
0
ARC
8
DEFAULT_255_2_778
10
20.3152482
20
4.7638599
40
0.3250811
50
8.6561484
51
71.434665
0
ARC
8
DEFAULT_255_2_778
10
19.8301217
20
4.6421481
40
0.8243586
50
359.2453947
51
11.946292
0
ARC
8
DEFAULT_255_2_778
10
27.3340817
20
-25.2147472
40
30.4552834
50
102.6695211
51
102.900087
0
ARC
8
DEFAULT_255_2_778
10
24.5497977
20
-13.0650408
40
17.9906294
50
102.8950878
51
103.3122931
0
ARC
8
DEFAULT_255_2_778
10
23.172554
20
-7.2413752
40
12.0063266
50
103.3156916
51
103.8105759
0
ARC
8
DEFAULT_255_2_778
10
22.3890585
20
-4.0552348
40
8.7252664
50
103.8087864
51
104.4577465
0
ARC
8
DEFAULT_255_2_778
10
21.4328911
20
-0.408191
40
4.9550184
50
104.280311
51
107.3985519
0
ARC
8
DEFAULT_255_2_778
10
20.631521
20
2.1298487
40
2.2934837
50
107.2539169
51
113.3802721
0
ARC
8
DEFAULT_255_2_778
10
20.1464781
20
3.2379662
40
1.0838855
50
113.0905751
51
125.0871742
0
ARC
8
DEFAULT_255_2_778
10
19.8206699
20
3.6832322
40
0.5323589
50
123.9405446
51
175.7106506
0
ARC
8
DEFAULT_255_2_778
10
20.1132646
20
3.6408222
40
0.8275575
50
174.2976294
51
180.1198415
0
ARC
8
DEFAULT_255_2_778
10
19.889576
20
3.6293712
40
0.6039454
50
179.0778249
51
212.9742204
0
ARC
8
DEFAULT_255_2_778
10
19.8439985
20
3.6141446
40
0.5575524
50
214.2107861
51
263.1857504
0
ARC
8
DEFAULT_255_2_778
10
19.8748178
20
3.754779
40
0.7009882
50
262.0483043
51
270.0728238
0
ARC
8
DEFAULT_255_2_778
10
19.8757297
20
3.8935866
40
0.8397953
50
269.9985694
51
270.5436292
0
ARC
8
DEFAULT_255_2_778
10
19.8588985
20
4.0686682
40
1.0151418
50
271.3998362
51
293.4049822
0
ARC
8
DEFAULT_255_2_778
10
19.4858182
20
4.9795708
40
1.9993879
50
292.8475305
51
301.8950386
0
ARC
8
DEFAULT_255_2_778
10
18.7985752
20
6.1337874
40
3.3425571
50
301.4430827
51
303.6368609
0
ARC
8
DEFAULT_255_2_778
10
19.9413941
20
4.8851541
40
1.5253277
50
288.8482359
51
297.5422171
0
ARC
8
DEFAULT_255_2_778
10
20.1847316
20
4.1562155
40
0.7568811
50
273.839258
51
289.2421508
0
ARC
8
DEFAULT_255_2_778
10
20.2099121
20
3.9073598
40
0.5069684
50
270.0222242
51
272.8829567
0
ARC
8
DEFAULT_255_2_778
10
20.1984844
20
3.7495365
40
0.3493387
50
235.2242229
51
271.9068889
0
ARC
8
DEFAULT_255_2_778
10
20.191124
20
3.7096316
40
0.3128099
50
182.4614395
51
232.1612239
0
ARC
8
DEFAULT_255_2_778
10
20.3543755
20
3.7375553
40
0.477567
50
179.947687
51
184.9681167
0
ARC
8
DEFAULT_255_2_778
10
20.2444903
20
3.7520995
40
0.3679521
50
118.6383218
51
182.1974057
0
ARC
8
DEFAULT_255_2_778
10
20.5746504
20
3.2385209
40
0.9779129
50
109.1636877
51
121.1949611
0
ARC
8
DEFAULT_255_2_778
10
21.0657398
20
1.8765429
40
2.4256833
50
103.9571469
51
109.5600824
0
ARC
8
DEFAULT_255_2_778
10
21.7469109
20
-0.754992
40
5.143889
50
102.3797858
51
104.2505889
0
LINE
8
DEFAULT_255_2_778
10
15.8167088
20
6.1123913
11
15.8167088
21
5.8916913
0
LINE
8
DEFAULT_255_2_778
10
15.8167088
20
5.8916913
11
16.0779088
21
5.8692913
0
LINE
8
DEFAULT_255_2_778
10
16.0779088
20
5.8692913
11
16.1498088
21
5.7972913
0
LINE
8
DEFAULT_255_2_778
10
16.1498088
20
5.7972913
11
16.1498088
21
3.4064913
0
LINE
8
DEFAULT_255_2_778
10
16.1498088
20
3.4064913
11
16.0779088
21
3.3344913
0
LINE
8
DEFAULT_255_2_778
10
16.0779088
20
3.3344913
11
15.8167088
21
3.3120913
0
LINE
8
DEFAULT_255_2_778
10
15.8167088
20
3.3120913
11
15.8167088
21
3.0913913
0
LINE
8
DEFAULT_255_2_778
10
15.8167088
20
3.0913913
11
17.0910088
21
3.0913913
0
LINE
8
DEFAULT_255_2_778
10
17.0910088
20
3.0913913
11
17.0910088
21
3.3120913
0
LINE
8
DEFAULT_255_2_778
10
17.0910088
20
3.3120913
11
16.8211088
21
3.3344913
0
LINE
8
DEFAULT_255_2_778
10
16.8211088
20
3.3344913
11
16.7491088
21
3.4064913
0
LINE
8
DEFAULT_255_2_778
10
16.7491088
20
3.4064913
11
16.7491088
21
4.5409913
0
LINE
8
DEFAULT_255_2_778
10
16.7491088
20
4.5409913
11
18.0503088
21
4.5409913
0
LINE
8
DEFAULT_255_2_778
10
18.0503088
20
4.5409913
11
18.0503088
21
3.4064913
0
LINE
8
DEFAULT_255_2_778
10
18.0503088
20
3.4064913
11
17.9829088
21
3.3344913
0
LINE
8
DEFAULT_255_2_778
10
17.9829088
20
3.3344913
11
17.7130088
21
3.3120913
0
LINE
8
DEFAULT_255_2_778
10
17.7130088
20
3.3120913
11
17.7130088
21
3.0913913
0
LINE
8
DEFAULT_255_2_778
10
17.7130088
20
3.0913913
11
18.9830088
21
3.0913913
0
LINE
8
DEFAULT_255_2_778
10
18.9830088
20
3.0913913
11
18.9830088
21
3.3120913
0
LINE
8
DEFAULT_255_2_778
10
18.9830088
20
3.3120913
11
18.7219088
21
3.3344913
0
LINE
8
DEFAULT_255_2_778
10
18.7219088
20
3.3344913
11
18.6499088
21
3.4064913
0
LINE
8
DEFAULT_255_2_778
10
18.6499088
20
3.4064913
11
18.6499088
21
5.7972913
0
LINE
8
DEFAULT_255_2_778
10
18.6499088
20
5.7972913
11
18.7219088
21
5.8692913
0
LINE
8
DEFAULT_255_2_778
10
18.7219088
20
5.8692913
11
18.9830088
21
5.8916913
0
LINE
8
DEFAULT_255_2_778
10
18.9830088
20
5.8916913
11
18.9830088
21
6.1123913
0
LINE
8
DEFAULT_255_2_778
10
18.9830088
20
6.1123913
11
17.7130088
21
6.1123913
0
LINE
8
DEFAULT_255_2_778
10
17.7130088
20
6.1123913
11
17.7130088
21
5.8916913
0
LINE
8
DEFAULT_255_2_778
10
17.7130088
20
5.8916913
11
17.9829088
21
5.8692913
0
LINE
8
DEFAULT_255_2_778
10
17.9829088
20
5.8692913
11
18.0503088
21
5.7972913
0
LINE
8
DEFAULT_255_2_778
10
18.0503088
20
5.7972913
11
18.0503088
21
4.8111913
0
LINE
8
DEFAULT_255_2_778
10
18.0503088
20
4.8111913
11
16.7486088
21
4.8111913
0
LINE
8
DEFAULT_255_2_778
10
16.7486088
20
4.8111913
11
16.7486088
21
5.7972913
0
LINE
8
DEFAULT_255_2_778
10
16.7486088
20
5.7972913
11
16.8205088
21
5.8692913
0
LINE
8
DEFAULT_255_2_778
10
16.8205088
20
5.8692913
11
17.0904088
21
5.8916913
0
LINE
8
DEFAULT_255_2_778
10
17.0904088
20
5.8916913
11
17.0904088
21
6.1123913
0
LINE
8
DEFAULT_255_2_778
10
17.0904088
20
6.1123913
11
15.8162088
21
6.1123913
0
LINE
8
DEFAULT_255_2_778
10
15.8162088
20
6.1123913
11
15.8167088
21
6.1123913
0
LINE
8
DEFAULT_255_2_778
10
20.6467088
20
3.3479913
11
20.7049088
21
3.0913913
0
LINE
8
DEFAULT_255_2_778
10
20.7049088
20
3.0913913
11
21.5066088
21
3.0913913
0
LINE
8
DEFAULT_255_2_778
10
21.5066088
20
3.0913913
11
21.5066088
21
3.2897913
0
LINE
8
DEFAULT_255_2_778
10
21.5066088
20
3.2897913
11
21.2679088
21
3.3122913
0
LINE
8
DEFAULT_255_2_778
10
21.2679088
20
3.3122913
11
21.2097088
21
3.3752913
0
LINE
8
DEFAULT_255_2_778
10
21.2097088
20
3.3752913
11
21.2097088
21
4.5412913
0
LINE
8
DEFAULT_255_2_778
10
19.5960088
20
4.6492913
11
20.0104088
21
4.6492913
0
LINE
8
DEFAULT_255_2_778
10
20.0104088
20
4.6492913
11
20.0104088
21
5.0725913
0
LINE
8
DEFAULT_255_2_778
10
20.6544088
20
4.6312913
11
20.6544088
21
4.4989913
0
LINE
8
DEFAULT_255_2_778
10
20.6501088
20
3.3508913
11
20.6467088
21
3.3479913
0
LINE
8
DEFAULT_255_2_778
10
20.6441088
20
4.2692913
11
20.6441088
21
3.5353913
0
LINE
8
DEFAULT_255_2_778
10
20.6441088
20
3.5353913
11
20.6467088
21
3.5326913
0
ARC
8
DEFAULT_255_2_778
10
23.2215978
20
3.5811969
40
1.2854016
50
113.884792
51
121.9395908
0
ARC
8
DEFAULT_255_2_778
10
22.9122211
20
4.2945397
40
0.507917
50
99.3177985
51
114.5559549
0
ARC
8
DEFAULT_255_2_778
10
22.8622426
20
4.5650294
40
0.2329697
50
90.2592765
51
97.9591372
0
ARC
8
DEFAULT_255_2_778
10
22.8798589
20
4.4847965
40
0.3137563
50
90.0021385
51
93.4114742
0
ARC
8
DEFAULT_255_2_778
10
22.8798009
20
4.4863878
40
0.312165
50
28.5954379
51
89.9915114
0
ARC
8
DEFAULT_255_2_778
10
23.063102
20
4.5011088
40
0.8474208
50
63.123971
51
72.4372858
0
ARC
8
DEFAULT_255_2_778
10
23.1440311
20
4.7650841
40
0.5713353
50
72.1868111
51
89.4928309
0
ARC
8
DEFAULT_255_2_778
10
23.152588
20
4.8386232
40
0.497786
50
90.4028131
51
95.9127906
0
ARC
8
DEFAULT_255_2_778
10
23.2185647
20
4.1833736
40
1.1563477
50
95.8199068
51
98.3726308
0
ARC
8
DEFAULT_255_2_778
10
24.9614871
20
2.6045095
40
3.3267369
50
125.0664837
51
137.123314
0
LINE
8
DEFAULT_255_2_778
10
21.6859884
20
3.0913969
11
22.9286884
21
3.0913969
0
LINE
8
DEFAULT_255_2_778
10
22.9286884
20
3.0913969
11
22.9286884
21
3.2940969
0
LINE
8
DEFAULT_255_2_778
10
22.9286884
20
3.2940969
11
22.6090884
21
3.3120969
0
LINE
8
DEFAULT_255_2_778
10
22.6090884
20
3.3120969
11
22.5415884
21
3.3794969
0
LINE
8
DEFAULT_255_2_778
10
22.5415884
20
3.3794969
11
22.5415884
21
4.6719969
0
LINE
8
DEFAULT_255_2_778
10
23.1538884
20
4.6357969
11
23.3879884
21
4.6357969
0
LINE
8
DEFAULT_255_2_778
10
23.3879884
20
4.6357969
11
23.4461884
21
5.2569969
0
LINE
8
DEFAULT_255_2_778
10
22.5235884
20
4.8680969
11
22.5415884
21
5.3273969
0
LINE
8
DEFAULT_255_2_778
10
22.5415884
20
5.3273969
11
22.3254884
21
5.3273969
0
LINE
8
DEFAULT_255_2_778
10
22.3254884
20
5.3273969
11
21.6639884
21
5.1156969
0
LINE
8
DEFAULT_255_2_778
10
21.6639884
20
5.1156969
11
21.6639884
21
4.9357969
0
LINE
8
DEFAULT_255_2_778
10
21.6639884
20
4.9357969
11
21.9880884
21
4.9357969
0
LINE
8
DEFAULT_255_2_778
10
21.9880884
20
4.9357969
11
21.9880884
21
3.3826969
0
LINE
8
DEFAULT_255_2_778
10
21.9880884
20
3.3826969
11
21.9250884
21
3.3151969
0
LINE
8
DEFAULT_255_2_778
10
21.9250884
20
3.3151969
11
21.6864884
21
3.2972969
0
LINE
8
DEFAULT_255_2_778
10
21.6864884
20
3.2972969
11
21.6864884
21
3.0945969
0
LINE
8
DEFAULT_255_2_778
10
21.6864884
20
3.0945969
11
21.6859884
21
3.0913969
0
ARC
8
DEFAULT_255_2_778
10
24.456332
20
6.9155582
40
3.8295847
50
269.818692
51
274.2571653
0
ARC
8
DEFAULT_255_2_778
10
24.5834576
20
5.2666008
40
2.1757445
50
274.1421547
51
280.8160392
0
ARC
8
DEFAULT_255_2_778
10
24.7887283
20
4.2196892
40
1.1089233
50
280.5492011
51
291.6672501
0
ARC
8
DEFAULT_255_2_778
10
24.9131125
20
3.880885
40
0.7481933
50
292.3944671
51
293.3547572
0
ARC
8
DEFAULT_255_2_778
10
24.6998243
20
4.3676488
40
1.2796311
50
293.4823066
51
313.9883876
0
ARC
8
DEFAULT_255_2_778
10
24.8074443
20
4.2357892
40
1.1101075
50
314.7186047
51
351.88004
0
ARC
8
DEFAULT_255_2_778
10
24.4514027
20
4.3066093
40
1.4727161
50
351.1089004
51
0.1510814
0
ARC
8
DEFAULT_255_2_778
10
24.639097
20
4.3196821
40
1.2850494
50
359.5902741
51
17.0838728
0
ARC
8
DEFAULT_255_2_778
10
24.9482835
20
4.4189973
40
0.9603385
50
16.8390824
51
43.917343
0
ARC
8
DEFAULT_255_2_778
10
25.0493234
20
4.5038619
40
0.8287399
50
44.5362526
51
90.450083
0
ARC
8
DEFAULT_255_2_778
10
25.0371823
20
4.3775573
40
0.9550355
50
89.662172
51
89.9981222
0
ARC
8
DEFAULT_255_2_778
10
25.0497537
20
4.2771337
40
1.0555335
50
90.6807081
51
109.5203911
0
ARC
8
DEFAULT_255_2_778
10
25.3057157
20
3.5226842
40
1.8521786
50
109.1849524
51
118.7360096
0
ARC
8
DEFAULT_255_2_778
10
25.6389203
20
2.8736436
40
2.5815589
50
118.2949225
51
119.0746841
0
ARC
8
DEFAULT_255_2_778
10
24.7471473
20
3.2571995
40
1.7287412
50
94.9345519
51
102.3257572
0
ARC
8
DEFAULT_255_2_778
10
24.6635951
20
4.1185588
40
0.863436
50
90.1248523
51
94.3273452
0
ARC
8
DEFAULT_255_2_778
10
24.6747262
20
4.2774294
40
0.7046834
50
67.0238882
51
91.0580743
0
ARC
8
DEFAULT_255_2_778
10
24.7179397
20
4.4150127
40
0.5613193
50
20.2597714
51
65.6028839
0
ARC
8
DEFAULT_255_2_778
10
24.3344602
20
4.2546202
40
0.9767741
50
5.0974814
51
21.2968562
0
ARC
8
DEFAULT_255_2_778
10
23.8554357
20
4.1971811
40
1.4590812
50
359.8787242
51
5.6727897
0
ARC
8
DEFAULT_255_2_778
10
23.7431398
20
4.1811712
40
1.5714269
50
350.3455579
51
0.4711347
0
ARC
8
DEFAULT_255_2_778
10
24.4476909
20
4.0554131
40
0.8557838
50
332.2629901
51
350.7352099
0
ARC
8
DEFAULT_255_2_778
10
24.6849996
20
3.9412216
40
0.5926716
50
281.8600267
51
331.356477
0
ARC
8
DEFAULT_255_2_778
10
24.5403432
20
4.4765436
40
1.1467297
50
270.0712978
51
283.4365153
0
ARC
8
DEFAULT_255_2_778
10
24.5220948
20
4.9188944
40
1.5892016
50
269.9970723
51
270.7093768
0
ARC
8
DEFAULT_255_2_778
10
24.499626
20
4.9249833
40
1.5954477
50
265.6212072
51
270.8040109
0
ARC
8
DEFAULT_255_2_778
10
27.3715012
20
3.9435132
40
1.3944183
50
89.572157
51
106.4529977
0
ARC
8
DEFAULT_255_2_778
10
27.2655279
20
4.2813842
40
1.0403845
50
106.125915
51
140.6509246
0
ARC
8
DEFAULT_255_2_778
10
27.3143335
20
4.2623358
40
1.0903239
50
141.5030311
51
168.768771
0
ARC
8
DEFAULT_255_2_778
10
27.622627
20
4.1906012
40
1.4067229
50
168.348645
51
180.2121435
0
ARC
8
DEFAULT_255_2_778
10
27.5235518
20
4.175173
40
1.3076781
50
179.5522205
51
197.8046435
0
ARC
8
DEFAULT_255_2_778
10
27.2426958
20
4.0812024
40
1.0115466
50
197.6011958
51
255.8690793
0
ARC
8
DEFAULT_255_2_778
10
27.3384144
20
4.3916479
40
1.3360753
50
255.1387297
51
270.3130195
0
ARC
8
DEFAULT_255_2_778
10
27.3558773
20
4.4915069
40
1.4359502
50
269.594456
51
285.5099269
0
ARC
8
DEFAULT_255_2_778
10
27.4577317
20
4.1396996
40
1.0697256
50
285.2919232
51
312.5141309
0
ARC
8
DEFAULT_255_2_778
10
27.4730046
20
4.0997126
40
1.0300503
50
313.3910423
51
348.5435021
0
ARC
8
DEFAULT_255_2_778
10
27.185181
20
4.1718733
40
1.3265414
50
347.9580553
51
0.2081581
0
ARC
8
DEFAULT_255_2_778
10
27.0414588
20
4.1874093
40
1.4702938
50
359.5823805
51
14.8481729
0
ARC
8
DEFAULT_255_2_778
10
27.4340706
20
4.2962329
40
1.0629149
50
14.6013093
51
40.9175232
0
ARC
8
DEFAULT_255_2_778
10
27.4875461
20
4.3213308
40
1.0061956
50
41.8320444
51
75.9829184
0
ARC
8
DEFAULT_255_2_778
10
27.3905071
20
3.9770012
40
1.3638185
50
75.5313336
51
90.3610273
0
ARC
8
DEFAULT_255_2_778
10
27.363647
20
4.6678999
40
0.4313929
50
29.9694126
51
89.9645888
0
ARC
8
DEFAULT_255_2_778
10
27.0203408
20
4.435497
40
0.8454169
50
15.1943558
51
31.9917795
0
ARC
8
DEFAULT_255_2_778
10
26.4207566
20
4.2643593
40
1.4689169
50
4.8057958
51
15.506697
0
ARC
8
DEFAULT_255_2_778
10
25.7245867
20
4.1943846
40
2.1685317
50
359.8813159
51
5.107121
0
ARC
8
DEFAULT_255_2_778
10
25.8414618
20
4.1789221
40
2.0516812
50
352.2202634
51
0.3063697
0
ARC
8
DEFAULT_255_2_778
10
26.6697179
20
4.0614987
40
1.2151609
50
340.3387013
51
352.4195008
0
ARC
8
DEFAULT_255_2_778
10
27.1891255
20
3.8700923
40
0.661658
50
319.5369823
51
340.8138994
0
ARC
8
DEFAULT_255_2_778
10
27.3712278
20
3.7188788
40
0.4249903
50
268.7307098
51
319.11506
0
ARC
8
DEFAULT_255_2_778
10
27.3616049
20
3.7139964
40
0.4200037
50
209.0814424
51
270.0284767
0
ARC
8
DEFAULT_255_2_778
10
27.7199727
20
3.9502136
40
0.848619
50
194.7871429
51
211.2594901
0
ARC
8
DEFAULT_255_2_778
10
28.3489653
20
4.1249549
40
1.5014025
50
184.7435069
51
195.1083503
0
ARC
8
DEFAULT_255_2_778
10
29.0961222
20
4.1985257
40
2.2521138
50
179.8761792
51
185.0369033
0
ARC
8
DEFAULT_255_2_778
10
28.838091
20
4.2142709
40
1.9941071
50
171.7940036
51
180.3125592
0
ARC
8
DEFAULT_255_2_778
10
28.0502507
20
4.3320466
40
1.1975299
50
159.5341465
51
171.9910982
0
ARC
8
DEFAULT_255_2_778
10
27.5482197
20
4.5249043
40
0.6597742
50
138.7728924
51
159.9813862
0
ARC
8
DEFAULT_255_2_778
10
27.360732
20
4.6881557
40
0.4111749
50
89.2221939
51
138.6640583
0
LINE
8
DEFAULT_255_2_778
10
24.1619136
20
6.4181927
11
23.4957136
21
6.2064927
0
LINE
8
DEFAULT_255_2_778
10
23.4957136
20
6.2064927
11
23.4957136
21
6.0308927
0
LINE
8
DEFAULT_255_2_778
10
23.4957136
20
6.0308927
11
23.8198136
21
6.0308927
0
LINE
8
DEFAULT_255_2_778
10
23.8198136
20
6.0308927
11
23.8198136
21
3.0949927
0
LINE
8
DEFAULT_255_2_778
10
23.8198136
20
3.0949927
11
24.3225136
21
3.0859927
0
LINE
8
DEFAULT_255_2_778
10
24.3225136
20
3.0859927
11
24.4442136
21
3.0859927
0
LINE
8
DEFAULT_255_2_778
10
24.3844136
20
5.1298927
11
24.3844136
21
6.4181927
0
LINE
8
DEFAULT_255_2_778
10
24.3844136
20
6.4181927
11
24.1683136
21
6.4181927
0
LINE
8
DEFAULT_255_2_778
10
24.1683136
20
6.4181927
11
24.1619136
21
6.4181927
0
LINE
8
DEFAULT_255_2_778
10
24.3781136
20
3.3341927
11
24.3781136
21
4.9460927
0
LINE
8
DEFAULT_255_2_778
10
24.3778136
20
3.3341927
11
24.3781136
21
3.3341927
0
LINE
8
DEFAULT_255_2_778
10
27.3819136
20
5.3407927
11
27.3819136
21
5.3378927
0
LINE
8
DEFAULT_255_2_778
10
27.3663136
20
5.0992927
11
27.3639136
21
5.0992927
0
ARC
8
DEFAULT_255_2_778
10
30.3097897
20
3.5811969
40
1.2854016
50
113.884792
51
121.9395908
0
ARC
8
DEFAULT_255_2_778
10
30.000413
20
4.2945397
40
0.507917
50
99.3177985
51
114.5559549
0
ARC
8
DEFAULT_255_2_778
10
29.9504346
20
4.5650294
40
0.2329697
50
90.2592765
51
97.9591372
0
ARC
8
DEFAULT_255_2_778
10
29.9680508
20
4.4847965
40
0.3137563
50
90.0021385
51
93.4114742
0
ARC
8
DEFAULT_255_2_778
10
29.9679928
20
4.4863878
40
0.312165
50
28.5954379
51
89.9915114
0
ARC
8
DEFAULT_255_2_778
10
30.151294
20
4.5011088
40
0.8474208
50
63.123971
51
72.4372858
0
ARC
8
DEFAULT_255_2_778
10
30.2322231
20
4.7650841
40
0.5713353
50
72.1868111
51
89.4928309
0
ARC
8
DEFAULT_255_2_778
10
30.2407799
20
4.8386232
40
0.497786
50
90.4028131
51
95.9127906
0
ARC
8
DEFAULT_255_2_778
10
30.3067566
20
4.1833736
40
1.1563477
50
95.8199068
51
98.3726308
0
ARC
8
DEFAULT_255_2_778
10
32.0526086
20
2.6011512
40
3.3311688
50
125.0745392
51
137.1152693
0
LINE
8
DEFAULT_255_2_778
10
28.7741803
20
3.0913969
11
30.0168803
21
3.0913969
0
LINE
8
DEFAULT_255_2_778
10
30.0168803
20
3.0913969
11
30.0168803
21
3.2940969
0
LINE
8
DEFAULT_255_2_778
10
30.0168803
20
3.2940969
11
29.6972803
21
3.3120969
0
LINE
8
DEFAULT_255_2_778
10
29.6972803
20
3.3120969
11
29.6297803
21
3.3794969
0
LINE
8
DEFAULT_255_2_778
10
29.6297803
20
3.3794969
11
29.6297803
21
4.6719969
0
LINE
8
DEFAULT_255_2_778
10
30.2420803
20
4.6357969
11
30.4761803
21
4.6357969
0
LINE
8
DEFAULT_255_2_778
10
30.4761803
20
4.6357969
11
30.5343803
21
5.2569969
0
LINE
8
DEFAULT_255_2_778
10
29.6117803
20
4.8680969
11
29.6297803
21
5.3273969
0
LINE
8
DEFAULT_255_2_778
10
29.6297803
20
5.3273969
11
29.4136803
21
5.3273969
0
LINE
8
DEFAULT_255_2_778
10
29.4136803
20
5.3273969
11
28.7521803
21
5.1156969
0
LINE
8
DEFAULT_255_2_778
10
28.7521803
20
5.1156969
11
28.7521803
21
4.9357969
0
LINE
8
DEFAULT_255_2_778
10
28.7521803
20
4.9357969
11
29.0762803
21
4.9357969
0
LINE
8
DEFAULT_255_2_778
10
29.0762803
20
4.9357969
11
29.0762803
21
3.3826969
0
LINE
8
DEFAULT_255_2_778
10
29.0762803
20
3.3826969
11
29.0132803
21
3.3151969
0
LINE
8
DEFAULT_255_2_778
10
29.0132803
20
3.3151969
11
28.7746803
21
3.2972969
0
LINE
8
DEFAULT_255_2_778
10
28.7746803
20
3.2972969
11
28.7746803
21
3.0945969
0
LINE
8
DEFAULT_255_2_778
10
28.7746803
20
3.0945969
11
28.7741803
21
3.0913969
0
ENDSEC
0
EOF