0
SECTION
2
HEADER
9
$MEASUREMENT
70
1
0
ENDSEC
0
SECTION
2
TABLES
0
TABLE
2
LTYPE
0
LTYPE
72
65
70
64
2
CONTINUOUS
3
______
73
0
40
0
0
ENDTAB
0
TABLE
2
LAYER
0
LAYER
2
DEFAULT_255_2_778
70
0
62
255
6
CONTINUOUS
0
ENDTAB
0
ENDSEC
0
SECTION
2
ENTITIES
0
ARC
8
DEFAULT_255_2_778
10
-0.0678268
20
0.5934658
40
3.2913264
50
48.2143791
51
74.720913
0
ARC
8
DEFAULT_255_2_778
10
-0.0641196
20
0.6023091
40
3.281819
50
74.742664
51
84.2859052
0
ARC
8
DEFAULT_255_2_778
10
3.9439801
20
-1.3187564
40
6.3602595
50
124.2033847
51
125.3665017
0
ARC
8
DEFAULT_255_2_778
10
3.8755372
20
-1.2183145
40
6.2387153
50
122.7664008
51
124.2020633
0
ARC
8
DEFAULT_255_2_778
10
3.8546454
20
-1.185988
40
6.2002255
50
121.1200206
51
122.7657354
0
ARC
8
DEFAULT_255_2_778
10
3.848545
20
-1.1759166
40
6.1884507
50
119.4065639
51
121.1198613
0
ARC
8
DEFAULT_255_2_778
10
3.8428958
20
-1.165881
40
6.1769344
50
117.5614308
51
119.406621
0
ARC
8
DEFAULT_255_2_778
10
3.8301963
20
-1.1412207
40
6.1491967
50
114.1579296
51
117.5628476
0
ARC
8
DEFAULT_255_2_778
10
3.8092158
20
-1.0942651
40
6.0977671
50
110.3512748
51
114.1586221
0
ARC
8
DEFAULT_255_2_778
10
3.7898371
20
-1.0419837
40
6.0420099
50
105.979793
51
110.351399
0
ARC
8
DEFAULT_255_2_778
10
3.7809446
20
-1.0116037
40
6.0103556
50
101.355011
51
105.9780255
0
ARC
8
DEFAULT_255_2_778
10
3.7847092
20
-1.0320113
40
6.031105
50
96.6139418
51
101.3519038
0
ARC
8
DEFAULT_255_2_778
10
3.7951641
20
-1.1257773
40
6.1254512
50
91.8230884
51
96.6100646
0
ARC
8
DEFAULT_255_2_778
10
3.7995976
20
-1.2369117
40
6.2366704
50
90.1990293
51
91.8313167
0
ARC
8
DEFAULT_255_2_778
10
3.2766796
20
6.4490076
40
1.8459125
50
272.1718296
51
272.6493032
0
ARC
8
DEFAULT_255_2_778
10
3.1608409
20
8.9919177
40
4.3914594
50
272.6254919
51
273.2455453
0
ARC
8
DEFAULT_255_2_778
10
3.0540876
20
10.8922367
40
6.2947746
50
273.2363999
51
273.9449197
0
ARC
8
DEFAULT_255_2_778
10
2.9781198
20
12.0063537
40
7.4114783
50
273.9382664
51
274.6312768
0
ARC
8
DEFAULT_255_2_778
10
2.9304553
20
12.5965073
40
8.0035537
50
274.6302611
51
275.6604309
0
ARC
8
DEFAULT_255_2_778
10
2.9262106
20
12.6470485
40
8.0542671
50
275.6550173
51
276.9615631
0
ARC
8
DEFAULT_255_2_778
10
2.9926503
20
12.1138455
40
7.5169425
50
276.9514723
51
278.7259299
0
ARC
8
DEFAULT_255_2_778
10
3.2156839
20
10.7160958
40
6.101541
50
278.6470316
51
282.6320438
0
ARC
8
DEFAULT_255_2_778
10
3.7280369
20
8.5002094
40
3.827276
50
282.4020791
51
290.0975755
0
ARC
8
DEFAULT_255_2_778
10
4.2838075
20
6.9604378
40
2.1903008
50
290.2850607
51
297.491466
0
ARC
8
DEFAULT_255_2_778
10
4.6689665
20
6.2231073
40
1.3584347
50
297.4365192
51
306.9579082
0
ARC
8
DEFAULT_255_2_778
10
4.9912062
20
5.7996447
40
0.8263208
50
306.7570459
51
321.7686494
0
ARC
8
DEFAULT_255_2_778
10
5.130322
20
5.6809802
40
0.6436482
50
322.4027285
51
323.6214358
0
ARC
8
DEFAULT_255_2_778
10
5.2501106
20
5.352384
40
0.4019538
50
340.058268
51
352.3997301
0
ARC
8
DEFAULT_255_2_778
10
4.3701966
20
5.6439878
40
1.3288178
50
339.3814021
51
341.1788876
0
ARC
8
DEFAULT_255_2_778
10
7.7224618
20
4.3618063
40
2.260318
50
158.8854077
51
160.7336437
0
ARC
8
DEFAULT_255_2_778
10
3.6985749
20
5.7631406
40
2.000601
50
313.6605777
51
340.8731146
0
ARC
8
DEFAULT_255_2_778
10
3.4999577
20
5.9517342
40
2.2741999
50
308.5725593
51
314.0003415
0
ARC
8
DEFAULT_255_2_778
10
2.6721631
20
7.0520943
40
3.6508239
50
292.5429962
51
307.9621388
0
ARC
8
DEFAULT_255_2_778
10
1.2824529
20
10.053981
40
6.9573904
50
292.6828738
51
293.6356497
0
ARC
8
DEFAULT_255_2_778
10
-2.4594455
20
18.9777889
40
16.6339651
50
291.7258976
51
292.7213999
0
ARC
8
DEFAULT_255_2_778
10
0.5705252
20
11.2582264
40
8.3412747
50
286.426641
51
292.0198009
0
ARC
8
DEFAULT_255_2_778
10
2.8792956
20
3.3564223
40
0.1109279
50
271.2591513
51
296.813135
0
ARC
8
DEFAULT_255_2_778
10
5.7379091
20
2.761106
40
0.4976353
50
85.8256036
51
86.0465531
0
ARC
8
DEFAULT_255_2_778
10
5.6629597
20
1.6806539
40
1.5806837
50
86.0364668
51
86.3357507
0
ARC
8
DEFAULT_255_2_778
10
5.5871857
20
0.5010033
40
2.7627654
50
86.3310209
51
86.6652476
0
ARC
8
DEFAULT_255_2_778
10
5.5300832
20
-0.4723536
40
3.7377956
50
86.6593291
51
86.9177401
0
ARC
8
DEFAULT_255_2_778
10
5.4795901
20
-1.4140147
40
4.6808094
50
86.920345
51
87.2929161
0
ARC
8
DEFAULT_255_2_778
10
5.4322451
20
-2.413349
40
5.6812645
50
87.2919707
51
87.6725179
0
ARC
8
DEFAULT_255_2_778
10
5.4175295
20
-2.76294
40
6.0311647
50
87.6677093
51
87.7246167
0
ARC
8
DEFAULT_255_2_778
10
5.3913184
20
-3.4316145
40
6.7003527
50
87.7276744
51
88.1249767
0
ARC
8
DEFAULT_255_2_778
10
5.3651492
20
-4.2316747
40
7.5008407
50
88.1251475
51
88.5709943
0
ARC
8
DEFAULT_255_2_778
10
5.3483548
20
-4.8915411
40
8.1609207
50
88.5686552
51
88.9132237
0
ARC
8
DEFAULT_255_2_778
10
5.3373867
20
-5.4768901
40
8.7463724
50
88.9141143
51
89.3797096
0
ARC
8
DEFAULT_255_2_778
10
5.331265
20
-6.0339447
40
9.3034605
50
89.3791509
51
89.8437779
0
ARC
8
DEFAULT_255_2_778
10
5.330129
20
-6.3258289
40
9.5953467
50
89.8417467
51
90.000639
0
ARC
8
DEFAULT_255_2_778
10
5.3313245
20
-6.8692329
40
10.1387508
50
90.0073607
51
91.0765639
0
ARC
8
DEFAULT_255_2_778
10
5.3438631
20
-7.5397212
40
10.8093564
50
91.0762403
51
92.4571993
0
ARC
8
DEFAULT_255_2_778
10
5.3580972
20
-7.8857268
40
11.155654
50
92.4540492
51
93.7962307
0
ARC
8
DEFAULT_255_2_778
10
5.3607093
20
-7.9319233
40
11.2019222
50
93.7939177
51
95.6513289
0
ARC
8
DEFAULT_255_2_778
10
5.3338422
20
-7.6689408
40
10.9375722
50
95.6469311
51
97.8739842
0
ARC
8
DEFAULT_255_2_778
10
5.2531264
20
-7.0957382
40
10.3587164
50
97.8660802
51
100.7122079
0
ARC
8
DEFAULT_255_2_778
10
5.0820692
20
-6.2065529
40
9.4532316
50
100.695249
51
104.6080402
0
ARC
8
DEFAULT_255_2_778
10
4.8609459
20
-5.3462531
40
8.5649743
50
104.6280878
51
107.4149747
0
ARC
8
DEFAULT_255_2_778
10
-0.1703459
20
0.428766
40
3.4406015
50
27.3942052
51
44.1695278
0
ARC
8
DEFAULT_255_2_778
10
18.1839804
20
-25.8842671
40
31.8161576
50
118.4542043
51
118.7424675
0
ARC
8
DEFAULT_255_2_778
10
17.4651144
20
-24.5558814
40
30.3057351
50
117.9856011
51
118.4558906
0
ARC
8
DEFAULT_255_2_778
10
16.354515
20
-22.4647808
40
27.9380078
50
117.4605591
51
117.9866598
0
ARC
8
DEFAULT_255_2_778
10
14.169642
20
-18.2349588
40
23.1772414
50
116.015027
51
117.4898065
0
ARC
8
DEFAULT_255_2_778
10
11.0268477
20
-11.7727631
40
15.9913535
50
113.8361311
51
116.0508562
0
ARC
8
DEFAULT_255_2_778
10
8.7084146
20
-6.531331
40
10.2600594
50
111.4964544
51
113.822152
0
ARC
8
DEFAULT_255_2_778
10
7.3990253
20
-3.2075669
40
6.6876784
50
108.8791436
51
111.493573
0
ARC
8
DEFAULT_255_2_778
10
6.6050915
20
-0.8769376
40
4.225535
50
105.3407192
51
108.918548
0
ARC
8
DEFAULT_255_2_778
10
6.1454968
20
0.8086469
40
2.4784201
50
100.3797323
51
105.4035182
0
ARC
8
DEFAULT_255_2_778
10
5.9881891
20
1.6337412
40
1.6384973
50
97.7112888
51
100.1672935
0
ARC
8
DEFAULT_255_2_778
10
0.0960724
20
0.6251387
40
3.1325395
50
4.59736
51
21.2898629
0
LINE
8
DEFAULT_255_2_778
10
2.8799332
20
3.2452211
11
2.1253332
21
3.0476211
0
LINE
8
DEFAULT_255_2_778
10
3.7779332
20
4.9997211
11
3.3466332
21
4.6044211
0
LINE
8
DEFAULT_255_2_778
10
3.2185332
20
0.8762211
11
4.8113332
21
2.5528211
0
LINE
8
DEFAULT_255_2_778
10
4.8113332
20
2.5528211
11
3.0148332
21
1.7625211
0
ARC
8
DEFAULT_255_2_778
10
6.4637668
20
2.9014463
40
2.2819851
50
297.4419984
51
311.321389
0
ARC
8
DEFAULT_255_2_778
10
7.0041797
20
1.9059198
40
1.1496164
50
270.4256779
51
296.4045108
0
ARC
8
DEFAULT_255_2_778
10
6.9960151
20
1.8962832
40
1.1400705
50
270.0000886
51
270.8395886
0
ARC
8
DEFAULT_255_2_778
10
6.9961215
20
1.8990727
40
1.14286
50
254.4331469
51
269.9947553
0
ARC
8
DEFAULT_255_2_778
10
6.8693974
20
1.4446756
40
0.6711232
50
229.3181998
51
254.4444548
0
ARC
8
DEFAULT_255_2_778
10
6.8010387
20
1.3973857
40
0.5910748
50
203.3373271
51
231.3555129
0
ARC
8
DEFAULT_255_2_778
10
6.960541
20
1.4741488
40
0.7679718
50
181.5656969
51
203.8817511
0
ARC
8
DEFAULT_255_2_778
10
7.0738283
20
1.4866204
40
0.8816075
50
179.9990483
51
182.1747729
0
ARC
8
DEFAULT_255_2_778
10
7.0953271
20
1.5007677
40
0.903217
50
154.1887851
51
180.8965416
0
ARC
8
DEFAULT_255_2_778
10
6.9438135
20
1.5461595
40
0.7474774
50
126.2227803
51
152.263923
0
ARC
8
DEFAULT_255_2_778
10
7.2439141
20
1.1840459
40
1.2172658
50
122.9564017
51
127.5463104
0
ARC
8
DEFAULT_255_2_778
10
7.3131958
20
1.0527178
40
1.3652154
50
110.2995242
51
122.3978212
0
ARC
8
DEFAULT_255_2_778
10
7.691735
20
0.0647143
40
2.4232126
50
103.4836243
51
110.589475
0
ARC
8
DEFAULT_255_2_778
10
8.4670536
20
-3.3539327
40
5.9285665
50
94.9148703
51
103.0664204
0
ARC
8
DEFAULT_255_2_778
10
7.1877285
20
2.8082348
40
0.7714967
50
359.0568068
51
16.7520065
0
ARC
8
DEFAULT_255_2_778
10
7.507909
20
2.9057156
40
0.4368086
50
16.6131894
51
48.4345569
0
ARC
8
DEFAULT_255_2_778
10
7.4234271
20
2.7919844
40
0.5780835
50
49.6486386
51
81.0865117
0
ARC
8
DEFAULT_255_2_778
10
7.3593756
20
2.4731277
40
0.9031205
50
80.2063277
51
90.3080124
0
ARC
8
DEFAULT_255_2_778
10
7.3680625
20
1.5531908
40
1.8230946
50
90.4255942
51
105.4817709
0
ARC
8
DEFAULT_255_2_778
10
7.4842291
20
1.0819346
40
2.3083014
50
105.1381952
51
117.445543
0
ARC
8
DEFAULT_255_2_778
10
7.6504545
20
0.632874
40
3.0320713
50
109.9116326
51
114.6819288
0
ARC
8
DEFAULT_255_2_778
10
8.2506077
20
-1.0304259
40
4.8003324
50
106.9476573
51
109.885429
0
ARC
8
DEFAULT_255_2_778
10
7.3565964
20
1.6574224
40
1.9699157
50
89.9920655
51
104.8622564
0
ARC
8
DEFAULT_255_2_778
10
7.3567457
20
1.4998777
40
2.1274604
50
89.9037226
51
89.9966751
0
ARC
8
DEFAULT_255_2_778
10
7.3724113
20
2.3919841
40
1.2354101
50
76.2758831
51
90.5607474
0
ARC
8
DEFAULT_255_2_778
10
7.4945698
20
2.8665163
40
0.7454693
50
50.3128086
51
76.743914
0
ARC
8
DEFAULT_255_2_778
10
7.5693199
20
2.9719418
40
0.6166828
50
46.3069954
51
49.4021726
0
ARC
8
DEFAULT_255_2_778
10
7.5105463
20
2.9237671
40
0.6921772
50
13.5822705
51
45.5439827
0
ARC
8
DEFAULT_255_2_778
10
7.117287
20
2.8169563
40
1.0995819
50
359.462186
51
14.1799545
0
ARC
8
DEFAULT_255_2_778
10
8.6057877
20
-3.77481
40
6.1398146
50
95.9941977
51
99.2176017
0
ARC
8
DEFAULT_255_2_778
10
8.3656174
20
-2.3044832
40
4.6500027
50
99.1985588
51
102.991795
0
ARC
8
DEFAULT_255_2_778
10
8.1927916
20
-1.5283543
40
3.8548924
50
103.0821757
51
104.0304559
0
ARC
8
DEFAULT_255_2_778
10
7.8925448
20
-0.3871175
40
2.6749509
50
103.7175004
51
109.4978915
0
ARC
8
DEFAULT_255_2_778
10
7.4466896
20
0.8623767
40
1.3483003
50
109.3601791
51
118.8058372
0
ARC
8
DEFAULT_255_2_778
10
7.1919055
20
1.3440985
40
0.8034708
50
119.4374986
51
137.4657564
0
ARC
8
DEFAULT_255_2_778
10
7.0193548
20
1.5114636
40
0.5632184
50
138.1450504
51
147.2397548
0
ARC
8
DEFAULT_255_2_778
10
7.1127897
20
1.509165
40
0.6448716
50
151.5642822
51
179.8427278
0
ARC
8
DEFAULT_255_2_778
10
7.0568722
20
1.4979307
40
0.5890951
50
178.7350847
51
202.0613264
0
ARC
8
DEFAULT_255_2_778
10
6.8671347
20
1.4267976
40
0.3865692
50
202.8528569
51
232.034156
0
ARC
8
DEFAULT_255_2_778
10
7.0022765
20
1.6138321
40
0.6172199
50
232.8250253
51
270.053688
0
ARC
8
DEFAULT_255_2_778
10
7.0245512
20
1.8449316
40
0.8485964
50
268.53494
51
270.0046907
0
ARC
8
DEFAULT_255_2_778
10
7.0087762
20
1.9809598
40
0.9847522
50
270.9219146
51
289.6761118
0
ARC
8
DEFAULT_255_2_778
10
6.8929007
20
2.3524352
40
1.3736461
50
289.0100974
51
295.8401487
0
ARC
8
DEFAULT_255_2_778
10
6.7571757
20
2.6755783
40
1.723738
50
295.2188475
51
314.186785
0
ARC
8
DEFAULT_255_2_778
10
9.1428566
20
2.2552854
40
2.2592859
50
350.1791079
51
0.2523255
0
ARC
8
DEFAULT_255_2_778
10
9.6789081
20
2.1650708
40
1.7157039
50
340.9061245
51
350.094249
0
ARC
8
DEFAULT_255_2_778
10
9.9908516
20
2.0517358
40
1.3838578
50
324.7733566
51
341.1155307
0
ARC
8
DEFAULT_255_2_778
10
10.2281964
20
1.8916951
40
1.0976803
50
316.5527385
51
324.451308
0
ARC
8
DEFAULT_255_2_778
10
10.2071105
20
1.8991749
40
1.1181692
50
291.8915269
51
317.0174999
0
ARC
8
DEFAULT_255_2_778
10
10.1502415
20
2.0649629
40
1.293238
50
269.7731237
51
291.4907534
0
ARC
8
DEFAULT_255_2_778
10
10.137292
20
2.8145327
40
2.0428126
50
270.0014796
51
270.2195742
0
ARC
8
DEFAULT_255_2_778
10
10.1379305
20
2.821309
40
2.0495889
50
259.2581856
51
269.9836248
0
ARC
8
DEFAULT_255_2_778
10
10.1278657
20
2.7188118
40
1.9470335
50
248.3178696
51
258.9870021
0
ARC
8
DEFAULT_255_2_778
10
10.8342309
20
1.881566
40
1.9258919
50
123.1808981
51
138.0041659
0
ARC
8
DEFAULT_255_2_778
10
10.2431721
20
2.7681585
40
0.860436
50
95.1230688
51
122.5505073
0
ARC
8
DEFAULT_255_2_778
10
10.2814561
20
2.5009951
40
1.1300408
50
89.925742
51
95.8468428
0
ARC
8
DEFAULT_255_2_778
10
10.2784897
20
2.4577273
40
1.1733162
50
68.2000485
51
89.7836251
0
ARC
8
DEFAULT_255_2_778
10
10.3732705
20
2.6771486
40
0.9344107
50
41.4613088
51
68.5996498
0
ARC
8
DEFAULT_255_2_778
10
10.1603513
20
2.4851208
40
1.2211207
50
18.403397
51
41.5987587
0
ARC
8
DEFAULT_255_2_778
10
9.5692118
20
2.3338302
40
1.8302979
50
5.6517278
51
17.0549237
0
ARC
8
DEFAULT_255_2_778
10
8.9985498
20
2.2710522
40
2.4043766
50
359.8756777
51
5.8012174
0
ARC
8
DEFAULT_255_2_778
10
9.0516225
20
2.266847
40
2.0640385
50
359.6415765
51
8.5650903
0
ARC
8
DEFAULT_255_2_778
10
9.86768
20
2.3948782
40
1.2380247
50
8.3306555
51
23.2970896
0
ARC
8
DEFAULT_255_2_778
10
10.2119418
20
2.5382728
40
0.8651307
50
23.5919402
51
39.850341
0
ARC
8
DEFAULT_255_2_778
10
10.2789844
20
2.6160733
40
0.7639914
50
38.5926309
51
91.0547797
0
ARC
8
DEFAULT_255_2_778
10
10.2619135
20
2.572513
40
0.8074277
50
89.7866083
51
89.9999854
0
ARC
8
DEFAULT_255_2_778
10
10.2619132
20
2.56848
40
0.8114607
50
89.9999671
51
123.8578472
0
ARC
8
DEFAULT_255_2_778
10
10.554711
20
2.1030639
40
1.3611762
50
123.1778871
51
123.5629094
0
ARC
8
DEFAULT_255_2_778
10
10.7800276
20
1.7891305
40
1.7473949
50
124.0282884
51
135.3022949
0
ARC
8
DEFAULT_255_2_778
10
11.250746
20
1.3038673
40
2.4233519
50
134.9748111
51
139.7040783
0
ARC
8
DEFAULT_255_2_778
10
10.1149797
20
2.6079436
40
1.5944848
50
243.4556859
51
256.7609824
0
ARC
8
DEFAULT_255_2_778
10
10.1144532
20
2.6211376
40
1.6072115
50
256.8869711
51
270.0079754
0
ARC
8
DEFAULT_255_2_778
10
10.1146753
20
2.6288262
40
1.6149
50
270.0000571
51
270.6650901
0
ARC
8
DEFAULT_255_2_778
10
10.1419016
20
2.0272392
40
1.0132396
50
269.5204208
51
291.7351188
0
ARC
8
DEFAULT_255_2_778
10
10.2280103
20
1.8086375
40
0.7782924
50
291.8061515
51
320.495463
0
ARC
8
DEFAULT_255_2_778
10
10.0400037
20
1.9780955
40
1.0312126
50
319.8758781
51
339.1379858
0
ARC
8
DEFAULT_255_2_778
10
9.2706769
20
2.3136166
40
1.8700065
50
337.9260187
51
340.9265255
0
ARC
8
DEFAULT_255_2_778
10
9.7170483
20
2.1469098
40
1.3937133
50
341.4070777
51
354.9926151
0
ARC
8
DEFAULT_255_2_778
10
8.7854584
20
2.2451016
40
2.3303768
50
354.5868345
51
0.2024329
0
ARC
8
DEFAULT_255_2_778
10
12.1352822
20
2.2551922
40
2.2621607
50
350.1941088
51
0.2543662
0
ARC
8
DEFAULT_255_2_778
10
12.6765341
20
2.1642364
40
1.7133276
50
340.9081439
51
350.1086985
0
ARC
8
DEFAULT_255_2_778
10
12.9844985
20
2.0528031
40
1.385862
50
324.7778465
51
341.0972398
0
ARC
8
DEFAULT_255_2_778
10
13.2257374
20
1.8902052
40
1.0950286
50
316.5286989
51
324.4479812
0
ARC
8
DEFAULT_255_2_778
10
13.2034047
20
1.8977256
40
1.116454
50
291.8719184
51
317.0371265
0
ARC
8
DEFAULT_255_2_778
10
13.1456143
20
2.0645773
40
1.2928526
50
269.7698315
51
291.4940139
0
ARC
8
DEFAULT_255_2_778
10
13.132592
20
2.8145327
40
2.0428126
50
270.0014796
51
270.2195742
0
ARC
8
DEFAULT_255_2_778
10
13.1332305
20
2.821309
40
2.0495889
50
259.2581856
51
269.9836248
0
ARC
8
DEFAULT_255_2_778
10
13.1238583
20
2.7211741
40
1.9494847
50
248.3246052
51
258.9802844
0
ARC
8
DEFAULT_255_2_778
10
13.8258438
20
1.885986
40
1.9201201
50
123.1585008
51
138.0265781
0
ARC
8
DEFAULT_255_2_778
10
13.238417
20
2.7686189
40
0.8599645
50
95.1161663
51
122.5582973
0
ARC
8
DEFAULT_255_2_778
10
13.2768601
20
2.500722
40
1.1303139
50
89.9259669
51
95.8461361
0
ARC
8
DEFAULT_255_2_778
10
13.2738124
20
2.4578495
40
1.1731943
50
68.1988627
51
89.7798281
0
ARC
8
DEFAULT_255_2_778
10
13.3685254
20
2.6768054
40
0.9347468
50
41.4711848
51
68.6047501
0
ARC
8
DEFAULT_255_2_778
10
13.1529892
20
2.483526
40
1.2242453
50
18.4334064
51
41.5687493
0
ARC
8
DEFAULT_255_2_778
10
12.5584857
20
2.3327354
40
1.8364759
50
5.6669745
51
17.0315204
0
ARC
8
DEFAULT_255_2_778
10
11.9976232
20
2.2709803
40
2.400703
50
359.8772025
51
5.811849
0
ARC
8
DEFAULT_255_2_778
10
12.046544
20
2.2668389
40
2.064417
50
359.6418652
51
8.5637337
0
ARC
8
DEFAULT_255_2_778
10
12.8623972
20
2.3948179
40
1.238613
50
8.3294905
51
23.2884083
0
ARC
8
DEFAULT_255_2_778
10
13.2069117
20
2.5382661
40
0.8654651
50
23.5827536
51
39.8324346
0
ARC
8
DEFAULT_255_2_778
10
13.2742531
20
2.6157936
40
0.7642685
50
38.6028757
51
91.044547
0
ARC
8
DEFAULT_255_2_778
10
13.2573135
20
2.572513
40
0.8074277
50
89.7866083
51
89.9999854
0
ARC
8
DEFAULT_255_2_778
10
13.2573132
20
2.56848
40
0.8114607
50
89.9999671
51
123.8578472
0
ARC
8
DEFAULT_255_2_778
10
13.7634905
20
1.8026655
40
1.7294304
50
123.6484451
51
135.2243958
0
ARC
8
DEFAULT_255_2_778
10
14.241632
20
1.307801
40
2.4174415
50
134.8802705
51
139.7075286
0
ARC
8
DEFAULT_255_2_778
10
13.1109282
20
2.6097354
40
1.5963775
50
243.463604
51
256.753054
0
ARC
8
DEFAULT_255_2_778
10
13.1099236
20
2.622621
40
1.6086949
50
256.8930465
51
270.0054597
0
ARC
8
DEFAULT_255_2_778
10
13.1100753
20
2.6288272
40
1.614901
50
270.0000571
51
270.66509
0
ARC
8
DEFAULT_255_2_778
10
13.1373002
20
2.0267253
40
1.0127257
50
269.5202552
51
291.7407037
0
ARC
8
DEFAULT_255_2_778
10
13.2241465
20
1.8074934
40
0.7769196
50
291.7802368
51
320.5213319
0
ARC
8
DEFAULT_255_2_778
10
13.0363224
20
1.9776913
40
1.0301732
50
319.8565587
51
339.1400176
0
ARC
8
DEFAULT_255_2_778
10
12.2537704
20
2.3189859
40
1.8833922
50
337.9148914
51
340.8944911
0
ARC
8
DEFAULT_255_2_778
10
12.7124483
20
2.1469098
40
1.3937133
50
341.4070777
51
354.9926151
0
ARC
8
DEFAULT_255_2_778
10
11.7808584
20
2.2451016
40
2.3303768
50
354.5868345
51
0.2024329
0
ARC
8
DEFAULT_255_2_778
10
15.6552472
20
2.2741148
40
1.9171952
50
347.0170273
51
0.2725638
0
ARC
8
DEFAULT_255_2_778
10
16.0250819
20
2.1950991
40
1.5390748
50
339.9219555
51
346.7902423
0
ARC
8
DEFAULT_255_2_778
10
16.2215861
20
2.1127891
40
1.3262924
50
316.844763
51
340.347387
0
ARC
8
DEFAULT_255_2_778
10
16.3318482
20
2.0248153
40
1.185737
50
291.0539589
51
316.3016476
0
ARC
8
DEFAULT_255_2_778
10
16.2322914
20
2.2328197
40
1.4157378
50
272.280666
51
291.7899636
0
ARC
8
DEFAULT_255_2_778
10
16.2129991
20
2.4347921
40
1.6183569
50
269.9936817
51
272.6785926
0
ARC
8
DEFAULT_255_2_778
10
16.211031
20
1.8331847
40
1.0167512
50
269.9663989
51
270.1008509
0
ARC
8
DEFAULT_255_2_778
10
16.2102247
20
2.2805175
40
1.4640843
50
248.5077654
51
270.0082198
0
ARC
8
DEFAULT_255_2_778
10
16.1294053
20
2.0504946
40
1.220479
50
223.8073671
51
248.0817391
0
ARC
8
DEFAULT_255_2_778
10
16.2094432
20
2.0912796
40
1.3067311
50
199.3488895
51
222.6685186
0
ARC
8
DEFAULT_255_2_778
10
16.6390973
20
2.2760346
40
1.773619
50
200.0923689
51
200.3816204
0
ARC
8
DEFAULT_255_2_778
10
16.5504362
20
2.2348356
40
1.6762208
50
185.5306226
51
199.810935
0
ARC
8
DEFAULT_255_2_778
10
16.9392043
20
2.2804021
40
2.0675857
50
179.921494
51
185.749149
0
ARC
8
DEFAULT_255_2_778
10
16.7885006
20
2.2922202
40
1.916901
50
167.0102337
51
180.2685636
0
ARC
8
DEFAULT_255_2_778
10
16.4250996
20
2.3698715
40
1.5453566
50
159.9478893
51
166.7870349
0
ARC
8
DEFAULT_255_2_778
10
16.2228383
20
2.4534344
40
1.3267361
50
136.8422023
51
160.3429182
0
ARC
8
DEFAULT_255_2_778
10
16.2010628
20
2.4447188
40
1.3169845
50
113.2959686
51
135.9175699
0
ARC
8
DEFAULT_255_2_778
10
16.2055742
20
2.3474053
40
1.4085673
50
91.1145855
51
111.8989118
0
ARC
8
DEFAULT_255_2_778
10
16.2190754
20
2.1754184
40
1.5808168
50
89.9983607
51
91.4825829
0
ARC
8
DEFAULT_255_2_778
10
16.2272835
20
2.3188246
40
1.4374337
50
69.9603756
51
90.3253717
0
ARC
8
DEFAULT_255_2_778
10
16.2678878
20
2.4513113
40
1.2990745
50
67.8290774
51
69.6404675
0
ARC
8
DEFAULT_255_2_778
10
16.2865911
20
2.5170463
40
1.2311645
50
43.2510135
51
67.4806909
0
ARC
8
DEFAULT_255_2_778
10
16.2149119
20
2.4530719
40
1.32721
50
19.7008991
51
43.1423124
0
ARC
8
DEFAULT_255_2_778
10
16.3150516
20
2.477744
40
1.2246602
50
20.1410946
51
20.1935574
0
ARC
8
DEFAULT_255_2_778
10
15.9419542
20
2.3204995
40
1.6291987
50
2.5532037
51
20.8148883
0
ARC
8
DEFAULT_255_2_778
10
15.5081119
20
2.2839719
40
2.064309
50
359.9739977
51
3.0296297
0
ARC
8
DEFAULT_255_2_778
10
15.500388
20
2.294983
40
1.3773845
50
359.5029917
51
12.9653632
0
ARC
8
DEFAULT_255_2_778
10
15.9056322
20
2.388038
40
0.9615936
50
12.9795878
51
33.8621741
0
ARC
8
DEFAULT_255_2_778
10
16.2407046
20
2.6226803
40
0.5526741
50
33.0181685
51
91.8252747
0
ARC
8
DEFAULT_255_2_778
10
16.2130241
20
2.3481913
40
0.8269439
50
89.3017875
51
90.0002386
0
ARC
8
DEFAULT_255_2_778
10
16.1998909
20
2.5673543
40
0.6079226
50
88.7624444
51
115.3317862
0
ARC
8
DEFAULT_255_2_778
10
16.194953
20
2.6150229
40
0.5629504
50
116.9535634
51
146.0227999
0
ARC
8
DEFAULT_255_2_778
10
16.5677739
20
2.4048923
40
0.9901376
50
147.9966036
51
169.7647366
0
ARC
8
DEFAULT_255_2_778
10
17.1216132
20
2.2933401
40
1.5550267
50
169.3459815
51
180.3796964
0
ARC
8
DEFAULT_255_2_778
10
16.973518
20
2.2688848
40
1.4069686
50
179.4237517
51
193.2564657
0
ARC
8
DEFAULT_255_2_778
10
16.5512767
20
2.1723411
40
0.9738441
50
193.4243264
51
212.9868502
0
ARC
8
DEFAULT_255_2_778
10
16.188423
20
1.925356
40
0.5351003
50
211.957209
51
272.6668673
0
ARC
8
DEFAULT_255_2_778
10
16.2263065
20
2.0442635
40
0.6535575
50
268.8614877
51
294.4222385
0
ARC
8
DEFAULT_255_2_778
10
16.2684192
20
1.9264024
40
0.5289324
50
295.547355
51
326.7425901
0
ARC
8
DEFAULT_255_2_778
10
15.985256
20
2.1320951
40
0.8786791
50
325.6525098
51
348.7219907
0
ARC
8
DEFAULT_255_2_778
10
15.3677033
20
2.2668122
40
1.510696
50
348.2918572
51
0.1973429
0
ARC
8
DEFAULT_255_2_778
10
14.8600316
20
2.2830567
40
2.018389
50
359.6865731
51
359.999387
0
ARC
8
DEFAULT_255_2_778
10
18.1682265
20
2.3326094
40
2.4594154
50
351.1682068
51
0.2382243
0
ARC
8
DEFAULT_255_2_778
10
18.7278581
20
2.2479563
40
1.8934232
50
341.7191059
51
351.0994196
0
ARC
8
DEFAULT_255_2_778
10
19.142498
20
2.1024244
40
1.4540832
50
328.5591006
51
342.0392355
0
ARC
8
DEFAULT_255_2_778
10
19.3978344
20
1.9538579
40
1.1587585
50
317.7759074
51
328.2409389
0
ARC
8
DEFAULT_255_2_778
10
19.4815103
20
1.857596
40
1.0322133
50
291.9243744
51
318.6113914
0
ARC
8
DEFAULT_255_2_778
10
19.4048846
20
2.040886
40
1.2308608
50
269.7689317
51
292.0475781
0
ARC
8
DEFAULT_255_2_778
10
19.3966859
20
3.0214025
40
2.2113698
50
262.7588848
51
270.0838119
0
ARC
8
DEFAULT_255_2_778
10
19.3950245
20
2.9934378
40
2.1834196
50
260.5043709
51
262.7096371
0
ARC
8
DEFAULT_255_2_778
10
20.2081979
20
1.9382208
40
2.024921
50
124.1727325
51
137.6572487
0
ARC
8
DEFAULT_255_2_778
10
19.5321476
20
2.8932276
40
0.8553745
50
95.0462095
51
122.6378727
0
ARC
8
DEFAULT_255_2_778
10
19.5720364
20
2.6152544
40
1.1358818
50
89.925131
51
95.8171754
0
ARC
8
DEFAULT_255_2_778
10
19.5779613
20
2.702387
40
1.0487575
50
90.0026205
51
90.2426012
0
ARC
8
DEFAULT_255_2_778
10
19.5779464
20
2.7118688
40
1.0392756
50
66.8323843
51
90.001823
0
ARC
8
DEFAULT_255_2_778
10
19.5670583
20
2.7739876
40
0.9870512
50
40.1048918
51
64.8323063
0
ARC
8
DEFAULT_255_2_778
10
19.4299559
20
2.6781847
40
1.1537295
50
22.1549925
51
39.3577918
0
ARC
8
DEFAULT_255_2_778
10
19.0695549
20
2.5149975
40
1.5491359
50
17.1862818
51
22.7181695
0
ARC
8
DEFAULT_255_2_778
10
18.1795125
20
2.3602911
40
2.4478616
50
359.9939843
51
14.4890821
0
ARC
8
DEFAULT_255_2_778
10
18.1609064
20
2.3600653
40
2.4664677
50
359.6229724
51
359.9992762
0
ARC
8
DEFAULT_255_2_778
10
18.1751335
20
2.3152504
40
1.751637
50
359.5677252
51
8.4048974
0
ARC
8
DEFAULT_255_2_778
10
19.0003645
20
2.4427865
40
0.9166443
50
8.05834
51
23.8155668
0
ARC
8
DEFAULT_255_2_778
10
19.3018267
20
2.5688939
40
0.5899646
50
24.4331684
51
36.3451197
0
ARC
8
DEFAULT_255_2_778
10
19.3919593
20
2.6564756
40
0.4657762
50
34.23785
51
90.4845003
0
ARC
8
DEFAULT_255_2_778
10
19.3849333
20
2.5291844
40
0.5930588
50
89.7017244
51
125.0764775
0
ARC
8
DEFAULT_255_2_778
10
19.7242309
20
2.0407246
40
1.1877949
50
124.9304866
51
145.0694945
0
ARC
8
DEFAULT_255_2_778
10
19.4487243
20
2.9260666
40
1.588725
50
243.9256454
51
253.4405094
0
ARC
8
DEFAULT_255_2_778
10
19.2530911
20
2.5437493
40
1.169149
50
257.2930925
51
266.5946759
0
ARC
8
DEFAULT_255_2_778
10
19.2876685
20
2.9993894
40
1.6260556
50
266.3321077
51
270.0687872
0
ARC
8
DEFAULT_255_2_778
10
19.2907014
20
1.939974
40
0.5666399
50
269.8907141
51
323.2494596
0
ARC
8
DEFAULT_255_2_778
10
19.1258681
20
2.0618098
40
0.7716113
50
323.3240361
51
344.6607009
0
ARC
8
DEFAULT_255_2_778
10
18.5479739
20
2.2308956
40
1.3736856
50
344.2357059
51
355.9095583
0
ARC
8
DEFAULT_255_2_778
10
17.8239454
20
2.2975796
40
2.100679
50
355.5040213
51
0.1078861
0
ARC
8
DEFAULT_255_2_778
10
22.4616509
20
2.0119222
40
0.6435561
50
270.858144
51
285.2863963
0
ARC
8
DEFAULT_255_2_778
10
22.4068817
20
3.0878577
40
1.7206254
50
269.8947399
51
272.1452394
0
ARC
8
DEFAULT_255_2_778
10
22.3913743
20
1.9709955
40
0.6038866
50
254.4023978
51
271.1714779
0
ARC
8
DEFAULT_255_2_778
10
22.3035199
20
1.6578731
40
0.2786734
50
226.0524563
51
254.4901799
0
ARC
8
DEFAULT_255_2_778
10
22.3417746
20
1.6676051
40
0.3129203
50
181.9600607
51
222.2432677
0
ARC
8
DEFAULT_255_2_778
10
22.7103104
20
1.7189439
40
0.6840921
50
179.8499769
51
185.2034088
0
ARC
8
DEFAULT_255_2_778
10
22.6193281
20
1.6028824
40
1.2948457
50
179.5595979
51
191.3617131
0
ARC
8
DEFAULT_255_2_778
10
22.3087262
20
1.5457465
40
0.9790884
50
191.6644405
51
200.3456016
0
ARC
8
DEFAULT_255_2_778
10
22.0082835
20
1.4528154
40
0.6653047
50
201.8378009
51
230.1781544
0
ARC
8
DEFAULT_255_2_778
10
22.069911
20
1.5662038
40
0.7922614
50
232.006832
51
255.8042676
0
ARC
8
DEFAULT_255_2_778
10
22.2230454
20
2.2322499
40
1.475598
50
256.3820399
51
269.9072124
0
ARC
8
DEFAULT_255_2_778
10
22.2590648
20
3.0701435
40
2.3138084
50
269.0488513
51
270.0063355
0
ARC
8
DEFAULT_255_2_778
10
23.619961
20
4.5207772
40
0.3586472
50
310.4447363
51
2.2943589
0
ARC
8
DEFAULT_255_2_778
10
23.5571827
20
4.5744179
40
0.4403861
50
270.2261123
51
312.1335667
0
ARC
8
DEFAULT_255_2_778
10
23.5450865
20
4.5492511
40
0.4154464
50
270.0014944
51
271.9082668
0
ARC
8
DEFAULT_255_2_778
10
23.5451709
20
4.548853
40
0.4150482
50
226.490494
51
269.9898517
0
ARC
8
DEFAULT_255_2_778
10
23.5010885
20
4.5247184
40
0.3675156
50
178.3758096
51
228.8850542
0
ARC
8
DEFAULT_255_2_778
10
23.5268431
20
4.5462697
40
0.3932802
50
132.8420374
51
181.6223907
0
ARC
8
DEFAULT_255_2_778
10
23.5454874
20
4.532781
40
0.4158727
50
90.0063093
51
133.4618178
0
ARC
8
DEFAULT_255_2_778
10
23.5454375
20
4.5327263
40
0.4159273
50
88.1423162
51
89.9994321
0
ARC
8
DEFAULT_255_2_778
10
23.5680135
20
4.5350868
40
0.4134483
50
90.0006684
51
91.2601933
0
ARC
8
DEFAULT_255_2_778
10
23.5680296
20
4.5360441
40
0.4124909
50
46.3751804
51
90.0029001
0
ARC
8
DEFAULT_255_2_778
10
23.5857579
20
4.5465048
40
0.3927273
50
358.3410134
51
47.1945223
0
ARC
8
DEFAULT_255_2_778
10
25.9563651
20
2.0776006
40
1.2473209
50
285.6012517
51
285.9470061
0
ARC
8
DEFAULT_255_2_778
10
25.8973091
20
2.2482579
40
1.4276706
50
286.3441403
51
304.5403121
0
ARC
8
DEFAULT_255_2_778
10
25.781614
20
2.4362674
40
1.6481755
50
304.1475706
51
305.3424295
0
ARC
8
DEFAULT_255_2_778
10
25.6773342
20
2.914196
40
1.5563826
50
298.1739936
51
308.1721962
0
ARC
8
DEFAULT_255_2_778
10
25.9915364
20
2.3329353
40
0.8956437
50
287.9808385
51
298.0120031
0
ARC
8
DEFAULT_255_2_778
10
25.8953918
20
2.6106222
40
1.1894618
50
270.6420578
51
288.2567196
0
ARC
8
DEFAULT_255_2_778
10
25.8886382
20
2.1376994
40
0.7167457
50
269.9994139
51
271.6055785
0
ARC
8
DEFAULT_255_2_778
10
25.8887473
20
2.1382427
40
0.717289
50
224.3493654
51
269.9907001
0
ARC
8
DEFAULT_255_2_778
10
25.8892953
20
2.1151367
40
0.7017326
50
195.4977968
51
222.9688765
0
ARC
8
DEFAULT_255_2_778
10
26.3465105
20
2.2522745
40
1.1790096
50
182.4536287
51
195.9829434
0
ARC
8
DEFAULT_255_2_778
10
26.8302298
20
2.2885238
40
1.6639095
50
179.9617317
51
182.9876314
0
ARC
8
DEFAULT_255_2_778
10
26.5280471
20
2.3023141
40
1.3617855
50
168.3803666
51
180.5334662
0
ARC
8
DEFAULT_255_2_778
10
25.9781652
20
2.4211527
40
0.7992569
50
145.0092949
51
168.7853535
0
ARC
8
DEFAULT_255_2_778
10
25.8710112
20
2.4853464
40
0.6747183
50
138.7256003
51
144.2572123
0
ARC
8
DEFAULT_255_2_778
10
25.8561634
20
2.494473
40
0.6575453
50
89.0887572
51
138.4698184
0
LINE
8
DEFAULT_255_2_778
10
25.8666206
20
3.1519351
11
25.8674927
21
3.1519354
0
ARC
8
DEFAULT_255_2_778
10
25.8674688
20
2.0117728
40
1.1401626
50
70.3795952
51
89.9988036
0
ARC
8
DEFAULT_255_2_778
10
25.8410019
20
1.9359219
40
1.2204967
50
59.7593755
51
70.4049229
0
ARC
8
DEFAULT_255_2_778
10
25.6768664
20
1.6501706
40
1.550028
50
53.0035105
51
59.837521
0
ARC
8
DEFAULT_255_2_778
10
25.8191872
20
2.0548386
40
1.7129212
50
58.6084277
51
72.6669716
0
ARC
8
DEFAULT_255_2_778
10
25.0091726
20
-0.286588
40
4.1900287
50
71.6322996
51
71.6566337
0
ARC
8
DEFAULT_255_2_778
10
25.8457896
20
1.9703752
40
1.7864221
50
74.3458225
51
90.0131206
0
ARC
8
DEFAULT_255_2_778
10
25.8453816
20
1.9632629
40
1.7935345
50
90.0000352
51
90.4779442
0
ARC
8
DEFAULT_255_2_778
10
25.8118937
20
2.3606979
40
1.3961601
50
89.2396665
51
111.3623896
0
ARC
8
DEFAULT_255_2_778
10
25.6719766
20
2.6252259
40
1.0993638
50
109.5929536
51
136.6824356
0
ARC
8
DEFAULT_255_2_778
10
25.8035454
20
2.4704003
40
1.3014977
50
135.6969928
51
158.1225554
0
ARC
8
DEFAULT_255_2_778
10
26.2202855
20
2.2736288
40
1.7617587
50
157.2342197
51
158.7403018
0
ARC
8
DEFAULT_255_2_778
10
26.0542705
20
2.3519798
40
1.5786839
50
159.2056829
51
174.2175773
0
ARC
8
DEFAULT_255_2_778
10
26.7072198
20
2.2711217
40
2.2365053
50
173.8419725
51
180.1354337
0
ARC
8
DEFAULT_255_2_778
10
26.3876006
20
2.25685
40
1.916901
50
179.7314364
51
192.9897663
0
ARC
8
DEFAULT_255_2_778
10
26.0241996
20
2.1791987
40
1.5453566
50
193.2129651
51
200.0521107
0
ARC
8
DEFAULT_255_2_778
10
25.8579993
20
2.112163
40
1.3662596
50
199.8010695
51
218.6324071
0
ARC
8
DEFAULT_255_2_778
10
25.6639583
20
1.9681176
40
1.1247835
50
219.0715291
51
223.4742039
0
ARC
8
DEFAULT_255_2_778
10
25.6794374
20
1.9886482
40
1.15015
50
223.6858542
51
249.3017181
0
ARC
8
DEFAULT_255_2_778
10
25.7764317
20
2.1974665
40
1.3798761
50
248.5988287
51
269.2101951
0
ARC
8
DEFAULT_255_2_778
10
25.8116545
20
2.6885299
40
1.8715948
50
268.3391966
51
270.0081488
0
ARC
8
DEFAULT_255_2_778
10
25.8318701
20
2.6095805
40
1.7927564
50
269.3624098
51
269.9993721
0
ARC
8
DEFAULT_255_2_778
10
25.8317888
20
2.6068394
40
1.7900153
50
270.0019736
51
284.8655624
0
ARC
8
DEFAULT_255_2_778
10
28.2942098
20
1.7158466
40
1.0750871
50
359.3172043
51
14.0976619
0
ARC
8
DEFAULT_255_2_778
10
28.5771238
20
1.7779695
40
0.7856102
50
14.7291938
51
20.0288063
0
ARC
8
DEFAULT_255_2_778
10
28.7441831
20
1.8291572
40
0.6111912
50
20.8842277
51
50.1867995
0
ARC
8
DEFAULT_255_2_778
10
28.5217525
20
1.5629003
40
0.958132
50
50.1643006
51
67.0563582
0
ARC
8
DEFAULT_255_2_778
10
28.329363
20
1.1543823
40
1.409444
50
66.327925
51
69.9654132
0
ARC
8
DEFAULT_255_2_778
10
26.793976
20
-3.0195194
40
5.8567836
50
69.842651
51
71.2421319
0
ARC
8
DEFAULT_255_2_778
10
27.5470707
20
-0.7950951
40
3.5083358
50
71.2060035
51
75.2186808
0
ARC
8
DEFAULT_255_2_778
10
27.6741791
20
-0.3316429
40
3.027795
50
75.3068865
51
77.3137282
0
ARC
8
DEFAULT_255_2_778
10
29.0925304
20
5.6787037
40
3.1479559
50
252.4349698
51
256.1528233
0
ARC
8
DEFAULT_255_2_778
10
28.5639646
20
4.0269757
40
1.4137353
50
246.3428086
51
252.6558297
0
ARC
8
DEFAULT_255_2_778
10
28.1831617
20
3.1670661
40
0.4733027
50
235.3442328
51
246.7968769
0
ARC
8
DEFAULT_255_2_778
10
28.0261791
20
2.9668628
40
0.2198836
50
180.867144
51
239.3307849
0
ARC
8
DEFAULT_255_2_778
10
28.0203156
20
2.9707383
40
0.2141162
50
179.9988912
51
181.9278965
0
ARC
8
DEFAULT_255_2_778
10
28.0205894
20
2.9706167
40
0.2143901
50
123.5766293
51
179.9663807
0
ARC
8
DEFAULT_255_2_778
10
28.1169102
20
2.8264702
40
0.387756
50
97.8686594
51
123.6547734
0
ARC
8
DEFAULT_255_2_778
10
28.1956922
20
2.4019244
40
0.8193322
50
89.5854249
51
99.261718
0
ARC
8
DEFAULT_255_2_778
10
28.1894278
20
1.6905962
40
1.5306875
50
74.7167104
51
89.5435999
0
ARC
8
DEFAULT_255_2_778
10
28.0771756
20
1.2106479
40
2.0233331
50
73.3585602
51
75.2328929
0
ARC
8
DEFAULT_255_2_778
10
28.0000342
20
0.889608
40
2.3530874
50
61.8073707
51
73.7975658
0
ARC
8
DEFAULT_255_2_778
10
28.3068572
20
1.5151021
40
2.2256163
50
66.1288961
51
82.2202919
0
ARC
8
DEFAULT_255_2_778
10
28.2094682
20
0.8769733
40
2.8710725
50
82.0184838
51
90.1566088
0
ARC
8
DEFAULT_255_2_778
10
28.1890501
20
2.032049
40
1.7160322
50
89.5802847
51
100.7657334
0
ARC
8
DEFAULT_255_2_778
10
28.0597331
20
2.6831544
40
1.052245
50
100.4706934
51
119.1312097
0
ARC
8
DEFAULT_255_2_778
10
27.9374511
20
2.9196256
40
0.7862013
50
119.7362859
51
130.8491522
0
ARC
8
DEFAULT_255_2_778
10
27.8875234
20
2.9383129
40
0.7398504
50
128.8705536
51
181.7565007
0
ARC
8
DEFAULT_255_2_778
10
28.1767879
20
2.9033621
40
1.0288404
50
179.3165064
51
192.2246328
0
ARC
8
DEFAULT_255_2_778
10
27.8242026
20
2.8333133
40
0.6694462
50
192.7550858
51
201.6588064
0
ARC
8
DEFAULT_255_2_778
10
27.7734863
20
2.8176255
40
0.6165343
50
202.0433705
51
229.7977028
0
ARC
8
DEFAULT_255_2_778
10
28.051292
20
3.1651218
40
1.0613311
50
230.4522869
51
243.6732742
0
ARC
8
DEFAULT_255_2_778
10
28.3614296
20
3.7486701
40
1.7220031
50
243.0353352
51
246.7225158
0
ARC
8
DEFAULT_255_2_778
10
28.9005538
20
5.3851088
40
3.4416261
50
249.2447331
51
249.8279992
0
ARC
8
DEFAULT_255_2_778
10
28.9629283
20
5.5603075
40
3.6275881
50
249.8574854
51
253.9451776
0
ARC
8
DEFAULT_255_2_778
10
29.0411975
20
5.8275261
40
3.9060307
50
253.9258839
51
256.5115839
0
ARC
8
DEFAULT_255_2_778
10
28.2154138
20
1.2870181
40
0.6944761
50
59.7057823
51
73.0809329
0
ARC
8
DEFAULT_255_2_778
10
28.0133926
20
0.9314654
40
1.1033954
50
58.3147215
51
59.9612998
0
ARC
8
DEFAULT_255_2_778
10
27.7938298
20
0.5724554
40
1.5242206
50
58.1825764
51
58.3799406
0
ARC
8
DEFAULT_255_2_778
10
28.4681659
20
1.6629951
40
0.242042
50
25.1172323
51
57.7226599
0
ARC
8
DEFAULT_255_2_778
10
28.4068001
20
1.6470308
40
0.3046021
50
357.5359261
51
22.9360002
0
ARC
8
DEFAULT_255_2_778
10
28.4580553
20
1.6334691
40
0.2530657
50
301.7762494
51
0.1055
0
ARC
8
DEFAULT_255_2_778
10
28.3382581
20
1.8347103
40
0.4872464
50
276.8215759
51
301.2901993
0
ARC
8
DEFAULT_255_2_778
10
28.2466866
20
2.418195
40
1.077694
50
269.5445868
51
277.9709875
0
ARC
8
DEFAULT_255_2_778
10
28.2391687
20
2.9846179
40
1.6440831
50
258.1372845
51
269.9634766
0
ARC
8
DEFAULT_255_2_778
10
28.2686333
20
3.1278562
40
1.7903195
50
251.4515327
51
258.1567984
0
ARC
8
DEFAULT_255_2_778
10
28.3436311
20
3.3877011
40
2.0605563
50
236.1688081
51
251.772872
0
ARC
8
DEFAULT_255_2_778
10
28.1294397
20
3.0768207
40
2.2380717
50
242.6328988
51
250.3684501
0
ARC
8
DEFAULT_255_2_778
10
28.3869408
20
3.7762144
40
2.9833337
50
250.2233005
51
254.7716901
0
ARC
8
DEFAULT_255_2_778
10
28.2199973
20
3.1218357
40
2.3081071
50
254.5035592
51
269.8640496
0
ARC
8
DEFAULT_255_2_778
10
28.2271382
20
3.0030403
40
2.1893416
50
269.6697932
51
278.6974649
0
ARC
8
DEFAULT_255_2_778
10
28.3601263
20
2.164261
40
1.3401056
50
278.4998931
51
292.1853666
0
ARC
8
DEFAULT_255_2_778
10
28.5393198
20
1.7205157
40
0.8615493
50
292.2939526
51
308.6253436
0
ARC
8
DEFAULT_255_2_778
10
28.6044237
20
1.6462878
40
0.7629331
50
308.28536
51
356.7943355
0
ARC
8
DEFAULT_255_2_778
10
28.2133808
20
1.7073657
40
1.1574408
50
354.857684
51
0.0727388
0
LINE
8
DEFAULT_255_2_778
10
8.0366206
20
0.8164351
11
7.9705206
21
1.1876351
0
LINE
8
DEFAULT_255_2_778
10
7.9591206
20
2.5528351
11
7.9591206
21
2.7955351
0
LINE
8
DEFAULT_255_2_778
10
6.4203206
20
3.1304351
11
6.3843206
21
3.3879351
0
LINE
8
DEFAULT_255_2_778
10
8.2168206
20
2.8066351
11
8.2168206
21
0.8185351
0
LINE
8
DEFAULT_255_2_778
10
8.2168206
20
0.8185351
11
8.0366206
21
0.8164351
0
LINE
8
DEFAULT_255_2_778
10
7.9586206
20
1.4395351
11
7.9586206
21
2.3316351
0
LINE
8
DEFAULT_255_2_778
10
7.9586206
20
2.3316351
11
7.9646206
21
2.3314351
0
LINE
8
DEFAULT_255_2_778
10
9.4085206
20
0.9095351
11
9.4085206
21
-0.2016649
0
LINE
8
DEFAULT_255_2_778
10
9.4085206
20
-0.2016649
11
9.1333206
21
-0.2614649
0
LINE
8
DEFAULT_255_2_778
10
9.1333206
20
-0.2614649
11
9.1333206
21
3.5712351
0
LINE
8
DEFAULT_255_2_778
10
9.1333206
20
3.5712351
11
9.3309206
21
3.5712351
0
LINE
8
DEFAULT_255_2_778
10
9.3309206
20
3.5712351
11
9.4029206
21
3.1701351
0
LINE
8
DEFAULT_255_2_778
10
9.4024206
20
2.8711351
11
9.4024206
21
1.1815351
0
LINE
8
DEFAULT_255_2_778
10
12.4038206
20
0.9095351
11
12.4038206
21
-0.2016649
0
LINE
8
DEFAULT_255_2_778
10
12.4038206
20
-0.2016649
11
12.1287206
21
-0.2614649
0
LINE
8
DEFAULT_255_2_778
10
12.1287206
20
-0.2614649
11
12.1287206
21
3.5712351
0
LINE
8
DEFAULT_255_2_778
10
12.1287206
20
3.5712351
11
12.3263206
21
3.5712351
0
LINE
8
DEFAULT_255_2_778
10
12.3263206
20
3.5712351
11
12.3983206
21
3.1701351
0
LINE
8
DEFAULT_255_2_778
10
12.3977206
20
2.8711351
11
12.3977206
21
1.1815351
0
LINE
8
DEFAULT_255_2_778
10
19.0348206
20
0.8399351
11
18.7475206
21
0.9177351
0
LINE
8
DEFAULT_255_2_778
10
18.7475206
20
0.9177351
11
18.7475206
21
-0.1601649
0
LINE
8
DEFAULT_255_2_778
10
18.7475206
20
-0.1601649
11
18.0527206
21
-0.2620649
0
LINE
8
DEFAULT_255_2_778
10
18.0527206
20
-0.2620649
11
18.0527206
21
3.6911351
0
LINE
8
DEFAULT_255_2_778
10
18.0527206
20
3.6911351
11
18.6453206
21
3.6911351
0
LINE
8
DEFAULT_255_2_778
10
18.6453206
20
3.6911351
11
18.7115206
21
3.3021351
0
LINE
8
DEFAULT_255_2_778
10
18.7504206
20
2.7208351
11
18.7504206
21
1.4990351
0
LINE
8
DEFAULT_255_2_778
10
22.5297206
20
0.7685351
11
22.7212206
21
0.7984351
0
LINE
8
DEFAULT_255_2_778
10
22.7212206
20
0.7984351
11
22.6313206
21
1.3911351
0
LINE
8
DEFAULT_255_2_778
10
22.0262206
20
1.7207351
11
22.0262206
21
3.0680351
0
LINE
8
DEFAULT_255_2_778
10
22.0262206
20
3.0680351
11
22.7030206
21
3.0680351
0
LINE
8
DEFAULT_255_2_778
10
22.7030206
20
3.0680351
11
22.6130206
21
3.6429351
0
LINE
8
DEFAULT_255_2_778
10
22.6130206
20
3.6429351
11
22.0251206
21
3.6429351
0
LINE
8
DEFAULT_255_2_778
10
22.0251206
20
3.6429351
11
22.0251206
21
4.6489351
0
LINE
8
DEFAULT_255_2_778
10
22.0251206
20
4.6489351
11
21.3245206
21
4.5412351
0
LINE
8
DEFAULT_255_2_778
10
21.3245206
20
4.5412351
11
21.3245206
21
3.6429351
0
LINE
8
DEFAULT_255_2_778
10
21.3245206
20
3.6429351
11
20.9234206
21
3.6429351
0
LINE
8
DEFAULT_255_2_778
10
20.9234206
20
3.6429351
11
20.9234206
21
3.0680351
0
LINE
8
DEFAULT_255_2_778
10
20.9234206
20
3.0680351
11
21.3245206
21
3.0680351
0
LINE
8
DEFAULT_255_2_778
10
21.3245206
20
3.0680351
11
21.3245206
21
1.6128351
0
LINE
8
DEFAULT_255_2_778
10
22.2593206
20
0.7563351
11
22.5292206
21
0.7682351
0
LINE
8
DEFAULT_255_2_778
10
23.9783206
20
4.5351351
11
23.9783206
21
4.5351351
0
LINE
8
DEFAULT_255_2_778
10
23.2078206
20
0.8164351
11
23.9142206
21
0.8164351
0
LINE
8
DEFAULT_255_2_778
10
23.9142206
20
0.8164351
11
23.9142206
21
3.6606351
0
LINE
8
DEFAULT_255_2_778
10
23.9142206
20
3.6606351
11
23.2078206
21
3.6606351
0
LINE
8
DEFAULT_255_2_778
10
23.2078206
20
3.6606351
11
23.2078206
21
0.8164351
0
LINE
8
DEFAULT_255_2_778
10
26.7350206
20
1.0918351
11
26.6392206
21
1.6906351
0
LINE
8
DEFAULT_255_2_778
10
26.6096206
20
2.8881351
11
26.7114206
21
3.5170351
0
LINE
8
DEFAULT_255_2_778
10
29.1117206
20
2.9635351
11
29.2075206
21
3.5503351
0
LINE
8
DEFAULT_255_2_778
10
28.1301206
20
2.0292351
11
28.4175206
21
1.9514351
0
LINE
8
DEFAULT_255_2_778
10
27.1964206
20
1.6760351
11
27.1006206
21
1.0892351
0
ENDSEC
0
EOF