0
SECTION
2
HEADER
9
$MEASUREMENT
70
1
0
ENDSEC
0
SECTION
2
TABLES
0
TABLE
2
LTYPE
0
LTYPE
72
65
70
64
2
CONTINUOUS
3
______
73
0
40
0
0
ENDTAB
0
TABLE
2
LAYER
0
LAYER
2
DEFAULT_255_2_778
70
0
62
255
6
CONTINUOUS
0
ENDTAB
0
ENDSEC
0
SECTION
2
ENTITIES
0
ARC
8
DEFAULT_255_2_778
10
11.4253194
20
3.1966943
40
1.1783925
50
113.3740568
51
136.9535089
0
ARC
8
DEFAULT_255_2_778
10
11.2452704
20
3.3932531
40
0.9128791
50
138.2556725
51
159.7322604
0
ARC
8
DEFAULT_255_2_778
10
11.1766542
20
3.4153198
40
0.8408729
50
159.5231629
51
179.3348553
0
ARC
8
DEFAULT_255_2_778
10
12.4719348
20
3.352827
40
2.1373184
50
178.0626867
51
180.1295552
0
ARC
8
DEFAULT_255_2_778
10
17.2175019
20
3.3588397
40
6.8828887
50
180.0902829
51
180.627169
0
ARC
8
DEFAULT_255_2_778
10
3.434307
20
3.2080888
40
6.9011306
50
0.0885107
51
0.6261044
0
ARC
8
DEFAULT_255_2_778
10
8.1343081
20
3.2139965
40
2.2011264
50
358.0912359
51
0.1237276
0
ARC
8
DEFAULT_255_2_778
10
11.3724523
20
3.1173997
40
1.0385003
50
178.7154095
51
179.9971576
0
ARC
8
DEFAULT_255_2_778
10
11.1991493
20
3.1071997
40
0.8652579
50
179.3211515
51
231.8969505
0
ARC
8
DEFAULT_255_2_778
10
11.4053565
20
3.3188904
40
1.1595153
50
230.3335421
51
232.3706279
0
ARC
8
DEFAULT_255_2_778
10
11.2606332
20
3.0690327
40
0.8740962
50
229.8833657
51
268.698314
0
ARC
8
DEFAULT_255_2_778
10
11.2391269
20
3.0291509
40
0.8339904
50
270.1133346
51
280.3081056
0
ARC
8
DEFAULT_255_2_778
10
11.2242326
20
3.1224844
40
0.928485
50
280.1817619
51
282.4064361
0
ARC
8
DEFAULT_255_2_778
10
11.2232621
20
3.0946981
40
0.9015826
50
282.8460551
51
304.891582
0
ARC
8
DEFAULT_255_2_778
10
11.1319472
20
3.1823905
40
1.0260437
50
306.2730952
51
349.0851573
0
ARC
8
DEFAULT_255_2_778
10
10.9966324
20
3.2305742
40
1.1682358
50
348.021303
51
351.1186566
0
ARC
8
DEFAULT_255_2_778
10
11.0236604
20
3.2270679
40
1.1409908
50
351.0830792
51
359.9484508
0
ARC
8
DEFAULT_255_2_778
10
11.1326559
20
3.227893
40
1.0319963
50
359.8971974
51
9.3702357
0
ARC
8
DEFAULT_255_2_778
10
11.2315086
20
3.2423552
40
0.9321099
50
9.4824327
51
11.9515847
0
ARC
8
DEFAULT_255_2_778
10
10.8417724
20
3.229668
40
1.317796
50
8.9808308
51
34.2571078
0
ARC
8
DEFAULT_255_2_778
10
11.288912
20
3.4952547
40
0.7993736
50
36.5646552
51
64.2480965
0
ARC
8
DEFAULT_255_2_778
10
11.2265391
20
3.3801888
40
0.9301317
50
63.8671026
51
67.1108735
0
ARC
8
DEFAULT_255_2_778
10
11.3087035
20
3.5387816
40
0.7521994
50
68.1781015
51
90.5295716
0
ARC
8
DEFAULT_255_2_778
10
11.2829159
20
2.9810704
40
1.3100138
50
89.1761794
51
90.0076321
0
ARC
8
DEFAULT_255_2_778
10
11.3093917
20
1.5621738
40
2.7290407
50
90.5595262
51
93.9951585
0
ARC
8
DEFAULT_255_2_778
10
10.9296745
20
6.9843909
40
2.706456
50
270.5957055
51
274.0166836
0
ARC
8
DEFAULT_255_2_778
10
10.3135493
20
4.5737148
40
0.0354052
50
281.1782145
51
315.6962661
0
ARC
8
DEFAULT_255_2_778
10
10.1575724
20
4.7582507
40
0.2768878
50
310.9067988
51
317.7919741
0
ARC
8
DEFAULT_255_2_778
10
9.7715598
20
5.1220337
40
0.8072732
50
317.0733221
51
317.8585707
0
ARC
8
DEFAULT_255_2_778
10
10.9925687
20
4.0404419
40
0.8239827
50
135.6780404
51
139.0589264
0
ARC
8
DEFAULT_255_2_778
10
10.4260835
20
4.5935463
40
0.0322569
50
120.704002
51
135.5135221
0
ARC
8
DEFAULT_255_2_778
10
9.7499031
20
5.6837248
40
1.2506012
50
301.8376539
51
307.3270975
0
LINE
8
DEFAULT_255_2_778
10
10.5082233
20
4.6892633
11
10.5089255
21
4.6897813
0
ARC
8
DEFAULT_255_2_778
10
11.2682221
20
3.6944608
40
1.2518762
50
121.8121527
51
127.338794
0
ARC
8
DEFAULT_255_2_778
10
11.5766004
20
3.1893711
40
1.8436538
50
118.5385596
51
121.6817237
0
ARC
8
DEFAULT_255_2_778
10
11.5375421
20
3.2605897
40
1.7624284
50
116.4719279
51
118.5291988
0
ARC
8
DEFAULT_255_2_778
10
11.4830352
20
3.3744508
40
1.6362095
50
108.503204
51
116.5406542
0
ARC
8
DEFAULT_255_2_778
10
11.435042
20
3.5180147
40
1.484836
50
98.7576793
51
108.5050886
0
ARC
8
DEFAULT_255_2_778
10
11.4215378
20
3.6001508
40
1.4016016
50
90.0222102
51
98.7232996
0
ARC
8
DEFAULT_255_2_778
10
11.4005268
20
3.5312538
40
1.4706409
50
37.512507
51
89.2025575
0
ARC
8
DEFAULT_255_2_778
10
11.2769864
20
3.4022508
40
1.6474129
50
31.2946289
51
38.4550607
0
ARC
8
DEFAULT_255_2_778
10
11.1764173
20
3.3492569
40
1.7608907
50
17.7926555
51
31.0683013
0
ARC
8
DEFAULT_255_2_778
10
10.8822474
20
3.2521979
40
2.0706502
50
3.2648928
51
17.8625503
0
ARC
8
DEFAULT_255_2_778
10
10.8236686
20
3.2455631
40
2.1295142
50
0.0011035
51
3.3533544
0
ARC
8
DEFAULT_255_2_778
10
10.8412662
20
3.2454452
40
2.1119167
50
355.9463431
51
0.0043111
0
ARC
8
DEFAULT_255_2_778
10
11.0458633
20
3.2157807
40
1.9057945
50
328.5558737
51
356.4011331
0
ARC
8
DEFAULT_255_2_778
10
11.2435752
20
3.1116242
40
1.6828423
50
317.2394119
51
328.0697199
0
ARC
8
DEFAULT_255_2_778
10
11.4584131
20
2.9004689
40
1.3817783
50
279.4092333
51
317.6195813
0
ARC
8
DEFAULT_255_2_778
10
11.3952437
20
3.1697919
40
1.6579059
50
272.6139855
51
280.0413071
0
ARC
8
DEFAULT_255_2_778
10
11.4010485
20
3.0754904
40
1.5634384
50
270.0045421
51
272.5590887
0
ARC
8
DEFAULT_255_2_778
10
11.4137355
20
3.1046121
40
1.5926097
50
235.0027272
51
269.5480244
0
ARC
8
DEFAULT_255_2_778
10
11.7297148
20
3.6262482
40
2.2015186
50
230.2071701
51
236.0525028
0
ARC
8
DEFAULT_255_2_778
10
19.2516475
20
3.0682018
40
2.0740807
50
139.2535369
51
147.5473069
0
ARC
8
DEFAULT_255_2_778
10
19.0505243
20
3.1957073
40
1.8359462
50
147.5370136
51
157.9433839
0
ARC
8
DEFAULT_255_2_778
10
18.9098527
20
3.2529487
40
1.6840745
50
157.9510984
51
172.0828234
0
ARC
8
DEFAULT_255_2_778
10
18.8250981
20
3.2660214
40
1.5983276
50
172.1284875
51
172.1855437
0
ARC
8
DEFAULT_255_2_778
10
18.8814511
20
3.2585051
40
1.6551791
50
172.1930072
51
180.0067028
0
ARC
8
DEFAULT_255_2_778
10
19.0267265
20
3.272273
40
1.8005087
50
180.4442878
51
210.0684456
0
ARC
8
DEFAULT_255_2_778
10
19.2660419
20
3.3908522
40
2.0671033
50
209.5893783
51
216.5245153
0
ARC
8
DEFAULT_255_2_778
10
18.8935256
20
3.1518597
40
1.6257783
50
217.5696535
51
256.217514
0
ARC
8
DEFAULT_255_2_778
10
19.0184379
20
3.4952907
40
1.9894719
50
255.0799188
51
263.8578756
0
ARC
8
DEFAULT_255_2_778
10
19.019705
20
3.4987016
40
1.9929991
50
263.8321507
51
269.9859178
0
ARC
8
DEFAULT_255_2_778
10
19.0239853
20
3.3455133
40
1.839817
50
269.851447
51
282.4907539
0
ARC
8
DEFAULT_255_2_778
10
19.1018106
20
3.0007868
40
1.4864184
50
282.4358238
51
295.171772
0
ARC
8
DEFAULT_255_2_778
10
19.2266241
20
2.7285877
40
1.1869841
50
295.3076281
51
305.0095926
0
ARC
8
DEFAULT_255_2_778
10
18.8213363
20
3.6616907
40
1.5004828
50
298.2206583
51
316.3816902
0
ARC
8
DEFAULT_255_2_778
10
18.9564128
20
3.4300582
40
1.2325468
50
274.7143278
51
297.7795693
0
ARC
8
DEFAULT_255_2_778
10
18.9778746
20
3.1861934
40
0.9877441
50
270.0288626
51
274.6362207
0
ARC
8
DEFAULT_255_2_778
10
18.9855937
20
3.1130328
40
0.9146118
50
219.53029
51
269.5476066
0
ARC
8
DEFAULT_255_2_778
10
19.3068542
20
3.4485907
40
1.3770464
50
218.4563052
51
221.7915914
0
ARC
8
DEFAULT_255_2_778
10
19.1209181
20
3.2897864
40
1.1327134
50
208.6193172
51
218.0152243
0
ARC
8
DEFAULT_255_2_778
10
19.0394309
20
3.245023
40
1.0397411
50
197.0762653
51
208.6048293
0
ARC
8
DEFAULT_255_2_778
10
19.0159137
20
3.236963
40
1.0148942
50
192.5916704
51
197.0311592
0
ARC
8
DEFAULT_255_2_778
10
19.0245136
20
3.2384793
40
1.023618
50
181.4892271
51
192.5695625
0
ARC
8
DEFAULT_255_2_778
10
19.0481608
20
3.2396375
40
1.0472875
50
179.9997721
51
181.5189462
0
ARC
8
DEFAULT_255_2_778
10
19.1308384
20
3.233056
40
1.1299842
50
152.740642
51
179.6660712
0
ARC
8
DEFAULT_255_2_778
10
19.1153601
20
3.2504802
40
1.108276
50
134.1407891
51
153.1748977
0
ARC
8
DEFAULT_255_2_778
10
19.0075755
20
3.3532169
40
0.9595027
50
131.4423579
51
133.7943736
0
ARC
8
DEFAULT_255_2_778
10
18.9280981
20
3.4450471
40
0.8380622
50
114.1454996
51
131.5244872
0
ARC
8
DEFAULT_255_2_778
10
18.9853575
20
3.323344
40
0.9725432
50
97.2212927
51
114.290809
0
ARC
8
DEFAULT_255_2_778
10
18.992124
20
3.2830946
40
1.0133252
50
89.990514
51
97.3147785
0
ARC
8
DEFAULT_255_2_778
10
18.9918166
20
3.2615434
40
1.0348766
50
78.5699499
51
89.9736929
0
ARC
8
DEFAULT_255_2_778
10
18.9828644
20
3.2183978
40
1.0789405
50
68.34025
51
78.5580321
0
ARC
8
DEFAULT_255_2_778
10
19.0800902
20
3.460989
40
0.8175931
50
68.3432028
51
68.3978508
0
ARC
8
DEFAULT_255_2_778
10
18.9503108
20
3.1381425
40
1.1655458
50
58.0253866
51
68.2707824
0
ARC
8
DEFAULT_255_2_778
10
18.8741475
20
3.0161691
40
1.3093457
50
49.3119526
51
58.0246082
0
ARC
8
DEFAULT_255_2_778
10
18.7471443
20
2.8679892
40
1.5045047
50
42.0896909
51
49.3234432
0
ARC
8
DEFAULT_255_2_778
10
18.6285768
20
2.7578355
40
1.6663299
50
39.8632126
51
42.1677294
0
ARC
8
DEFAULT_255_2_778
10
18.9960757
20
3.2465307
40
1.7592253
50
58.7919609
51
66.7946308
0
ARC
8
DEFAULT_255_2_778
10
19.0162426
20
3.2925025
40
1.7090266
50
66.8087506
51
76.1021774
0
ARC
8
DEFAULT_255_2_778
10
19.0166606
20
3.2935034
40
1.7079545
50
76.1077259
51
78.6489058
0
ARC
8
DEFAULT_255_2_778
10
19.0128874
20
3.2722659
40
1.7295192
50
78.6648245
51
87.2579118
0
ARC
8
DEFAULT_255_2_778
10
19.0106876
20
3.2374924
40
1.7643583
50
87.2405797
51
90.0028002
0
ARC
8
DEFAULT_255_2_778
10
19.0146733
20
3.1553639
40
1.8464913
50
90.1263509
51
109.9410408
0
ARC
8
DEFAULT_255_2_778
10
18.9987577
20
3.1816092
40
1.8164013
50
109.7514548
51
125.8093967
0
ARC
8
DEFAULT_255_2_778
10
18.8296162
20
3.4145213
40
1.5285543
50
125.7758997
51
138.7542807
0
ARC
8
DEFAULT_255_2_778
10
27.0162172
20
3.3172277
40
1.3693276
50
14.2667961
51
25.5843466
0
ARC
8
DEFAULT_255_2_778
10
27.6086501
20
3.6089885
40
0.7090266
50
24.9929758
51
49.5902201
0
ARC
8
DEFAULT_255_2_778
10
27.6737027
20
3.6544025
40
0.6325959
50
51.4104188
51
83.841004
0
ARC
8
DEFAULT_255_2_778
10
27.6071353
20
3.2539423
40
1.0381461
50
82.5594471
51
90.2109508
0
ARC
8
DEFAULT_255_2_778
10
27.5905838
20
3.456431
40
0.8357472
50
89.1272945
51
114.4781904
0
ARC
8
DEFAULT_255_2_778
10
27.5690575
20
3.5436209
40
0.7476576
50
115.7454616
51
154.4476422
0
ARC
8
DEFAULT_255_2_778
10
27.8725707
20
3.3781262
40
1.0930231
50
153.483506
51
165.3437947
0
ARC
8
DEFAULT_255_2_778
10
28.7745226
20
3.4996722
40
2.0590005
50
191.0089348
51
194.1650961
0
ARC
8
DEFAULT_255_2_778
10
27.9804417
20
3.25408
40
1.2297437
50
192.1239507
51
221.5874723
0
ARC
8
DEFAULT_255_2_778
10
27.5697146
20
2.9332998
40
0.7103743
50
224.2258421
51
233.8648863
0
ARC
8
DEFAULT_255_2_778
10
27.6798193
20
3.0899104
40
0.9017917
50
234.0826986
51
242.8041191
0
ARC
8
DEFAULT_255_2_778
10
27.6394496
20
3.0124055
40
0.8144047
50
242.8382001
51
251.0667865
0
ARC
8
DEFAULT_255_2_778
10
27.6225642
20
2.9625628
40
0.7617798
50
251.0517188
51
264.5974156
0
ARC
8
DEFAULT_255_2_778
10
27.6211585
20
2.9532599
40
0.752386
50
264.6372823
51
270.0025208
0
ARC
8
DEFAULT_255_2_778
10
27.6144861
20
3.0112501
40
0.8104038
50
270.4740906
51
306.1313582
0
ARC
8
DEFAULT_255_2_778
10
27.5993174
20
3.0414061
40
0.8437219
50
305.7558242
51
313.3705491
0
ARC
8
DEFAULT_255_2_778
10
26.6383242
20
3.876949
40
2.8724838
50
320.6241708
51
330.5002502
0
ARC
8
DEFAULT_255_2_778
10
27.7981933
20
2.8958189
40
1.3536586
50
284.5772637
51
321.5803202
0
ARC
8
DEFAULT_255_2_778
10
27.7571398
20
3.1025086
40
1.5640758
50
274.9137771
51
284.1270909
0
ARC
8
DEFAULT_255_2_778
10
27.5428481
20
6.0675922
40
4.5367979
50
270.8065844
51
274.4026115
0
ARC
8
DEFAULT_255_2_778
10
27.5791071
20
4.5361788
40
3.0050618
50
270.0024838
51
270.5263536
0
ARC
8
DEFAULT_255_2_778
10
27.5716981
20
3.9157175
40
2.3846126
50
263.9969767
51
270.1811498
0
ARC
8
DEFAULT_255_2_778
10
27.5057098
20
3.1939323
40
1.6599135
50
248.8172815
51
263.6566847
0
ARC
8
DEFAULT_255_2_778
10
27.4164599
20
2.9261853
40
1.3780739
50
204.1697547
51
248.2547767
0
ARC
8
DEFAULT_255_2_778
10
27.9629195
20
3.2280921
40
2.0009101
50
199.3479822
51
205.6502667
0
ARC
8
DEFAULT_255_2_778
10
28.0348685
20
3.2520565
40
2.0767357
50
183.6317114
51
199.3141563
0
ARC
8
DEFAULT_255_2_778
10
28.0261965
20
3.2493574
40
2.0679112
50
179.9945524
51
183.5722951
0
ARC
8
DEFAULT_255_2_778
10
28.2255553
20
3.2404063
40
2.2672884
50
164.8670387
51
179.768831
0
ARC
8
DEFAULT_255_2_778
10
28.6297832
20
3.1432982
40
2.6828756
50
161.28155
51
165.1187665
0
ARC
8
DEFAULT_255_2_778
10
27.4746504
20
3.5396863
40
1.4616407
50
144.0801168
51
161.4665318
0
ARC
8
DEFAULT_255_2_778
10
27.4659891
20
3.5330531
40
1.4585554
50
112.6874008
51
143.6694928
0
ARC
8
DEFAULT_255_2_778
10
27.5612378
20
3.3248187
40
1.687432
50
93.8850373
51
112.9441665
0
ARC
8
DEFAULT_255_2_778
10
27.5673716
20
3.2823748
40
1.7301971
50
90.0020329
51
93.9924594
0
ARC
8
DEFAULT_255_2_778
10
27.5682677
20
3.3212237
40
1.6913486
50
80.8778731
51
90.0324348
0
ARC
8
DEFAULT_255_2_778
10
27.5721416
20
3.3365432
40
1.6756093
50
67.7095945
51
80.9256134
0
ARC
8
DEFAULT_255_2_778
10
27.6666415
20
3.5689907
40
1.4246882
50
49.9105151
51
67.680263
0
ARC
8
DEFAULT_255_2_778
10
27.6704586
20
3.5839464
40
1.4108043
50
23.483786
51
49.6379668
0
ARC
8
DEFAULT_255_2_778
10
27.563581
20
3.5325297
40
1.5293254
50
9.8764965
51
23.6549389
0
ARC
8
DEFAULT_255_2_778
10
27.5601735
20
3.5308756
40
1.5329665
50
3.3547329
51
9.9155594
0
ARC
8
DEFAULT_255_2_778
10
25.4024638
20
3.1776167
40
3.7145558
50
5.4092109
51
6.8488794
0
ARC
8
DEFAULT_255_2_778
10
25.8820507
20
3.2214201
40
3.2329757
50
3.6356764
51
5.4375922
0
ARC
8
DEFAULT_255_2_778
10
27.0233643
20
3.2895538
40
2.0896433
50
0.2187266
51
3.7556725
0
ARC
8
DEFAULT_255_2_778
10
28.1939377
20
3.2896698
40
0.9190883
50
353.8118798
51
0.4900697
0
ARC
8
DEFAULT_255_2_778
10
28.8274559
20
3.2179735
40
0.2815488
50
340.9558989
51
354.420271
0
ARC
8
DEFAULT_255_2_778
10
29.008016
20
3.1572845
40
0.0910817
50
326.0977979
51
339.9816435
0
ARC
8
DEFAULT_255_2_778
10
22.3521651
20
3.2519902
40
1.1287645
50
179.7314256
51
198.3538995
0
ARC
8
DEFAULT_255_2_778
10
22.5513765
20
3.3274128
40
1.3416206
50
198.7321564
51
210.4508248
0
ARC
8
DEFAULT_255_2_778
10
22.192694
20
3.1012173
40
0.9178727
50
209.6258657
51
233.4986096
0
ARC
8
DEFAULT_255_2_778
10
22.1609983
20
3.0592078
40
0.8652499
50
233.5310118
51
269.9354774
0
ARC
8
DEFAULT_255_2_778
10
22.1599643
20
3.0562435
40
0.862285
50
270.0039606
51
277.1970421
0
ARC
8
DEFAULT_255_2_778
10
22.1550009
20
3.0839819
40
0.890428
50
277.2902947
51
296.5285783
0
ARC
8
DEFAULT_255_2_778
10
22.1123136
20
3.1695347
40
0.9860389
50
296.5274846
51
310.348538
0
ARC
8
DEFAULT_255_2_778
10
22.0395082
20
3.2584165
40
1.1009163
50
310.2413899
51
316.7066741
0
ARC
8
DEFAULT_255_2_778
10
22.0746417
20
3.1958767
40
1.032681
50
317.8956123
51
1.2083817
0
ARC
8
DEFAULT_255_2_778
10
21.8455776
20
3.2238474
40
1.2615307
50
359.7187397
51
0.0000078
0
ARC
8
DEFAULT_255_2_778
10
21.8332535
20
3.223847
40
1.2738547
50
0.0000246
51
0.6453367
0
ARC
8
DEFAULT_255_2_778
10
21.8227171
20
3.2257805
40
1.2843702
50
0.5537956
51
27.7642505
0
ARC
8
DEFAULT_255_2_778
10
22.0894919
20
3.365622
40
0.9831656
50
27.7952012
51
46.5759136
0
ARC
8
DEFAULT_255_2_778
10
22.2052335
20
3.4613123
40
0.8343076
50
47.8317015
51
78.0834932
0
ARC
8
DEFAULT_255_2_778
10
22.1724542
20
3.3502817
40
0.949758
50
77.5317
51
90.0201248
0
ARC
8
DEFAULT_255_2_778
10
22.1721032
20
3.345129
40
0.9549107
50
89.9989591
51
93.9752214
0
ARC
8
DEFAULT_255_2_778
10
22.1640429
20
3.3943028
40
0.9053084
50
93.682071
51
126.5649898
0
ARC
8
DEFAULT_255_2_778
10
22.1600542
20
3.4094672
40
0.8907715
50
126.9400072
51
146.7570743
0
ARC
8
DEFAULT_255_2_778
10
22.2564473
20
3.3449796
40
1.0067423
50
146.6948863
51
157.5038178
0
ARC
8
DEFAULT_255_2_778
10
22.1493195
20
3.3805584
40
0.89419
50
156.9836444
51
167.7499987
0
ARC
8
DEFAULT_255_2_778
10
23.7572493
20
3.046954
40
2.5363377
50
168.0924238
51
172.7012444
0
ARC
8
DEFAULT_255_2_778
10
18.7156851
20
3.7147186
40
2.5493042
50
349.663081
51
352.2099775
0
ARC
8
DEFAULT_255_2_778
10
23.0416869
20
1.9222215
40
0.0224295
50
59.6707724
51
91.0696207
0
ARC
8
DEFAULT_255_2_778
10
23.0498879
20
1.8700014
40
0.0751418
50
96.5870451
51
128.8179268
0
ARC
8
DEFAULT_255_2_778
10
23.1456511
20
1.7225014
40
0.2507302
50
124.7361967
51
128.9319323
0
ARC
8
DEFAULT_255_2_778
10
23.2948972
20
1.5393939
40
0.4869551
50
129.0535174
51
132.844244
0
ARC
8
DEFAULT_255_2_778
10
23.5332683
20
1.2770248
40
0.8414276
50
132.596506
51
132.8513481
0
ARC
8
DEFAULT_255_2_778
10
23.6084091
20
1.1961206
40
0.9518431
50
132.8552262
51
133.0684906
0
ARC
8
DEFAULT_255_2_778
10
23.6584145
20
1.1424113
40
1.0252271
50
133.0603511
51
133.2475491
0
ARC
8
DEFAULT_255_2_778
10
23.8797279
20
0.9071107
40
1.3482533
50
133.2470399
51
133.4037457
0
ARC
8
DEFAULT_255_2_778
10
22.2738898
20
2.5822467
40
0.9723361
50
311.6675292
51
314.3256511
0
ARC
8
DEFAULT_255_2_778
10
22.8554199
20
1.9324662
40
0.1003645
50
307.0659878
51
310.2784186
0
ARC
8
DEFAULT_255_2_778
10
21.8819041
20
3.139598
40
1.651091
50
301.0304162
51
308.7745804
0
ARC
8
DEFAULT_255_2_778
10
21.9525073
20
3.0220691
40
1.5139858
50
291.7019934
51
301.0336683
0
ARC
8
DEFAULT_255_2_778
10
21.9864992
20
2.9370025
40
1.4223794
50
279.9448437
51
291.6968881
0
ARC
8
DEFAULT_255_2_778
10
21.9919325
20
2.9114629
40
1.3962856
50
278.6946645
51
279.906231
0
ARC
8
DEFAULT_255_2_778
10
21.9927413
20
2.9056794
40
1.3904464
50
270.2692767
51
278.6977462
0
ARC
8
DEFAULT_255_2_778
10
21.9927736
20
2.8879849
40
1.372752
50
269.9982748
51
270.2714026
0
ARC
8
DEFAULT_255_2_778
10
22.0058325
20
2.9918039
40
1.4766291
50
224.8029929
51
269.4916811
0
ARC
8
DEFAULT_255_2_778
10
22.1064586
20
3.1085791
40
1.6303585
50
204.8497759
51
225.222872
0
ARC
8
DEFAULT_255_2_778
10
22.2155282
20
3.1601204
40
1.7509897
50
191.0178197
51
204.8803313
0
ARC
8
DEFAULT_255_2_778
10
22.8754467
20
3.3199327
40
2.4294815
50
181.8082452
51
191.7429555
0
ARC
8
DEFAULT_255_2_778
10
22.5664532
20
3.3021596
40
2.1200961
50
180.003368
51
181.5916654
0
ARC
8
DEFAULT_255_2_778
10
22.4024114
20
3.3070269
40
1.9560608
50
159.5021653
51
180.1462202
0
ARC
8
DEFAULT_255_2_778
10
22.5465703
20
3.2569957
40
2.1086151
50
159.4439147
51
159.6004443
0
ARC
8
DEFAULT_255_2_778
10
22.1581163
20
3.3840422
40
1.7003746
50
139.6823832
51
158.856304
0
ARC
8
DEFAULT_255_2_778
10
21.9892015
20
3.5210952
40
1.4829134
50
92.2584153
51
139.4971855
0
ARC
8
DEFAULT_255_2_778
10
22.0167567
20
3.312149
40
1.6928933
50
89.9922312
51
92.9116341
0
ARC
8
DEFAULT_255_2_778
10
22.0169496
20
3.2737259
40
1.7313165
50
88.8296089
51
89.9987872
0
ARC
8
DEFAULT_255_2_778
10
21.993038
20
4.018843
40
0.9876186
50
78.7098779
51
86.5591483
0
ARC
8
DEFAULT_255_2_778
10
21.8457559
20
3.4631683
40
1.5617815
50
56.1514453
51
77.4021345
0
ARC
8
DEFAULT_255_2_778
10
21.3747182
20
2.6914666
40
2.4653601
50
47.097696
51
57.0493683
0
ARC
8
DEFAULT_255_2_778
10
14.7852323
20
2.7695803
40
1.2280041
50
219.8754535
51
263.0957339
0
ARC
8
DEFAULT_255_2_778
10
10.4385954
20
-37.048664
40
38.8268691
50
83.713227
51
83.7914785
0
ARC
8
DEFAULT_255_2_778
10
15.1755079
20
5.3432941
40
3.8294436
50
262.7211871
51
268.9924245
0
ARC
8
DEFAULT_255_2_778
10
15.1184004
20
3.0207136
40
1.5063057
50
269.6108097
51
280.0149222
0
ARC
8
DEFAULT_255_2_778
10
15.1573065
20
2.7560968
40
1.2389792
50
280.371226
51
281.8633201
0
ARC
8
DEFAULT_255_2_778
10
15.0522423
20
3.242037
40
1.7361414
50
281.9597404
51
316.9366578
0
ARC
8
DEFAULT_255_2_778
10
15.2393807
20
3.0621319
40
1.4765822
50
317.0786483
51
348.5963083
0
ARC
8
DEFAULT_255_2_778
10
15.6442726
20
2.9619639
40
1.0600336
50
349.5765715
51
354.8629725
0
ARC
8
DEFAULT_255_2_778
10
14.1029788
20
3.1044379
40
2.6078964
50
354.7773456
51
358.449109
0
ARC
8
DEFAULT_255_2_778
10
12.6927689
20
3.1562292
40
4.0190145
50
358.2551501
51
359.1731548
0
ARC
8
DEFAULT_255_2_778
10
12.1444598
20
3.1644491
40
4.5673851
50
359.169309
51
0.0059096
0
ARC
8
DEFAULT_255_2_778
10
12.023423
20
3.16602
40
4.6884221
50
359.9865597
51
2.0042907
0
ARC
8
DEFAULT_255_2_778
10
13.6796595
20
3.2262522
40
3.0310932
50
1.9613902
51
3.7668006
0
ARC
8
DEFAULT_255_2_778
10
15.2954946
20
3.3322254
40
1.4117868
50
3.7834076
51
5.5710322
0
ARC
8
DEFAULT_255_2_778
10
15.5072649
20
3.315659
40
1.2031956
50
7.3354643
51
25.7197275
0
ARC
8
DEFAULT_255_2_778
10
15.1652742
20
3.1479347
40
1.5840939
50
25.8171672
51
36.5239304
0
ARC
8
DEFAULT_255_2_778
10
14.7973051
20
2.8906377
40
2.0329664
50
36.1791371
51
37.7010566
0
ARC
8
DEFAULT_255_2_778
10
15.2181755
20
3.1475659
40
1.5437943
50
39.7091307
51
68.3733121
0
ARC
8
DEFAULT_255_2_778
10
13.1769544
20
-0.9635407
40
6.1297431
50
64.7971013
51
64.9110349
0
ARC
8
DEFAULT_255_2_778
10
12.2250007
20
-3.0037793
40
8.3811389
50
64.9313722
51
65.3495754
0
ARC
8
DEFAULT_255_2_778
10
15.5845632
20
6.2031986
40
1.4153416
50
220.4428725
51
251.6043114
0
ARC
8
DEFAULT_255_2_778
10
12.908111
20
4.2219223
40
1.9204359
50
33.6145443
51
33.6622631
0
ARC
8
DEFAULT_255_2_778
10
11.5034785
20
3.2781982
40
3.6126482
50
33.7716503
51
34.2020383
0
ARC
8
DEFAULT_255_2_778
10
14.7370959
20
5.5142517
40
0.3202358
50
185.4599643
51
219.8819545
0
ARC
8
DEFAULT_255_2_778
10
14.5641266
20
5.6666669
40
0.1466687
50
139.0717576
51
173.8101192
0
ARC
8
DEFAULT_255_2_778
10
14.0304096
20
6.0690195
40
0.5221572
50
324.0878794
51
327.9563606
0
ARC
8
DEFAULT_255_2_778
10
15.1353288
20
5.4418392
40
0.749174
50
97.9280234
51
152.1362378
0
ARC
8
DEFAULT_255_2_778
10
15.2303152
20
5.0606849
40
1.1405422
50
95.3378219
51
100.0135764
0
ARC
8
DEFAULT_255_2_778
10
15.1986435
20
5.3579037
40
0.841675
50
90.6832893
51
95.073371
0
ARC
8
DEFAULT_255_2_778
10
15.1975666
20
5.4061776
40
0.7933918
50
89.9997798
51
90.6470986
0
ARC
8
DEFAULT_255_2_778
10
15.2038041
20
5.5163831
40
0.6832147
50
60.3713839
51
90.5228438
0
ARC
8
DEFAULT_255_2_778
10
14.9748826
20
5.1819892
40
1.0875808
50
35.443889
51
58.5971294
0
ARC
8
DEFAULT_255_2_778
10
13.8442515
20
4.2852972
40
2.5297919
50
33.5162517
51
37.1396285
0
ARC
8
DEFAULT_255_2_778
10
15.2000108
20
5.4632043
40
1.4853511
50
23.3694434
51
43.4647512
0
ARC
8
DEFAULT_255_2_778
10
15.2791284
20
5.5178347
40
1.3904255
50
44.0736013
51
76.2660536
0
ARC
8
DEFAULT_255_2_778
10
15.1594902
20
5.0755046
40
1.8485466
50
75.9188372
51
89.9238415
0
ARC
8
DEFAULT_255_2_778
10
15.1465268
20
4.7623261
40
2.1617785
50
89.5912902
51
89.9996423
0
ARC
8
DEFAULT_255_2_778
10
15.1478412
20
4.6462766
40
2.2778284
50
90.0327225
51
93.9028684
0
ARC
8
DEFAULT_255_2_778
10
15.1609847
20
4.4424103
40
2.4821166
50
93.8852514
51
96.3951873
0
ARC
8
DEFAULT_255_2_778
10
15.0347238
20
5.5012447
40
1.4158273
50
96.0902011
51
130.7775573
0
ARC
8
DEFAULT_255_2_778
10
15.0145454
20
5.4542646
40
1.4389582
50
128.9470734
51
153.2207648
0
ARC
8
DEFAULT_255_2_778
10
14.8138529
20
5.5747206
40
1.2056397
50
154.0341085
51
180.3405356
0
ARC
8
DEFAULT_255_2_778
10
14.9676356
20
5.5677681
40
1.3594012
50
180.0089828
51
182.6725838
0
ARC
8
DEFAULT_255_2_778
10
14.8412192
20
5.5616791
40
1.2328384
50
182.6638613
51
215.6970533
0
ARC
8
DEFAULT_255_2_778
10
14.990117
20
5.6606469
40
1.4115227
50
215.4328543
51
225.8600092
0
ARC
8
DEFAULT_255_2_778
10
15.590466
20
6.3832932
40
2.3493309
50
227.6266275
51
250.2064436
0
ARC
8
DEFAULT_255_2_778
10
20.3439577
20
17.3600565
40
14.307224
50
247.1792412
51
247.2991298
0
ARC
8
DEFAULT_255_2_778
10
27.001489
20
33.2511614
40
31.5365565
50
247.282613
51
247.4935689
0
ARC
8
DEFAULT_255_2_778
10
13.5799239
20
0.6333621
40
3.7355596
50
60.1484917
51
68.8179808
0
ARC
8
DEFAULT_255_2_778
10
14.6463766
20
2.5481599
40
1.5442457
50
49.3411799
51
59.1042128
0
ARC
8
DEFAULT_255_2_778
10
15.1135909
20
3.0810142
40
0.8356374
50
28.1234242
51
49.8380877
0
ARC
8
DEFAULT_255_2_778
10
15.2031663
20
3.1469011
40
0.7257544
50
359.8374484
51
26.8692918
0
ARC
8
DEFAULT_255_2_778
10
14.9970081
20
3.132862
40
0.9319867
50
359.9975921
51
0.736522
0
ARC
8
DEFAULT_255_2_778
10
14.8612022
20
3.1354215
40
1.0677958
50
353.2516033
51
359.8605634
0
ARC
8
DEFAULT_255_2_778
10
14.5463339
20
3.1719585
40
1.3847761
50
348.2674092
51
353.2812327
0
ARC
8
DEFAULT_255_2_778
10
14.3223231
20
3.2154312
40
1.6129495
50
347.7275319
51
348.3735128
0
ARC
8
DEFAULT_255_2_778
10
14.9995452
20
3.1047707
40
0.9283724
50
276.2800585
51
345.5163474
0
ARC
8
DEFAULT_255_2_778
10
15.0553192
20
2.8854332
40
0.7049519
50
270.0076251
51
273.7233713
0
ARC
8
DEFAULT_255_2_778
10
15.0554659
20
2.7671961
40
0.5867149
50
267.4320203
51
269.9948369
0
ARC
8
DEFAULT_255_2_778
10
15.093922
20
2.9823076
40
0.8038487
50
227.909693
51
265.380274
0
ARC
8
DEFAULT_255_2_778
10
15.170843
20
3.120252
40
0.9584292
50
195.3971463
51
230.0253426
0
ARC
8
DEFAULT_255_2_778
10
19.0026627
20
4.188374
40
4.9363304
50
194.8089671
51
195.5411485
0
ARC
8
DEFAULT_255_2_778
10
7.6713315
20
1.1993148
40
6.7826104
50
14.7542096
51
15.2032007
0
ARC
8
DEFAULT_255_2_778
10
12.6991046
20
2.5638885
40
1.5729509
50
15.2644884
51
16.5950188
0
ARC
8
DEFAULT_255_2_778
10
13.1990659
20
2.7123776
40
1.0514052
50
16.6215784
51
22.3687745
0
ARC
8
DEFAULT_255_2_778
10
12.6704826
20
2.4981858
40
1.6217317
50
22.2597305
51
24.1036016
0
ARC
8
DEFAULT_255_2_778
10
13.5207098
20
5.8980946
40
2.8091915
50
277.7667861
51
282.9617526
0
ARC
8
DEFAULT_255_2_778
10
11.950779
20
16.5005425
40
13.5270951
50
277.9095605
51
278.2865093
0
ARC
8
DEFAULT_255_2_778
10
17.2292813
20
-21.471522
40
24.8100968
50
97.9163876
51
98.1123595
0
ARC
8
DEFAULT_255_2_778
10
14.1215552
20
0.0591318
40
3.0565895
50
97.3937663
51
103.5789646
0
ARC
8
DEFAULT_255_2_778
10
15.1623887
20
3.1498867
40
1.7625385
50
183.8910681
51
221.5092062
0
ARC
8
DEFAULT_255_2_778
10
5.2027127
20
2.1625185
40
1.1114341
50
209.535224
51
210.8681619
0
ARC
8
DEFAULT_255_2_778
10
6.042239
20
2.6191033
40
2.0670103
50
204.2320867
51
209.075114
0
ARC
8
DEFAULT_255_2_778
10
10.5162758
20
4.64721
40
6.9792574
50
202.5248458
51
204.3397559
0
ARC
8
DEFAULT_255_2_778
10
-7.852312
20
-2.9642465
40
12.9038839
50
22.4986153
51
23.5463575
0
ARC
8
DEFAULT_255_2_778
10
0.8096716
20
0.7940504
40
3.4617489
50
23.7948482
51
24.9987686
0
ARC
8
DEFAULT_255_2_778
10
47.8423495
20
-19.0458387
40
52.0725447
50
155.712914
51
156.6508017
0
ARC
8
DEFAULT_255_2_778
10
97.3735394
20
-41.5988182
40
106.4964278
50
154.5635902
51
155.6137431
0
ARC
8
DEFAULT_255_2_778
10
1220.5478596
20
-572.9510107
40
1349.0161195
50
154.644908
51
154.6727152
0
ARC
8
DEFAULT_255_2_778
10
-89.490862
20
48.2395822
40
100.8393629
50
334.4414176
51
335.9535704
0
ARC
8
DEFAULT_255_2_778
10
-9.6832835
20
0.646686
40
13.8961198
50
27.8282998
51
27.9036696
0
ARC
8
DEFAULT_255_2_778
10
-13.3353549
20
-1.2170445
40
17.9959534
50
24.1584366
51
27.6478352
0
ARC
8
DEFAULT_255_2_778
10
-54.9246637
20
-19.8375789
40
63.5634269
50
23.1618626
51
24.1303165
0
ARC
8
DEFAULT_255_2_778
10
40.1852811
20
20.9081289
40
39.9069486
50
203.2363756
51
204.4539458
0
ARC
8
DEFAULT_255_2_778
10
24.6763261
20
8.3670388
40
0.1093216
50
175.044987
51
180.2636673
0
ARC
8
DEFAULT_255_2_778
10
27.0787946
20
8.3184142
40
2.5122499
50
178.9024464
51
179.4640198
0
ARC
8
DEFAULT_255_2_778
10
34.5825227
20
8.2397385
40
10.0163891
50
179.4155197
51
179.621324
0
ARC
8
DEFAULT_255_2_778
10
48.7949784
20
8.1420941
40
24.22918
50
179.612549
51
179.7180417
0
ARC
8
DEFAULT_255_2_778
10
70.2574462
20
8.0342914
40
45.6919186
50
179.7153045
51
179.7792727
0
ARC
8
DEFAULT_255_2_778
10
106.2988903
20
7.8960216
40
81.733628
50
179.7796776
51
179.8400507
0
ARC
8
DEFAULT_255_2_778
10
171.5672071
20
7.7111743
40
147.0022066
50
179.8390213
51
179.8812726
0
ARC
8
DEFAULT_255_2_778
10
263.429675
20
7.5185851
40
238.8648764
50
179.880737
51
179.9113251
0
ARC
8
DEFAULT_255_2_778
10
380.8593197
20
7.3339755
40
356.2946661
50
179.910864
51
179.9309469
0
ARC
8
DEFAULT_255_2_778
10
505.7908606
20
7.1831159
40
481.226298
50
179.9309122
51
179.9450585
0
ARC
8
DEFAULT_255_2_778
10
655.6046218
20
7.0391049
40
631.0401285
50
179.9450264
51
179.9603289
0
ARC
8
DEFAULT_255_2_778
10
884.0754555
20
6.8793009
40
859.511018
50
179.9602214
51
179.9733831
0
ARC
8
DEFAULT_255_2_778
10
1182.5401322
20
6.7401741
40
1157.9757272
50
179.9733596
51
179.9851733
0
ARC
8
DEFAULT_255_2_778
10
1472.270828
20
6.659829
40
1447.7064341
50
179.9849608
51
179.9933089
0
ARC
8
DEFAULT_255_2_778
10
1829.8160393
20
6.6122116
40
1805.2516486
50
179.9931229
51
180.0001207
0
ARC
8
DEFAULT_255_2_778
10
2213.4123859
20
6.6121102
40
2188.8479951
50
180.0000969
51
180.0050799
0
ARC
8
DEFAULT_255_2_778
10
2563.6874243
20
6.6444344
40
2539.1230349
50
180.0051086
51
180.0109172
0
ARC
8
DEFAULT_255_2_778
10
3063.6744438
20
6.7420101
40
3039.110064
50
180.0109607
51
180.0163679
0
ARC
8
DEFAULT_255_2_778
10
3707.5872921
20
6.9266459
40
3683.0229389
50
180.0163785
51
180.0223767
0
ARC
8
DEFAULT_255_2_778
10
4545.7836323
20
7.2548936
40
4521.2193434
50
180.022388
51
180.0287743
0
ARC
8
DEFAULT_255_2_778
10
5512.9105427
20
7.7392404
40
5488.346375
50
180.0287602
51
180.03319
0
ARC
8
DEFAULT_255_2_778
10
6070.111189
20
8.0568083
40
6045.5471119
50
180.0331407
51
180.036123
0
ARC
8
DEFAULT_255_2_778
10
6711.5105926
20
8.4527576
40
6686.9466377
50
180.0360507
51
180.0380412
0
ARC
8
DEFAULT_255_2_778
10
7217.513411
20
8.7954903
40
7192.9495721
50
180.0380951
51
180.0404699
0
ARC
8
DEFAULT_255_2_778
10
7336.5837472
20
8.8728348
40
7312.0199334
50
180.0404169
51
180.041879
0
ARC
8
DEFAULT_255_2_778
10
7311.423526
20
8.8464122
40
7286.8596996
50
180.0418158
51
180.0432458
0
ARC
8
DEFAULT_255_2_778
10
7927.0590556
20
9.3009846
40
7902.4953971
50
180.0431726
51
180.0451665
0
ARC
8
DEFAULT_255_2_778
10
8867.4228899
20
10.0366943
40
8842.8595193
50
180.0451303
51
180.0466575
0
ARC
8
DEFAULT_255_2_778
10
8292.8224132
20
9.5714098
40
8268.2588541
50
180.0466757
51
180.0482912
0
LINE
8
DEFAULT_255_2_778
10
24.566496
20
2.6025902
11
24.5665908
21
2.4909784
0
ARC
8
DEFAULT_255_2_778
10
8538.1933442
20
9.7849333
40
8513.629878
50
180.0490875
51
180.0503624
0
ARC
8
DEFAULT_255_2_778
10
8153.7396776
20
9.4449694
40
8129.1760611
50
180.050348
51
180.0514461
0
ARC
8
DEFAULT_255_2_778
10
6541.966116
20
7.9888278
40
6517.4018418
50
180.0513677
51
180.0524467
0
ARC
8
DEFAULT_255_2_778
10
9029.4027278
20
10.2602486
40
9004.8394908
50
180.0524117
51
180.0530244
0
ARC
8
DEFAULT_255_2_778
10
6993.6858728
20
8.3881125
40
6969.1217749
50
180.0531216
51
180.0537405
0
ARC
8
DEFAULT_255_2_778
10
6684.8132727
20
8.0939814
40
6660.2490348
50
180.0537024
51
180.0544372
0
ARC
8
DEFAULT_255_2_778
10
4493.9236851
20
6.0166931
40
4469.3584623
50
180.0544922
51
180.0552313
0
LINE
8
DEFAULT_255_2_778
10
24.5672993
20
1.7083759
11
24.5673477
21
1.6583895
0
LINE
8
DEFAULT_255_2_778
10
24.5673477
20
1.6583895
11
24.5673962
21
1.608993
0
LINE
8
DEFAULT_255_2_778
10
24.5673962
20
1.608993
11
24.5674088
21
1.596351
0
ARC
8
DEFAULT_255_2_778
10
-6.570769
20
1.563587
40
31.138195
50
0.0524308
51
0.0602873
0
ARC
8
DEFAULT_255_2_778
10
7.4367194
20
3.1966943
40
1.1783925
50
113.3740568
51
136.9535089
0
ARC
8
DEFAULT_255_2_778
10
7.2566704
20
3.3932531
40
0.9128791
50
138.2556725
51
159.7322604
0
ARC
8
DEFAULT_255_2_778
10
7.187724
20
3.415492
40
0.8405032
50
159.5262819
51
179.3462998
0
ARC
8
DEFAULT_255_2_778
10
8.4886097
20
3.352929
40
2.1425494
50
178.0701484
51
180.1291373
0
ARC
8
DEFAULT_255_2_778
10
13.2509484
20
3.3588329
40
6.9048909
50
180.0890602
51
180.6208288
0
ARC
8
DEFAULT_255_2_778
10
-0.5761772
20
3.2091293
40
6.9230452
50
0.0873241
51
0.6197843
0
ARC
8
DEFAULT_255_2_778
10
4.1515904
20
3.2148178
40
2.195275
50
358.0646994
51
0.1269201
0
ARC
8
DEFAULT_255_2_778
10
7.3838523
20
3.1173997
40
1.0385003
50
178.7154095
51
179.9971576
0
ARC
8
DEFAULT_255_2_778
10
7.2105493
20
3.1071997
40
0.8652579
50
179.3211515
51
231.8969505
0
ARC
8
DEFAULT_255_2_778
10
7.4167565
20
3.3188904
40
1.1595153
50
230.3335421
51
232.3706279
0
ARC
8
DEFAULT_255_2_778
10
7.2725914
20
3.070803
40
0.87581
50
229.9300632
51
268.874101
0
ARC
8
DEFAULT_255_2_778
10
7.2535376
20
3.0627837
40
0.8676235
50
270.1218158
51
279.9084684
0
ARC
8
DEFAULT_255_2_778
10
7.2369025
20
3.1708345
40
0.9769277
50
279.7791004
51
282.119696
0
ARC
8
DEFAULT_255_2_778
10
7.2415878
20
3.0946033
40
0.9014844
50
282.8458068
51
304.8931773
0
ARC
8
DEFAULT_255_2_778
10
7.1501788
20
3.1823733
40
1.0260645
50
306.2762982
51
349.0863546
0
ARC
8
DEFAULT_255_2_778
10
7.0146162
20
3.2306503
40
1.1685176
50
348.0204219
51
351.1170396
0
ARC
8
DEFAULT_255_2_778
10
7.0414534
20
3.2271737
40
1.1414656
50
351.0814386
51
359.9485087
0
ARC
8
DEFAULT_255_2_778
10
7.1504334
20
3.2279985
40
1.0324867
50
359.8973068
51
9.3609149
0
ARC
8
DEFAULT_255_2_778
10
7.2494449
20
3.2424758
40
0.9324408
50
9.4727467
51
11.9397071
0
ARC
8
DEFAULT_255_2_778
10
6.8590355
20
3.229194
40
1.3188942
50
8.994138
51
34.2495251
0
ARC
8
DEFAULT_255_2_778
10
7.3072784
20
3.4954152
40
0.7991999
50
36.5595658
51
64.2474215
0
ARC
8
DEFAULT_255_2_778
10
7.2449302
20
3.3804035
40
0.9298986
50
63.8663502
51
67.1109007
0
ARC
8
DEFAULT_255_2_778
10
7.3280126
20
3.5327199
40
0.7574584
50
68.4194094
51
88.1203123
0
ARC
8
DEFAULT_255_2_778
10
7.2964427
20
3.0796728
40
1.2114122
50
87.3307813
51
90.0631131
0
ARC
8
DEFAULT_255_2_778
10
7.3214223
20
1.5458789
40
2.7453315
50
90.5491885
51
93.9820772
0
ARC
8
DEFAULT_255_2_778
10
6.9408901
20
6.9924989
40
2.7145655
50
270.5978168
51
274.011122
0
ARC
8
DEFAULT_255_2_778
10
6.3318493
20
4.5737148
40
0.0354052
50
281.1782145
51
315.6962661
0
ARC
8
DEFAULT_255_2_778
10
6.1758724
20
4.7582507
40
0.2768878
50
310.9067988
51
317.7919741
0
ARC
8
DEFAULT_255_2_778
10
5.7898598
20
5.1220337
40
0.8072732
50
317.0733221
51
317.8585707
0
ARC
8
DEFAULT_255_2_778
10
7.0108687
20
4.0404419
40
0.8239827
50
135.6780404
51
139.0589264
0
ARC
8
DEFAULT_255_2_778
10
6.4443835
20
4.5935463
40
0.0322569
50
120.704002
51
135.5135221
0
ARC
8
DEFAULT_255_2_778
10
5.7682031
20
5.6837248
40
1.2506012
50
301.8376539
51
307.3270975
0
LINE
8
DEFAULT_255_2_778
10
6.5265233
20
4.6892633
11
6.5272255
21
4.6897813
0
ARC
8
DEFAULT_255_2_778
10
7.2865221
20
3.6944608
40
1.2518762
50
121.8121527
51
127.338794
0
ARC
8
DEFAULT_255_2_778
10
7.6020642
20
3.1775726
40
1.8574565
50
118.9170679
51
121.6786271
0
ARC
8
DEFAULT_255_2_778
10
7.5693423
20
3.2361887
40
1.7903263
50
117.6302584
51
118.9075075
0
ARC
8
DEFAULT_255_2_778
10
7.5131993
20
3.3482173
40
1.665038
50
109.7927676
51
117.7064585
0
ARC
8
DEFAULT_255_2_778
10
7.4566206
20
3.5058279
40
1.4975797
50
100.090428
51
109.7978844
0
ARC
8
DEFAULT_255_2_778
10
7.4385522
20
3.6034778
40
1.3982747
50
90.0322626
51
100.0625466
0
ARC
8
DEFAULT_255_2_778
10
7.4159085
20
3.53032
40
1.4715945
50
38.9198345
51
89.1490031
0
ARC
8
DEFAULT_255_2_778
10
7.2653963
20
3.3694448
40
1.6900411
50
31.7186425
51
39.9575786
0
ARC
8
DEFAULT_255_2_778
10
7.1949397
20
3.3493944
40
1.7606292
50
17.791614
51
31.0682021
0
ARC
8
DEFAULT_255_2_778
10
6.9006071
20
3.2522945
40
2.0705562
50
3.2642077
51
17.8613719
0
ARC
8
DEFAULT_255_2_778
10
6.8417799
20
3.2456387
40
2.1296696
50
0.0011037
51
3.3528656
0
ARC
8
DEFAULT_255_2_778
10
6.8592929
20
3.2455214
40
2.1121567
50
355.9447338
51
0.0042949
0
ARC
8
DEFAULT_255_2_778
10
7.0637992
20
3.2158653
40
1.9061252
50
328.5589676
51
356.3992078
0
ARC
8
DEFAULT_255_2_778
10
7.26165
20
3.1116365
40
1.6830159
50
317.2443101
51
328.0729095
0
ARC
8
DEFAULT_255_2_778
10
7.4451475
20
2.9585707
40
1.444421
50
280.2677415
51
316.761068
0
ARC
8
DEFAULT_255_2_778
10
7.4135437
20
3.1698081
40
1.6579218
50
272.6137784
51
280.0412085
0
ARC
8
DEFAULT_255_2_778
10
7.4193398
20
3.0756502
40
1.5635982
50
270.0045399
51
272.5589554
0
ARC
8
DEFAULT_255_2_778
10
7.431988
20
3.1045643
40
1.5925616
50
235.0022012
51
269.5494047
0
ARC
8
DEFAULT_255_2_778
10
7.7471215
20
3.6247651
40
2.1998073
50
230.2003268
51
236.0495455
0
LINE
8
DEFAULT_255_2_778
10
9.635113
20
-0.0529187
11
9.635113
21
4.8130813
0
LINE
8
DEFAULT_255_2_778
10
9.635113
20
4.8130813
11
10.320413
21
4.8130813
0
LINE
8
DEFAULT_255_2_778
10
10.320413
20
4.8130813
11
10.320413
21
4.5389813
0
LINE
8
DEFAULT_255_2_778
10
10.320713
20
1.9346813
11
10.320713
21
-0.0526187
0
LINE
8
DEFAULT_255_2_778
10
10.320713
20
-0.0526187
11
9.635413
21
-0.0526187
0
LINE
8
DEFAULT_255_2_778
10
9.635413
20
-0.0526187
11
9.635113
21
-0.0529187
0
LINE
8
DEFAULT_255_2_778
10
19.907613
20
1.7563813
11
19.907613
21
2.6265813
0
LINE
8
DEFAULT_255_2_778
10
19.907613
20
3.8258813
11
19.907613
21
4.7511813
0
LINE
8
DEFAULT_255_2_778
10
26.815113
20
3.6546813
11
28.343313
21
3.6546813
0
LINE
8
DEFAULT_255_2_778
10
29.083313
20
3.1064813
11
26.753413
21
3.1064813
0
LINE
8
DEFAULT_255_2_778
10
28.178713
20
2.4280813
11
28.528213
21
2.7707813
0
LINE
8
DEFAULT_255_2_778
10
28.528213
20
2.7707813
11
29.138413
21
2.4624813
0
LINE
8
DEFAULT_255_2_778
10
23.053013
20
4.4976813
11
23.053013
21
4.8196813
0
LINE
8
DEFAULT_255_2_778
10
23.053013
20
4.8196813
11
23.806813
21
4.8196813
0
LINE
8
DEFAULT_255_2_778
10
23.806813
20
4.8196813
11
23.806813
21
1.5988813
0
LINE
8
DEFAULT_255_2_778
10
23.806813
20
1.5988813
11
23.053013
21
1.5988813
0
LINE
8
DEFAULT_255_2_778
10
23.053013
20
1.5988813
11
23.053013
21
1.9415813
0
LINE
8
DEFAULT_255_2_778
10
15.720613
20
4.6135813
11
15.137913
21
4.8601813
0
LINE
8
DEFAULT_255_2_778
10
14.418313
20
5.4837813
11
14.418313
21
5.6824813
0
LINE
8
DEFAULT_255_2_778
10
15.953413
20
5.6821813
11
16.261913
21
5.8536813
0
LINE
8
DEFAULT_255_2_778
10
16.261913
20
5.8536813
11
16.563513
21
6.0523813
0
LINE
8
DEFAULT_255_2_778
10
2.604113
20
5.3612813
11
1.795513
21
3.6343813
0
LINE
8
DEFAULT_255_2_778
10
1.795513
20
3.6343813
11
3.364813
21
3.6343813
0
LINE
8
DEFAULT_255_2_778
10
3.364813
20
3.6343813
11
2.604113
21
5.3612813
0
LINE
8
DEFAULT_255_2_778
10
5.125813
20
1.5922813
11
4.248713
21
1.5922813
0
LINE
8
DEFAULT_255_2_778
10
3.947113
20
2.2569813
11
3.686813
21
2.8942813
0
LINE
8
DEFAULT_255_2_778
10
3.686813
20
2.8942813
11
1.500813
21
2.8942813
0
LINE
8
DEFAULT_255_2_778
10
1.500813
20
2.8942813
11
1.192313
21
2.2706813
0
LINE
8
DEFAULT_255_2_778
10
1.192313
20
2.2706813
11
0.856513
21
1.5922813
0
LINE
8
DEFAULT_255_2_778
10
0.856513
20
1.5922813
11
0.034213
21
1.5922813
0
LINE
8
DEFAULT_255_2_778
10
3.858213
20
4.3881813
11
5.126113
21
1.5922813
0
LINE
8
DEFAULT_255_2_778
10
24.567413
20
1.5920813
11
25.321213
21
1.5920813
0
LINE
8
DEFAULT_255_2_778
10
25.321213
20
1.5920813
11
25.321213
21
8.3764813
0
LINE
8
DEFAULT_255_2_778
10
25.321213
20
8.3764813
11
24.567413
21
8.3764813
0
LINE
8
DEFAULT_255_2_778
10
5.653413
20
-0.0529187
11
5.653413
21
4.8130813
0
LINE
8
DEFAULT_255_2_778
10
5.653413
20
4.8130813
11
6.338713
21
4.8130813
0
LINE
8
DEFAULT_255_2_778
10
6.338713
20
4.8130813
11
6.338713
21
4.5389813
0
LINE
8
DEFAULT_255_2_778
10
6.339013
20
1.9346813
11
6.339013
21
-0.0526187
0
LINE
8
DEFAULT_255_2_778
10
6.339013
20
-0.0526187
11
5.653413
21
-0.0529187
0
ENDSEC
0
EOF