0
SECTION
2
HEADER
9
$MEASUREMENT
70
1
0
ENDSEC
0
SECTION
2
TABLES
0
TABLE
2
LTYPE
0
LTYPE
72
65
70
64
2
CONTINUOUS
3
______
73
0
40
0
0
ENDTAB
0
TABLE
2
LAYER
0
LAYER
2
DEFAULT_255_2_778
70
0
62
255
6
CONTINUOUS
0
ENDTAB
0
ENDSEC
0
SECTION
2
ENTITIES
0
LINE
8
DEFAULT_255_2_778
10
28.4562345
20
110.5398473
11
0.7562345
21
110.5398473
0
LINE
8
DEFAULT_255_2_778
10
0.7562345
20
110.5398473
11
0.2561345
21
111.0399473
0
LINE
8
DEFAULT_255_2_778
10
0.2561345
20
111.0399473
11
0.2561345
21
140.8899473
0
LINE
8
DEFAULT_255_2_778
10
0.2561345
20
140.8899473
11
1.7560345
21
142.3898473
0
LINE
8
DEFAULT_255_2_778
10
1.7560345
20
142.3898473
11
0.2561345
21
140.3948473
0
LINE
8
DEFAULT_255_2_778
10
64.2091345
20
8.1397473
11
64.2114345
21
5.2425473
0
LINE
8
DEFAULT_255_2_778
10
64.2114345
20
5.2425473
11
125.9615345
21
5.2954473
0
LINE
8
DEFAULT_255_2_778
10
125.9615345
20
5.2954473
11
129.9580345
21
9.2988473
0
LINE
8
DEFAULT_255_2_778
10
129.9580345
20
9.2988473
11
66.4562345
21
9.2443473
0
LINE
8
DEFAULT_255_2_778
10
56.2560345
20
-0.1602527
11
56.2560345
21
0.3197473
0
LINE
8
DEFAULT_255_2_778
10
56.2560345
20
0.3197473
11
54.2560345
21
3.3198473
0
LINE
8
DEFAULT_255_2_778
10
54.2560345
20
3.3198473
11
48.1560345
21
3.3198473
0
LINE
8
DEFAULT_255_2_778
10
1.7560225
20
110.5398054
11
1.7560225
21
142.5398054
0
LINE
8
DEFAULT_255_2_778
10
1.7560225
20
142.5398054
11
28.4559225
21
142.7729054
0
LINE
8
DEFAULT_255_2_778
10
17.2278225
20
108.2302054
11
17.2299225
21
105.8053054
0
LINE
8
DEFAULT_255_2_778
10
17.2299225
20
105.8053054
11
16.3279225
21
106.7057054
0
LINE
8
DEFAULT_255_2_778
10
28.4562225
20
24.5100054
11
28.2114225
21
24.5097054
0
LINE
8
DEFAULT_255_2_778
10
124.0962225
20
28.1718054
11
120.0962225
21
24.1718054
0
LINE
8
DEFAULT_255_2_778
10
120.0962225
20
24.1718054
11
120.1240225
21
24.1049054
0
LINE
8
DEFAULT_255_2_778
10
120.1240225
20
24.1049054
11
62.2961225
21
24.1049054
0
LINE
8
DEFAULT_255_2_778
10
62.2961225
20
24.1049054
11
62.2961225
21
24.1718054
0
LINE
8
DEFAULT_255_2_778
10
62.2961225
20
24.1718054
11
120.0962225
21
24.1718054
0
LINE
8
DEFAULT_255_2_778
10
28.2247225
20
9.1996054
11
28.2024225
21
35.0396054
0
LINE
8
DEFAULT_255_2_778
10
28.2024225
20
35.0396054
11
28.4562225
21
35.0399054
0
LINE
8
DEFAULT_255_2_778
10
28.4562225
20
83.9798054
11
28.1604225
21
83.9796054
0
LINE
8
DEFAULT_255_2_778
10
28.1604225
20
83.9796054
11
28.1381225
21
109.8196054
0
LINE
8
DEFAULT_255_2_778
10
28.1381225
20
109.8196054
11
28.4562225
21
109.8198054
0
LINE
8
DEFAULT_255_2_778
10
28.4562225
20
-0.1602946
11
28.4562225
21
142.5398054
0
ARC
8
DEFAULT_255_2_778
10
62.2935325
20
123.9771221
40
2.4947862
50
89.9405721
51
110.7925967
0
ARC
8
DEFAULT_255_2_778
10
62.2995013
20
123.9693398
40
2.504182
50
110.8570611
51
169.5431969
0
ARC
8
DEFAULT_255_2_778
10
62.3109319
20
123.9727372
40
2.5148119
50
169.6665817
51
180.0211954
0
ARC
8
DEFAULT_255_2_778
10
121.6019288
20
123.9748167
40
2.561193
50
359.9326675
51
20.7005737
0
ARC
8
DEFAULT_255_2_778
10
121.5936378
20
123.9684845
40
2.5711889
50
20.7672625
51
79.2541154
0
ARC
8
DEFAULT_255_2_778
10
121.5973125
20
123.9578136
40
2.5809935
50
79.3784294
51
90.0264712
0
LINE
8
DEFAULT_255_2_778
10
28.2072201
20
29.5095069
11
28.4562201
21
29.5098069
0
LINE
8
DEFAULT_255_2_778
10
59.7961201
20
123.9718069
11
59.7291201
21
123.9718069
0
LINE
8
DEFAULT_255_2_778
10
59.7291201
20
123.9718069
11
59.7291201
21
26.6718069
0
LINE
8
DEFAULT_255_2_778
10
59.7291201
20
26.6718069
11
59.7961201
21
26.6718069
0
LINE
8
DEFAULT_255_2_778
10
59.7961201
20
26.6718069
11
59.7961201
21
123.9718069
0
LINE
8
DEFAULT_255_2_778
10
28.2035201
20
33.6994069
11
28.4562201
21
33.6997069
0
LINE
8
DEFAULT_255_2_778
10
121.5961201
20
126.5388069
11
62.2961201
21
126.5388069
0
LINE
8
DEFAULT_255_2_778
10
62.2961201
20
126.5388069
11
62.2961201
21
126.4719069
0
LINE
8
DEFAULT_255_2_778
10
62.2961201
20
126.4719069
11
121.5961201
21
126.4719069
0
LINE
8
DEFAULT_255_2_778
10
121.5961201
20
126.4719069
11
121.5961201
21
126.5388069
0
LINE
8
DEFAULT_255_2_778
10
129.8498201
20
135.2992069
11
125.8464201
21
139.2957069
0
LINE
8
DEFAULT_255_2_778
10
125.8464201
20
139.2957069
11
64.0963201
21
139.2428069
0
LINE
8
DEFAULT_255_2_778
10
64.0963201
20
139.2428069
11
64.0998201
21
135.2428069
0
LINE
8
DEFAULT_255_2_778
10
64.0998201
20
135.2428069
11
129.8498201
21
135.2992069
0
LINE
8
DEFAULT_255_2_778
10
28.4562201
20
85.3199069
11
28.1593201
21
85.3197069
0
LINE
8
DEFAULT_255_2_778
10
28.4562201
20
89.5099069
11
28.1556201
21
89.5096069
0
LINE
8
DEFAULT_255_2_778
10
28.1514201
20
94.5097069
11
28.4562201
21
94.5099069
0
LINE
8
DEFAULT_255_2_778
10
28.4562201
20
101.8199069
11
28.1450201
21
101.8196069
0
LINE
8
DEFAULT_255_2_778
10
28.1416201
20
105.8145069
11
17.2299201
21
105.8053069
0
LINE
8
DEFAULT_255_2_778
10
16.3266201
20
108.2294069
11
28.1395201
21
108.2394069
0
LINE
8
DEFAULT_255_2_778
10
123.8398201
20
135.0110069
11
123.8395201
21
135.2912069
0
LINE
8
DEFAULT_255_2_778
10
123.8395201
20
135.2912069
11
56.2562201
21
135.2333069
0
LINE
8
DEFAULT_255_2_778
10
120.1240201
20
24.1049069
11
124.1631201
21
28.1440069
0
LINE
8
DEFAULT_255_2_778
10
124.1631201
20
28.1440069
11
124.1631201
21
123.9718069
0
LINE
8
DEFAULT_255_2_778
10
124.1631201
20
123.9718069
11
124.0962201
21
123.9718069
0
LINE
8
DEFAULT_255_2_778
10
124.0962201
20
123.9718069
11
124.0962201
21
28.1718069
0
LINE
8
DEFAULT_255_2_778
10
124.0962201
20
28.1718069
11
124.1631201
21
28.1440069
0
LINE
8
DEFAULT_255_2_778
10
132.4962201
20
125.5932069
11
132.4962201
21
19.6895069
0
LINE
8
DEFAULT_255_2_778
10
3.2562201
20
142.0397069
11
28.4562201
21
142.0397069
0
LINE
8
DEFAULT_255_2_778
10
59.7292068
20
26.6718932
11
59.7292068
21
26.6715157
0
ARC
8
DEFAULT_255_2_778
10
62.2958592
20
26.6714355
40
2.5666524
50
179.9982092
51
224.9982625
0
ARC
8
DEFAULT_255_2_778
10
62.2957491
20
26.6715456
40
2.5666524
50
225.0017375
51
270.0017908
0
LINE
8
DEFAULT_255_2_778
10
62.2958293
20
24.1048932
11
62.2962068
21
24.1048932
0
ARC
8
DEFAULT_255_2_778
10
62.2904872
20
26.6690853
40
2.4944031
50
179.9366533
51
200.7907551
0
ARC
8
DEFAULT_255_2_778
10
62.2985952
20
26.6751887
40
2.5041512
50
200.855459
51
259.5420821
0
ARC
8
DEFAULT_255_2_778
10
62.2951585
20
26.6864837
40
2.5146407
50
259.6657994
51
270.0211239
0
ARC
8
DEFAULT_255_2_778
10
62.2930882
20
123.9778061
40
2.5610389
50
89.9329414
51
110.7012032
0
ARC
8
DEFAULT_255_2_778
10
62.2994985
20
123.9692704
40
2.5712911
50
110.7675874
51
169.2524969
0
ARC
8
DEFAULT_255_2_778
10
62.3098948
20
123.9730335
40
2.5808096
50
169.3776164
51
180.0264267
0
ARC
8
DEFAULT_255_2_778
10
121.60139
20
123.97443
40
2.494797
50
359.9405912
51
20.7925511
0
ARC
8
DEFAULT_255_2_778
10
121.5934595
20
123.9683801
40
2.5043601
50
20.8575408
51
79.5402498
0
ARC
8
DEFAULT_255_2_778
10
121.5968299
20
123.9568902
40
2.5150531
50
79.6632767
51
90.0169566
0
ARC
8
DEFAULT_255_2_778
10
60.3390282
20
135.744632
40
0.5080891
50
270.0515751
51
315.045332
0
ARC
8
DEFAULT_255_2_778
10
60.338772
20
135.7445515
40
0.5082136
50
315.0721668
51
0.0127715
0
ARC
8
DEFAULT_255_2_778
10
60.6680095
20
135.7447594
40
0.1789762
50
359.9697174
51
0.0908501
0
LINE
8
DEFAULT_255_2_778
10
16.3281856
20
106.7056432
11
16.3278856
21
108.2294432
0
LINE
8
DEFAULT_255_2_778
10
130.8506856
20
10.2719432
11
125.9574856
21
5.2959432
0
LINE
8
DEFAULT_255_2_778
10
125.9574856
20
5.2959432
11
60.9588856
21
5.2401432
0
LINE
8
DEFAULT_255_2_778
10
60.9588856
20
5.2401432
11
60.9564856
21
8.1399432
0
LINE
8
DEFAULT_255_2_778
10
56.2561856
20
135.2330432
11
60.3394856
21
135.2365432
0
LINE
8
DEFAULT_255_2_778
10
60.8469856
20
135.7450432
11
60.8440856
21
139.2502432
0
LINE
8
DEFAULT_255_2_778
10
60.8440856
20
139.2502432
11
125.8426856
21
139.3060432
0
LINE
8
DEFAULT_255_2_778
10
125.8426856
20
139.3060432
11
130.1453856
21
135.0108432
0
LINE
8
DEFAULT_255_2_778
10
132.4961856
20
126.2512432
11
139.1876856
21
126.2570432
0
LINE
8
DEFAULT_255_2_778
10
139.1876856
20
126.2570432
11
139.9383856
21
125.5077432
0
LINE
8
DEFAULT_255_2_778
10
139.9383856
20
125.5077432
11
139.9729856
21
85.1077432
0
LINE
8
DEFAULT_255_2_778
10
139.9729856
20
85.1077432
11
139.2236856
21
84.3571432
0
LINE
8
DEFAULT_255_2_778
10
139.2236856
20
84.3571432
11
132.4961856
21
84.3513432
0
LINE
8
DEFAULT_255_2_778
10
28.4561856
20
-0.1600568
11
56.2561856
21
-0.1600568
0
LINE
8
DEFAULT_255_2_778
10
3.2561856
20
142.0397432
11
3.2561856
21
130.1385432
0
LINE
8
DEFAULT_255_2_778
10
3.2561856
20
128.1411432
11
3.2561856
21
125.1386432
0
LINE
8
DEFAULT_255_2_778
10
3.2561856
20
123.1410432
11
3.2561856
21
110.5397432
0
LINE
8
DEFAULT_255_2_778
10
28.4561856
20
142.5398432
11
28.7061856
21
145.0398432
0
LINE
8
DEFAULT_255_2_778
10
28.7061856
20
145.0398432
11
56.2561856
21
145.0398432
0
LINE
8
DEFAULT_255_2_778
10
56.2561856
20
10.3502432
11
132.4961856
21
10.3502432
0
LINE
8
DEFAULT_255_2_778
10
56.2562249
20
10.2719448
11
132.4962249
21
10.2719448
0
LINE
8
DEFAULT_255_2_778
10
132.4962249
20
10.2719448
11
132.4962249
21
13.1723448
0
LINE
8
DEFAULT_255_2_778
10
132.4962249
20
134.9322448
11
56.2562249
21
134.9322448
0
ARC
8
DEFAULT_255_2_778
10
3.1184486
20
124.1420013
40
0.9123977
50
179.9949407
51
180.1368764
0
ARC
8
DEFAULT_255_2_778
10
3.2033499
20
124.1422243
40
0.997299
50
134.9918366
51
180.0081821
0
ARC
8
DEFAULT_255_2_778
10
3.2035509
20
124.1424253
40
0.997299
50
89.9918179
51
135.0081634
0
ARC
8
DEFAULT_255_2_778
10
3.2037738
20
124.2273266
40
0.9123976
50
89.8631236
51
90.0050593
0
ARC
8
DEFAULT_255_2_778
10
3.2073682
20
124.1434797
40
0.996243
50
48.3562194
51
90.0813599
0
ARC
8
DEFAULT_255_2_778
10
3.2084159
20
124.1408525
40
0.9975133
50
1.7323109
51
48.5014663
0
ARC
8
DEFAULT_255_2_778
10
3.1871978
20
124.1397314
40
1.0187558
50
359.9994546
51
1.7592604
0
ARC
8
DEFAULT_255_2_778
10
3.2097502
20
124.1382905
40
0.9962043
50
318.3524118
51
0.0823122
0
ARC
8
DEFAULT_255_2_778
10
3.2070645
20
124.1373044
40
0.9975589
50
271.7330587
51
318.4972473
0
ARC
8
DEFAULT_255_2_778
10
3.2059632
20
124.1581163
40
1.0183948
50
269.9994555
51
271.7595773
0
ARC
8
DEFAULT_255_2_778
10
3.203773
20
124.0527826
40
0.9130635
50
269.9949425
51
270.136828
0
ARC
8
DEFAULT_255_2_778
10
3.203441
20
124.1367529
40
0.9970339
50
224.9774003
51
270.0144508
0
ARC
8
DEFAULT_255_2_778
10
3.2032428
20
124.137176
40
0.9971929
50
179.9993607
51
225.0026422
0
ARC
8
DEFAULT_255_2_778
10
3.1702027
20
124.1372602
40
0.9641527
50
179.8477797
51
180.0043385
0
ARC
8
DEFAULT_255_2_778
10
3.1184486
20
129.1421013
40
0.9123977
50
179.9949407
51
180.1368764
0
ARC
8
DEFAULT_255_2_778
10
3.2033499
20
129.1423243
40
0.997299
50
134.9918366
51
180.0081821
0
ARC
8
DEFAULT_255_2_778
10
3.2035509
20
129.1425253
40
0.997299
50
89.9918179
51
135.0081634
0
ARC
8
DEFAULT_255_2_778
10
3.2037738
20
129.2274266
40
0.9123976
50
89.8631236
51
90.0050593
0
ARC
8
DEFAULT_255_2_778
10
3.2073682
20
129.1435797
40
0.996243
50
48.3562194
51
90.0813599
0
ARC
8
DEFAULT_255_2_778
10
3.2084159
20
129.1409525
40
0.9975133
50
1.7323109
51
48.5014663
0
ARC
8
DEFAULT_255_2_778
10
3.1871978
20
129.1398314
40
1.0187558
50
359.9994546
51
1.7592604
0
ARC
8
DEFAULT_255_2_778
10
3.2097502
20
129.1383905
40
0.9962043
50
318.3524118
51
0.0823122
0
ARC
8
DEFAULT_255_2_778
10
3.2070645
20
129.1374044
40
0.9975589
50
271.7330587
51
318.4972473
0
ARC
8
DEFAULT_255_2_778
10
3.2059632
20
129.1582163
40
1.0183948
50
269.9994555
51
271.7595773
0
ARC
8
DEFAULT_255_2_778
10
3.203773
20
129.0528826
40
0.9130635
50
269.9949425
51
270.136828
0
ARC
8
DEFAULT_255_2_778
10
3.2034747
20
129.1371757
40
0.9973566
50
224.9932073
51
270.0125066
0
ARC
8
DEFAULT_255_2_778
10
3.2036488
20
129.1373441
40
0.9975988
50
180.0032735
51
224.9929834
0
ARC
8
DEFAULT_255_2_778
10
3.1702027
20
129.1373602
40
0.9641527
50
179.8477797
51
180.0043385
0
ARC
8
DEFAULT_255_2_778
10
54.8658534
20
142.9891842
40
1.4996005
50
252.0442739
51
267.4326341
0
ARC
8
DEFAULT_255_2_778
10
54.8658466
20
142.9895064
40
1.4999222
50
267.4334451
51
270.000229
0
ARC
8
DEFAULT_255_2_778
10
54.8659545
20
142.9899927
40
1.5004086
50
269.9961051
51
304.6046987
0
ARC
8
DEFAULT_255_2_778
10
54.8670344
20
142.9867715
40
1.9969934
50
284.486845
51
304.6327326
0
ARC
8
DEFAULT_255_2_778
10
54.8660825
20
142.9916952
40
2.0019987
50
269.9963084
51
284.4779704
0
ARC
8
DEFAULT_255_2_778
10
54.8653579
20
142.9879094
40
1.9982128
50
242.1525175
51
270.0170776
0
ARC
8
DEFAULT_255_2_778
10
54.8690747
20
142.9939188
40
2.0052625
50
235.3845357
51
242.1388232
0
ARC
8
DEFAULT_255_2_778
10
59.2277796
20
139.2412254
40
2.4976714
50
39.2827788
51
67.1549217
0
ARC
8
DEFAULT_255_2_778
10
59.2259187
20
139.2385416
40
2.5008672
50
67.1395042
51
89.9908287
0
ARC
8
DEFAULT_255_2_778
10
59.2263536
20
139.2424751
40
2.4969338
50
90.0007926
51
96.800065
0
ARC
8
DEFAULT_255_2_778
10
59.2274242
20
139.233641
40
2.5058325
50
96.8004556
51
101.6420902
0
ARC
8
DEFAULT_255_2_778
10
59.2250911
20
139.2406816
40
2.498466
50
101.6222702
51
135.7068957
0
ARC
8
DEFAULT_255_2_778
10
59.2239227
20
139.2404697
40
2.4977779
50
135.6846991
51
163.9959179
0
ARC
8
DEFAULT_255_2_778
10
55.0755604
20
139.431952
40
1.5424112
50
282.7076104
51
343.9774209
0
ARC
8
DEFAULT_255_2_778
10
50.4565509
20
140.4837254
40
2.0002974
50
151.9963166
51
179.9943773
0
ARC
8
DEFAULT_255_2_778
10
45.5550078
20
140.2893369
40
2.9012457
50
347.644171
51
0.0036479
0
ARC
8
DEFAULT_255_2_778
10
45.5620976
20
140.2893002
40
2.3943558
50
347.081874
51
0.0052993
0
ARC
8
DEFAULT_255_2_778
10
50.4566161
20
140.4837457
40
2.5001625
50
157.8689771
51
179.9959682
0
ARC
8
DEFAULT_255_2_778
10
55.0761719
20
139.4317675
40
2.0424933
50
287.9709941
51
343.980786
0
ARC
8
DEFAULT_255_2_778
10
59.2268444
20
139.2391247
40
2.0002365
50
101.6405765
51
163.9834007
0
ARC
8
DEFAULT_255_2_778
10
59.2278087
20
139.2348532
40
2.0046149
50
96.8179167
51
101.6429363
0
ARC
8
DEFAULT_255_2_778
10
59.2269344
20
139.2420401
40
1.997375
50
90.000863
51
96.817488
0
ARC
8
DEFAULT_255_2_778
10
59.2265953
20
139.2388476
40
2.0005675
50
39.2982553
51
89.9911509
0
ARC
8
DEFAULT_255_2_778
10
48.1562504
20
140.9197247
40
0.5000969
50
89.9996485
51
180.0003515
0
ARC
8
DEFAULT_255_2_778
10
48.1561651
20
140.1696332
40
0.5000116
50
180.0013268
51
270.0101312
0
ARC
8
DEFAULT_255_2_778
10
129.8947812
20
132.5595407
40
0.7824817
50
89.9749258
51
90.075254
0
ARC
8
DEFAULT_255_2_778
10
129.894553
20
132.057145
40
1.2848775
50
52.8467431
51
89.9745519
0
ARC
8
DEFAULT_255_2_778
10
129.256608
20
132.0682984
40
1.2737233
50
90.0024496
51
92.5924476
0
ARC
8
DEFAULT_255_2_778
10
129.2573541
20
132.05068
40
1.2913573
50
92.5901625
51
112.3857319
0
ARC
8
DEFAULT_255_2_778
10
129.2555426
20
132.0599444
40
1.2821023
50
112.4685527
51
134.9750961
0
ARC
8
DEFAULT_255_2_778
10
129.2554332
20
132.0613317
40
1.2810439
50
135.0154867
51
157.5408681
0
ARC
8
DEFAULT_255_2_778
10
129.2688732
20
132.0580483
40
1.2947206
50
157.6338014
51
179.9303719
0
ARC
8
DEFAULT_255_2_778
10
129.7983047
20
131.9657008
40
0.7816571
50
43.5367476
51
87.3493294
0
ARC
8
DEFAULT_255_2_778
10
129.8005337
20
131.9637256
40
0.7814075
50
359.904709
51
43.7543222
0
ARC
8
DEFAULT_255_2_778
10
129.8195812
20
131.962426
40
0.762359
50
359.8339856
51
359.9999998
0
ARC
8
DEFAULT_255_2_778
10
129.787767
20
131.9624399
40
0.7941732
50
357.2922318
51
359.8396337
0
ARC
8
DEFAULT_255_2_778
10
129.3524859
20
131.964442
40
0.783223
50
131.9856196
51
177.1180134
0
ARC
8
DEFAULT_255_2_778
10
129.352568
20
131.9643523
40
0.7833446
50
90.0016255
51
131.9856902
0
ARC
8
DEFAULT_255_2_778
10
129.3525381
20
131.9635269
40
0.78417
50
86.8627954
51
89.999441
0
ARC
8
DEFAULT_255_2_778
10
129.8948867
20
125.6447213
40
1.2826004
50
269.9973381
51
307.1948247
0
ARC
8
DEFAULT_255_2_778
10
129.8944838
20
125.1483946
40
0.7862737
50
269.9249213
51
270.0250158
0
ARC
8
DEFAULT_255_2_778
10
129.3542916
20
125.748968
40
0.7921165
50
270.0001486
51
272.9786829
0
ARC
8
DEFAULT_255_2_778
10
129.3542937
20
125.7158942
40
0.7590427
50
269.8559202
51
269.9999999
0
ARC
8
DEFAULT_255_2_778
10
129.3530398
20
125.7376547
40
0.7808011
50
226.3360678
51
269.9519457
0
ARC
8
DEFAULT_255_2_778
10
129.3505971
20
125.7407665
40
0.7813755
50
182.9449914
51
226.6231847
0
ARC
8
DEFAULT_255_2_778
10
129.2443369
20
125.6445809
40
1.2704834
50
180.0026717
51
182.6169698
0
ARC
8
DEFAULT_255_2_778
10
129.2667698
20
125.6458235
40
1.2929495
50
182.6265878
51
202.3854797
0
ARC
8
DEFAULT_255_2_778
10
129.256503
20
125.6439439
40
1.2827425
50
202.4824939
51
224.9738707
0
ARC
8
DEFAULT_255_2_778
10
129.2540422
20
125.6425004
40
1.2799817
50
225.0060158
51
247.5503354
0
ARC
8
DEFAULT_255_2_778
10
129.2579277
20
125.6568438
40
1.2947232
50
247.6338126
51
269.9303386
0
ARC
8
DEFAULT_255_2_778
10
129.039907
20
128.4772737
40
1.1822522
50
246.4824781
51
270.0264852
0
ARC
8
DEFAULT_255_2_778
10
129.7887787
20
125.7417562
40
0.7929604
50
0.1567964
51
2.7080935
0
ARC
8
DEFAULT_255_2_778
10
129.7442561
20
125.7416833
40
0.837483
50
0.0052916
51
0.1534518
0
ARC
8
DEFAULT_255_2_778
10
129.80018
20
125.7405822
40
0.78156
50
316.239691
51
0.0863904
0
ARC
8
DEFAULT_255_2_778
10
129.7986624
20
125.7374302
40
0.7804831
50
277.442075
51
316.4838637
0
ARC
8
DEFAULT_255_2_778
10
130.734784
20
132.6720455
40
0.2012864
50
159.1701658
51
180.954883
0
ARC
8
DEFAULT_255_2_778
10
130.8573224
20
132.669902
40
0.3237991
50
180.2142764
51
187.1219502
0
ARC
8
DEFAULT_255_2_778
10
131.0621351
20
132.697011
40
0.5303947
50
187.284732
51
193.6190323
0
ARC
8
DEFAULT_255_2_778
10
131.9466495
20
132.9294019
40
1.4448661
50
194.3163591
51
201.2970573
0
ARC
8
DEFAULT_255_2_778
10
129.7756389
20
132.1077329
40
0.8766197
50
0.1953457
51
19.7961397
0
ARC
8
DEFAULT_255_2_778
10
129.7755049
20
125.5964331
40
0.8767535
50
340.205433
51
359.8097379
0
ARC
8
DEFAULT_255_2_778
10
131.0651369
20
125.0058985
40
0.5336029
50
166.3281097
51
172.7176026
0
ARC
8
DEFAULT_255_2_778
10
130.8523498
20
125.0341772
40
0.3189495
50
172.9112142
51
179.7869586
0
ARC
8
DEFAULT_255_2_778
10
130.7321969
20
125.0320627
40
0.1988219
50
179.0488428
51
201.058553
0
ARC
8
DEFAULT_255_2_778
10
129.8952901
20
132.0615976
40
0.7840814
50
25.9272861
51
58.0117602
0
ARC
8
DEFAULT_255_2_778
10
129.8963993
20
132.0531425
40
0.7906837
50
58.4044996
51
89.9971629
0
ARC
8
DEFAULT_255_2_778
10
129.8964997
20
132.0244858
40
0.8193404
50
90.0042817
51
90.192037
0
ARC
8
DEFAULT_255_2_778
10
129.2707802
20
132.0446872
40
0.7990647
50
91.0344975
51
177.5233955
0
ARC
8
DEFAULT_255_2_778
10
129.2846916
20
132.0445757
40
0.8129681
50
177.5579136
51
178.9747875
0
ARC
8
DEFAULT_255_2_778
10
129.2707162
20
125.6586784
40
0.7989917
50
181.029579
51
267.5283135
0
ARC
8
DEFAULT_255_2_778
10
129.2708995
20
125.6726627
40
0.812971
50
267.557913
51
268.9747868
0
ARC
8
DEFAULT_255_2_778
10
129.897988
20
125.6192576
40
0.7597477
50
269.6806614
51
269.9973015
0
ARC
8
DEFAULT_255_2_778
10
129.8978518
20
125.6276552
40
0.7681452
50
270.0074884
51
273.7747201
0
ARC
8
DEFAULT_255_2_778
10
129.8965343
20
125.6494081
40
0.7899377
50
273.766203
51
301.6172834
0
ARC
8
DEFAULT_255_2_778
10
129.8954968
20
125.6414535
40
0.7837242
50
301.9867386
51
334.0918906
0
ARC
8
DEFAULT_255_2_778
10
130.7346673
20
20.2506207
40
0.2008703
50
159.1479606
51
180.9640745
0
ARC
8
DEFAULT_255_2_778
10
130.8561733
20
20.2483882
40
0.3223497
50
180.203921
51
186.9758993
0
ARC
8
DEFAULT_255_2_778
10
131.0574492
20
20.2746928
40
0.5253329
50
187.1574376
51
193.6497403
0
ARC
8
DEFAULT_255_2_778
10
131.9466623
20
20.5071061
40
1.4443665
50
194.2847448
51
201.2666458
0
ARC
8
DEFAULT_255_2_778
10
129.8961103
20
19.6410845
40
0.7832234
50
25.901933
51
58.0174167
0
ARC
8
DEFAULT_255_2_778
10
129.8966012
20
19.6315957
40
0.7910305
50
58.4116076
51
89.9971704
0
ARC
8
DEFAULT_255_2_778
10
129.8967015
20
19.602247
40
0.8203792
50
90.0042794
51
90.1919228
0
ARC
8
DEFAULT_255_2_778
10
129.2710429
20
19.6234275
40
0.7991256
50
91.0389215
51
177.5192982
0
ARC
8
DEFAULT_255_2_778
10
129.2848567
20
19.6231828
40
0.8129369
50
177.5442078
51
178.961146
0
ARC
8
DEFAULT_255_2_778
10
129.270988
20
13.2367483
40
0.7990647
50
181.0344975
51
267.5233955
0
ARC
8
DEFAULT_255_2_778
10
129.2710994
20
13.2506597
40
0.8129681
50
267.5579136
51
268.9747875
0
ARC
8
DEFAULT_255_2_778
10
129.8981908
20
13.1985806
40
0.7607707
50
269.6808737
51
269.9973028
0
ARC
8
DEFAULT_255_2_778
10
129.8980696
20
13.2061463
40
0.7683363
50
270.0063699
51
273.5862801
0
ARC
8
DEFAULT_255_2_778
10
129.8967002
20
13.2281627
40
0.7903953
50
273.5855197
51
301.6082807
0
ARC
8
DEFAULT_255_2_778
10
129.8958391
20
13.2194964
40
0.7834837
50
301.9940739
51
334.104256
0
ARC
8
DEFAULT_255_2_778
10
129.8947801
20
20.1391177
40
0.7807046
50
89.9748965
51
90.075342
0
ARC
8
DEFAULT_255_2_778
10
129.8943871
20
19.6348455
40
1.2849771
50
52.8408326
51
89.967223
0
ARC
8
DEFAULT_255_2_778
10
129.2566168
20
19.6492138
40
1.2706079
50
90.0028537
51
92.5992071
0
ARC
8
DEFAULT_255_2_778
10
129.2577402
20
19.6279354
40
1.2919153
50
92.6061827
51
112.3940532
0
ARC
8
DEFAULT_255_2_778
10
129.2555426
20
19.6376444
40
1.2821023
50
112.4685527
51
134.9750961
0
ARC
8
DEFAULT_255_2_778
10
129.2545323
20
19.6396329
40
1.2799817
50
135.0060158
51
157.5503354
0
ARC
8
DEFAULT_255_2_778
10
129.2688735
20
19.6357482
40
1.294721
50
157.6338043
51
179.9303683
0
ARC
8
DEFAULT_255_2_778
10
129.7986529
20
19.5439411
40
0.7811014
50
43.5309324
51
87.3730129
0
ARC
8
DEFAULT_255_2_778
10
129.8003478
20
19.5414511
40
0.7815933
50
359.9101161
51
43.7488422
0
ARC
8
DEFAULT_255_2_778
10
129.8172557
20
19.5401776
40
0.7646844
50
359.7619197
51
0.003553
0
ARC
8
DEFAULT_255_2_778
10
129.7879189
20
19.5402383
40
0.7940213
50
357.2918312
51
359.766335
0
ARC
8
DEFAULT_255_2_778
10
129.3527126
20
19.5421414
40
0.7834494
50
131.9930196
51
177.1187983
0
ARC
8
DEFAULT_255_2_778
10
129.3524912
20
19.542033
40
0.783382
50
90.0165286
51
131.9756811
0
ARC
8
DEFAULT_255_2_778
10
129.3522634
20
19.5431455
40
0.7822693
50
86.8350162
51
89.9998662
0
ARC
8
DEFAULT_255_2_778
10
129.8944539
20
13.2237097
40
1.2838885
50
269.9962669
51
307.1754528
0
LINE
8
DEFAULT_255_2_778
10
129.8943702
20
11.9398213
11
129.8934535
21
11.9398217
0
ARC
8
DEFAULT_255_2_778
10
129.3539597
20
13.3259781
40
0.7913451
50
270.0001536
51
273.0056539
0
ARC
8
DEFAULT_255_2_778
10
129.3535678
20
13.0527721
40
0.5181393
50
269.8691988
51
270.0435708
0
ARC
8
DEFAULT_255_2_778
10
129.3527741
20
13.3149834
40
0.780349
50
226.3313631
51
269.9714301
0
ARC
8
DEFAULT_255_2_778
10
129.3508281
20
13.3185657
40
0.7816063
50
182.9440615
51
226.6158697
0
ARC
8
DEFAULT_255_2_778
10
129.1359622
20
16.0532476
40
1.1824745
50
90.0537186
51
119.1238228
0
ARC
8
DEFAULT_255_2_778
10
129.7887787
20
13.3200562
40
0.7929604
50
0.1567964
51
2.7080935
0
ARC
8
DEFAULT_255_2_778
10
129.7442561
20
13.3199833
40
0.837483
50
0.0052916
51
0.1534518
0
ARC
8
DEFAULT_255_2_778
10
129.80018
20
13.3188822
40
0.78156
50
316.239691
51
0.0863904
0
ARC
8
DEFAULT_255_2_778
10
129.7987084
20
13.3157515
40
0.7804644
50
285.2925078
51
316.480405
0
ARC
8
DEFAULT_255_2_778
10
129.7756395
20
19.6860331
40
0.8766191
50
0.1953356
51
19.7961431
0
ARC
8
DEFAULT_255_2_778
10
129.2442613
20
13.2225849
40
1.2706077
50
180.0028537
51
182.599207
0
ARC
8
DEFAULT_255_2_778
10
129.2675295
20
13.2238734
40
1.2939106
50
182.6094786
51
202.3655583
0
ARC
8
DEFAULT_255_2_778
10
129.255451
20
13.2215416
40
1.2818557
50
202.4746049
51
224.9880673
0
ARC
8
DEFAULT_255_2_778
10
129.2536738
20
13.2200722
40
1.2795598
50
224.9977908
51
247.5458449
0
ARC
8
DEFAULT_255_2_778
10
129.2576284
20
13.2348464
40
1.2947258
50
247.633824
51
269.9303048
0
ARC
8
DEFAULT_255_2_778
10
130.7334526
20
12.6103051
40
0.2001962
50
179.0385949
51
200.9201601
0
ARC
8
DEFAULT_255_2_778
10
130.8562941
20
12.6124366
40
0.3230119
50
172.8418769
51
179.7822554
0
ARC
8
DEFAULT_255_2_778
10
131.0645635
20
12.5847474
40
0.5331106
50
166.3759469
51
172.6783747
0
ARC
8
DEFAULT_255_2_778
10
131.9461623
20
12.3539372
40
1.4443665
50
158.7333542
51
165.7152552
0
ARC
8
DEFAULT_255_2_778
10
129.7804742
20
13.1739336
40
0.8715254
50
340.1375732
51
358.638227
0
ARC
8
DEFAULT_255_2_778
10
62.9591263
20
16.2310766
40
4.5593463
50
75.5982614
51
90.0423847
0
ARC
8
DEFAULT_255_2_778
10
62.9617127
20
16.2566449
40
4.5339397
50
52.2661935
51
75.5495554
0
ARC
8
DEFAULT_255_2_778
10
62.9496786
20
16.2331751
40
4.5598685
50
18.7258146
51
52.3270854
0
ARC
8
DEFAULT_255_2_778
10
62.9716612
20
16.2468906
40
4.5346502
50
2.9096569
51
18.6508609
0
ARC
8
DEFAULT_255_2_778
10
62.8810286
20
16.239834
40
4.6255249
50
359.9973693
51
2.939965
0
ARC
8
DEFAULT_255_2_778
10
62.9534945
20
16.2404722
40
3.324941
50
152.7722815
51
180.0112106
0
ARC
8
DEFAULT_255_2_778
10
62.9548246
20
16.2410013
40
3.3258818
50
121.5645217
51
152.7908703
0
ARC
8
DEFAULT_255_2_778
10
62.9618523
20
16.2297551
40
3.3391428
50
120.000543
51
121.5662546
0
ARC
8
DEFAULT_255_2_778
10
62.9551294
20
16.2421774
40
3.3250233
50
103.4704954
51
120.0072485
0
ARC
8
DEFAULT_255_2_778
10
62.9558278
20
16.237937
40
3.3293098
50
89.9978364
51
103.4651837
0
ARC
8
DEFAULT_255_2_778
10
62.9564131
20
16.2410396
40
3.3262071
50
66.6658457
51
90.007916
0
ARC
8
DEFAULT_255_2_778
10
62.953877
20
16.236303
40
3.3315609
50
60.0000779
51
66.6580629
0
ARC
8
DEFAULT_255_2_778
10
62.9577707
20
16.2418581
40
3.3248033
50
32.7706372
51
60.0103229
0
ARC
8
DEFAULT_255_2_778
10
62.957352
20
16.24031
40
3.3259934
50
1.5635223
51
32.7891572
0
ARC
8
DEFAULT_255_2_778
10
62.944368
20
16.2398436
40
3.3389855
50
359.9996231
51
1.5654433
0
ARC
8
DEFAULT_255_2_778
10
62.9586585
20
16.2391953
40
3.3246951
50
332.771254
51
0.0107951
0
ARC
8
DEFAULT_255_2_778
10
62.9570491
20
16.2387919
40
3.3259417
50
301.5645605
51
332.7901177
0
ARC
8
DEFAULT_255_2_778
10
62.9500548
20
16.2499882
40
3.3391427
50
300.000543
51
301.5662546
0
ARC
8
DEFAULT_255_2_778
10
62.9567228
20
16.2371594
40
3.3246987
50
283.4728068
51
300.0115705
0
ARC
8
DEFAULT_255_2_778
10
62.9560779
20
16.2412051
40
3.3287834
50
269.9978591
51
283.4673769
0
ARC
8
DEFAULT_255_2_778
10
62.9555008
20
16.2381502
40
3.3257286
50
246.6621593
51
270.0077991
0
ARC
8
DEFAULT_255_2_778
10
62.9581539
20
16.2431725
40
3.331391
50
239.9959307
51
246.6544817
0
ARC
8
DEFAULT_255_2_778
10
62.9541689
20
16.2379347
40
3.3248625
50
212.7711855
51
240.0102633
0
ARC
8
DEFAULT_255_2_778
10
62.9543751
20
16.2393728
40
3.3258145
50
181.5641578
51
212.7900936
0
ARC
8
DEFAULT_255_2_778
10
62.9669862
20
16.2397997
40
3.3384327
50
179.9996234
51
181.5655742
0
ARC
8
DEFAULT_255_2_778
10
62.9560482
20
16.2398063
40
2.0574947
50
120.001523
51
179.9995736
0
ARC
8
DEFAULT_255_2_778
10
62.9554099
20
16.2414781
40
2.0557278
50
96.9564356
51
120.0094142
0
ARC
8
DEFAULT_255_2_778
10
62.9559789
20
16.2376647
40
2.0595819
50
90.009696
51
96.9593006
0
LINE
8
DEFAULT_255_2_778
10
62.9556304
20
18.2972466
11
62.955991
21
18.2972467
0
ARC
8
DEFAULT_255_2_778
10
62.9563547
20
16.2413012
40
2.0559455
50
62.8601828
51
90.0101352
0
ARC
8
DEFAULT_255_2_778
10
62.9531973
20
16.2352233
40
2.0627945
50
59.9981076
51
62.8591472
0
ARC
8
DEFAULT_255_2_778
10
62.9560682
20
16.2399272
40
2.0572853
50
359.9970602
51
60.0018444
0
ARC
8
DEFAULT_255_2_778
10
62.9561083
20
16.2397929
40
2.0572452
50
299.9975118
51
0.0008008
0
ARC
8
DEFAULT_255_2_778
10
62.9566387
20
16.2377748
40
2.0552323
50
276.9484253
51
300.0128341
0
ARC
8
DEFAULT_255_2_778
10
62.9560024
20
16.2420154
40
2.0595188
50
269.9996842
51
276.951726
0
LINE
8
DEFAULT_255_2_778
10
62.955991
20
14.1824967
11
62.9556304
21
14.1824967
0
ARC
8
DEFAULT_255_2_778
10
62.9556556
20
16.2388149
40
2.0563182
50
242.8617237
51
269.9992977
0
ARC
8
DEFAULT_255_2_778
10
62.9589863
20
16.245288
40
2.063598
50
240.0021197
51
242.8614074
0
ARC
8
DEFAULT_255_2_778
10
62.9560088
20
16.2399142
40
2.0574552
50
180.002577
51
239.9991107
0
ARC
8
DEFAULT_255_2_778
10
62.9489843
20
16.2432267
40
4.4569705
50
359.9562272
51
14.7581285
0
ARC
8
DEFAULT_255_2_778
10
62.9703676
20
16.2446726
40
4.4359261
50
14.8104263
51
38.8342712
0
ARC
8
DEFAULT_255_2_778
10
62.9502253
20
16.2350176
40
4.4576736
50
38.7685943
51
71.4678507
0
ARC
8
DEFAULT_255_2_778
10
62.9627569
20
16.2543191
40
4.4353937
50
71.54209
51
87.4139126
0
ARC
8
DEFAULT_255_2_778
10
62.9561187
20
16.164521
40
4.5254005
50
87.3812506
51
90.0020908
0
ARC
8
DEFAULT_255_2_778
10
62.9430459
20
16.2427441
40
5.0633084
50
359.9669298
51
13.6926819
0
ARC
8
DEFAULT_255_2_778
10
62.9799507
20
16.2481627
40
5.0261711
50
13.7322528
51
34.6221275
0
ARC
8
DEFAULT_255_2_778
10
62.9458588
20
16.2292468
40
5.0649746
50
34.5791021
51
70.3725159
0
ARC
8
DEFAULT_255_2_778
10
62.9648668
20
16.2632248
40
5.0265901
50
70.4464959
51
85.7013858
0
ARC
8
DEFAULT_255_2_778
10
62.9558837
20
16.1683359
40
5.1218858
50
85.6807408
51
89.999219
0
ARC
8
DEFAULT_255_2_778
10
48.1559651
20
3.8197332
40
0.5000116
50
179.9898688
51
269.9986732
0
ARC
8
DEFAULT_255_2_778
10
48.1559439
20
4.5699313
40
0.4999904
50
89.9989007
51
180.0011051
0
ARC
8
DEFAULT_255_2_778
10
54.8742664
20
2.8550618
40
1.4966166
50
111.2080475
51
133.1007352
0
ARC
8
DEFAULT_255_2_778
10
54.8758681
20
2.8488823
40
1.5029571
50
89.9901853
51
111.1797522
0
ARC
8
DEFAULT_255_2_778
10
54.876125
20
2.8452733
40
1.5065662
50
89.2484646
51
89.9999789
0
ARC
8
DEFAULT_255_2_778
10
54.8769692
20
2.8550352
40
1.4967941
50
61.6488564
51
89.2758755
0
ARC
8
DEFAULT_255_2_778
10
54.8718609
20
2.8468349
40
1.5064367
50
52.9048625
51
61.6259784
0
ARC
8
DEFAULT_255_2_778
10
54.8759229
20
2.8536279
40
1.9984928
50
52.8775742
51
69.3367099
0
ARC
8
DEFAULT_255_2_778
10
54.8769774
20
2.8532653
40
1.9984604
50
69.368666
51
89.2658101
0
ARC
8
DEFAULT_255_2_778
10
54.8763097
20
2.8446978
40
2.0070358
50
89.2498836
51
89.9999762
0
ARC
8
DEFAULT_255_2_778
10
54.8752977
20
2.852276
40
1.9994578
50
89.9709763
51
121.1477078
0
ARC
8
DEFAULT_255_2_778
10
54.8786856
20
2.8497601
40
2.003364
50
121.1934137
51
133.0798712
0
ARC
8
DEFAULT_255_2_778
10
51.4661987
20
5.1399125
40
2.0000325
50
293.554481
51
313.0562711
0
ARC
8
DEFAULT_255_2_778
10
59.2360107
20
6.3904031
40
3.0003513
50
270.0049828
51
320.7045328
0
ARC
8
DEFAULT_255_2_778
10
59.2362715
20
6.3953992
40
3.0053474
50
268.7031527
51
270.0000027
0
ARC
8
DEFAULT_255_2_778
10
59.235818
20
6.3901286
40
3.0000678
50
216.7069296
51
268.709533
0
ARC
8
DEFAULT_255_2_778
10
55.0858215
20
6.1979231
40
0.4419471
50
36.6805695
51
64.8343752
0
ARC
8
DEFAULT_255_2_778
10
65.9557779
20
8.6396972
40
0.5000756
50
270.0086621
51
0.0028016
0
ARC
8
DEFAULT_255_2_778
10
60.4559289
20
7.6395462
40
0.5000755
50
89.9971846
51
179.9913517
0
ARC
8
DEFAULT_255_2_778
10
50.4662267
20
5.140226
40
2.0009714
50
209.828834
51
246.6002616
0
ARC
8
DEFAULT_255_2_778
10
50.4661471
20
5.1397233
40
2.5003637
50
209.8154736
51
227.0454249
0
ARC
8
DEFAULT_255_2_778
10
55.0854335
20
6.1972145
40
0.9425439
50
36.7090336
51
60.2980107
0
ARC
8
DEFAULT_255_2_778
10
59.235892
20
6.3901807
40
2.5002961
50
216.7091235
51
268.7065675
0
ARC
8
DEFAULT_255_2_778
10
59.2361014
20
6.3956495
40
2.5057682
50
268.7046047
51
269.9995691
0
ARC
8
DEFAULT_255_2_778
10
59.2358772
20
6.390169
40
2.5002877
50
270.0047047
51
320.7055398
0
ARC
8
DEFAULT_255_2_778
10
41.0288265
20
1.5896397
40
0.1766732
50
179.9085694
51
180.0304752
0
ARC
8
DEFAULT_255_2_778
10
41.1010656
20
1.5895239
40
0.2489124
50
179.9949717
51
225.128612
0
ARC
8
DEFAULT_255_2_778
10
41.1030256
20
1.5915548
40
0.2517344
50
225.1385759
51
269.8015165
0
LINE
8
DEFAULT_255_2_778
10
36.6021535
20
1.3398217
11
36.6025288
21
1.3398214
0
ARC
8
DEFAULT_255_2_778
10
36.6025475
20
1.5885023
40
0.2486809
50
269.9957111
51
315.1507635
0
ARC
8
DEFAULT_255_2_778
10
36.6010389
20
1.5904371
40
0.2511152
50
315.0805353
51
359.8823838
0
ARC
8
DEFAULT_255_2_778
10
36.6207495
20
1.5773374
40
0.2483351
50
270.7161723
51
310.5070442
0
ARC
8
DEFAULT_255_2_778
10
36.6076298
20
1.5840761
40
0.2620404
50
311.7311885
51
359.3539906
0
ARC
8
DEFAULT_255_2_778
10
39.2061781
20
6.2404971
40
0.5000754
50
269.9971846
51
359.9913517
0
ARC
8
DEFAULT_255_2_778
10
36.2060436
20
6.2404118
40
0.4999901
50
179.9988673
51
270.0011385
0
ARC
8
DEFAULT_255_2_778
10
45.5652216
20
4.6405553
40
2.5005664
50
68.6754516
51
89.9946863
0
ARC
8
DEFAULT_255_2_778
10
41.0828355
20
1.5783449
40
0.2485436
50
229.5103658
51
269.2664516
0
ARC
8
DEFAULT_255_2_778
10
41.0960765
20
1.5849665
40
0.2622406
50
180.665278
51
228.2494691
0
ARC
8
DEFAULT_255_2_778
10
39.5772561
20
9.0684667
40
1.8640187
50
271.4183219
51
273.4477054
0
ARC
8
DEFAULT_255_2_778
10
39.330107
20
17.4419304
40
10.241112
50
270.9954685
51
271.6410724
0
ARC
8
DEFAULT_255_2_778
10
39.0198549
20
34.2530066
40
27.0550473
50
270.7428031
51
271.0338864
0
ARC
8
DEFAULT_255_2_778
10
38.6521024
20
62.5175747
40
55.3220076
50
270.5091056
51
270.7441493
0
ARC
8
DEFAULT_255_2_778
10
38.250528
20
106.8978982
40
99.7041475
50
270.3417864
51
270.5132543
0
ARC
8
DEFAULT_255_2_778
10
37.9254681
20
160.6502918
40
153.4575239
50
270.1975466
51
270.3434318
0
ARC
8
DEFAULT_255_2_778
10
37.758408
20
206.7883843
40
199.5959184
50
270.0959778
51
270.1998381
0
ARC
8
DEFAULT_255_2_778
10
37.7082106
20
235.2434843
40
228.0510626
50
269.9993073
51
270.0966138
0
ARC
8
DEFAULT_255_2_778
10
37.7023992
20
236.9282886
40
229.7358669
50
269.8999839
51
270.0007617
0
ARC
8
DEFAULT_255_2_778
10
37.6525008
20
208.9111278
40
201.7186618
50
269.8063277
51
269.9002655
0
ARC
8
DEFAULT_255_2_778
10
37.4945461
20
164.1748882
40
156.9821439
50
269.6655535
51
269.8087861
0
ARC
8
DEFAULT_255_2_778
10
37.1904038
20
112.2119881
40
105.0183536
50
269.5151619
51
269.6660016
0
ARC
8
DEFAULT_255_2_778
10
36.8071191
20
67.6220473
40
60.4267663
50
269.2916002
51
269.5208078
0
ARC
8
DEFAULT_255_2_778
10
36.421074
20
36.4957682
40
29.2980932
50
269.0009559
51
269.2939135
0
ARC
8
DEFAULT_255_2_778
10
36.089632
20
17.9170189
40
10.7163918
50
268.3859975
51
269.0408288
0
ARC
8
DEFAULT_255_2_778
10
35.834042
20
9.0973892
40
1.8930755
50
266.5958954
51
268.6001446
0
ARC
8
DEFAULT_255_2_778
10
35.7197578
20
7.2531232
40
0.0455081
50
251.6800588
51
272.3644275
0
ARC
8
DEFAULT_255_2_778
10
45.5654049
20
4.6406571
40
1.9995646
50
62.9142552
51
90.0072044
0
LINE
8
DEFAULT_255_2_778
10
56.2561535
20
135.0108217
11
132.4961535
21
135.0108217
0
LINE
8
DEFAULT_255_2_778
10
132.4961535
20
135.0108217
11
132.4961535
21
132.1104217
0
LINE
8
DEFAULT_255_2_778
10
3.9560535
20
123.4853217
11
3.9560535
21
124.7944217
0
LINE
8
DEFAULT_255_2_778
10
2.2560535
20
123.8409217
11
2.2560535
21
124.4388217
0
LINE
8
DEFAULT_255_2_778
10
2.3560535
20
123.6160217
11
2.3560535
21
124.6637217
0
LINE
8
DEFAULT_255_2_778
10
2.2060535
20
124.1398217
11
2.2060535
21
124.1398217
0
LINE
8
DEFAULT_255_2_778
10
3.8559535
20
124.8897217
11
3.8559535
21
123.3897217
0
LINE
8
DEFAULT_255_2_778
10
3.9560535
20
128.4854217
11
3.9560535
21
129.7945217
0
LINE
8
DEFAULT_255_2_778
10
2.2560535
20
128.8410217
11
2.2560535
21
129.4389217
0
LINE
8
DEFAULT_255_2_778
10
2.3560535
20
128.6161217
11
2.3560535
21
129.6638217
0
LINE
8
DEFAULT_255_2_778
10
2.2060535
20
129.1399217
11
2.2060535
21
129.1399217
0
LINE
8
DEFAULT_255_2_778
10
3.8559535
20
128.6719217
11
2.3560535
21
128.6719217
0
LINE
8
DEFAULT_255_2_778
10
3.8559535
20
129.1690217
11
2.3560535
21
129.1690217
0
LINE
8
DEFAULT_255_2_778
10
3.8559535
20
129.4463217
11
2.3560535
21
129.4463217
0
LINE
8
DEFAULT_255_2_778
10
3.8559535
20
128.3898217
11
3.8559535
21
129.8898217
0
LINE
8
DEFAULT_255_2_778
10
3.8559535
20
129.8689217
11
2.5227535
21
129.8689217
0
LINE
8
DEFAULT_255_2_778
10
3.8559535
20
128.3943217
11
2.5457535
21
128.3943217
0
LINE
8
DEFAULT_255_2_778
10
47.8988535
20
139.7807217
11
47.8556535
21
139.7807217
0
LINE
8
DEFAULT_255_2_778
10
48.4060535
20
139.7807217
11
54.6660535
21
139.7807217
0
LINE
8
DEFAULT_255_2_778
10
55.7180535
20
141.7550217
11
58.9560535
21
143.9897217
0
LINE
8
DEFAULT_255_2_778
10
58.9560535
20
143.9897217
11
59.2399535
21
143.5782217
0
LINE
8
DEFAULT_255_2_778
10
59.2399535
20
143.5782217
11
56.0019535
21
141.3436217
0
LINE
8
DEFAULT_255_2_778
10
53.7299535
20
141.3436217
11
53.6196535
21
141.4198217
0
LINE
8
DEFAULT_255_2_778
10
60.8445535
20
138.0860217
11
56.6046535
21
138.0823217
0
LINE
8
DEFAULT_255_2_778
10
56.2559535
20
135.3820217
11
56.6996535
21
135.3822217
0
LINE
8
DEFAULT_255_2_778
10
62.4463535
20
139.2515217
11
61.1610535
21
140.8226217
0
LINE
8
DEFAULT_255_2_778
10
56.8229535
20
139.9291217
11
56.5580535
21
139.0062217
0
LINE
8
DEFAULT_255_2_778
10
58.8282535
20
143.2941217
11
58.5443535
21
143.7055217
0
LINE
8
DEFAULT_255_2_778
10
56.6996535
20
135.2333217
11
56.6983535
21
136.6821217
0
LINE
8
DEFAULT_255_2_778
10
56.6983535
20
136.6821217
11
56.1162535
21
137.6884217
0
LINE
8
DEFAULT_255_2_778
10
53.0272535
20
141.4198217
11
55.0962535
21
139.3507217
0
LINE
8
DEFAULT_255_2_778
10
55.0962535
20
139.3507217
11
55.0962535
21
138.5430217
0
LINE
8
DEFAULT_255_2_778
10
55.0962535
20
138.5430217
11
55.0078535
21
138.5422217
0
LINE
8
DEFAULT_255_2_778
10
48.0199535
20
141.0435217
11
48.0006535
21
141.4113217
0
LINE
8
DEFAULT_255_2_778
10
52.4461535
20
139.7804217
11
52.5321535
21
141.4195217
0
LINE
8
DEFAULT_255_2_778
10
48.4562535
20
140.4839217
11
48.4562535
21
140.2895217
0
LINE
8
DEFAULT_255_2_778
10
47.9564535
20
140.2895217
11
47.9564535
21
140.4839217
0
LINE
8
DEFAULT_255_2_778
10
57.0393535
20
138.8681217
11
57.3042535
21
139.7910217
0
LINE
8
DEFAULT_255_2_778
10
60.7747535
20
140.5059217
11
61.8015535
21
139.2507217
0
LINE
8
DEFAULT_255_2_778
10
61.7531535
20
139.3100217
11
62.1402535
21
139.6267217
0
LINE
8
DEFAULT_255_2_778
10
56.2561535
20
145.0398217
11
56.2561535
21
143.4198217
0
LINE
8
DEFAULT_255_2_778
10
56.2561535
20
143.4198217
11
54.2562535
21
141.4198217
0
LINE
8
DEFAULT_255_2_778
10
54.2562535
20
141.4198217
11
48.1562535
21
141.4198217
0
LINE
8
DEFAULT_255_2_778
10
47.6561535
20
140.9197217
11
47.6561535
21
140.1696217
0
LINE
8
DEFAULT_255_2_778
10
48.1562535
20
139.6696217
11
54.2562535
21
139.6696217
0
LINE
8
DEFAULT_255_2_778
10
54.2562535
20
139.6696217
11
56.2561535
21
136.6694217
0
LINE
8
DEFAULT_255_2_778
10
56.2561535
20
136.6694217
11
56.2561535
21
134.9319217
0
LINE
8
DEFAULT_255_2_778
10
130.6705535
20
133.0812217
11
132.4961535
21
133.0812217
0
LINE
8
DEFAULT_255_2_778
10
129.8712535
20
132.8227217
11
129.9445535
21
132.8192217
0
LINE
8
DEFAULT_255_2_778
10
132.4958535
20
124.6230217
11
130.6702535
21
124.6230217
0
LINE
8
DEFAULT_255_2_778
10
129.9447535
20
124.8852217
11
129.8714535
21
124.8817217
0
LINE
8
DEFAULT_255_2_778
10
129.0404535
20
127.2950217
11
129.3042535
21
127.2950217
0
LINE
8
DEFAULT_255_2_778
10
130.6522535
20
132.1107217
11
132.4958535
21
132.1107217
0
LINE
8
DEFAULT_255_2_778
10
132.4958535
20
132.1107217
11
132.4958535
21
125.5935217
0
LINE
8
DEFAULT_255_2_778
10
132.4958535
20
125.5935217
11
130.6522535
21
125.5935217
0
LINE
8
DEFAULT_255_2_778
10
130.6004535
20
125.2995217
11
130.5466535
21
125.1320217
0
LINE
8
DEFAULT_255_2_778
10
131.3034535
20
125.6898217
11
131.2986535
21
131.3254217
0
LINE
8
DEFAULT_255_2_778
10
130.6702535
20
133.0812217
11
130.5757535
21
132.8176217
0
LINE
8
DEFAULT_255_2_778
10
130.5757535
20
132.8176217
11
130.5466535
21
132.7433217
0
LINE
8
DEFAULT_255_2_778
10
130.5466535
20
132.7433217
11
132.4958535
21
132.7433217
0
LINE
8
DEFAULT_255_2_778
10
129.8937535
20
132.8438217
11
129.2563535
21
132.8438217
0
LINE
8
DEFAULT_255_2_778
10
129.2563535
20
132.8438217
11
129.2563535
21
133.3420217
0
LINE
8
DEFAULT_255_2_778
10
129.2563535
20
133.3420217
11
129.8937535
21
133.3420217
0
LINE
8
DEFAULT_255_2_778
10
129.8937535
20
133.3420217
11
129.8937535
21
132.8438217
0
LINE
8
DEFAULT_255_2_778
10
129.8937535
20
132.8438217
11
129.7963535
21
132.7465217
0
LINE
8
DEFAULT_255_2_778
10
129.7963535
20
132.7465217
11
129.3536535
21
132.7462217
0
LINE
8
DEFAULT_255_2_778
10
129.3536535
20
132.7462217
11
129.2563535
21
132.8436217
0
LINE
8
DEFAULT_255_2_778
10
128.4718535
20
132.0591217
11
127.9736535
21
132.0591217
0
LINE
8
DEFAULT_255_2_778
10
127.9736535
20
132.0591217
11
127.9736535
21
125.6437217
0
LINE
8
DEFAULT_255_2_778
10
127.9736535
20
125.6437217
11
128.4718535
21
125.6437217
0
LINE
8
DEFAULT_255_2_778
10
128.4718535
20
125.6437217
11
128.5697535
21
125.7416217
0
LINE
8
DEFAULT_255_2_778
10
128.5697535
20
125.7416217
11
128.5697535
21
131.9617217
0
LINE
8
DEFAULT_255_2_778
10
128.5697535
20
131.9617217
11
128.4718535
21
132.0596217
0
LINE
8
DEFAULT_255_2_778
10
128.4718535
20
132.0596217
11
128.4718535
21
125.6443217
0
LINE
8
DEFAULT_255_2_778
10
129.2563535
20
124.8598217
11
129.2563535
21
124.3616217
0
LINE
8
DEFAULT_255_2_778
10
129.2563535
20
124.3616217
11
129.8937535
21
124.3616217
0
LINE
8
DEFAULT_255_2_778
10
129.8937535
20
124.3616217
11
129.8937535
21
124.8598217
0
LINE
8
DEFAULT_255_2_778
10
129.8937535
20
124.8598217
11
129.2563535
21
124.8598217
0
LINE
8
DEFAULT_255_2_778
10
129.2563535
20
124.8598217
11
129.3536535
21
124.9571217
0
LINE
8
DEFAULT_255_2_778
10
129.3536535
20
124.9571217
11
129.7963535
21
124.9569217
0
LINE
8
DEFAULT_255_2_778
10
129.7963535
20
124.9569217
11
129.8937535
21
124.8595217
0
LINE
8
DEFAULT_255_2_778
10
130.5530535
20
131.3370217
11
130.5525535
21
132.1062217
0
LINE
8
DEFAULT_255_2_778
10
129.8415535
20
131.3489217
11
129.8463535
21
125.6625217
0
LINE
8
DEFAULT_255_2_778
10
129.3185535
20
132.7459217
11
129.3198535
21
131.3577217
0
LINE
8
DEFAULT_255_2_778
10
129.0520535
20
132.6856217
11
129.0565535
21
127.2945217
0
LINE
8
DEFAULT_255_2_778
10
132.4958535
20
124.9603217
11
130.5466535
21
124.9603217
0
LINE
8
DEFAULT_255_2_778
10
130.5466535
20
124.9603217
11
130.5757535
21
124.8860217
0
LINE
8
DEFAULT_255_2_778
10
130.5757535
20
124.8860217
11
130.6702535
21
124.6224217
0
LINE
8
DEFAULT_255_2_778
10
129.1417535
20
127.3228217
11
129.2841535
21
127.3254217
0
LINE
8
DEFAULT_255_2_778
10
129.2841535
20
127.3254217
11
129.2830535
21
128.5523217
0
LINE
8
DEFAULT_255_2_778
10
129.2830535
20
128.5523217
11
129.3028535
21
128.5526217
0
LINE
8
DEFAULT_255_2_778
10
129.3028535
20
128.5526217
11
129.3052535
21
125.6525217
0
LINE
8
DEFAULT_255_2_778
10
129.3052535
20
125.6525217
11
131.8076535
21
125.6982217
0
LINE
8
DEFAULT_255_2_778
10
131.8076535
20
125.6982217
11
131.8029535
21
131.3161217
0
LINE
8
DEFAULT_255_2_778
10
131.8029535
20
131.3161217
11
129.3370535
21
131.3571217
0
LINE
8
DEFAULT_255_2_778
10
129.3370535
20
131.3571217
11
129.3420535
21
125.6530217
0
LINE
8
DEFAULT_255_2_778
10
130.5810535
20
131.3365217
11
130.5810535
21
131.9620217
0
LINE
8
DEFAULT_255_2_778
10
130.5810535
20
131.9620217
11
130.6557535
21
132.0366217
0
LINE
8
DEFAULT_255_2_778
10
130.6557535
20
132.0366217
11
130.6557535
21
131.3352217
0
LINE
8
DEFAULT_255_2_778
10
132.4961535
20
20.3221217
11
130.5469535
21
20.3221217
0
LINE
8
DEFAULT_255_2_778
10
129.8939535
20
20.4226217
11
129.7965535
21
20.3253217
0
LINE
8
DEFAULT_255_2_778
10
129.7965535
20
20.3253217
11
129.3539535
21
20.3250217
0
LINE
8
DEFAULT_255_2_778
10
129.3539535
20
20.3250217
11
129.2565535
21
20.4224217
0
LINE
8
DEFAULT_255_2_778
10
129.2565535
20
20.4224217
11
129.8939535
21
20.4224217
0
LINE
8
DEFAULT_255_2_778
10
129.8939535
20
20.4224217
11
129.8939535
21
20.9206217
0
LINE
8
DEFAULT_255_2_778
10
129.8939535
20
20.9206217
11
129.2565535
21
20.9206217
0
LINE
8
DEFAULT_255_2_778
10
129.2565535
20
20.9206217
11
129.2565535
21
20.4224217
0
LINE
8
DEFAULT_255_2_778
10
128.4720535
20
19.6379217
11
128.4720535
21
13.2225217
0
LINE
8
DEFAULT_255_2_778
10
128.4720535
20
13.2225217
11
127.9738535
21
13.2225217
0
LINE
8
DEFAULT_255_2_778
10
127.9738535
20
13.2225217
11
127.9738535
21
19.6379217
0
LINE
8
DEFAULT_255_2_778
10
127.9738535
20
19.6379217
11
128.4720535
21
19.6379217
0
LINE
8
DEFAULT_255_2_778
10
128.4720535
20
19.6379217
11
128.5699535
21
19.5400217
0
LINE
8
DEFAULT_255_2_778
10
128.5699535
20
19.5400217
11
128.5699535
21
13.3202217
0
LINE
8
DEFAULT_255_2_778
10
128.5699535
20
13.3202217
11
128.4720535
21
13.2223217
0
LINE
8
DEFAULT_255_2_778
10
129.2565535
20
12.4378217
11
129.2565535
21
11.9396217
0
LINE
8
DEFAULT_255_2_778
10
129.2565535
20
11.9396217
11
129.8939535
21
11.9396217
0
LINE
8
DEFAULT_255_2_778
10
129.8939535
20
11.9396217
11
129.8939535
21
12.4378217
0
LINE
8
DEFAULT_255_2_778
10
130.6705535
20
20.6589217
11
132.4961535
21
20.6589217
0
LINE
8
DEFAULT_255_2_778
10
129.8712535
20
20.4004217
11
129.9445535
21
20.3970217
0
LINE
8
DEFAULT_255_2_778
10
132.4958535
20
12.2007217
11
130.6702535
21
12.2007217
0
LINE
8
DEFAULT_255_2_778
10
129.3986535
20
17.2897217
11
129.3968535
21
19.4397217
0
LINE
8
DEFAULT_255_2_778
10
129.3968535
20
19.4397217
11
131.8992535
21
19.3982217
0
LINE
8
DEFAULT_255_2_778
10
131.8992535
20
19.3982217
11
131.9045535
21
13.1762217
0
LINE
8
DEFAULT_255_2_778
10
131.9045535
20
13.1762217
11
129.4386535
21
13.1310217
0
LINE
8
DEFAULT_255_2_778
10
129.4386535
20
13.1310217
11
129.4333535
21
19.4392217
0
LINE
8
DEFAULT_255_2_778
10
129.9376535
20
19.4307217
11
129.9429535
21
13.1402217
0
LINE
8
DEFAULT_255_2_778
10
129.3986535
20
17.2360217
11
129.1348535
21
17.2357217
0
LINE
8
DEFAULT_255_2_778
10
130.6702535
20
20.6597217
11
130.6387535
21
20.5676217
0
LINE
8
DEFAULT_255_2_778
10
130.6387535
20
20.5676217
11
130.5466535
21
20.3218217
0
LINE
8
DEFAULT_255_2_778
10
130.5466535
20
12.5391217
11
130.5757535
21
12.4648217
0
LINE
8
DEFAULT_255_2_778
10
130.5757535
20
12.4648217
11
130.6702535
21
12.2012217
0
LINE
8
DEFAULT_255_2_778
10
130.6522535
20
19.6890217
11
132.4958535
21
19.6890217
0
LINE
8
DEFAULT_255_2_778
10
132.4958535
20
19.6890217
11
132.4958535
21
13.1717217
0
LINE
8
DEFAULT_255_2_778
10
132.4958535
20
13.1717217
11
131.9042535
21
13.1717217
0
LINE
8
DEFAULT_255_2_778
10
131.3997535
20
13.1670217
11
131.3944535
21
19.4066217
0
LINE
8
DEFAULT_255_2_778
10
130.5808535
20
19.4201217
11
130.5808535
21
19.5408217
0
LINE
8
DEFAULT_255_2_778
10
130.5808535
20
19.5408217
11
130.6554535
21
19.6154217
0
LINE
8
DEFAULT_255_2_778
10
130.6554535
20
19.6154217
11
130.6554535
21
19.4188217
0
LINE
8
DEFAULT_255_2_778
10
129.4208535
20
13.1307217
11
129.4214535
21
12.5357217
0
LINE
8
DEFAULT_255_2_778
10
129.1507535
20
17.2357217
11
129.1547535
21
12.5751217
0
LINE
8
DEFAULT_255_2_778
10
132.4956535
20
12.5388217
11
130.5464535
21
12.5388217
0
LINE
8
DEFAULT_255_2_778
10
129.3534535
20
12.5357217
11
129.2560535
21
12.4383217
0
LINE
8
DEFAULT_255_2_778
10
129.2560535
20
12.4383217
11
129.8934535
21
12.4383217
0
LINE
8
DEFAULT_255_2_778
10
129.8934535
20
12.4383217
11
129.7960535
21
12.5357217
0
LINE
8
DEFAULT_255_2_778
10
129.7960535
20
12.5357217
11
129.3534535
21
12.5357217
0
LINE
8
DEFAULT_255_2_778
10
67.4059535
20
12.7746217
11
67.4059535
21
16.2396217
0
LINE
8
DEFAULT_255_2_778
10
67.4059535
20
16.2396217
11
68.0063535
21
16.2396217
0
LINE
8
DEFAULT_255_2_778
10
68.0063535
20
16.2396217
11
68.0063535
21
11.1892217
0
LINE
8
DEFAULT_255_2_778
10
68.0063535
20
11.1892217
11
58.3802535
21
11.1892217
0
LINE
8
DEFAULT_255_2_778
10
58.3802535
20
11.1892217
11
58.3802535
21
21.2897217
0
LINE
8
DEFAULT_255_2_778
10
58.3802535
20
21.2897217
11
62.9559535
21
21.2897217
0
LINE
8
DEFAULT_255_2_778
10
62.9559535
20
21.2897217
11
62.9559535
21
20.6894217
0
LINE
8
DEFAULT_255_2_778
10
62.9559535
20
20.6894217
11
58.5059535
21
20.6894217
0
LINE
8
DEFAULT_255_2_778
10
58.5059535
20
20.6894217
11
58.4048535
21
20.7904217
0
LINE
8
DEFAULT_255_2_778
10
58.4048535
20
20.7904217
11
62.9557535
21
20.7904217
0
LINE
8
DEFAULT_255_2_778
10
67.5065535
20
16.2396217
11
67.5065535
21
11.6887217
0
LINE
8
DEFAULT_255_2_778
10
67.5065535
20
11.6887217
11
68.0058535
21
11.1895217
0
LINE
8
DEFAULT_255_2_778
10
58.5056535
20
12.7749217
11
58.4784535
21
12.7293217
0
LINE
8
DEFAULT_255_2_778
10
58.4784535
20
12.7293217
11
58.4784535
21
11.7626217
0
LINE
8
DEFAULT_255_2_778
10
58.4784535
20
11.7626217
11
67.4351535
21
11.7604217
0
LINE
8
DEFAULT_255_2_778
10
67.4351535
20
11.7604217
11
67.5068535
21
11.6887217
0
LINE
8
DEFAULT_255_2_778
10
67.5068535
20
11.6887217
11
58.4048535
21
11.6887217
0
LINE
8
DEFAULT_255_2_778
10
58.4048535
20
11.6887217
11
58.4786535
21
11.7626217
0
LINE
8
DEFAULT_255_2_778
10
64.9752535
20
16.5954217
11
64.9752535
21
15.8843217
0
LINE
8
DEFAULT_255_2_778
10
64.9752535
20
15.8843217
11
63.3115535
21
15.8843217
0
LINE
8
DEFAULT_255_2_778
10
63.3115535
20
15.8843217
11
63.3115535
21
14.2205217
0
LINE
8
DEFAULT_255_2_778
10
63.3115535
20
14.2205217
11
62.6003535
21
14.2205217
0
LINE
8
DEFAULT_255_2_778
10
62.6003535
20
14.2205217
11
62.6003535
21
15.8843217
0
LINE
8
DEFAULT_255_2_778
10
62.6003535
20
15.8843217
11
60.9366535
21
15.8843217
0
LINE
8
DEFAULT_255_2_778
10
60.9366535
20
15.8843217
11
60.9366535
21
16.5954217
0
LINE
8
DEFAULT_255_2_778
10
60.9366535
20
16.5954217
11
62.6003535
21
16.5954217
0
LINE
8
DEFAULT_255_2_778
10
62.6003535
20
16.5954217
11
62.6003535
21
18.2591217
0
LINE
8
DEFAULT_255_2_778
10
62.6003535
20
18.2591217
11
63.3115535
21
18.2591217
0
LINE
8
DEFAULT_255_2_778
10
63.3115535
20
18.2591217
11
63.3115535
21
16.5954217
0
LINE
8
DEFAULT_255_2_778
10
63.3115535
20
16.5954217
11
64.9752535
21
16.5954217
0
LINE
8
DEFAULT_255_2_778
10
59.6285535
20
16.2398217
11
59.6285535
21
16.2398217
0
LINE
8
DEFAULT_255_2_778
10
60.8985535
20
16.2398217
11
60.8985535
21
16.2398217
0
LINE
8
DEFAULT_255_2_778
10
66.4558535
20
12.7749217
11
66.4558535
21
11.7607217
0
LINE
8
DEFAULT_255_2_778
10
59.4558535
20
12.7749217
11
59.4558535
21
11.7623217
0
LINE
8
DEFAULT_255_2_778
10
67.4351535
20
11.7604217
11
67.4351535
21
12.7259217
0
LINE
8
DEFAULT_255_2_778
10
67.4351535
20
12.7259217
11
67.4057535
21
12.7749217
0
LINE
8
DEFAULT_255_2_778
10
67.4057535
20
12.7749217
11
58.5056535
21
12.7749217
0
LINE
8
DEFAULT_255_2_778
10
58.5056535
20
12.7749217
11
58.5056535
21
20.6899217
0
LINE
8
DEFAULT_255_2_778
10
66.4561535
20
10.1396217
11
59.4560535
21
10.1396217
0
LINE
8
DEFAULT_255_2_778
10
47.6559535
20
3.8198217
11
47.6559535
21
4.5699217
0
LINE
8
DEFAULT_255_2_778
10
48.1559535
20
5.0699217
11
54.2559535
21
5.0699217
0
LINE
8
DEFAULT_255_2_778
10
54.2559535
20
5.0699217
11
56.2559535
21
8.0700217
0
LINE
8
DEFAULT_255_2_778
10
56.2559535
20
8.0700217
11
56.2559535
21
10.3505217
0
LINE
8
DEFAULT_255_2_778
10
53.1798535
20
3.3200217
11
53.8516535
21
3.9478217
0
LINE
8
DEFAULT_255_2_778
10
55.7804535
20
4.0484217
11
58.9657535
21
1.6399217
0
LINE
8
DEFAULT_255_2_778
10
58.9657535
20
1.6399217
11
59.2674535
21
2.0386217
0
LINE
8
DEFAULT_255_2_778
10
59.2674535
20
2.0386217
11
56.0820535
21
4.4471217
0
LINE
8
DEFAULT_255_2_778
10
53.5103535
20
4.3130217
11
52.8316535
21
3.6785217
0
LINE
8
DEFAULT_255_2_778
10
62.1720535
20
5.2408217
11
61.5579535
21
4.4902217
0
LINE
8
DEFAULT_255_2_778
10
56.8306535
20
4.5969217
11
55.4402535
21
6.4619217
0
LINE
8
DEFAULT_255_2_778
10
58.5670535
20
1.9412217
11
58.8686535
21
2.3400217
0
LINE
8
DEFAULT_255_2_778
10
66.4558535
20
10.2716217
11
66.4558535
21
8.6397217
0
LINE
8
DEFAULT_255_2_778
10
65.9558535
20
8.1396217
11
60.4559535
21
8.1396217
0
LINE
8
DEFAULT_255_2_778
10
59.9558535
20
7.6396217
11
59.9558535
21
7.1395217
0
LINE
8
DEFAULT_255_2_778
10
59.9558535
20
7.1395217
11
55.6357535
21
7.1395217
0
LINE
8
DEFAULT_255_2_778
10
56.4961535
20
7.1395217
11
56.1458535
21
6.5315217
0
LINE
8
DEFAULT_255_2_778
10
56.1458535
20
6.5315217
11
56.1461535
21
6.3510217
0
LINE
8
DEFAULT_255_2_778
10
48.0456535
20
4.3344217
11
47.9929535
21
3.3279217
0
LINE
8
DEFAULT_255_2_778
10
55.0957535
20
6.3362217
11
55.0957535
21
5.5285217
0
LINE
8
DEFAULT_255_2_778
10
55.0957535
20
5.5285217
11
54.3429535
21
4.7757217
0
LINE
8
DEFAULT_255_2_778
10
52.5313535
20
3.4613217
11
52.4469535
21
5.0694217
0
LINE
8
DEFAULT_255_2_778
10
48.7303535
20
4.1449217
11
48.2006535
21
5.0694217
0
LINE
8
DEFAULT_255_2_778
10
47.7516535
20
4.8474217
11
48.2967535
21
3.8965217
0
LINE
8
DEFAULT_255_2_778
10
55.8410535
20
6.7606217
11
57.2314535
21
4.8956217
0
LINE
8
DEFAULT_255_2_778
10
61.1708535
20
4.8067217
11
61.5256535
21
5.2403217
0
LINE
8
DEFAULT_255_2_778
10
58.9560535
20
10.2716217
11
58.9560535
21
9.7396217
0
LINE
8
DEFAULT_255_2_778
10
58.9560535
20
9.7396217
11
59.4560535
21
9.7396217
0
LINE
8
DEFAULT_255_2_778
10
59.4560535
20
9.7396217
11
59.4560535
21
10.2716217
0
LINE
8
DEFAULT_255_2_778
10
66.4561535
20
8.9149217
11
69.2488535
21
8.9172217
0
LINE
8
DEFAULT_255_2_778
10
69.2488535
20
8.9172217
11
69.2477535
21
10.2716217
0
LINE
8
DEFAULT_255_2_778
10
56.1985535
20
6.2817217
11
60.9581535
21
6.2857217
0
LINE
8
DEFAULT_255_2_778
10
54.6660535
20
5.0985217
11
54.2559535
21
5.0985217
0
LINE
8
DEFAULT_255_2_778
10
32.4558535
20
5.2649217
11
32.4558535
21
5.8838217
0
LINE
8
DEFAULT_255_2_778
10
32.4558535
20
5.8838217
11
32.2068535
21
6.1555217
0
LINE
8
DEFAULT_255_2_778
10
32.2068535
20
6.1555217
11
30.9559535
21
6.2651217
0
LINE
8
DEFAULT_255_2_778
10
30.9559535
20
5.3306217
11
32.3905535
21
5.3306217
0
LINE
8
DEFAULT_255_2_778
10
32.3905535
20
5.3306217
11
32.4558535
21
5.2652217
0
LINE
8
DEFAULT_255_2_778
10
32.4558535
20
5.2652217
11
30.9559535
21
5.2652217
0
LINE
8
DEFAULT_255_2_778
10
43.6659535
20
7.3856217
11
43.6659535
21
6.6402217
0
LINE
8
DEFAULT_255_2_778
10
44.1660535
20
6.6402217
11
44.1660535
21
7.3858217
0
LINE
8
DEFAULT_255_2_778
10
43.6659535
20
7.2517217
11
43.9559535
21
7.2517217
0
LINE
8
DEFAULT_255_2_778
10
43.6659535
20
7.2911217
11
43.9559535
21
7.2911217
0
LINE
8
DEFAULT_255_2_778
10
30.9559535
20
7.1403217
11
39.6660535
21
7.1403217
0
LINE
8
DEFAULT_255_2_778
10
30.9559535
20
7.2517217
11
39.6660535
21
7.2517217
0
LINE
8
DEFAULT_255_2_778
10
31.4560535
20
1.2356217
11
43.9559535
21
1.2356217
0
LINE
8
DEFAULT_255_2_778
10
43.9559535
20
1.2356217
11
43.9559535
21
1.2329217
0
LINE
8
DEFAULT_255_2_778
10
43.9559535
20
1.2329217
11
46.4716535
21
1.2163217
0
LINE
8
DEFAULT_255_2_778
10
35.4498535
20
1.2359217
11
35.4533535
21
1.3015217
0
LINE
8
DEFAULT_255_2_778
10
35.4533535
20
1.3015217
11
39.9589535
21
1.3015217
0
LINE
8
DEFAULT_255_2_778
10
39.9589535
20
1.3015217
11
39.9623535
21
1.2359217
0
LINE
8
DEFAULT_255_2_778
10
39.2061535
20
5.7404217
11
36.2060535
21
5.7404217
0
LINE
8
DEFAULT_255_2_778
10
39.7059535
20
6.6405217
11
39.7059535
21
6.2404217
0
LINE
8
DEFAULT_255_2_778
10
39.7059535
20
6.2404217
11
35.7060535
21
6.2404217
0
LINE
8
DEFAULT_255_2_778
10
35.7060535
20
6.2404217
11
35.7060535
21
6.6405217
0
LINE
8
DEFAULT_255_2_778
10
32.3905535
20
5.8243217
11
32.4558535
21
5.8843217
0
LINE
8
DEFAULT_255_2_778
10
32.1412535
20
6.0962217
11
32.2066535
21
6.1563217
0
LINE
8
DEFAULT_255_2_778
10
44.1650535
20
7.2472217
11
43.9557535
21
7.2459217
0
LINE
8
DEFAULT_255_2_778
10
38.9344535
20
4.8408217
11
40.8516535
21
2.9236217
0
LINE
8
DEFAULT_255_2_778
10
32.3899535
20
5.3313217
11
32.3899535
21
5.8248217
0
LINE
8
DEFAULT_255_2_778
10
32.3899535
20
5.8248217
11
32.1410535
21
6.0965217
0
LINE
8
DEFAULT_255_2_778
10
32.1410535
20
6.0965217
11
30.9554535
21
6.2002217
0
LINE
8
DEFAULT_255_2_778
10
30.9554535
20
1.2409217
11
30.9554535
21
1.2409217
0
LINE
8
DEFAULT_255_2_778
10
30.9554535
20
1.2409217
11
31.4554535
21
1.2454217
0
LINE
8
DEFAULT_255_2_778
10
46.5724535
20
7.4885217
11
46.4711535
21
7.3871217
0
LINE
8
DEFAULT_255_2_778
10
45.9551535
20
5.1001217
11
45.9551535
21
6.4175217
0
LINE
8
DEFAULT_255_2_778
10
43.9554535
20
7.1411217
11
43.9554535
21
7.3866217
0
LINE
8
DEFAULT_255_2_778
10
34.4516535
20
1.2628217
11
34.9511535
21
1.2583217
0
LINE
8
DEFAULT_255_2_778
10
34.9511535
20
1.2583217
11
34.9532535
21
1.2975217
0
LINE
8
DEFAULT_255_2_778
10
34.9532535
20
1.2975217
11
35.4538535
21
1.2930217
0
LINE
8
DEFAULT_255_2_778
10
35.4538535
20
1.2930217
11
35.9544535
21
1.2972217
0
LINE
8
DEFAULT_255_2_778
10
35.9544535
20
1.2972217
11
35.4549535
21
1.3017217
0
LINE
8
DEFAULT_255_2_778
10
40.8338535
20
1.5819217
11
40.8338535
21
2.9059217
0
LINE
8
DEFAULT_255_2_778
10
40.8338535
20
2.9059217
11
38.9167535
21
4.8231217
0
LINE
8
DEFAULT_255_2_778
10
38.9167535
20
4.8231217
11
36.8688535
21
4.8231217
0
LINE
8
DEFAULT_255_2_778
10
36.8688535
20
4.8231217
11
36.8688535
21
1.5796217
0
LINE
8
DEFAULT_255_2_778
10
36.8688535
20
1.5796217
11
40.8338535
21
1.5796217
0
LINE
8
DEFAULT_255_2_778
10
39.6652535
20
6.6405217
11
39.6652535
21
7.3850217
0
LINE
8
DEFAULT_255_2_778
10
38.6653535
20
7.1406217
11
38.6653535
21
6.6405217
0
LINE
8
DEFAULT_255_2_778
10
35.7054535
20
7.2099217
11
35.7054535
21
7.1406217
0
LINE
8
DEFAULT_255_2_778
10
40.9593535
20
1.2623217
11
40.4597535
21
1.2578217
0
LINE
8
DEFAULT_255_2_778
10
40.4597535
20
1.2578217
11
40.4576535
21
1.2970217
0
LINE
8
DEFAULT_255_2_778
10
40.4576535
20
1.2970217
11
39.9581535
21
1.2925217
0
LINE
8
DEFAULT_255_2_778
10
32.4653535
20
6.6402217
11
32.4653535
21
7.1403217
0
LINE
8
DEFAULT_255_2_778
10
46.4711535
20
6.4122217
11
45.6670535
21
6.4193217
0
LINE
8
DEFAULT_255_2_778
10
45.6670535
20
6.4193217
11
45.6670535
21
1.3404217
0
LINE
8
DEFAULT_255_2_778
10
46.5721535
20
1.1896217
11
46.5721535
21
7.4877217
0
LINE
8
DEFAULT_255_2_778
10
46.5721535
20
7.4877217
11
30.9554535
21
7.4877217
0
LINE
8
DEFAULT_255_2_778
10
30.9554535
20
7.4877217
11
30.9554535
21
1.1896217
0
LINE
8
DEFAULT_255_2_778
10
30.9554535
20
1.1896217
11
46.5721535
21
1.1896217
0
LINE
8
DEFAULT_255_2_778
10
46.4708535
20
1.2065217
11
46.4708535
21
7.3864217
0
LINE
8
DEFAULT_255_2_778
10
46.4708535
20
7.3864217
11
36.4553535
21
7.3840217
0
LINE
8
DEFAULT_255_2_778
10
36.4553535
20
7.3840217
11
36.4553535
21
7.2911217
0
LINE
8
DEFAULT_255_2_778
10
36.4553535
20
7.2911217
11
39.6652535
21
7.2911217
0
LINE
8
DEFAULT_255_2_778
10
43.6651535
20
7.1403217
11
46.4708535
21
7.1403217
0
LINE
8
DEFAULT_255_2_778
10
31.4652535
20
7.1403217
11
31.4652535
21
6.6402217
0
LINE
8
DEFAULT_255_2_778
10
31.4652535
20
6.6402217
11
45.5651535
21
6.6402217
0
LINE
8
DEFAULT_255_2_778
10
46.4708535
20
5.0993217
11
45.9549535
21
5.0993217
0
LINE
8
DEFAULT_255_2_778
10
45.9549535
20
5.0993217
11
45.9654535
21
1.2906217
0
LINE
8
DEFAULT_255_2_778
10
34.4513535
20
1.2533217
11
31.4552535
21
1.2533217
0
LINE
8
DEFAULT_255_2_778
10
30.9551535
20
1.3404217
11
36.6013535
21
1.3404217
0
LINE
8
DEFAULT_255_2_778
10
36.6013535
20
1.3404217
11
36.6230535
21
1.3295217
0
LINE
8
DEFAULT_255_2_778
10
36.6230535
20
1.3295217
11
41.0794535
21
1.3295217
0
LINE
8
DEFAULT_255_2_778
10
41.0794535
20
1.3295217
11
41.1011535
21
1.3404217
0
LINE
8
DEFAULT_255_2_778
10
41.1011535
20
1.3404217
11
45.6665535
21
1.3404217
0
LINE
8
DEFAULT_255_2_778
10
45.6665535
20
1.3404217
11
45.9649535
21
1.2906217
0
LINE
8
DEFAULT_255_2_778
10
45.9649535
20
1.2906217
11
43.9546535
21
1.2906217
0
LINE
8
DEFAULT_255_2_778
10
43.9546535
20
1.2906217
11
43.9546535
21
1.2536217
0
LINE
8
DEFAULT_255_2_778
10
43.9546535
20
1.2536217
11
40.9585535
21
1.2536217
0
ARC
8
DEFAULT_255_2_778
10
37.9591568
20
128.2984342
40
4.559304
50
269.9576727
51
284.4015011
0
ARC
8
DEFAULT_255_2_778
10
37.9617197
20
128.2729674
40
4.5340017
50
284.450174
51
307.7329693
0
ARC
8
DEFAULT_255_2_778
10
37.9497523
20
128.2963615
40
4.5598298
50
307.6720016
51
341.273727
0
ARC
8
DEFAULT_255_2_778
10
37.9717005
20
128.2826505
40
4.5346454
50
341.3487637
51
357.0903798
0
ARC
8
DEFAULT_255_2_778
10
37.880735
20
128.2897264
40
4.6258537
50
357.0600419
51
0.002539
0
ARC
8
DEFAULT_255_2_778
10
37.9533836
20
128.2908578
40
3.3246951
50
152.771254
51
180.0107951
0
ARC
8
DEFAULT_255_2_778
10
37.954993
20
128.2912612
40
3.3259417
50
121.5645605
51
152.7901177
0
ARC
8
DEFAULT_255_2_778
10
37.9619874
20
128.2800649
40
3.3391427
50
120.000543
51
121.5662546
0
ARC
8
DEFAULT_255_2_778
10
37.9553194
20
128.2928937
40
3.3246987
50
103.4728068
51
120.0115705
0
ARC
8
DEFAULT_255_2_778
10
37.9559642
20
128.288848
40
3.3287834
50
89.9978591
51
103.4673769
0
ARC
8
DEFAULT_255_2_778
10
37.9565413
20
128.2919029
40
3.3257286
50
66.6621593
51
90.0077991
0
ARC
8
DEFAULT_255_2_778
10
37.9538882
20
128.2868806
40
3.331391
50
59.9959307
51
66.6544817
0
ARC
8
DEFAULT_255_2_778
10
37.9578732
20
128.2921183
40
3.3248625
50
32.7711855
51
60.0102633
0
ARC
8
DEFAULT_255_2_778
10
37.957667
20
128.2906803
40
3.3258145
50
1.5641578
51
32.7900936
0
ARC
8
DEFAULT_255_2_778
10
37.9450559
20
128.2902534
40
3.3384327
50
359.9996234
51
1.5655742
0
ARC
8
DEFAULT_255_2_778
10
37.9585477
20
128.2895809
40
3.324941
50
332.7722815
51
0.0112106
0
ARC
8
DEFAULT_255_2_778
10
37.9572175
20
128.2890518
40
3.3258818
50
301.5645217
51
332.7908703
0
ARC
8
DEFAULT_255_2_778
10
37.9501899
20
128.300298
40
3.3391428
50
300.000543
51
301.5662546
0
ARC
8
DEFAULT_255_2_778
10
37.9569127
20
128.2878757
40
3.3250233
50
283.4704954
51
300.0072485
0
ARC
8
DEFAULT_255_2_778
10
37.9562143
20
128.2921161
40
3.3293098
50
269.9978364
51
283.4651837
0
ARC
8
DEFAULT_255_2_778
10
37.9556291
20
128.2890135
40
3.3262071
50
246.6658457
51
270.007916
0
ARC
8
DEFAULT_255_2_778
10
37.9581652
20
128.2937501
40
3.3315609
50
240.0000779
51
246.6580629
0
ARC
8
DEFAULT_255_2_778
10
37.9542715
20
128.288195
40
3.3248033
50
212.7706372
51
240.0103229
0
ARC
8
DEFAULT_255_2_778
10
37.9546901
20
128.2897431
40
3.3259934
50
181.5635223
51
212.7891572
0
ARC
8
DEFAULT_255_2_778
10
37.9676741
20
128.2902095
40
3.3389855
50
179.9996231
51
181.5654433
0
ARC
8
DEFAULT_255_2_778
10
37.9559336
20
128.2902603
40
2.0572449
50
119.9975071
51
180.0008046
0
ARC
8
DEFAULT_255_2_778
10
37.9554034
20
128.2922783
40
2.0552323
50
96.9484253
51
120.0128341
0
ARC
8
DEFAULT_255_2_778
10
37.9560398
20
128.2880377
40
2.0595188
50
89.9996842
51
96.951726
0
LINE
8
DEFAULT_255_2_778
10
37.9560511
20
130.3475564
11
37.9564117
21
130.3475564
0
ARC
8
DEFAULT_255_2_778
10
37.9563865
20
128.2912382
40
2.0563182
50
62.8617237
51
89.9992977
0
ARC
8
DEFAULT_255_2_778
10
37.9530558
20
128.2847651
40
2.063598
50
60.0021197
51
62.8614074
0
ARC
8
DEFAULT_255_2_778
10
37.9560339
20
128.2901392
40
2.0574547
50
0.0025694
51
59.9991192
0
ARC
8
DEFAULT_255_2_778
10
37.9559934
20
128.2902471
40
2.0574952
50
300.0015301
51
359.9995632
0
ARC
8
DEFAULT_255_2_778
10
37.9566322
20
128.288575
40
2.0557278
50
276.9564356
51
300.0094142
0
ARC
8
DEFAULT_255_2_778
10
37.9560632
20
128.2923883
40
2.0595819
50
270.009696
51
276.9593006
0
LINE
8
DEFAULT_255_2_778
10
37.9564117
20
126.2328065
11
37.9560511
21
126.2328064
0
ARC
8
DEFAULT_255_2_778
10
37.9556874
20
128.2887519
40
2.0559455
50
242.8601828
51
270.0101352
0
ARC
8
DEFAULT_255_2_778
10
37.9588449
20
128.2948298
40
2.0627945
50
239.9981076
51
242.8591472
0
ARC
8
DEFAULT_255_2_778
10
37.9559739
20
128.2901259
40
2.0572853
50
179.9970602
51
240.0018444
0
ARC
8
DEFAULT_255_2_778
10
37.9591984
20
128.2969995
40
4.4568693
50
269.9561652
51
284.7583167
0
ARC
8
DEFAULT_255_2_778
10
37.9606801
20
128.275485
40
4.4356889
50
284.8106021
51
308.835412
0
ARC
8
DEFAULT_255_2_778
10
37.9508678
20
128.2957891
40
4.4576608
50
308.7700005
51
341.4694443
0
ARC
8
DEFAULT_255_2_778
10
37.9697646
20
128.2834151
40
4.4358147
50
341.5434159
51
357.4142198
0
ARC
8
DEFAULT_255_2_778
10
37.8796538
20
128.2900705
40
4.5261348
50
357.381518
51
0.0020372
0
ARC
8
DEFAULT_255_2_778
10
37.9587088
20
128.3030812
40
5.0632506
50
269.9669557
51
283.6924923
0
ARC
8
DEFAULT_255_2_778
10
37.9641055
20
128.2662848
40
5.0262237
50
283.7320106
51
304.6214413
0
ARC
8
DEFAULT_255_2_778
10
37.9452467
20
128.3003127
40
5.0649422
50
304.5783001
51
340.3720716
0
ARC
8
DEFAULT_255_2_778
10
37.9792026
20
128.2813055
40
5.0265788
50
340.4461244
51
355.7013753
0
ARC
8
DEFAULT_255_2_778
10
37.8841267
20
128.2903031
40
5.122062
50
355.6807261
51
359.9991979
0
ARC
8
DEFAULT_255_2_778
10
36.6079957
20
143.2956276
40
0.2617079
50
0.613858
51
48.3009137
0
ARC
8
DEFAULT_255_2_778
10
36.6207847
20
143.3022159
40
0.248335
50
49.4929486
51
89.2838486
0
ARC
8
DEFAULT_255_2_778
10
36.6747408
20
143.290014
40
0.177448
50
359.9087635
51
0.0304106
0
ARC
8
DEFAULT_255_2_778
10
36.6037527
20
143.2902272
40
0.2484363
50
359.9725586
51
45.1742187
0
ARC
8
DEFAULT_255_2_778
10
36.6015662
20
143.2886009
40
0.2511313
50
45.0819772
51
89.8579973
0
LINE
8
DEFAULT_255_2_778
10
41.1021886
20
143.5397314
11
41.1018133
21
143.5397317
0
ARC
8
DEFAULT_255_2_778
10
41.101867
20
143.2908768
40
0.248855
50
90.0123673
51
135.1341014
0
ARC
8
DEFAULT_255_2_778
10
41.1036718
20
143.2889627
40
0.2514844
50
135.1151066
51
179.8248679
0
ARC
8
DEFAULT_255_2_778
10
41.0836706
20
143.3020082
40
0.2485436
50
90.7335484
51
130.4896342
0
ARC
8
DEFAULT_255_2_778
10
41.0963815
20
143.2956276
40
0.2617079
50
131.6990888
51
179.3861351
0
ARC
8
DEFAULT_255_2_778
10
36.2066641
20
138.290156
40
0.5000755
50
90.0086483
51
180.0028154
0
ARC
8
DEFAULT_255_2_778
10
39.2067131
20
138.290156
40
0.5000754
50
359.9971846
51
89.9913517
0
ARC
8
DEFAULT_255_2_778
10
45.5557411
20
140.291546
40
2.9015145
50
270.0048887
51
288.4850808
0
ARC
8
DEFAULT_255_2_778
10
45.5560515
20
140.2879375
40
2.3984061
50
269.998499
51
292.5519013
0
LINE
8
DEFAULT_255_2_778
10
25.6060886
20
127.7509314
11
25.6192886
21
127.7507314
0
LINE
8
DEFAULT_255_2_778
10
25.6192886
20
127.7507314
11
25.6192886
21
130.0555314
0
LINE
8
DEFAULT_255_2_778
10
25.6192886
20
130.0555314
11
25.6650886
21
130.1105314
0
LINE
8
DEFAULT_255_2_778
10
25.6650886
20
130.1105314
11
25.6650886
21
119.9690314
0
LINE
8
DEFAULT_255_2_778
10
25.6650886
20
119.9690314
11
25.6060886
21
120.0397314
0
LINE
8
DEFAULT_255_2_778
10
25.6060886
20
120.0397314
11
25.6060886
21
127.7509314
0
LINE
8
DEFAULT_255_2_778
10
21.8376886
20
127.8166314
11
21.8558886
21
127.8163314
0
LINE
8
DEFAULT_255_2_778
10
21.8558886
20
127.8163314
11
21.8558886
21
120.0397314
0
LINE
8
DEFAULT_255_2_778
10
21.8558886
20
120.0397314
11
21.7712886
21
119.9672314
0
LINE
8
DEFAULT_255_2_778
10
21.7712886
20
119.9672314
11
21.7712886
21
130.1123314
0
LINE
8
DEFAULT_255_2_778
10
21.7712886
20
130.1123314
11
21.8373886
21
130.0555314
0
LINE
8
DEFAULT_255_2_778
10
21.8373886
20
130.0555314
11
21.8376886
21
127.8166314
0
LINE
8
DEFAULT_255_2_778
10
21.7714886
20
130.1121314
11
25.6650886
21
130.1102314
0
LINE
8
DEFAULT_255_2_778
10
21.8378886
20
130.0552314
11
25.6190886
21
130.0552314
0
LINE
8
DEFAULT_255_2_778
10
25.6058886
20
120.0394314
11
21.8561886
21
120.0394314
0
LINE
8
DEFAULT_255_2_778
10
25.6650886
20
119.9688314
11
21.7714886
21
119.9669314
0
LINE
8
DEFAULT_255_2_778
10
22.6059886
20
129.9192314
11
22.5842886
21
127.6771314
0
LINE
8
DEFAULT_255_2_778
10
22.5842886
20
127.6771314
11
22.5675886
21
125.4350314
0
LINE
8
DEFAULT_255_2_778
10
22.5675886
20
125.4350314
11
22.5842886
21
123.1930314
0
LINE
8
DEFAULT_255_2_778
10
22.5842886
20
123.1930314
11
22.6059886
21
120.9509314
0
LINE
8
DEFAULT_255_2_778
10
22.5890886
20
129.9195314
11
24.4059886
21
129.9004314
0
LINE
8
DEFAULT_255_2_778
10
25.4560886
20
130.0555314
11
25.4560886
21
120.0397314
0
LINE
8
DEFAULT_255_2_778
10
25.4404886
20
120.9509314
11
25.4404886
21
120.0397314
0
LINE
8
DEFAULT_255_2_778
10
25.4404886
20
130.0555314
11
25.4404886
21
129.9195314
0
LINE
8
DEFAULT_255_2_778
10
24.4061886
20
120.9699314
11
25.4213886
21
120.9699314
0
LINE
8
DEFAULT_255_2_778
10
25.4213886
20
120.9699314
11
25.4213886
21
129.9004314
0
LINE
8
DEFAULT_255_2_778
10
25.4213886
20
129.9004314
11
24.4061886
21
129.9004314
0
LINE
8
DEFAULT_255_2_778
10
24.4061886
20
129.9004314
11
24.4061886
21
120.9702314
0
LINE
8
DEFAULT_255_2_778
10
24.4061886
20
120.9702314
11
22.5892886
21
120.9511314
0
LINE
8
DEFAULT_255_2_778
10
28.4561886
20
131.4353314
11
29.9539886
21
131.4353314
0
LINE
8
DEFAULT_255_2_778
10
29.9539886
20
131.4353314
11
29.9539886
21
119.4353314
0
LINE
8
DEFAULT_255_2_778
10
29.9539886
20
119.4353314
11
28.4561886
21
119.4353314
0
LINE
8
DEFAULT_255_2_778
10
43.0063886
20
133.3403314
11
42.5071886
21
132.8410314
0
LINE
8
DEFAULT_255_2_778
10
42.5071886
20
132.8410314
11
33.4051886
21
132.8410314
0
LINE
8
DEFAULT_255_2_778
10
33.4051886
20
132.8410314
11
33.4845886
21
132.7616314
0
LINE
8
DEFAULT_255_2_778
10
33.4845886
20
132.7616314
11
33.4845886
21
131.7911314
0
LINE
8
DEFAULT_255_2_778
10
33.4845886
20
131.7911314
11
33.5059886
21
131.7551314
0
LINE
8
DEFAULT_255_2_778
10
33.5059886
20
131.7551314
11
33.5059886
21
123.8401314
0
LINE
8
DEFAULT_255_2_778
10
33.5059886
20
123.8401314
11
33.4049886
21
123.7391314
0
LINE
8
DEFAULT_255_2_778
10
33.4049886
20
123.7391314
11
37.9557886
21
123.7391314
0
LINE
8
DEFAULT_255_2_778
10
42.5065886
20
128.2899314
11
42.5065886
21
132.8407314
0
LINE
8
DEFAULT_255_2_778
10
42.5065886
20
132.8407314
11
42.4293886
21
132.7635314
0
LINE
8
DEFAULT_255_2_778
10
42.4293886
20
132.7635314
11
42.4293886
21
131.7943314
0
LINE
8
DEFAULT_255_2_778
10
42.4293886
20
131.7943314
11
42.4057886
21
131.7549314
0
LINE
8
DEFAULT_255_2_778
10
42.4057886
20
131.7549314
11
42.4057886
21
128.2899314
0
LINE
8
DEFAULT_255_2_778
10
42.4057886
20
128.2899314
11
43.0061886
21
128.2899314
0
LINE
8
DEFAULT_255_2_778
10
43.0061886
20
128.2899314
11
43.0061886
21
133.3403314
0
LINE
8
DEFAULT_255_2_778
10
43.0061886
20
133.3403314
11
33.3800886
21
133.3403314
0
LINE
8
DEFAULT_255_2_778
10
33.3800886
20
133.3403314
11
33.3800886
21
123.2398314
0
LINE
8
DEFAULT_255_2_778
10
33.3800886
20
123.2398314
11
37.9557886
21
123.2398314
0
LINE
8
DEFAULT_255_2_778
10
37.9557886
20
123.2398314
11
37.9557886
21
123.8401314
0
LINE
8
DEFAULT_255_2_778
10
37.9557886
20
123.8401314
11
33.5057886
21
123.8401314
0
LINE
8
DEFAULT_255_2_778
10
38.3113886
20
130.3095314
11
37.6001886
21
130.3095314
0
LINE
8
DEFAULT_255_2_778
10
37.6001886
20
130.3095314
11
37.6001886
21
128.6458314
0
LINE
8
DEFAULT_255_2_778
10
37.6001886
20
128.6458314
11
35.9364886
21
128.6458314
0
LINE
8
DEFAULT_255_2_778
10
35.9364886
20
128.6458314
11
35.9364886
21
127.9346314
0
LINE
8
DEFAULT_255_2_778
10
35.9364886
20
127.9346314
11
37.6001886
21
127.9346314
0
LINE
8
DEFAULT_255_2_778
10
37.6001886
20
127.9346314
11
37.6001886
21
126.2709314
0
LINE
8
DEFAULT_255_2_778
10
37.6001886
20
126.2709314
11
38.3113886
21
126.2709314
0
LINE
8
DEFAULT_255_2_778
10
38.3113886
20
126.2709314
11
38.3113886
21
127.9346314
0
LINE
8
DEFAULT_255_2_778
10
38.3113886
20
127.9346314
11
39.9750886
21
127.9346314
0
LINE
8
DEFAULT_255_2_778
10
39.9750886
20
127.9346314
11
39.9750886
21
128.6458314
0
LINE
8
DEFAULT_255_2_778
10
39.9750886
20
128.6458314
11
38.3113886
21
128.6458314
0
LINE
8
DEFAULT_255_2_778
10
38.3113886
20
128.6458314
11
38.3113886
21
130.3095314
0
LINE
8
DEFAULT_255_2_778
10
33.5057886
20
131.7551314
11
42.4057886
21
131.7551314
0
LINE
8
DEFAULT_255_2_778
10
34.4558886
20
132.3901314
11
41.4559886
21
132.3901314
0
LINE
8
DEFAULT_255_2_778
10
34.6286886
20
128.2902314
11
34.6286886
21
128.2902314
0
LINE
8
DEFAULT_255_2_778
10
35.8986886
20
128.2902314
11
35.8986886
21
128.2902314
0
LINE
8
DEFAULT_255_2_778
10
41.4559886
20
132.7635314
11
41.4559886
21
131.7551314
0
LINE
8
DEFAULT_255_2_778
10
34.4558886
20
131.7551314
11
34.4558886
21
132.7619314
0
LINE
8
DEFAULT_255_2_778
10
42.4293886
20
132.7637314
11
33.4843886
21
132.7616314
0
LINE
8
DEFAULT_255_2_778
10
36.8696886
20
143.3008314
11
40.8346886
21
143.3008314
0
LINE
8
DEFAULT_255_2_778
10
40.8346886
20
143.3008314
11
40.8346886
21
141.9747314
0
LINE
8
DEFAULT_255_2_778
10
40.8346886
20
141.9747314
11
38.9175886
21
140.0575314
0
LINE
8
DEFAULT_255_2_778
10
38.9175886
20
140.0575314
11
36.8696886
21
140.0575314
0
LINE
8
DEFAULT_255_2_778
10
36.8696886
20
140.0575314
11
36.8696886
21
143.2984314
0
LINE
8
DEFAULT_255_2_778
10
46.4716886
20
139.7808314
11
45.9557886
21
139.7808314
0
LINE
8
DEFAULT_255_2_778
10
35.4498886
20
143.6442314
11
35.4533886
21
143.5786314
0
LINE
8
DEFAULT_255_2_778
10
35.4533886
20
143.5786314
11
39.9589886
21
143.5786314
0
LINE
8
DEFAULT_255_2_778
10
39.9589886
20
143.5786314
11
39.9623886
21
143.6442314
0
LINE
8
DEFAULT_255_2_778
10
40.9624886
20
143.6267314
11
41.4620886
21
143.6222314
0
LINE
8
DEFAULT_255_2_778
10
41.4620886
20
143.6222314
11
40.9614886
21
143.6180314
0
LINE
8
DEFAULT_255_2_778
10
40.9614886
20
143.6180314
11
40.4608886
21
143.6225314
0
LINE
8
DEFAULT_255_2_778
10
40.4608886
20
143.6225314
11
40.4587886
21
143.5833314
0
LINE
8
DEFAULT_255_2_778
10
40.4587886
20
143.5833314
11
39.9591886
21
143.5878314
0
LINE
8
DEFAULT_255_2_778
10
39.7065886
20
137.8900314
11
39.7065886
21
138.2901314
0
LINE
8
DEFAULT_255_2_778
10
39.7065886
20
138.2901314
11
35.7065886
21
138.2901314
0
LINE
8
DEFAULT_255_2_778
10
35.7065886
20
138.2901314
11
35.7065886
21
137.8900314
0
LINE
8
DEFAULT_255_2_778
10
36.2065886
20
138.7902314
11
39.2067886
21
138.7902314
0
LINE
8
DEFAULT_255_2_778
10
30.9567886
20
137.2786314
11
34.4566886
21
137.2786314
0
LINE
8
DEFAULT_255_2_778
10
30.9567886
20
137.3900314
11
34.4566886
21
137.3900314
0
LINE
8
DEFAULT_255_2_778
10
41.4567886
20
137.2392314
11
43.9567886
21
137.2392314
0
LINE
8
DEFAULT_255_2_778
10
41.4567886
20
137.2786314
11
43.9567886
21
137.2786314
0
LINE
8
DEFAULT_255_2_778
10
41.9567886
20
137.8900314
11
41.9567886
21
137.3900314
0
LINE
8
DEFAULT_255_2_778
10
43.1566886
20
137.8900314
11
43.1566886
21
137.3900314
0
LINE
8
DEFAULT_255_2_778
10
43.6567886
20
137.8900314
11
43.6567886
21
137.3900314
0
LINE
8
DEFAULT_255_2_778
10
44.1568886
20
137.8900314
11
44.1568886
21
137.3900314
0
LINE
8
DEFAULT_255_2_778
10
41.4567886
20
137.8900314
11
41.4567886
21
137.1452314
0
LINE
8
DEFAULT_255_2_778
10
34.4566886
20
137.1468314
11
34.4566886
21
137.8900314
0
LINE
8
DEFAULT_255_2_778
10
32.4566886
20
137.3900314
11
32.4566886
21
137.8900314
0
LINE
8
DEFAULT_255_2_778
10
33.9565886
20
137.8900314
11
33.9565886
21
137.3900314
0
LINE
8
DEFAULT_255_2_778
10
30.9564886
20
138.3306314
11
32.1420886
21
138.4343314
0
LINE
8
DEFAULT_255_2_778
10
30.9564886
20
138.2650314
11
32.2074886
21
138.3745314
0
LINE
8
DEFAULT_255_2_778
10
43.9565886
20
137.2849314
11
46.4729886
21
137.2680314
0
LINE
8
DEFAULT_255_2_778
10
32.3910886
20
138.7063314
11
32.4563886
21
138.6462314
0
LINE
8
DEFAULT_255_2_778
10
38.9352886
20
140.0400314
11
40.8524886
21
141.9572314
0
LINE
8
DEFAULT_255_2_778
10
32.4558886
20
139.2648314
11
32.4558886
21
138.6460314
0
LINE
8
DEFAULT_255_2_778
10
32.4558886
20
138.6460314
11
32.2068886
21
138.3742314
0
LINE
8
DEFAULT_255_2_778
10
32.2068886
20
138.3742314
11
32.1415886
21
138.4343314
0
LINE
8
DEFAULT_255_2_778
10
32.1415886
20
138.4343314
11
32.3905886
21
138.7060314
0
LINE
8
DEFAULT_255_2_778
10
32.3905886
20
138.7060314
11
32.3905886
21
139.1995314
0
LINE
8
DEFAULT_255_2_778
10
30.9559886
20
139.2648314
11
32.4558886
21
139.2648314
0
LINE
8
DEFAULT_255_2_778
10
32.4558886
20
139.2648314
11
32.3905886
21
139.1995314
0
LINE
8
DEFAULT_255_2_778
10
32.3905886
20
139.1995314
11
30.9559886
21
139.1995314
0
LINE
8
DEFAULT_255_2_778
10
31.4560886
20
143.6267314
11
34.4521886
21
143.6267314
0
LINE
8
DEFAULT_255_2_778
10
41.4559886
20
137.3897314
11
46.4716886
21
137.3897314
0
LINE
8
DEFAULT_255_2_778
10
45.6675886
20
143.5397314
11
41.1021886
21
143.5397314
0
LINE
8
DEFAULT_255_2_778
10
41.1021886
20
143.5397314
11
41.0804886
21
143.5505314
0
LINE
8
DEFAULT_255_2_778
10
41.0804886
20
143.5505314
11
36.6241886
21
143.5505314
0
LINE
8
DEFAULT_255_2_778
10
36.6241886
20
143.5505314
11
36.6024886
21
143.5397314
0
LINE
8
DEFAULT_255_2_778
10
36.6024886
20
143.5397314
11
30.9562886
21
143.5397314
0
LINE
8
DEFAULT_255_2_778
10
46.4597886
20
138.0792314
11
46.4597886
21
138.4676314
0
LINE
8
DEFAULT_255_2_778
10
46.4719886
20
138.4676314
11
45.6678886
21
138.4605314
0
LINE
8
DEFAULT_255_2_778
10
45.6678886
20
138.4605314
11
45.6678886
21
143.5397314
0
LINE
8
DEFAULT_255_2_778
10
45.6678886
20
143.5397314
11
45.9662886
21
143.5894314
0
LINE
8
DEFAULT_255_2_778
10
45.9662886
20
143.5894314
11
45.9557886
21
139.7808314
0
LINE
8
DEFAULT_255_2_778
10
45.9557886
20
139.7808314
11
45.9557886
21
138.4634314
0
LINE
8
DEFAULT_255_2_778
10
30.9559886
20
143.6400314
11
31.4560886
21
143.6355314
0
LINE
8
DEFAULT_255_2_778
10
31.4560886
20
143.6355314
11
31.9560886
21
143.6400314
0
LINE
8
DEFAULT_255_2_778
10
31.9560886
20
143.6400314
11
31.4560886
21
143.6445314
0
LINE
8
DEFAULT_255_2_778
10
31.4560886
20
143.6445314
11
43.9559886
21
143.6445314
0
LINE
8
DEFAULT_255_2_778
10
43.9559886
20
143.6445314
11
43.9559886
21
143.6471314
0
LINE
8
DEFAULT_255_2_778
10
43.9559886
20
143.6471314
11
46.4716886
21
143.6638314
0
LINE
8
DEFAULT_255_2_778
10
43.9559886
20
137.1442314
11
43.9559886
21
137.3897314
0
LINE
8
DEFAULT_255_2_778
10
40.9598886
20
143.6267314
11
43.9559886
21
143.6267314
0
LINE
8
DEFAULT_255_2_778
10
43.9559886
20
143.6267314
11
43.9559886
21
143.5897314
0
LINE
8
DEFAULT_255_2_778
10
43.9559886
20
143.5897314
11
45.9662886
21
143.5894314
0
LINE
8
DEFAULT_255_2_778
10
35.4533886
20
143.5876314
11
34.9537886
21
143.5831314
0
LINE
8
DEFAULT_255_2_778
10
34.9537886
20
143.5831314
11
34.9516886
21
143.6222314
0
LINE
8
DEFAULT_255_2_778
10
34.9516886
20
143.6222314
11
34.4521886
21
143.6177314
0
LINE
8
DEFAULT_255_2_778
10
46.4716886
20
137.1434314
11
33.9560886
21
137.1463314
0
LINE
8
DEFAULT_255_2_778
10
33.9560886
20
137.1463314
11
33.9560886
21
137.2386314
0
LINE
8
DEFAULT_255_2_778
10
33.9560886
20
137.2386314
11
34.4561886
21
137.2386314
0
LINE
8
DEFAULT_255_2_778
10
31.4560886
20
137.3894314
11
31.4560886
21
137.8895314
0
LINE
8
DEFAULT_255_2_778
10
31.4560886
20
137.8895314
11
45.5559886
21
137.8895314
0
LINE
8
DEFAULT_255_2_778
10
46.5729886
20
137.0423314
11
30.9562886
21
137.0423314
0
LINE
8
DEFAULT_255_2_778
10
30.9562886
20
137.0423314
11
30.9562886
21
143.6905314
0
LINE
8
DEFAULT_255_2_778
10
30.9562886
20
143.6905314
11
46.5729886
21
143.6905314
0
LINE
8
DEFAULT_255_2_778
10
46.5729886
20
143.6905314
11
46.5729886
21
137.0426314
0
LINE
8
DEFAULT_255_2_778
10
46.5729886
20
137.0426314
11
46.4716886
21
137.1439314
0
LINE
8
DEFAULT_255_2_778
10
46.4716886
20
137.1439314
11
46.4716886
21
143.6736314
0
LINE
8
DEFAULT_255_2_778
10
46.0906886
20
137.3897314
11
45.9586886
21
137.2579314
0
LINE
8
DEFAULT_255_2_778
10
28.2209886
20
13.3996314
11
18.2593886
21
13.3911314
0
LINE
8
DEFAULT_255_2_778
10
18.2593886
20
13.3911314
11
18.2630886
21
9.1912314
0
LINE
8
DEFAULT_255_2_778
10
18.2593886
20
13.3911314
11
17.0105886
21
12.1399314
0
LINE
8
DEFAULT_255_2_778
10
17.0105886
20
12.1399314
11
17.0131886
21
9.1898314
0
LINE
8
DEFAULT_255_2_778
10
17.0131886
20
9.1898314
11
28.4564886
21
9.1996314
0
LINE
8
DEFAULT_255_2_778
10
28.4564886
20
17.1996314
11
28.2180886
21
17.1993314
0
ENDSEC
0
EOF