0
SECTION
2
HEADER
9
$MEASUREMENT
70
1
0
ENDSEC
0
SECTION
2
TABLES
0
TABLE
2
LTYPE
0
LTYPE
72
65
70
64
2
CONTINUOUS
3
______
73
0
40
0
0
ENDTAB
0
TABLE
2
LAYER
0
LAYER
2
DEFAULT_255_2_778
70
0
62
255
6
CONTINUOUS
0
ENDTAB
0
ENDSEC
0
SECTION
2
ENTITIES
0
ARC
8
DEFAULT_255_2_778
10
16.2651362
20
8.5192327
40
3.6187576
50
10.6784861
51
29.5013666
0
ARC
8
DEFAULT_255_2_778
10
16.2577453
20
8.5126626
40
3.6284263
50
29.5341898
51
80.2297711
0
ARC
8
DEFAULT_255_2_778
10
16.2606886
20
8.5049548
40
3.6355254
50
80.2960987
51
90.0151749
0
ARC
8
DEFAULT_255_2_778
10
16.2573591
20
8.5214043
40
3.6190764
50
89.9625319
51
108.7839176
0
ARC
8
DEFAULT_255_2_778
10
16.2623544
20
8.5131724
40
3.628479
50
108.8167397
51
159.5120309
0
ARC
8
DEFAULT_255_2_778
10
16.2708434
20
8.5144625
40
3.6359819
50
159.5778959
51
169.2961991
0
LINE
8
DEFAULT_255_2_778
10
16.8097257
20
109.83788
11
16.8097257
21
110.53978
0
LINE
8
DEFAULT_255_2_778
10
28.3098257
20
109.81958
11
28.3098257
21
110.53978
0
LINE
8
DEFAULT_255_2_778
10
28.3098257
20
110.53978
11
28.3098257
21
101.81968
0
LINE
8
DEFAULT_255_2_778
10
28.3098257
20
101.81968
11
27.3399257
21
101.81968
0
LINE
8
DEFAULT_255_2_778
10
27.3399257
20
101.81968
11
27.3399257
21
94.50978
0
LINE
8
DEFAULT_255_2_778
10
27.3399257
20
94.50978
11
26.7398257
21
94.50978
0
LINE
8
DEFAULT_255_2_778
10
26.7398257
20
94.50978
11
26.7398257
21
89.50968
0
LINE
8
DEFAULT_255_2_778
10
26.7398257
20
89.50968
11
27.3399257
21
89.50968
0
LINE
8
DEFAULT_255_2_778
10
27.3399257
20
89.50968
11
27.3399257
21
85.31968
0
LINE
8
DEFAULT_255_2_778
10
27.3399257
20
85.31968
11
27.6899257
21
85.31968
0
LINE
8
DEFAULT_255_2_778
10
27.6899257
20
85.31968
11
27.6899257
21
81.38398
0
LINE
8
DEFAULT_255_2_778
10
14.1671257
20
9.19958
11
18.3523257
21
9.19958
0
ARC
8
DEFAULT_255_2_778
10
16.2589139
20
8.5100346
40
4.8770353
50
8.0284061
51
23.0689182
0
ARC
8
DEFAULT_255_2_778
10
16.2598176
20
8.5056814
40
4.8779114
50
23.1201206
51
52.0781268
0
ARC
8
DEFAULT_255_2_778
10
16.2620906
20
8.5156147
40
4.8686806
50
52.0273845
51
76.67273
0
ARC
8
DEFAULT_255_2_778
10
16.2623771
20
8.5026701
40
4.8812116
50
76.711028
51
90.0273269
0
ARC
8
DEFAULT_255_2_778
10
16.2572951
20
8.5072309
40
4.8766509
50
89.9676434
51
105.0092731
0
ARC
8
DEFAULT_255_2_778
10
16.2617985
20
8.5073424
40
4.8777115
50
105.0607064
51
134.0520686
0
ARC
8
DEFAULT_255_2_778
10
16.2526141
20
8.5106343
40
4.8689616
50
134.001327
51
158.6249979
0
ARC
8
DEFAULT_255_2_778
10
16.2658538
20
8.5089318
40
4.8819122
50
158.6630251
51
171.9665966
0
ARC
8
DEFAULT_255_2_778
10
16.2563068
20
8.5179162
40
2.1943409
50
132.7012285
51
162.1625603
0
ARC
8
DEFAULT_255_2_778
10
16.2595557
20
8.5164921
40
2.1975912
50
93.7751576
51
132.7382988
0
ARC
8
DEFAULT_255_2_778
10
16.2599694
20
8.5028411
40
2.2112399
50
89.9979349
51
93.762565
0
ARC
8
DEFAULT_255_2_778
10
16.2611845
20
8.5196965
40
2.1943848
50
60.5694592
51
90.029647
0
ARC
8
DEFAULT_255_2_778
10
16.2609248
20
8.5162937
40
2.1974765
50
21.6435577
51
60.6071564
0
ARC
8
DEFAULT_255_2_778
10
16.2484782
20
8.5119024
40
2.2106651
50
17.8650338
51
21.6303664
0
ARC
8
DEFAULT_255_2_778
10
16.2562101
20
108.9019056
40
2.1946141
50
197.8422698
51
227.299655
0
ARC
8
DEFAULT_255_2_778
10
16.2592
20
108.9031048
40
2.1975233
50
227.2635678
51
266.2261991
0
ARC
8
DEFAULT_255_2_778
10
16.2596692
20
108.9171659
40
2.2115849
50
266.2380473
51
270.00207
0
ARC
8
DEFAULT_255_2_778
10
16.2608957
20
108.9001916
40
2.1946109
50
269.9700635
51
299.4270752
0
ARC
8
DEFAULT_255_2_778
10
16.2606811
20
108.9034809
40
2.1975817
50
299.3898153
51
338.3515887
0
ARC
8
DEFAULT_255_2_778
10
16.2478814
20
108.9080264
40
2.2111554
50
338.3644693
51
342.1290756
0
ARC
8
DEFAULT_255_2_778
10
16.2653004
20
108.9061049
40
3.0946451
50
326.0928786
51
347.3858087
0
ARC
8
DEFAULT_255_2_778
10
16.2583518
20
108.9115087
40
3.1034265
50
279.0494352
51
326.0816435
0
ARC
8
DEFAULT_255_2_778
10
16.2603247
20
108.9187309
40
3.1102501
50
269.9875546
51
278.9926183
0
ARC
8
DEFAULT_255_2_778
10
16.2575899
20
108.9030111
40
3.0945307
50
248.7438015
51
270.0381252
0
ARC
8
DEFAULT_255_2_778
10
16.2614473
20
108.9111349
40
3.1035003
50
201.6998536
51
248.7318066
0
ARC
8
DEFAULT_255_2_778
10
16.2692019
20
108.9109474
40
3.1106375
50
192.6396725
51
201.6438334
0
LINE
8
DEFAULT_255_2_778
10
11.4318491
20
9.191181
11
12.6984491
21
9.190081
0
LINE
8
DEFAULT_255_2_778
10
12.6984491
20
9.190081
11
14.1674491
21
9.190081
0
LINE
8
DEFAULT_255_2_778
10
18.3525491
20
9.190081
11
21.0881491
21
9.191181
0
LINE
8
DEFAULT_255_2_778
10
13.2342491
20
108.230281
11
14.1671491
21
108.229481
0
LINE
8
DEFAULT_255_2_778
10
18.3523491
20
108.229481
11
19.2852491
21
108.230281
0
LINE
8
DEFAULT_255_2_778
10
18.3523491
20
109.819881
11
14.1671491
21
109.819881
0
LINE
8
DEFAULT_255_2_778
10
5.8097491
20
109.837881
11
28.3096491
21
109.837881
0
LINE
8
DEFAULT_255_2_778
10
24.9597065
20
107.510036
11
19.0230065
21
107.510036
0
LINE
8
DEFAULT_255_2_778
10
34.4948065
20
110.539836
11
34.4948065
21
142.772936
0
LINE
8
DEFAULT_255_2_778
10
34.4948065
20
142.772936
11
0.6948065
21
142.772936
0
LINE
8
DEFAULT_255_2_778
10
0.6948065
20
142.772936
11
0.6948065
21
110.539836
0
LINE
8
DEFAULT_255_2_778
10
34.9948401
20
110.5397584
11
0.1947401
21
110.5397584
0
LINE
8
DEFAULT_255_2_778
10
0.1947401
20
110.5397584
11
0.1947401
21
142.0397584
0
LINE
8
DEFAULT_255_2_778
10
0.1947401
20
142.0397584
11
0.6948401
21
142.0397584
0
LINE
8
DEFAULT_255_2_778
10
19.2246401
20
108.0095584
11
25.4598401
21
108.0095584
0
LINE
8
DEFAULT_255_2_778
10
25.4598401
20
108.0095584
11
25.4598401
21
83.9795584
0
LINE
8
DEFAULT_255_2_778
10
25.4598401
20
83.9795584
11
27.6897401
21
83.9795584
0
LINE
8
DEFAULT_255_2_778
10
24.9597401
20
53.3244584
11
24.9597401
21
62.1001584
0
LINE
8
DEFAULT_255_2_778
10
24.9597401
20
62.1001584
11
25.4598401
21
62.5996584
0
LINE
8
DEFAULT_255_2_778
10
21.0097377
20
76.8083623
11
19.5098377
21
76.8083623
0
LINE
8
DEFAULT_255_2_778
10
19.5098377
20
76.8083623
11
19.5098377
21
75.8082623
0
LINE
8
DEFAULT_255_2_778
10
19.5098377
20
75.8082623
11
21.0097377
21
75.8082623
0
LINE
8
DEFAULT_255_2_778
10
21.0097377
20
75.8082623
11
21.0097377
21
76.8083623
0
LINE
8
DEFAULT_255_2_778
10
21.0097377
20
81.8084623
11
19.5098377
21
81.8084623
0
LINE
8
DEFAULT_255_2_778
10
19.5098377
20
81.8084623
11
19.5098377
21
80.8083623
0
LINE
8
DEFAULT_255_2_778
10
19.5098377
20
80.8083623
11
21.0097377
21
80.8083623
0
LINE
8
DEFAULT_255_2_778
10
21.0097377
20
80.8083623
11
21.0097377
21
81.8084623
0
LINE
8
DEFAULT_255_2_778
10
21.0097377
20
86.8082583
11
19.5098377
21
86.8082583
0
LINE
8
DEFAULT_255_2_778
10
19.5098377
20
86.8082583
11
19.5098377
21
85.8081583
0
LINE
8
DEFAULT_255_2_778
10
19.5098377
20
85.8081583
11
21.0097377
21
85.8081583
0
LINE
8
DEFAULT_255_2_778
10
21.0097377
20
85.8081583
11
21.0097377
21
86.8082583
0
LINE
8
DEFAULT_255_2_778
10
21.0097377
20
91.8083623
11
19.5098377
21
91.8083623
0
LINE
8
DEFAULT_255_2_778
10
19.5098377
20
91.8083623
11
19.5098377
21
90.8082623
0
LINE
8
DEFAULT_255_2_778
10
19.5098377
20
90.8082623
11
21.0097377
21
90.8082623
0
LINE
8
DEFAULT_255_2_778
10
21.0097377
20
90.8082623
11
21.0097377
21
91.8083623
0
LINE
8
DEFAULT_255_2_778
10
21.0097377
20
96.8084623
11
19.5098377
21
96.8084623
0
LINE
8
DEFAULT_255_2_778
10
19.5098377
20
96.8084623
11
19.5098377
21
95.8083623
0
LINE
8
DEFAULT_255_2_778
10
19.5098377
20
95.8083623
11
21.0097377
21
95.8083623
0
LINE
8
DEFAULT_255_2_778
10
21.0097377
20
95.8083623
11
21.0097377
21
96.8084623
0
LINE
8
DEFAULT_255_2_778
10
21.0097377
20
101.8082623
11
19.5098377
21
101.8082623
0
LINE
8
DEFAULT_255_2_778
10
19.5098377
20
101.8082623
11
19.5098377
21
100.8081623
0
LINE
8
DEFAULT_255_2_778
10
19.5098377
20
100.8081623
11
21.0097377
21
100.8081623
0
LINE
8
DEFAULT_255_2_778
10
21.0097377
20
100.8081623
11
21.0097377
21
101.8082623
0
LINE
8
DEFAULT_255_2_778
10
28.3096392
20
109.8232468
11
28.3096392
21
109.8195468
0
LINE
8
DEFAULT_255_2_778
10
28.3096392
20
109.8195468
11
18.3523392
21
109.8195468
0
LINE
8
DEFAULT_255_2_778
10
18.3523392
20
109.8195468
11
18.3523392
21
108.2394468
0
LINE
8
DEFAULT_255_2_778
10
27.6897392
20
56.4197468
11
27.6897392
21
62.5996468
0
LINE
8
DEFAULT_255_2_778
10
27.6897392
20
62.5996468
11
25.4598392
21
62.5996468
0
LINE
8
DEFAULT_255_2_778
10
25.4598392
20
62.5996468
11
25.4598392
21
56.4197468
0
LINE
8
DEFAULT_255_2_778
10
25.4598392
20
56.4197468
11
27.6897392
21
56.4197468
0
LINE
8
DEFAULT_255_2_778
10
21.0097377
20
70.8081623
11
21.0097377
21
71.8082623
0
LINE
8
DEFAULT_255_2_778
10
21.0097377
20
71.8082623
11
19.5098377
21
71.8082623
0
LINE
8
DEFAULT_255_2_778
10
19.5098377
20
71.8082623
11
19.5098377
21
70.8081623
0
LINE
8
DEFAULT_255_2_778
10
19.5098377
20
70.8081623
11
21.0097377
21
70.8081623
0
LINE
8
DEFAULT_255_2_778
10
21.0097377
20
65.8082623
11
21.0097377
21
66.8083623
0
LINE
8
DEFAULT_255_2_778
10
21.0097377
20
66.8083623
11
19.5098377
21
66.8083623
0
LINE
8
DEFAULT_255_2_778
10
19.5098377
20
66.8083623
11
19.5098377
21
65.8082623
0
LINE
8
DEFAULT_255_2_778
10
19.5098377
20
65.8082623
11
21.0097377
21
65.8082623
0
LINE
8
DEFAULT_255_2_778
10
13.0098377
20
66.8083664
11
11.5099377
21
66.8083664
0
LINE
8
DEFAULT_255_2_778
10
11.5099377
20
66.8083664
11
11.5099377
21
65.8082664
0
LINE
8
DEFAULT_255_2_778
10
11.5099377
20
65.8082664
11
13.0098377
21
65.8082664
0
LINE
8
DEFAULT_255_2_778
10
13.0098377
20
65.8082664
11
13.0098377
21
66.8083664
0
LINE
8
DEFAULT_255_2_778
10
13.0098377
20
71.8082623
11
11.5099377
21
71.8082623
0
LINE
8
DEFAULT_255_2_778
10
11.5099377
20
71.8082623
11
11.5099377
21
70.8081623
0
LINE
8
DEFAULT_255_2_778
10
11.5099377
20
70.8081623
11
13.0098377
21
70.8081623
0
LINE
8
DEFAULT_255_2_778
10
13.0098377
20
70.8081623
11
13.0098377
21
71.8082623
0
LINE
8
DEFAULT_255_2_778
10
13.0098377
20
76.8083623
11
11.5099377
21
76.8083623
0
LINE
8
DEFAULT_255_2_778
10
11.5099377
20
76.8083623
11
11.5099377
21
75.8082623
0
LINE
8
DEFAULT_255_2_778
10
11.5099377
20
75.8082623
11
13.0098377
21
75.8082623
0
LINE
8
DEFAULT_255_2_778
10
13.0098377
20
75.8082623
11
13.0098377
21
76.8083623
0
LINE
8
DEFAULT_255_2_778
10
13.0098377
20
81.8084623
11
11.5099377
21
81.8084623
0
LINE
8
DEFAULT_255_2_778
10
11.5099377
20
81.8084623
11
11.5099377
21
80.8083623
0
LINE
8
DEFAULT_255_2_778
10
11.5099377
20
80.8083623
11
13.0098377
21
80.8083623
0
LINE
8
DEFAULT_255_2_778
10
13.0098377
20
80.8083623
11
13.0098377
21
81.8084623
0
LINE
8
DEFAULT_255_2_778
10
13.0098377
20
86.8082583
11
11.5099377
21
86.8082583
0
LINE
8
DEFAULT_255_2_778
10
11.5099377
20
86.8082583
11
11.5099377
21
85.8081583
0
LINE
8
DEFAULT_255_2_778
10
11.5099377
20
85.8081583
11
13.0098377
21
85.8081583
0
LINE
8
DEFAULT_255_2_778
10
13.0098377
20
85.8081583
11
13.0098377
21
86.8082583
0
LINE
8
DEFAULT_255_2_778
10
13.0098377
20
91.8083623
11
11.5099377
21
91.8083623
0
LINE
8
DEFAULT_255_2_778
10
11.5099377
20
91.8083623
11
11.5099377
21
90.8082623
0
LINE
8
DEFAULT_255_2_778
10
11.5099377
20
90.8082623
11
13.0098377
21
90.8082623
0
LINE
8
DEFAULT_255_2_778
10
13.0098377
20
90.8082623
11
13.0098377
21
91.8083623
0
LINE
8
DEFAULT_255_2_778
10
13.0098377
20
96.8084623
11
11.5099377
21
96.8084623
0
LINE
8
DEFAULT_255_2_778
10
11.5099377
20
96.8084623
11
11.5099377
21
95.8083623
0
LINE
8
DEFAULT_255_2_778
10
11.5099377
20
95.8083623
11
13.0098377
21
95.8083623
0
LINE
8
DEFAULT_255_2_778
10
13.0098377
20
95.8083623
11
13.0098377
21
96.8084623
0
LINE
8
DEFAULT_255_2_778
10
13.0098377
20
101.8082623
11
11.5099377
21
101.8082623
0
LINE
8
DEFAULT_255_2_778
10
11.5099377
20
101.8082623
11
11.5099377
21
100.8081623
0
LINE
8
DEFAULT_255_2_778
10
11.5099377
20
100.8081623
11
13.0098377
21
100.8081623
0
LINE
8
DEFAULT_255_2_778
10
13.0098377
20
100.8081623
11
13.0098377
21
101.8082623
0
LINE
8
DEFAULT_255_2_778
10
13.0098377
20
60.8081664
11
13.0098377
21
61.8082664
0
LINE
8
DEFAULT_255_2_778
10
13.0098377
20
61.8082664
11
11.5099377
21
61.8082664
0
LINE
8
DEFAULT_255_2_778
10
11.5099377
20
61.8082664
11
11.5099377
21
60.8081664
0
LINE
8
DEFAULT_255_2_778
10
11.5099377
20
60.8081664
11
13.0098377
21
60.8081664
0
LINE
8
DEFAULT_255_2_778
10
13.0098377
20
55.8080623
11
13.0098377
21
56.8081623
0
LINE
8
DEFAULT_255_2_778
10
13.0098377
20
56.8081623
11
11.5099377
21
56.8081623
0
LINE
8
DEFAULT_255_2_778
10
11.5099377
20
56.8081623
11
11.5099377
21
55.8080623
0
LINE
8
DEFAULT_255_2_778
10
11.5099377
20
55.8080623
11
13.0098377
21
55.8080623
0
LINE
8
DEFAULT_255_2_778
10
21.0097377
20
60.8081664
11
21.0097377
21
61.8082664
0
LINE
8
DEFAULT_255_2_778
10
21.0097377
20
61.8082664
11
19.5098377
21
61.8082664
0
LINE
8
DEFAULT_255_2_778
10
19.5098377
20
61.8082664
11
19.5098377
21
60.8081664
0
LINE
8
DEFAULT_255_2_778
10
19.5098377
20
60.8081664
11
21.0097377
21
60.8081664
0
LINE
8
DEFAULT_255_2_778
10
21.0097377
20
55.8080623
11
21.0097377
21
56.8081623
0
LINE
8
DEFAULT_255_2_778
10
21.0097377
20
56.8081623
11
19.5098377
21
56.8081623
0
LINE
8
DEFAULT_255_2_778
10
19.5098377
20
56.8081623
11
19.5098377
21
55.8080623
0
LINE
8
DEFAULT_255_2_778
10
19.5098377
20
55.8080623
11
21.0097377
21
55.8080623
0
LINE
8
DEFAULT_255_2_778
10
5.8097482
20
96.1662476
11
5.8097482
21
97.3534476
0
LINE
8
DEFAULT_255_2_778
10
5.8097482
20
97.3534476
11
5.4097482
21
97.3534476
0
LINE
8
DEFAULT_255_2_778
10
5.4097482
20
97.3534476
11
5.4097482
21
99.6894476
0
LINE
8
DEFAULT_255_2_778
10
5.4097482
20
99.6894476
11
5.8097482
21
99.6894476
0
LINE
8
DEFAULT_255_2_778
10
5.8097482
20
99.6894476
11
5.8097482
21
109.8198476
0
LINE
8
DEFAULT_255_2_778
10
5.8097482
20
109.8198476
11
14.1671482
21
109.8198476
0
LINE
8
DEFAULT_255_2_778
10
14.1671482
20
109.8198476
11
14.1671482
21
108.2397476
0
LINE
8
DEFAULT_255_2_778
10
7.5597482
20
39.7245476
11
6.5595482
21
39.7245476
0
LINE
8
DEFAULT_255_2_778
10
6.5595482
20
39.7245476
11
6.5595482
21
58.3334476
0
LINE
8
DEFAULT_255_2_778
10
6.5595482
20
58.3334476
11
5.4097482
21
58.3334476
0
LINE
8
DEFAULT_255_2_778
10
5.4097482
20
58.3334476
11
5.4097482
21
60.6893476
0
LINE
8
DEFAULT_255_2_778
10
5.4097482
20
60.6893476
11
6.5595482
21
60.6893476
0
LINE
8
DEFAULT_255_2_778
10
6.5595482
20
60.6893476
11
6.5595482
21
79.2945476
0
LINE
8
DEFAULT_255_2_778
10
6.5595482
20
79.2945476
11
7.5597482
21
79.2945476
0
LINE
8
DEFAULT_255_2_778
10
7.5597482
20
79.2945476
11
7.5597482
21
32.4466476
0
LINE
8
DEFAULT_255_2_778
10
7.5597482
20
32.4466476
11
6.9596482
21
32.4466476
0
LINE
8
DEFAULT_255_2_778
10
4.6016482
20
110.5397476
11
4.6016482
21
92.2797476
0
LINE
8
DEFAULT_255_2_778
10
4.6016482
20
92.2797476
11
4.4707482
21
92.4107476
0
LINE
8
DEFAULT_255_2_778
10
4.4707482
20
92.4107476
11
4.4707482
21
94.1062476
0
LINE
8
DEFAULT_255_2_778
10
4.4707482
20
94.1062476
11
4.5519482
21
94.1197476
0
LINE
8
DEFAULT_255_2_778
10
4.5519482
20
94.1197476
11
4.5519482
21
99.6195476
0
LINE
8
DEFAULT_255_2_778
10
4.5519482
20
99.6195476
11
4.4707482
21
99.6330476
0
LINE
8
DEFAULT_255_2_778
10
4.4707482
20
99.6330476
11
4.4707482
21
110.5394476
0
LINE
8
DEFAULT_255_2_778
10
4.6016482
20
40.2097476
11
4.6016482
21
79.7597476
0
LINE
8
DEFAULT_255_2_778
10
4.6016482
20
79.7597476
11
4.4707482
21
79.6287476
0
LINE
8
DEFAULT_255_2_778
10
4.4707482
20
79.6287476
11
4.4707482
21
62.7433476
0
LINE
8
DEFAULT_255_2_778
10
4.4707482
20
62.7433476
11
1.9881482
21
62.7433476
0
LINE
8
DEFAULT_255_2_778
10
1.9881482
20
62.7433476
11
1.9881482
21
57.2161476
0
LINE
8
DEFAULT_255_2_778
10
1.9881482
20
57.2161476
11
4.4707482
21
57.2161476
0
LINE
8
DEFAULT_255_2_778
10
4.4707482
20
57.2161476
11
4.4707482
21
40.3407476
0
LINE
8
DEFAULT_255_2_778
10
4.4707482
20
40.3407476
11
4.6016482
21
40.2097476
0
LINE
8
DEFAULT_255_2_778
10
4.6016482
20
40.2097476
11
2.0016482
21
40.2097476
0
LINE
8
DEFAULT_255_2_778
10
2.0016482
20
40.2097476
11
1.8706482
21
40.3407476
0
LINE
8
DEFAULT_255_2_778
10
1.8706482
20
40.3407476
11
4.4707482
21
40.3407476
0
LINE
8
DEFAULT_255_2_778
10
13.0098377
20
50.8082623
11
13.0098377
21
51.8083623
0
LINE
8
DEFAULT_255_2_778
10
13.0098377
20
51.8083623
11
11.5099377
21
51.8083623
0
LINE
8
DEFAULT_255_2_778
10
11.5099377
20
51.8083623
11
11.5099377
21
50.8082623
0
LINE
8
DEFAULT_255_2_778
10
11.5099377
20
50.8082623
11
13.0098377
21
50.8082623
0
LINE
8
DEFAULT_255_2_778
10
13.0098377
20
45.8081623
11
13.0098377
21
46.8082623
0
LINE
8
DEFAULT_255_2_778
10
13.0098377
20
46.8082623
11
11.5099377
21
46.8082623
0
LINE
8
DEFAULT_255_2_778
10
11.5099377
20
46.8082623
11
11.5099377
21
45.8081623
0
LINE
8
DEFAULT_255_2_778
10
11.5099377
20
45.8081623
11
13.0098377
21
45.8081623
0
LINE
8
DEFAULT_255_2_778
10
21.0097377
20
50.8082623
11
21.0097377
21
51.8083623
0
LINE
8
DEFAULT_255_2_778
10
21.0097377
20
51.8083623
11
19.5098377
21
51.8083623
0
LINE
8
DEFAULT_255_2_778
10
19.5098377
20
51.8083623
11
19.5098377
21
50.8082623
0
LINE
8
DEFAULT_255_2_778
10
19.5098377
20
50.8082623
11
21.0097377
21
50.8082623
0
LINE
8
DEFAULT_255_2_778
10
21.0097377
20
45.8081623
11
21.0097377
21
46.8082623
0
LINE
8
DEFAULT_255_2_778
10
21.0097377
20
46.8082623
11
19.5098377
21
46.8082623
0
LINE
8
DEFAULT_255_2_778
10
19.5098377
20
46.8082623
11
19.5098377
21
45.8081623
0
LINE
8
DEFAULT_255_2_778
10
19.5098377
20
45.8081623
11
21.0097377
21
45.8081623
0
LINE
8
DEFAULT_255_2_778
10
24.9597668
20
80.8842731
11
24.9597668
21
107.5100731
0
LINE
8
DEFAULT_255_2_778
10
24.9597668
20
107.5100731
11
25.4598668
21
108.0095731
0
LINE
8
DEFAULT_255_2_778
10
13.0098377
20
40.8083623
11
13.0098377
21
41.8084623
0
LINE
8
DEFAULT_255_2_778
10
13.0098377
20
41.8084623
11
11.5099377
21
41.8084623
0
LINE
8
DEFAULT_255_2_778
10
11.5099377
20
41.8084623
11
11.5099377
21
40.8083623
0
LINE
8
DEFAULT_255_2_778
10
11.5099377
20
40.8083623
11
13.0098377
21
40.8083623
0
LINE
8
DEFAULT_255_2_778
10
13.0098377
20
35.8082583
11
13.0098377
21
36.8083583
0
LINE
8
DEFAULT_255_2_778
10
13.0098377
20
36.8083583
11
11.5099377
21
36.8083583
0
LINE
8
DEFAULT_255_2_778
10
11.5099377
20
36.8083583
11
11.5099377
21
35.8082583
0
LINE
8
DEFAULT_255_2_778
10
11.5099377
20
35.8082583
11
13.0098377
21
35.8082583
0
LINE
8
DEFAULT_255_2_778
10
21.0097377
20
40.8083623
11
21.0097377
21
41.8084623
0
LINE
8
DEFAULT_255_2_778
10
21.0097377
20
41.8084623
11
19.5098377
21
41.8084623
0
LINE
8
DEFAULT_255_2_778
10
19.5098377
20
41.8084623
11
19.5098377
21
40.8083623
0
LINE
8
DEFAULT_255_2_778
10
19.5098377
20
40.8083623
11
21.0097377
21
40.8083623
0
LINE
8
DEFAULT_255_2_778
10
21.0097377
20
35.8082583
11
21.0097377
21
36.8083583
0
LINE
8
DEFAULT_255_2_778
10
21.0097377
20
36.8083583
11
19.5098377
21
36.8083583
0
LINE
8
DEFAULT_255_2_778
10
19.5098377
20
36.8083583
11
19.5098377
21
35.8082583
0
LINE
8
DEFAULT_255_2_778
10
19.5098377
20
35.8082583
11
21.0097377
21
35.8082583
0
LINE
8
DEFAULT_255_2_778
10
7.5596754
20
96.1660718
11
7.5596754
21
105.0099718
0
LINE
8
DEFAULT_255_2_778
10
7.5596754
20
105.0099718
11
10.0596754
21
107.5100718
0
LINE
8
DEFAULT_255_2_778
10
10.0596754
20
107.5100718
11
9.8525754
21
108.0095718
0
LINE
8
DEFAULT_255_2_778
10
13.0098377
20
30.8081623
11
13.0098377
21
31.8082623
0
LINE
8
DEFAULT_255_2_778
10
13.0098377
20
31.8082623
11
11.5099377
21
31.8082623
0
LINE
8
DEFAULT_255_2_778
10
11.5099377
20
31.8082623
11
11.5099377
21
30.8081623
0
LINE
8
DEFAULT_255_2_778
10
11.5099377
20
30.8081623
11
13.0098377
21
30.8081623
0
LINE
8
DEFAULT_255_2_778
10
13.0098377
20
25.8083623
11
13.0098377
21
26.8084623
0
LINE
8
DEFAULT_255_2_778
10
13.0098377
20
26.8084623
11
11.5099377
21
26.8084623
0
LINE
8
DEFAULT_255_2_778
10
11.5099377
20
26.8084623
11
11.5099377
21
25.8083623
0
LINE
8
DEFAULT_255_2_778
10
11.5099377
20
25.8083623
11
13.0098377
21
25.8083623
0
LINE
8
DEFAULT_255_2_778
10
21.0097377
20
30.8081623
11
21.0097377
21
31.8082623
0
LINE
8
DEFAULT_255_2_778
10
21.0097377
20
31.8082623
11
19.5098377
21
31.8082623
0
LINE
8
DEFAULT_255_2_778
10
19.5098377
20
31.8082623
11
19.5098377
21
30.8081623
0
LINE
8
DEFAULT_255_2_778
10
19.5098377
20
30.8081623
11
21.0097377
21
30.8081623
0
LINE
8
DEFAULT_255_2_778
10
21.0097377
20
25.8083623
11
21.0097377
21
26.8084623
0
LINE
8
DEFAULT_255_2_778
10
21.0097377
20
26.8084623
11
19.5098377
21
26.8084623
0
LINE
8
DEFAULT_255_2_778
10
19.5098377
20
26.8084623
11
19.5098377
21
25.8083623
0
LINE
8
DEFAULT_255_2_778
10
19.5098377
20
25.8083623
11
21.0097377
21
25.8083623
0
LINE
8
DEFAULT_255_2_778
10
2.0018125
20
40.2098354
11
2.0018125
21
27.6897354
0
LINE
8
DEFAULT_255_2_778
10
2.0018125
20
27.6897354
11
4.6019125
21
27.6897354
0
LINE
8
DEFAULT_255_2_778
10
4.6019125
20
27.6897354
11
4.6019125
21
9.3197354
0
LINE
8
DEFAULT_255_2_778
10
4.6019125
20
9.3197354
11
5.8100125
21
9.3197354
0
LINE
8
DEFAULT_255_2_778
10
1.8706125
20
40.3408354
11
1.8706125
21
27.5588354
0
LINE
8
DEFAULT_255_2_778
10
1.8706125
20
27.5588354
11
4.4707125
21
27.5588354
0
LINE
8
DEFAULT_255_2_778
10
4.4707125
20
27.5588354
11
4.4707125
21
25.8633354
0
LINE
8
DEFAULT_255_2_778
10
13.0098377
20
20.8082583
11
13.0098377
21
21.8083583
0
LINE
8
DEFAULT_255_2_778
10
13.0098377
20
21.8083583
11
11.5099377
21
21.8083583
0
LINE
8
DEFAULT_255_2_778
10
11.5099377
20
21.8083583
11
11.5099377
21
20.8082583
0
LINE
8
DEFAULT_255_2_778
10
11.5099377
20
20.8082583
11
13.0098377
21
20.8082583
0
LINE
8
DEFAULT_255_2_778
10
13.0098377
20
15.8081583
11
13.0098377
21
16.8082583
0
LINE
8
DEFAULT_255_2_778
10
13.0098377
20
16.8082583
11
11.5099377
21
16.8082583
0
LINE
8
DEFAULT_255_2_778
10
11.5099377
20
16.8082583
11
11.5099377
21
15.8081583
0
LINE
8
DEFAULT_255_2_778
10
11.5099377
20
15.8081583
11
13.0098377
21
15.8081583
0
LINE
8
DEFAULT_255_2_778
10
21.0097377
20
20.8082583
11
21.0097377
21
21.8083583
0
LINE
8
DEFAULT_255_2_778
10
21.0097377
20
21.8083583
11
19.5098377
21
21.8083583
0
LINE
8
DEFAULT_255_2_778
10
19.5098377
20
21.8083583
11
19.5098377
21
20.8082583
0
LINE
8
DEFAULT_255_2_778
10
19.5098377
20
20.8082583
11
21.0097377
21
20.8082583
0
LINE
8
DEFAULT_255_2_778
10
21.0097377
20
15.8081583
11
21.0097377
21
16.8082583
0
LINE
8
DEFAULT_255_2_778
10
21.0097377
20
16.8082583
11
19.5098377
21
16.8082583
0
LINE
8
DEFAULT_255_2_778
10
19.5098377
20
16.8082583
11
19.5098377
21
15.8081583
0
LINE
8
DEFAULT_255_2_778
10
19.5098377
20
15.8081583
11
21.0097377
21
15.8081583
0
LINE
8
DEFAULT_255_2_778
10
5.8097422
20
22.8660999
11
5.8097422
21
21.6693999
0
LINE
8
DEFAULT_255_2_778
10
5.8097422
20
21.6693999
11
5.4096422
21
21.6693999
0
LINE
8
DEFAULT_255_2_778
10
5.4096422
20
21.6693999
11
5.4096422
21
19.3333999
0
LINE
8
DEFAULT_255_2_778
10
5.4096422
20
19.3333999
11
5.8097422
21
19.3333999
0
LINE
8
DEFAULT_255_2_778
10
5.8097422
20
19.3333999
11
5.8097422
21
9.1995999
0
LINE
8
DEFAULT_255_2_778
10
5.8097422
20
9.1995999
11
11.4316422
21
9.1995999
0
LINE
8
DEFAULT_255_2_778
10
5.8099422
20
16.7073999
11
5.2599422
21
16.7073999
0
LINE
8
DEFAULT_255_2_778
10
5.2599422
20
16.7073999
11
5.2599422
21
9.3196999
0
LINE
8
DEFAULT_255_2_778
10
25.4598422
20
35.0395999
11
24.9597422
21
34.5400999
0
LINE
8
DEFAULT_255_2_778
10
24.9597422
20
34.5400999
11
24.9597422
21
14.7600999
0
LINE
8
DEFAULT_255_2_778
10
24.9597422
20
14.7600999
11
27.2097422
21
14.7600999
0
LINE
8
DEFAULT_255_2_778
10
27.2097422
20
14.7600999
11
27.2097422
21
12.5100999
0
LINE
8
DEFAULT_255_2_778
10
12.4055422
20
11.5098999
11
10.0597422
21
11.5098999
0
LINE
8
DEFAULT_255_2_778
10
10.0597422
20
11.5098999
11
7.5596422
21
14.0099999
0
LINE
8
DEFAULT_255_2_778
10
7.5596422
20
14.0099999
11
7.5596422
21
26.2675999
0
LINE
8
DEFAULT_255_2_778
10
7.5596422
20
26.2675999
11
4.6016422
21
26.2675999
0
LINE
8
DEFAULT_255_2_778
10
12.065587
20
11.0095946
11
9.852587
21
11.0095946
0
LINE
8
DEFAULT_255_2_778
10
9.852587
20
11.0095946
11
7.059587
21
13.8025946
0
LINE
8
DEFAULT_255_2_778
10
7.059587
20
13.8025946
11
7.059587
21
17.4095946
0
LINE
8
DEFAULT_255_2_778
10
7.059587
20
17.4095946
11
5.809687
21
17.4095946
0
LINE
8
DEFAULT_255_2_778
10
21.087887
20
9.1995946
11
28.309887
21
9.1995946
0
LINE
8
DEFAULT_255_2_778
10
28.309887
20
9.1995946
11
28.309887
21
17.1994946
0
LINE
8
DEFAULT_255_2_778
10
28.309887
20
17.1994946
11
27.339987
21
17.1994946
0
LINE
8
DEFAULT_255_2_778
10
27.339987
20
17.1994946
11
27.339987
21
24.5093946
0
LINE
8
DEFAULT_255_2_778
10
27.339987
20
24.5093946
11
26.739887
21
24.5093946
0
LINE
8
DEFAULT_255_2_778
10
26.739887
20
24.5093946
11
26.739887
21
29.5094946
0
LINE
8
DEFAULT_255_2_778
10
26.739887
20
29.5094946
11
27.339987
21
29.5094946
0
LINE
8
DEFAULT_255_2_778
10
27.339987
20
29.5094946
11
27.339987
21
33.6994946
0
LINE
8
DEFAULT_255_2_778
10
27.339987
20
33.6994946
11
27.689987
21
33.6994946
0
LINE
8
DEFAULT_255_2_778
10
27.689987
20
33.6994946
11
27.689987
21
35.0395946
0
LINE
8
DEFAULT_255_2_778
10
27.689987
20
35.0395946
11
25.459787
21
35.0395946
0
LINE
8
DEFAULT_255_2_778
10
25.459787
20
35.0395946
11
25.459787
21
15.2595946
0
LINE
8
DEFAULT_255_2_778
10
25.459787
20
15.2595946
11
27.709787
21
15.2595946
0
LINE
8
DEFAULT_255_2_778
10
27.709787
20
15.2595946
11
27.709787
21
12.0096946
0
LINE
8
DEFAULT_255_2_778
10
27.709787
20
12.0096946
11
25.459787
21
12.0096946
0
LINE
8
DEFAULT_255_2_778
10
25.459787
20
12.0096946
11
25.459787
21
11.0095946
0
LINE
8
DEFAULT_255_2_778
10
25.459787
20
11.0095946
11
20.453887
21
11.0095946
0
LINE
8
DEFAULT_255_2_778
10
4.470687
20
20.3363946
11
4.470687
21
9.1889946
0
LINE
8
DEFAULT_255_2_778
10
4.470687
20
9.1889946
11
5.809687
21
9.1889946
0
LINE
8
DEFAULT_255_2_778
10
28.830887
20
128.7634946
11
28.830887
21
129.0772946
0
LINE
8
DEFAULT_255_2_778
10
28.830887
20
129.0772946
11
32.225787
21
129.0772946
0
LINE
8
DEFAULT_255_2_778
10
32.225787
20
129.0772946
11
32.225787
21
128.7634946
0
LINE
8
DEFAULT_255_2_778
10
32.225787
20
128.7634946
11
28.830887
21
128.7634946
0
LINE
8
DEFAULT_255_2_778
10
28.730887
20
130.3398946
11
28.730887
21
127.4204946
0
LINE
8
DEFAULT_255_2_778
10
28.730887
20
127.4204946
11
32.325787
21
127.4204946
0
LINE
8
DEFAULT_255_2_778
10
32.325787
20
127.4204946
11
32.325787
21
130.3398946
0
LINE
8
DEFAULT_255_2_778
10
28.830887
20
128.7602946
11
28.830887
21
127.6204946
0
LINE
8
DEFAULT_255_2_778
10
28.830887
20
127.6204946
11
32.225787
21
127.6204946
0
LINE
8
DEFAULT_255_2_778
10
32.225787
20
127.6204946
11
32.225787
21
128.7602946
0
LINE
8
DEFAULT_255_2_778
10
32.225787
20
129.0804946
11
32.225787
21
130.1495946
0
LINE
8
DEFAULT_255_2_778
10
32.225787
20
130.1585946
11
32.225787
21
130.2202946
0
LINE
8
DEFAULT_255_2_778
10
32.225787
20
130.2202946
11
28.830887
21
130.2202946
0
LINE
8
DEFAULT_255_2_778
10
28.830887
20
130.2202946
11
28.830887
21
129.0804946
0
LINE
8
DEFAULT_255_2_778
10
32.225787
20
128.7001946
11
28.830887
21
128.7001946
0
LINE
8
DEFAULT_255_2_778
10
28.830887
20
128.8586946
11
32.225787
21
128.8586946
0
LINE
8
DEFAULT_255_2_778
10
28.830887
20
128.9819946
11
32.225787
21
128.9819946
0
LINE
8
DEFAULT_255_2_778
10
32.225787
20
129.1404946
11
28.830887
21
129.1404946
0
LINE
8
DEFAULT_255_2_778
10
32.290287
20
130.3398946
11
32.242687
21
130.2146946
0
LINE
8
DEFAULT_255_2_778
10
32.242687
20
130.2146946
11
32.233687
21
130.1808946
0
LINE
8
DEFAULT_255_2_778
10
32.233687
20
130.1808946
11
32.227887
21
130.1487946
0
LINE
8
DEFAULT_255_2_778
10
28.766587
20
130.3400946
11
28.814187
21
130.2149946
0
LINE
8
DEFAULT_255_2_778
10
28.814187
20
130.2149946
11
28.823187
21
130.1810946
0
LINE
8
DEFAULT_255_2_778
10
28.823187
20
130.1810946
11
28.828987
21
130.1490946
0
LINE
8
DEFAULT_255_2_778
10
28.730887
20
127.4209946
11
28.776087
21
127.5246946
0
LINE
8
DEFAULT_255_2_778
10
28.776087
20
127.5246946
11
28.813687
21
127.6265946
0
LINE
8
DEFAULT_255_2_778
10
28.813687
20
127.6265946
11
28.822687
21
127.6606946
0
LINE
8
DEFAULT_255_2_778
10
28.822687
20
127.6606946
11
28.828487
21
127.6926946
0
LINE
8
DEFAULT_255_2_778
10
32.325487
20
127.4209946
11
32.280287
21
127.5246946
0
LINE
8
DEFAULT_255_2_778
10
32.280287
20
127.5246946
11
32.242687
21
127.6265946
0
LINE
8
DEFAULT_255_2_778
10
32.242687
20
127.6265946
11
32.233687
21
127.6606946
0
LINE
8
DEFAULT_255_2_778
10
32.233687
20
127.6606946
11
32.227887
21
127.6926946
0
LINE
8
DEFAULT_255_2_778
10
28.620287
20
130.3403946
11
32.440287
21
130.3403946
0
LINE
8
DEFAULT_255_2_778
10
32.440287
20
130.3403946
11
32.440287
21
122.9402946
0
LINE
8
DEFAULT_255_2_778
10
32.440287
20
122.9402946
11
28.620287
21
122.9402946
0
LINE
8
DEFAULT_255_2_778
10
28.620287
20
122.9402946
11
28.620287
21
130.3403946
0
LINE
8
DEFAULT_255_2_778
10
21.8098336
20
101.1023087
11
22.2099336
21
101.1023087
0
LINE
8
DEFAULT_255_2_778
10
22.2099336
20
101.1023087
11
22.5099336
21
100.8031087
0
LINE
8
DEFAULT_255_2_778
10
22.5099336
20
100.8031087
11
22.5099336
21
101.8032087
0
LINE
8
DEFAULT_255_2_778
10
22.5099336
20
101.8032087
11
22.2099336
21
101.5024087
0
LINE
8
DEFAULT_255_2_778
10
22.2099336
20
101.5024087
11
22.2099336
21
101.1023087
0
LINE
8
DEFAULT_255_2_778
10
22.2099336
20
101.5024087
11
21.8098336
21
101.5024087
0
LINE
8
DEFAULT_255_2_778
10
21.8098336
20
101.5024087
11
21.5098336
21
101.8032087
0
LINE
8
DEFAULT_255_2_778
10
21.5098336
20
101.8032087
11
21.5098336
21
100.8031087
0
LINE
8
DEFAULT_255_2_778
10
21.5098336
20
100.8031087
11
21.8098336
21
101.1023087
0
LINE
8
DEFAULT_255_2_778
10
21.8098336
20
101.1023087
11
21.8098336
21
101.5024087
0
LINE
8
DEFAULT_255_2_778
10
21.5098336
20
100.8031087
11
22.5099336
21
100.8031087
0
LINE
8
DEFAULT_255_2_778
10
22.5099336
20
101.8085087
11
21.5098336
21
101.8085087
0
LINE
8
DEFAULT_255_2_778
10
21.8098336
20
96.1022087
11
22.2099336
21
96.1022087
0
LINE
8
DEFAULT_255_2_778
10
22.2099336
20
96.1022087
11
22.5099336
21
95.8030087
0
LINE
8
DEFAULT_255_2_778
10
22.5099336
20
95.8030087
11
22.5099336
21
96.8031087
0
LINE
8
DEFAULT_255_2_778
10
22.5099336
20
96.8031087
11
22.2099336
21
96.5023087
0
LINE
8
DEFAULT_255_2_778
10
22.2099336
20
96.5023087
11
22.2099336
21
96.1022087
0
LINE
8
DEFAULT_255_2_778
10
22.2099336
20
96.5023087
11
21.8098336
21
96.5023087
0
LINE
8
DEFAULT_255_2_778
10
21.8098336
20
96.5023087
11
21.5098336
21
96.8031087
0
LINE
8
DEFAULT_255_2_778
10
21.5098336
20
96.8031087
11
21.5098336
21
95.8030087
0
LINE
8
DEFAULT_255_2_778
10
21.5098336
20
95.8030087
11
21.8098336
21
96.1022087
0
LINE
8
DEFAULT_255_2_778
10
21.8098336
20
96.1022087
11
21.8098336
21
96.5023087
0
LINE
8
DEFAULT_255_2_778
10
21.5098336
20
95.8030087
11
22.5099336
21
95.8030087
0
LINE
8
DEFAULT_255_2_778
10
22.5099336
20
96.8084087
11
21.5098336
21
96.8084087
0
LINE
8
DEFAULT_255_2_778
10
21.8098336
20
91.1024107
11
22.2099336
21
91.1024107
0
LINE
8
DEFAULT_255_2_778
10
22.2099336
20
91.1024107
11
22.5099336
21
90.8032107
0
LINE
8
DEFAULT_255_2_778
10
22.5099336
20
90.8032107
11
22.5099336
21
91.8033107
0
LINE
8
DEFAULT_255_2_778
10
22.5099336
20
91.8033107
11
22.2099336
21
91.5025107
0
LINE
8
DEFAULT_255_2_778
10
22.2099336
20
91.5025107
11
22.2099336
21
91.1024107
0
LINE
8
DEFAULT_255_2_778
10
22.2099336
20
91.5025107
11
21.8098336
21
91.5025107
0
LINE
8
DEFAULT_255_2_778
10
21.8098336
20
91.5025107
11
21.5098336
21
91.8033107
0
LINE
8
DEFAULT_255_2_778
10
21.5098336
20
91.8033107
11
21.5098336
21
90.8032107
0
LINE
8
DEFAULT_255_2_778
10
21.5098336
20
90.8032107
11
21.8098336
21
91.1024107
0
LINE
8
DEFAULT_255_2_778
10
21.8098336
20
91.1024107
11
21.8098336
21
91.5025107
0
LINE
8
DEFAULT_255_2_778
10
21.5098336
20
90.8032107
11
22.5099336
21
90.8032107
0
LINE
8
DEFAULT_255_2_778
10
22.5099336
20
91.8086107
11
21.5098336
21
91.8086107
0
LINE
8
DEFAULT_255_2_778
10
21.8098336
20
86.1023067
11
22.2099336
21
86.1023067
0
LINE
8
DEFAULT_255_2_778
10
22.2099336
20
86.1023067
11
22.5099336
21
85.8031067
0
LINE
8
DEFAULT_255_2_778
10
22.5099336
20
85.8031067
11
22.5099336
21
86.8032067
0
LINE
8
DEFAULT_255_2_778
10
22.5099336
20
86.8032067
11
22.2099336
21
86.5024067
0
LINE
8
DEFAULT_255_2_778
10
22.2099336
20
86.5024067
11
22.2099336
21
86.1023067
0
LINE
8
DEFAULT_255_2_778
10
22.2099336
20
86.5024067
11
21.8098336
21
86.5024067
0
LINE
8
DEFAULT_255_2_778
10
21.8098336
20
86.5024067
11
21.5098336
21
86.8032067
0
LINE
8
DEFAULT_255_2_778
10
21.5098336
20
86.8032067
11
21.5098336
21
85.8031067
0
LINE
8
DEFAULT_255_2_778
10
21.5098336
20
85.8031067
11
21.8098336
21
86.1023067
0
LINE
8
DEFAULT_255_2_778
10
21.8098336
20
86.1023067
11
21.8098336
21
86.5024067
0
LINE
8
DEFAULT_255_2_778
10
21.5098336
20
85.8031067
11
22.5099336
21
85.8031067
0
LINE
8
DEFAULT_255_2_778
10
22.5099336
20
86.8085067
11
21.5098336
21
86.8085067
0
LINE
8
DEFAULT_255_2_778
10
21.8098336
20
81.1022107
11
22.2099336
21
81.1022107
0
LINE
8
DEFAULT_255_2_778
10
22.2099336
20
81.1022107
11
22.5099336
21
80.8030107
0
LINE
8
DEFAULT_255_2_778
10
22.5099336
20
80.8030107
11
22.5099336
21
81.8031107
0
LINE
8
DEFAULT_255_2_778
10
22.5099336
20
81.8031107
11
22.2099336
21
81.5023107
0
LINE
8
DEFAULT_255_2_778
10
22.2099336
20
81.5023107
11
22.2099336
21
81.1022107
0
LINE
8
DEFAULT_255_2_778
10
22.2099336
20
81.5023107
11
21.8098336
21
81.5023107
0
LINE
8
DEFAULT_255_2_778
10
21.8098336
20
81.5023107
11
21.5098336
21
81.8031107
0
LINE
8
DEFAULT_255_2_778
10
21.5098336
20
81.8031107
11
21.5098336
21
80.8030107
0
LINE
8
DEFAULT_255_2_778
10
21.5098336
20
80.8030107
11
21.8098336
21
81.1022107
0
LINE
8
DEFAULT_255_2_778
10
21.8098336
20
81.1022107
11
21.8098336
21
81.5023107
0
LINE
8
DEFAULT_255_2_778
10
21.5098336
20
80.8030107
11
22.5099336
21
80.8030107
0
LINE
8
DEFAULT_255_2_778
10
22.5099336
20
81.8084107
11
21.5098336
21
81.8084107
0
LINE
8
DEFAULT_255_2_778
10
21.8098336
20
76.1024107
11
22.2099336
21
76.1024107
0
LINE
8
DEFAULT_255_2_778
10
22.2099336
20
76.1024107
11
22.5099336
21
75.8032107
0
LINE
8
DEFAULT_255_2_778
10
22.5099336
20
75.8032107
11
22.5099336
21
76.8033107
0
LINE
8
DEFAULT_255_2_778
10
22.5099336
20
76.8033107
11
22.2099336
21
76.5025107
0
LINE
8
DEFAULT_255_2_778
10
22.2099336
20
76.5025107
11
22.2099336
21
76.1024107
0
LINE
8
DEFAULT_255_2_778
10
22.2099336
20
76.5025107
11
21.8098336
21
76.5025107
0
LINE
8
DEFAULT_255_2_778
10
21.8098336
20
76.5025107
11
21.5098336
21
76.8033107
0
LINE
8
DEFAULT_255_2_778
10
21.5098336
20
76.8033107
11
21.5098336
21
75.8032107
0
LINE
8
DEFAULT_255_2_778
10
21.5098336
20
75.8032107
11
21.8098336
21
76.1024107
0
LINE
8
DEFAULT_255_2_778
10
21.8098336
20
76.1024107
11
21.8098336
21
76.5025107
0
LINE
8
DEFAULT_255_2_778
10
21.5098336
20
75.8032107
11
22.5099336
21
75.8032107
0
LINE
8
DEFAULT_255_2_778
10
22.5099336
20
76.8086107
11
21.5098336
21
76.8086107
0
LINE
8
DEFAULT_255_2_778
10
21.8098336
20
71.1023107
11
22.2099336
21
71.1023107
0
LINE
8
DEFAULT_255_2_778
10
22.2099336
20
71.1023107
11
22.5099336
21
70.8031107
0
LINE
8
DEFAULT_255_2_778
10
22.5099336
20
70.8031107
11
22.5099336
21
71.8032107
0
LINE
8
DEFAULT_255_2_778
10
22.5099336
20
71.8032107
11
22.2099336
21
71.5024107
0
LINE
8
DEFAULT_255_2_778
10
22.2099336
20
71.5024107
11
22.2099336
21
71.1023107
0
LINE
8
DEFAULT_255_2_778
10
22.2099336
20
71.5024107
11
21.8098336
21
71.5024107
0
LINE
8
DEFAULT_255_2_778
10
21.8098336
20
71.5024107
11
21.5098336
21
71.8032107
0
LINE
8
DEFAULT_255_2_778
10
21.5098336
20
71.8032107
11
21.5098336
21
70.8031107
0
LINE
8
DEFAULT_255_2_778
10
21.5098336
20
70.8031107
11
21.8098336
21
71.1023107
0
LINE
8
DEFAULT_255_2_778
10
21.8098336
20
71.1023107
11
21.8098336
21
71.5024107
0
LINE
8
DEFAULT_255_2_778
10
21.5098336
20
70.8031107
11
22.5099336
21
70.8031107
0
LINE
8
DEFAULT_255_2_778
10
22.5099336
20
71.8085107
11
21.5098336
21
71.8085107
0
LINE
8
DEFAULT_255_2_778
10
21.8098336
20
66.1025067
11
22.2099336
21
66.1025067
0
LINE
8
DEFAULT_255_2_778
10
22.2099336
20
66.1025067
11
22.5099336
21
65.8033067
0
LINE
8
DEFAULT_255_2_778
10
22.5099336
20
65.8033067
11
22.5099336
21
66.8034067
0
LINE
8
DEFAULT_255_2_778
10
22.5099336
20
66.8034067
11
22.2099336
21
66.5026067
0
LINE
8
DEFAULT_255_2_778
10
22.2099336
20
66.5026067
11
22.2099336
21
66.1025067
0
LINE
8
DEFAULT_255_2_778
10
22.2099336
20
66.5026067
11
21.8098336
21
66.5026067
0
LINE
8
DEFAULT_255_2_778
10
21.8098336
20
66.5026067
11
21.5098336
21
66.8034067
0
LINE
8
DEFAULT_255_2_778
10
21.5098336
20
66.8034067
11
21.5098336
21
65.8033067
0
LINE
8
DEFAULT_255_2_778
10
21.5098336
20
65.8033067
11
21.8098336
21
66.1025067
0
LINE
8
DEFAULT_255_2_778
10
21.8098336
20
66.1025067
11
21.8098336
21
66.5026067
0
LINE
8
DEFAULT_255_2_778
10
21.5098336
20
65.8033067
11
22.5099336
21
65.8033067
0
LINE
8
DEFAULT_255_2_778
10
22.5099336
20
66.8087067
11
21.5098336
21
66.8087067
0
LINE
8
DEFAULT_255_2_778
10
21.8098336
20
61.1024067
11
22.2099336
21
61.1024067
0
LINE
8
DEFAULT_255_2_778
10
22.2099336
20
61.1024067
11
22.5099336
21
60.8032067
0
LINE
8
DEFAULT_255_2_778
10
22.5099336
20
60.8032067
11
22.5099336
21
61.8033067
0
LINE
8
DEFAULT_255_2_778
10
22.5099336
20
61.8033067
11
22.2099336
21
61.5025067
0
LINE
8
DEFAULT_255_2_778
10
22.2099336
20
61.5025067
11
22.2099336
21
61.1024067
0
LINE
8
DEFAULT_255_2_778
10
22.2099336
20
61.5025067
11
21.8098336
21
61.5025067
0
LINE
8
DEFAULT_255_2_778
10
21.8098336
20
61.5025067
11
21.5098336
21
61.8033067
0
LINE
8
DEFAULT_255_2_778
10
21.5098336
20
61.8033067
11
21.5098336
21
60.8032067
0
LINE
8
DEFAULT_255_2_778
10
21.5098336
20
60.8032067
11
21.8098336
21
61.1024067
0
LINE
8
DEFAULT_255_2_778
10
21.8098336
20
61.1024067
11
21.8098336
21
61.5025067
0
LINE
8
DEFAULT_255_2_778
10
21.5098336
20
60.8032067
11
22.5099336
21
60.8032067
0
LINE
8
DEFAULT_255_2_778
10
22.5099336
20
61.8086067
11
21.5098336
21
61.8086067
0
LINE
8
DEFAULT_255_2_778
10
21.8098336
20
56.1023107
11
22.2099336
21
56.1023107
0
LINE
8
DEFAULT_255_2_778
10
22.2099336
20
56.1023107
11
22.5099336
21
55.8031107
0
LINE
8
DEFAULT_255_2_778
10
22.5099336
20
55.8031107
11
22.5099336
21
56.8032107
0
LINE
8
DEFAULT_255_2_778
10
22.5099336
20
56.8032107
11
22.2099336
21
56.5024107
0
LINE
8
DEFAULT_255_2_778
10
22.2099336
20
56.5024107
11
22.2099336
21
56.1023107
0
LINE
8
DEFAULT_255_2_778
10
22.2099336
20
56.5024107
11
21.8098336
21
56.5024107
0
LINE
8
DEFAULT_255_2_778
10
21.8098336
20
56.5024107
11
21.5098336
21
56.8032107
0
LINE
8
DEFAULT_255_2_778
10
21.5098336
20
56.8032107
11
21.5098336
21
55.8031107
0
LINE
8
DEFAULT_255_2_778
10
21.5098336
20
55.8031107
11
21.8098336
21
56.1023107
0
LINE
8
DEFAULT_255_2_778
10
21.8098336
20
56.1023107
11
21.8098336
21
56.5024107
0
LINE
8
DEFAULT_255_2_778
10
21.5098336
20
55.8031107
11
22.5099336
21
55.8031107
0
LINE
8
DEFAULT_255_2_778
10
22.5099336
20
56.8085107
11
21.5098336
21
56.8085107
0
LINE
8
DEFAULT_255_2_778
10
21.8098336
20
51.1024067
11
22.2099336
21
51.1024067
0
LINE
8
DEFAULT_255_2_778
10
22.2099336
20
51.1024067
11
22.5099336
21
50.8032067
0
LINE
8
DEFAULT_255_2_778
10
22.5099336
20
50.8032067
11
22.5099336
21
51.8033067
0
LINE
8
DEFAULT_255_2_778
10
22.5099336
20
51.8033067
11
22.2099336
21
51.5025067
0
LINE
8
DEFAULT_255_2_778
10
22.2099336
20
51.5025067
11
22.2099336
21
51.1024067
0
LINE
8
DEFAULT_255_2_778
10
22.2099336
20
51.5025067
11
21.8098336
21
51.5025067
0
LINE
8
DEFAULT_255_2_778
10
21.8098336
20
51.5025067
11
21.5098336
21
51.8033067
0
LINE
8
DEFAULT_255_2_778
10
21.5098336
20
51.8033067
11
21.5098336
21
50.8032067
0
LINE
8
DEFAULT_255_2_778
10
21.5098336
20
50.8032067
11
21.8098336
21
51.1024067
0
LINE
8
DEFAULT_255_2_778
10
21.8098336
20
51.1024067
11
21.8098336
21
51.5025067
0
LINE
8
DEFAULT_255_2_778
10
21.5098336
20
50.8032067
11
22.5099336
21
50.8032067
0
LINE
8
DEFAULT_255_2_778
10
22.5099336
20
51.8086067
11
21.5098336
21
51.8086067
0
LINE
8
DEFAULT_255_2_778
10
21.8098336
20
46.1023067
11
22.2099336
21
46.1023067
0
LINE
8
DEFAULT_255_2_778
10
22.2099336
20
46.1023067
11
22.5099336
21
45.8031067
0
LINE
8
DEFAULT_255_2_778
10
22.5099336
20
45.8031067
11
22.5099336
21
46.8032067
0
LINE
8
DEFAULT_255_2_778
10
22.5099336
20
46.8032067
11
22.2099336
21
46.5024067
0
LINE
8
DEFAULT_255_2_778
10
22.2099336
20
46.5024067
11
22.2099336
21
46.1023067
0
LINE
8
DEFAULT_255_2_778
10
22.2099336
20
46.5024067
11
21.8098336
21
46.5024067
0
LINE
8
DEFAULT_255_2_778
10
21.8098336
20
46.5024067
11
21.5098336
21
46.8032067
0
LINE
8
DEFAULT_255_2_778
10
21.5098336
20
46.8032067
11
21.5098336
21
45.8031067
0
LINE
8
DEFAULT_255_2_778
10
21.5098336
20
45.8031067
11
21.8098336
21
46.1023067
0
LINE
8
DEFAULT_255_2_778
10
21.8098336
20
46.1023067
11
21.8098336
21
46.5024067
0
LINE
8
DEFAULT_255_2_778
10
21.5098336
20
45.8031067
11
22.5099336
21
45.8031067
0
LINE
8
DEFAULT_255_2_778
10
22.5099336
20
46.8085067
11
21.5098336
21
46.8085067
0
LINE
8
DEFAULT_255_2_778
10
21.8098336
20
41.1022067
11
22.2099336
21
41.1022067
0
LINE
8
DEFAULT_255_2_778
10
22.2099336
20
41.1022067
11
22.5099336
21
40.8030067
0
LINE
8
DEFAULT_255_2_778
10
22.5099336
20
40.8030067
11
22.5099336
21
41.8031067
0
LINE
8
DEFAULT_255_2_778
10
22.5099336
20
41.8031067
11
22.2099336
21
41.5023067
0
LINE
8
DEFAULT_255_2_778
10
22.2099336
20
41.5023067
11
22.2099336
21
41.1022067
0
LINE
8
DEFAULT_255_2_778
10
22.2099336
20
41.5023067
11
21.8098336
21
41.5023067
0
LINE
8
DEFAULT_255_2_778
10
21.8098336
20
41.5023067
11
21.5098336
21
41.8031067
0
LINE
8
DEFAULT_255_2_778
10
21.5098336
20
41.8031067
11
21.5098336
21
40.8030067
0
LINE
8
DEFAULT_255_2_778
10
21.5098336
20
40.8030067
11
21.8098336
21
41.1022067
0
LINE
8
DEFAULT_255_2_778
10
21.8098336
20
41.1022067
11
21.8098336
21
41.5023067
0
LINE
8
DEFAULT_255_2_778
10
21.5098336
20
40.8030067
11
22.5099336
21
40.8030067
0
LINE
8
DEFAULT_255_2_778
10
22.5099336
20
41.8084067
11
21.5098336
21
41.8084067
0
LINE
8
DEFAULT_255_2_778
10
21.8098336
20
36.1024107
11
22.2099336
21
36.1024107
0
LINE
8
DEFAULT_255_2_778
10
22.2099336
20
36.1024107
11
22.5099336
21
35.8032107
0
LINE
8
DEFAULT_255_2_778
10
22.5099336
20
35.8032107
11
22.5099336
21
36.8033107
0
LINE
8
DEFAULT_255_2_778
10
22.5099336
20
36.8033107
11
22.2099336
21
36.5025107
0
LINE
8
DEFAULT_255_2_778
10
22.2099336
20
36.5025107
11
22.2099336
21
36.1024107
0
LINE
8
DEFAULT_255_2_778
10
22.2099336
20
36.5025107
11
21.8098336
21
36.5025107
0
LINE
8
DEFAULT_255_2_778
10
21.8098336
20
36.5025107
11
21.5098336
21
36.8033107
0
LINE
8
DEFAULT_255_2_778
10
21.5098336
20
36.8033107
11
21.5098336
21
35.8032107
0
LINE
8
DEFAULT_255_2_778
10
21.5098336
20
35.8032107
11
21.8098336
21
36.1024107
0
LINE
8
DEFAULT_255_2_778
10
21.8098336
20
36.1024107
11
21.8098336
21
36.5025107
0
LINE
8
DEFAULT_255_2_778
10
21.5098336
20
35.8032107
11
22.5099336
21
35.8032107
0
LINE
8
DEFAULT_255_2_778
10
22.5099336
20
36.8086107
11
21.5098336
21
36.8086107
0
LINE
8
DEFAULT_255_2_778
10
21.8098336
20
31.1023067
11
22.2099336
21
31.1023067
0
LINE
8
DEFAULT_255_2_778
10
22.2099336
20
31.1023067
11
22.5099336
21
30.8031067
0
LINE
8
DEFAULT_255_2_778
10
22.5099336
20
30.8031067
11
22.5099336
21
31.8032067
0
LINE
8
DEFAULT_255_2_778
10
22.5099336
20
31.8032067
11
22.2099336
21
31.5024067
0
LINE
8
DEFAULT_255_2_778
10
22.2099336
20
31.5024067
11
22.2099336
21
31.1023067
0
LINE
8
DEFAULT_255_2_778
10
22.2099336
20
31.5024067
11
21.8098336
21
31.5024067
0
LINE
8
DEFAULT_255_2_778
10
21.8098336
20
31.5024067
11
21.5098336
21
31.8032067
0
LINE
8
DEFAULT_255_2_778
10
21.5098336
20
31.8032067
11
21.5098336
21
30.8031067
0
LINE
8
DEFAULT_255_2_778
10
21.5098336
20
30.8031067
11
21.8098336
21
31.1023067
0
LINE
8
DEFAULT_255_2_778
10
21.8098336
20
31.1023067
11
21.8098336
21
31.5024067
0
LINE
8
DEFAULT_255_2_778
10
21.5098336
20
30.8031067
11
22.5099336
21
30.8031067
0
LINE
8
DEFAULT_255_2_778
10
22.5099336
20
31.8085067
11
21.5098336
21
31.8085067
0
LINE
8
DEFAULT_255_2_778
10
21.8098336
20
26.1025107
11
22.2099336
21
26.1025107
0
LINE
8
DEFAULT_255_2_778
10
22.2099336
20
26.1025107
11
22.5099336
21
25.8033107
0
LINE
8
DEFAULT_255_2_778
10
22.5099336
20
25.8033107
11
22.5099336
21
26.8034107
0
LINE
8
DEFAULT_255_2_778
10
22.5099336
20
26.8034107
11
22.2099336
21
26.5026107
0
LINE
8
DEFAULT_255_2_778
10
22.2099336
20
26.5026107
11
22.2099336
21
26.1025107
0
LINE
8
DEFAULT_255_2_778
10
22.2099336
20
26.5026107
11
21.8098336
21
26.5026107
0
LINE
8
DEFAULT_255_2_778
10
21.8098336
20
26.5026107
11
21.5098336
21
26.8034107
0
LINE
8
DEFAULT_255_2_778
10
21.5098336
20
26.8034107
11
21.5098336
21
25.8033107
0
LINE
8
DEFAULT_255_2_778
10
21.5098336
20
25.8033107
11
21.8098336
21
26.1025107
0
LINE
8
DEFAULT_255_2_778
10
21.8098336
20
26.1025107
11
21.8098336
21
26.5026107
0
LINE
8
DEFAULT_255_2_778
10
21.5098336
20
25.8033107
11
22.5099336
21
25.8033107
0
LINE
8
DEFAULT_255_2_778
10
22.5099336
20
26.8087107
11
21.5098336
21
26.8087107
0
LINE
8
DEFAULT_255_2_778
10
21.8098336
20
21.1024148
11
22.2099336
21
21.1024148
0
LINE
8
DEFAULT_255_2_778
10
22.2099336
20
21.1024148
11
22.5099336
21
20.8032148
0
LINE
8
DEFAULT_255_2_778
10
22.5099336
20
20.8032148
11
22.5099336
21
21.8033148
0
LINE
8
DEFAULT_255_2_778
10
22.5099336
20
21.8033148
11
22.2099336
21
21.5025148
0
LINE
8
DEFAULT_255_2_778
10
22.2099336
20
21.5025148
11
22.2099336
21
21.1024148
0
LINE
8
DEFAULT_255_2_778
10
22.2099336
20
21.5025148
11
21.8098336
21
21.5025148
0
LINE
8
DEFAULT_255_2_778
10
21.8098336
20
21.5025148
11
21.5098336
21
21.8033148
0
LINE
8
DEFAULT_255_2_778
10
21.5098336
20
21.8033148
11
21.5098336
21
20.8032148
0
LINE
8
DEFAULT_255_2_778
10
21.5098336
20
20.8032148
11
21.8098336
21
21.1024148
0
LINE
8
DEFAULT_255_2_778
10
21.8098336
20
21.1024148
11
21.8098336
21
21.5025148
0
LINE
8
DEFAULT_255_2_778
10
21.5098336
20
20.8032148
11
22.5099336
21
20.8032148
0
LINE
8
DEFAULT_255_2_778
10
22.5099336
20
21.8086148
11
21.5098336
21
21.8086148
0
LINE
8
DEFAULT_255_2_778
10
21.8098336
20
16.1023067
11
22.2099336
21
16.1023067
0
LINE
8
DEFAULT_255_2_778
10
22.2099336
20
16.1023067
11
22.5099336
21
15.8031067
0
LINE
8
DEFAULT_255_2_778
10
22.5099336
20
15.8031067
11
22.5099336
21
16.8032067
0
LINE
8
DEFAULT_255_2_778
10
22.5099336
20
16.8032067
11
22.2099336
21
16.5024067
0
LINE
8
DEFAULT_255_2_778
10
22.2099336
20
16.5024067
11
22.2099336
21
16.1023067
0
LINE
8
DEFAULT_255_2_778
10
22.2099336
20
16.5024067
11
21.8098336
21
16.5024067
0
LINE
8
DEFAULT_255_2_778
10
21.8098336
20
16.5024067
11
21.5098336
21
16.8032067
0
LINE
8
DEFAULT_255_2_778
10
21.5098336
20
16.8032067
11
21.5098336
21
15.8031067
0
LINE
8
DEFAULT_255_2_778
10
21.5098336
20
15.8031067
11
21.8098336
21
16.1023067
0
LINE
8
DEFAULT_255_2_778
10
21.8098336
20
16.1023067
11
21.8098336
21
16.5024067
0
LINE
8
DEFAULT_255_2_778
10
21.5098336
20
15.8031067
11
22.5099336
21
15.8031067
0
LINE
8
DEFAULT_255_2_778
10
22.5099336
20
16.8085067
11
21.5098336
21
16.8085067
0
LINE
8
DEFAULT_255_2_778
10
10.3097377
20
101.1023087
11
10.7098377
21
101.1023087
0
LINE
8
DEFAULT_255_2_778
10
10.7098377
20
101.1023087
11
11.0098377
21
100.8031087
0
LINE
8
DEFAULT_255_2_778
10
11.0098377
20
100.8031087
11
11.0098377
21
101.8032087
0
LINE
8
DEFAULT_255_2_778
10
11.0098377
20
101.8032087
11
10.7098377
21
101.5024087
0
LINE
8
DEFAULT_255_2_778
10
10.7098377
20
101.5024087
11
10.7098377
21
101.1023087
0
LINE
8
DEFAULT_255_2_778
10
10.7098377
20
101.5024087
11
10.3097377
21
101.5024087
0
LINE
8
DEFAULT_255_2_778
10
10.3097377
20
101.5024087
11
10.0097377
21
101.8032087
0
LINE
8
DEFAULT_255_2_778
10
10.0097377
20
101.8032087
11
10.0097377
21
100.8031087
0
LINE
8
DEFAULT_255_2_778
10
10.0097377
20
100.8031087
11
10.3097377
21
101.1023087
0
LINE
8
DEFAULT_255_2_778
10
10.3097377
20
101.1023087
11
10.3097377
21
101.5024087
0
LINE
8
DEFAULT_255_2_778
10
10.0097377
20
100.8031087
11
11.0098377
21
100.8031087
0
LINE
8
DEFAULT_255_2_778
10
11.0098377
20
101.8085087
11
10.0097377
21
101.8085087
0
LINE
8
DEFAULT_255_2_778
10
10.3097377
20
96.1022087
11
10.7098377
21
96.1022087
0
LINE
8
DEFAULT_255_2_778
10
10.7098377
20
96.1022087
11
11.0098377
21
95.8030087
0
LINE
8
DEFAULT_255_2_778
10
11.0098377
20
95.8030087
11
11.0098377
21
96.8031087
0
LINE
8
DEFAULT_255_2_778
10
11.0098377
20
96.8031087
11
10.7098377
21
96.5023087
0
LINE
8
DEFAULT_255_2_778
10
10.7098377
20
96.5023087
11
10.7098377
21
96.1022087
0
LINE
8
DEFAULT_255_2_778
10
10.7098377
20
96.5023087
11
10.3097377
21
96.5023087
0
LINE
8
DEFAULT_255_2_778
10
10.3097377
20
96.5023087
11
10.0097377
21
96.8031087
0
LINE
8
DEFAULT_255_2_778
10
10.0097377
20
96.8031087
11
10.0097377
21
95.8030087
0
LINE
8
DEFAULT_255_2_778
10
10.0097377
20
95.8030087
11
10.3097377
21
96.1022087
0
LINE
8
DEFAULT_255_2_778
10
10.3097377
20
96.1022087
11
10.3097377
21
96.5023087
0
LINE
8
DEFAULT_255_2_778
10
10.0097377
20
95.8030087
11
11.0098377
21
95.8030087
0
LINE
8
DEFAULT_255_2_778
10
11.0098377
20
96.8084087
11
10.0097377
21
96.8084087
0
LINE
8
DEFAULT_255_2_778
10
10.3097377
20
91.1024107
11
10.7098377
21
91.1024107
0
LINE
8
DEFAULT_255_2_778
10
10.7098377
20
91.1024107
11
11.0098377
21
90.8032107
0
LINE
8
DEFAULT_255_2_778
10
11.0098377
20
90.8032107
11
11.0098377
21
91.8033107
0
LINE
8
DEFAULT_255_2_778
10
11.0098377
20
91.8033107
11
10.7098377
21
91.5025107
0
LINE
8
DEFAULT_255_2_778
10
10.7098377
20
91.5025107
11
10.7098377
21
91.1024107
0
LINE
8
DEFAULT_255_2_778
10
10.7098377
20
91.5025107
11
10.3097377
21
91.5025107
0
LINE
8
DEFAULT_255_2_778
10
10.3097377
20
91.5025107
11
10.0097377
21
91.8033107
0
LINE
8
DEFAULT_255_2_778
10
10.0097377
20
91.8033107
11
10.0097377
21
90.8032107
0
LINE
8
DEFAULT_255_2_778
10
10.0097377
20
90.8032107
11
10.3097377
21
91.1024107
0
LINE
8
DEFAULT_255_2_778
10
10.3097377
20
91.1024107
11
10.3097377
21
91.5025107
0
LINE
8
DEFAULT_255_2_778
10
10.0097377
20
90.8032107
11
11.0098377
21
90.8032107
0
LINE
8
DEFAULT_255_2_778
10
11.0098377
20
91.8086107
11
10.0097377
21
91.8086107
0
LINE
8
DEFAULT_255_2_778
10
10.3097377
20
86.1023067
11
10.7098377
21
86.1023067
0
LINE
8
DEFAULT_255_2_778
10
10.7098377
20
86.1023067
11
11.0098377
21
85.8031067
0
LINE
8
DEFAULT_255_2_778
10
11.0098377
20
85.8031067
11
11.0098377
21
86.8032067
0
LINE
8
DEFAULT_255_2_778
10
11.0098377
20
86.8032067
11
10.7098377
21
86.5024067
0
LINE
8
DEFAULT_255_2_778
10
10.7098377
20
86.5024067
11
10.7098377
21
86.1023067
0
LINE
8
DEFAULT_255_2_778
10
10.7098377
20
86.5024067
11
10.3097377
21
86.5024067
0
LINE
8
DEFAULT_255_2_778
10
10.3097377
20
86.5024067
11
10.0097377
21
86.8032067
0
LINE
8
DEFAULT_255_2_778
10
10.0097377
20
86.8032067
11
10.0097377
21
85.8031067
0
LINE
8
DEFAULT_255_2_778
10
10.0097377
20
85.8031067
11
10.3097377
21
86.1023067
0
LINE
8
DEFAULT_255_2_778
10
10.3097377
20
86.1023067
11
10.3097377
21
86.5024067
0
LINE
8
DEFAULT_255_2_778
10
10.0097377
20
85.8031067
11
11.0098377
21
85.8031067
0
LINE
8
DEFAULT_255_2_778
10
11.0098377
20
86.8085067
11
10.0097377
21
86.8085067
0
LINE
8
DEFAULT_255_2_778
10
10.3097377
20
81.1022107
11
10.7098377
21
81.1022107
0
LINE
8
DEFAULT_255_2_778
10
10.7098377
20
81.1022107
11
11.0098377
21
80.8030107
0
LINE
8
DEFAULT_255_2_778
10
11.0098377
20
80.8030107
11
11.0098377
21
81.8031107
0
LINE
8
DEFAULT_255_2_778
10
11.0098377
20
81.8031107
11
10.7098377
21
81.5023107
0
LINE
8
DEFAULT_255_2_778
10
10.7098377
20
81.5023107
11
10.7098377
21
81.1022107
0
LINE
8
DEFAULT_255_2_778
10
10.7098377
20
81.5023107
11
10.3097377
21
81.5023107
0
LINE
8
DEFAULT_255_2_778
10
10.3097377
20
81.5023107
11
10.0097377
21
81.8031107
0
LINE
8
DEFAULT_255_2_778
10
10.0097377
20
81.8031107
11
10.0097377
21
80.8030107
0
LINE
8
DEFAULT_255_2_778
10
10.0097377
20
80.8030107
11
10.3097377
21
81.1022107
0
LINE
8
DEFAULT_255_2_778
10
10.3097377
20
81.1022107
11
10.3097377
21
81.5023107
0
LINE
8
DEFAULT_255_2_778
10
10.0097377
20
80.8030107
11
11.0098377
21
80.8030107
0
LINE
8
DEFAULT_255_2_778
10
11.0098377
20
81.8084107
11
10.0097377
21
81.8084107
0
LINE
8
DEFAULT_255_2_778
10
10.3097377
20
76.1024107
11
10.7098377
21
76.1024107
0
LINE
8
DEFAULT_255_2_778
10
10.7098377
20
76.1024107
11
11.0098377
21
75.8032107
0
LINE
8
DEFAULT_255_2_778
10
11.0098377
20
75.8032107
11
11.0098377
21
76.8033107
0
LINE
8
DEFAULT_255_2_778
10
11.0098377
20
76.8033107
11
10.7098377
21
76.5025107
0
LINE
8
DEFAULT_255_2_778
10
10.7098377
20
76.5025107
11
10.7098377
21
76.1024107
0
LINE
8
DEFAULT_255_2_778
10
10.7098377
20
76.5025107
11
10.3097377
21
76.5025107
0
LINE
8
DEFAULT_255_2_778
10
10.3097377
20
76.5025107
11
10.0097377
21
76.8033107
0
LINE
8
DEFAULT_255_2_778
10
10.0097377
20
76.8033107
11
10.0097377
21
75.8032107
0
LINE
8
DEFAULT_255_2_778
10
10.0097377
20
75.8032107
11
10.3097377
21
76.1024107
0
LINE
8
DEFAULT_255_2_778
10
10.3097377
20
76.1024107
11
10.3097377
21
76.5025107
0
LINE
8
DEFAULT_255_2_778
10
10.0097377
20
75.8032107
11
11.0098377
21
75.8032107
0
LINE
8
DEFAULT_255_2_778
10
11.0098377
20
76.8086107
11
10.0097377
21
76.8086107
0
LINE
8
DEFAULT_255_2_778
10
10.3097377
20
71.1023107
11
10.7098377
21
71.1023107
0
LINE
8
DEFAULT_255_2_778
10
10.7098377
20
71.1023107
11
11.0098377
21
70.8031107
0
LINE
8
DEFAULT_255_2_778
10
11.0098377
20
70.8031107
11
11.0098377
21
71.8032107
0
LINE
8
DEFAULT_255_2_778
10
11.0098377
20
71.8032107
11
10.7098377
21
71.5024107
0
LINE
8
DEFAULT_255_2_778
10
10.7098377
20
71.5024107
11
10.7098377
21
71.1023107
0
LINE
8
DEFAULT_255_2_778
10
10.7098377
20
71.5024107
11
10.3097377
21
71.5024107
0
LINE
8
DEFAULT_255_2_778
10
10.3097377
20
71.5024107
11
10.0097377
21
71.8032107
0
LINE
8
DEFAULT_255_2_778
10
10.0097377
20
71.8032107
11
10.0097377
21
70.8031107
0
LINE
8
DEFAULT_255_2_778
10
10.0097377
20
70.8031107
11
10.3097377
21
71.1023107
0
LINE
8
DEFAULT_255_2_778
10
10.3097377
20
71.1023107
11
10.3097377
21
71.5024107
0
LINE
8
DEFAULT_255_2_778
10
10.0097377
20
70.8031107
11
11.0098377
21
70.8031107
0
LINE
8
DEFAULT_255_2_778
10
11.0098377
20
71.8085107
11
10.0097377
21
71.8085107
0
LINE
8
DEFAULT_255_2_778
10
10.3097377
20
66.1025067
11
10.7098377
21
66.1025067
0
LINE
8
DEFAULT_255_2_778
10
10.7098377
20
66.1025067
11
11.0098377
21
65.8033067
0
LINE
8
DEFAULT_255_2_778
10
11.0098377
20
65.8033067
11
11.0098377
21
66.8034067
0
LINE
8
DEFAULT_255_2_778
10
11.0098377
20
66.8034067
11
10.7098377
21
66.5026067
0
LINE
8
DEFAULT_255_2_778
10
10.7098377
20
66.5026067
11
10.7098377
21
66.1025067
0
LINE
8
DEFAULT_255_2_778
10
10.7098377
20
66.5026067
11
10.3097377
21
66.5026067
0
LINE
8
DEFAULT_255_2_778
10
10.3097377
20
66.5026067
11
10.0097377
21
66.8034067
0
LINE
8
DEFAULT_255_2_778
10
10.0097377
20
66.8034067
11
10.0097377
21
65.8033067
0
LINE
8
DEFAULT_255_2_778
10
10.0097377
20
65.8033067
11
10.3097377
21
66.1025067
0
LINE
8
DEFAULT_255_2_778
10
10.3097377
20
66.1025067
11
10.3097377
21
66.5026067
0
LINE
8
DEFAULT_255_2_778
10
10.0097377
20
65.8033067
11
11.0098377
21
65.8033067
0
LINE
8
DEFAULT_255_2_778
10
11.0098377
20
66.8087067
11
10.0097377
21
66.8087067
0
LINE
8
DEFAULT_255_2_778
10
10.3097377
20
61.1024067
11
10.7098377
21
61.1024067
0
LINE
8
DEFAULT_255_2_778
10
10.7098377
20
61.1024067
11
11.0098377
21
60.8032067
0
LINE
8
DEFAULT_255_2_778
10
11.0098377
20
60.8032067
11
11.0098377
21
61.8033067
0
LINE
8
DEFAULT_255_2_778
10
11.0098377
20
61.8033067
11
10.7098377
21
61.5025067
0
LINE
8
DEFAULT_255_2_778
10
10.7098377
20
61.5025067
11
10.7098377
21
61.1024067
0
LINE
8
DEFAULT_255_2_778
10
10.7098377
20
61.5025067
11
10.3097377
21
61.5025067
0
LINE
8
DEFAULT_255_2_778
10
10.3097377
20
61.5025067
11
10.0097377
21
61.8033067
0
LINE
8
DEFAULT_255_2_778
10
10.0097377
20
61.8033067
11
10.0097377
21
60.8032067
0
LINE
8
DEFAULT_255_2_778
10
10.0097377
20
60.8032067
11
10.3097377
21
61.1024067
0
LINE
8
DEFAULT_255_2_778
10
10.3097377
20
61.1024067
11
10.3097377
21
61.5025067
0
LINE
8
DEFAULT_255_2_778
10
10.0097377
20
60.8032067
11
11.0098377
21
60.8032067
0
LINE
8
DEFAULT_255_2_778
10
11.0098377
20
61.8086067
11
10.0097377
21
61.8086067
0
LINE
8
DEFAULT_255_2_778
10
10.3097377
20
56.1023107
11
10.7098377
21
56.1023107
0
LINE
8
DEFAULT_255_2_778
10
10.7098377
20
56.1023107
11
11.0098377
21
55.8031107
0
LINE
8
DEFAULT_255_2_778
10
11.0098377
20
55.8031107
11
11.0098377
21
56.8032107
0
LINE
8
DEFAULT_255_2_778
10
11.0098377
20
56.8032107
11
10.7098377
21
56.5024107
0
LINE
8
DEFAULT_255_2_778
10
10.7098377
20
56.5024107
11
10.7098377
21
56.1023107
0
LINE
8
DEFAULT_255_2_778
10
10.7098377
20
56.5024107
11
10.3097377
21
56.5024107
0
LINE
8
DEFAULT_255_2_778
10
10.3097377
20
56.5024107
11
10.0097377
21
56.8032107
0
LINE
8
DEFAULT_255_2_778
10
10.0097377
20
56.8032107
11
10.0097377
21
55.8031107
0
LINE
8
DEFAULT_255_2_778
10
10.0097377
20
55.8031107
11
10.3097377
21
56.1023107
0
LINE
8
DEFAULT_255_2_778
10
10.3097377
20
56.1023107
11
10.3097377
21
56.5024107
0
LINE
8
DEFAULT_255_2_778
10
10.0097377
20
55.8031107
11
11.0098377
21
55.8031107
0
LINE
8
DEFAULT_255_2_778
10
11.0098377
20
56.8085107
11
10.0097377
21
56.8085107
0
LINE
8
DEFAULT_255_2_778
10
10.3097377
20
51.1024067
11
10.7098377
21
51.1024067
0
LINE
8
DEFAULT_255_2_778
10
10.7098377
20
51.1024067
11
11.0098377
21
50.8032067
0
LINE
8
DEFAULT_255_2_778
10
11.0098377
20
50.8032067
11
11.0098377
21
51.8033067
0
LINE
8
DEFAULT_255_2_778
10
11.0098377
20
51.8033067
11
10.7098377
21
51.5025067
0
LINE
8
DEFAULT_255_2_778
10
10.7098377
20
51.5025067
11
10.7098377
21
51.1024067
0
LINE
8
DEFAULT_255_2_778
10
10.7098377
20
51.5025067
11
10.3097377
21
51.5025067
0
LINE
8
DEFAULT_255_2_778
10
10.3097377
20
51.5025067
11
10.0097377
21
51.8033067
0
LINE
8
DEFAULT_255_2_778
10
10.0097377
20
51.8033067
11
10.0097377
21
50.8032067
0
LINE
8
DEFAULT_255_2_778
10
10.0097377
20
50.8032067
11
10.3097377
21
51.1024067
0
LINE
8
DEFAULT_255_2_778
10
10.3097377
20
51.1024067
11
10.3097377
21
51.5025067
0
LINE
8
DEFAULT_255_2_778
10
10.0097377
20
50.8032067
11
11.0098377
21
50.8032067
0
LINE
8
DEFAULT_255_2_778
10
11.0098377
20
51.8086067
11
10.0097377
21
51.8086067
0
LINE
8
DEFAULT_255_2_778
10
10.3097377
20
46.1023067
11
10.7098377
21
46.1023067
0
LINE
8
DEFAULT_255_2_778
10
10.7098377
20
46.1023067
11
11.0098377
21
45.8031067
0
LINE
8
DEFAULT_255_2_778
10
11.0098377
20
45.8031067
11
11.0098377
21
46.8032067
0
LINE
8
DEFAULT_255_2_778
10
11.0098377
20
46.8032067
11
10.7098377
21
46.5024067
0
LINE
8
DEFAULT_255_2_778
10
10.7098377
20
46.5024067
11
10.7098377
21
46.1023067
0
LINE
8
DEFAULT_255_2_778
10
10.7098377
20
46.5024067
11
10.3097377
21
46.5024067
0
LINE
8
DEFAULT_255_2_778
10
10.3097377
20
46.5024067
11
10.0097377
21
46.8032067
0
LINE
8
DEFAULT_255_2_778
10
10.0097377
20
46.8032067
11
10.0097377
21
45.8031067
0
LINE
8
DEFAULT_255_2_778
10
10.0097377
20
45.8031067
11
10.3097377
21
46.1023067
0
LINE
8
DEFAULT_255_2_778
10
10.3097377
20
46.1023067
11
10.3097377
21
46.5024067
0
LINE
8
DEFAULT_255_2_778
10
10.0097377
20
45.8031067
11
11.0098377
21
45.8031067
0
LINE
8
DEFAULT_255_2_778
10
11.0098377
20
46.8085067
11
10.0097377
21
46.8085067
0
LINE
8
DEFAULT_255_2_778
10
10.3097377
20
41.1022067
11
10.7098377
21
41.1022067
0
LINE
8
DEFAULT_255_2_778
10
10.7098377
20
41.1022067
11
11.0098377
21
40.8030067
0
LINE
8
DEFAULT_255_2_778
10
11.0098377
20
40.8030067
11
11.0098377
21
41.8031067
0
LINE
8
DEFAULT_255_2_778
10
11.0098377
20
41.8031067
11
10.7098377
21
41.5023067
0
LINE
8
DEFAULT_255_2_778
10
10.7098377
20
41.5023067
11
10.7098377
21
41.1022067
0
LINE
8
DEFAULT_255_2_778
10
10.7098377
20
41.5023067
11
10.3097377
21
41.5023067
0
LINE
8
DEFAULT_255_2_778
10
10.3097377
20
41.5023067
11
10.0097377
21
41.8031067
0
LINE
8
DEFAULT_255_2_778
10
10.0097377
20
41.8031067
11
10.0097377
21
40.8030067
0
LINE
8
DEFAULT_255_2_778
10
10.0097377
20
40.8030067
11
10.3097377
21
41.1022067
0
LINE
8
DEFAULT_255_2_778
10
10.3097377
20
41.1022067
11
10.3097377
21
41.5023067
0
LINE
8
DEFAULT_255_2_778
10
10.0097377
20
40.8030067
11
11.0098377
21
40.8030067
0
LINE
8
DEFAULT_255_2_778
10
11.0098377
20
41.8084067
11
10.0097377
21
41.8084067
0
LINE
8
DEFAULT_255_2_778
10
10.3097377
20
36.1024107
11
10.7098377
21
36.1024107
0
LINE
8
DEFAULT_255_2_778
10
10.7098377
20
36.1024107
11
11.0098377
21
35.8032107
0
LINE
8
DEFAULT_255_2_778
10
11.0098377
20
35.8032107
11
11.0098377
21
36.8033107
0
LINE
8
DEFAULT_255_2_778
10
11.0098377
20
36.8033107
11
10.7098377
21
36.5025107
0
LINE
8
DEFAULT_255_2_778
10
10.7098377
20
36.5025107
11
10.7098377
21
36.1024107
0
LINE
8
DEFAULT_255_2_778
10
10.7098377
20
36.5025107
11
10.3097377
21
36.5025107
0
LINE
8
DEFAULT_255_2_778
10
10.3097377
20
36.5025107
11
10.0097377
21
36.8033107
0
LINE
8
DEFAULT_255_2_778
10
10.0097377
20
36.8033107
11
10.0097377
21
35.8032107
0
LINE
8
DEFAULT_255_2_778
10
10.0097377
20
35.8032107
11
10.3097377
21
36.1024107
0
LINE
8
DEFAULT_255_2_778
10
10.3097377
20
36.1024107
11
10.3097377
21
36.5025107
0
LINE
8
DEFAULT_255_2_778
10
10.0097377
20
35.8032107
11
11.0098377
21
35.8032107
0
LINE
8
DEFAULT_255_2_778
10
11.0098377
20
36.8086107
11
10.0097377
21
36.8086107
0
LINE
8
DEFAULT_255_2_778
10
10.3097377
20
31.1023067
11
10.7098377
21
31.1023067
0
LINE
8
DEFAULT_255_2_778
10
10.7098377
20
31.1023067
11
11.0098377
21
30.8031067
0
LINE
8
DEFAULT_255_2_778
10
11.0098377
20
30.8031067
11
11.0098377
21
31.8032067
0
LINE
8
DEFAULT_255_2_778
10
11.0098377
20
31.8032067
11
10.7098377
21
31.5024067
0
LINE
8
DEFAULT_255_2_778
10
10.7098377
20
31.5024067
11
10.7098377
21
31.1023067
0
LINE
8
DEFAULT_255_2_778
10
10.7098377
20
31.5024067
11
10.3097377
21
31.5024067
0
LINE
8
DEFAULT_255_2_778
10
10.3097377
20
31.5024067
11
10.0097377
21
31.8032067
0
LINE
8
DEFAULT_255_2_778
10
10.0097377
20
31.8032067
11
10.0097377
21
30.8031067
0
LINE
8
DEFAULT_255_2_778
10
10.0097377
20
30.8031067
11
10.3097377
21
31.1023067
0
LINE
8
DEFAULT_255_2_778
10
10.3097377
20
31.1023067
11
10.3097377
21
31.5024067
0
LINE
8
DEFAULT_255_2_778
10
10.0097377
20
30.8031067
11
11.0098377
21
30.8031067
0
LINE
8
DEFAULT_255_2_778
10
11.0098377
20
31.8085067
11
10.0097377
21
31.8085067
0
LINE
8
DEFAULT_255_2_778
10
10.3097377
20
26.1025107
11
10.7098377
21
26.1025107
0
LINE
8
DEFAULT_255_2_778
10
10.7098377
20
26.1025107
11
11.0098377
21
25.8033107
0
LINE
8
DEFAULT_255_2_778
10
11.0098377
20
25.8033107
11
11.0098377
21
26.8034107
0
LINE
8
DEFAULT_255_2_778
10
11.0098377
20
26.8034107
11
10.7098377
21
26.5026107
0
LINE
8
DEFAULT_255_2_778
10
10.7098377
20
26.5026107
11
10.7098377
21
26.1025107
0
LINE
8
DEFAULT_255_2_778
10
10.7098377
20
26.5026107
11
10.3097377
21
26.5026107
0
LINE
8
DEFAULT_255_2_778
10
10.3097377
20
26.5026107
11
10.0097377
21
26.8034107
0
LINE
8
DEFAULT_255_2_778
10
10.0097377
20
26.8034107
11
10.0097377
21
25.8033107
0
LINE
8
DEFAULT_255_2_778
10
10.0097377
20
25.8033107
11
10.3097377
21
26.1025107
0
LINE
8
DEFAULT_255_2_778
10
10.3097377
20
26.1025107
11
10.3097377
21
26.5026107
0
LINE
8
DEFAULT_255_2_778
10
10.0097377
20
25.8033107
11
11.0098377
21
25.8033107
0
LINE
8
DEFAULT_255_2_778
10
11.0098377
20
26.8087107
11
10.0097377
21
26.8087107
0
LINE
8
DEFAULT_255_2_778
10
10.3097377
20
21.1024148
11
10.7098377
21
21.1024148
0
LINE
8
DEFAULT_255_2_778
10
10.7098377
20
21.1024148
11
11.0098377
21
20.8032148
0
LINE
8
DEFAULT_255_2_778
10
11.0098377
20
20.8032148
11
11.0098377
21
21.8033148
0
LINE
8
DEFAULT_255_2_778
10
11.0098377
20
21.8033148
11
10.7098377
21
21.5025148
0
LINE
8
DEFAULT_255_2_778
10
10.7098377
20
21.5025148
11
10.7098377
21
21.1024148
0
LINE
8
DEFAULT_255_2_778
10
10.7098377
20
21.5025148
11
10.3097377
21
21.5025148
0
LINE
8
DEFAULT_255_2_778
10
10.3097377
20
21.5025148
11
10.0097377
21
21.8033148
0
LINE
8
DEFAULT_255_2_778
10
10.0097377
20
21.8033148
11
10.0097377
21
20.8032148
0
LINE
8
DEFAULT_255_2_778
10
10.0097377
20
20.8032148
11
10.3097377
21
21.1024148
0
LINE
8
DEFAULT_255_2_778
10
10.3097377
20
21.1024148
11
10.3097377
21
21.5025148
0
LINE
8
DEFAULT_255_2_778
10
10.0097377
20
20.8032148
11
11.0098377
21
20.8032148
0
LINE
8
DEFAULT_255_2_778
10
11.0098377
20
21.8086148
11
10.0097377
21
21.8086148
0
LINE
8
DEFAULT_255_2_778
10
10.3097377
20
16.1023067
11
10.7098377
21
16.1023067
0
LINE
8
DEFAULT_255_2_778
10
10.7098377
20
16.1023067
11
11.0098377
21
15.8031067
0
LINE
8
DEFAULT_255_2_778
10
11.0098377
20
15.8031067
11
11.0098377
21
16.8032067
0
LINE
8
DEFAULT_255_2_778
10
11.0098377
20
16.8032067
11
10.7098377
21
16.5024067
0
LINE
8
DEFAULT_255_2_778
10
10.7098377
20
16.5024067
11
10.7098377
21
16.1023067
0
LINE
8
DEFAULT_255_2_778
10
10.7098377
20
16.5024067
11
10.3097377
21
16.5024067
0
LINE
8
DEFAULT_255_2_778
10
10.3097377
20
16.5024067
11
10.0097377
21
16.8032067
0
LINE
8
DEFAULT_255_2_778
10
10.0097377
20
16.8032067
11
10.0097377
21
15.8031067
0
LINE
8
DEFAULT_255_2_778
10
10.0097377
20
15.8031067
11
10.3097377
21
16.1023067
0
LINE
8
DEFAULT_255_2_778
10
10.3097377
20
16.1023067
11
10.3097377
21
16.5024067
0
LINE
8
DEFAULT_255_2_778
10
10.0097377
20
15.8031067
11
11.0098377
21
15.8031067
0
LINE
8
DEFAULT_255_2_778
10
11.0098377
20
16.8085067
11
10.0097377
21
16.8085067
0
ARC
8
DEFAULT_255_2_778
10
5.0153572
20
21.3789184
40
0.8894965
50
90.0125398
51
117.8324432
0
LINE
8
DEFAULT_255_2_778
10
5.3734625
20
21.4133149
11
5.4096625
21
21.4133149
0
LINE
8
DEFAULT_255_2_778
10
7.5596625
20
21.5096149
11
6.7095625
21
21.5096149
0
LINE
8
DEFAULT_255_2_778
10
6.7095625
20
21.5096149
11
6.7095625
21
19.5096149
0
LINE
8
DEFAULT_255_2_778
10
6.7095625
20
19.5096149
11
7.5596625
21
19.5096149
0
LINE
8
DEFAULT_255_2_778
10
5.8097625
20
18.0911149
11
7.5596625
21
18.0911149
0
LINE
8
DEFAULT_255_2_778
10
5.8097625
20
18.8412149
11
7.5596625
21
18.8412149
0
LINE
8
DEFAULT_255_2_778
10
5.8097625
20
22.1162149
11
7.5596625
21
22.1162149
0
LINE
8
DEFAULT_255_2_778
10
5.3734625
20
22.2687149
11
5.0151625
21
22.2687149
0
LINE
8
DEFAULT_255_2_778
10
5.0151625
20
22.2687149
11
5.0151625
21
20.5825149
0
LINE
8
DEFAULT_255_2_778
10
4.6016625
20
20.5896149
11
5.4096625
21
20.5756149
0
LINE
8
DEFAULT_255_2_778
10
6.7095625
20
19.5099149
11
5.4096625
21
19.3953149
0
LINE
8
DEFAULT_255_2_778
10
5.4096625
20
21.6135149
11
6.7095625
21
21.5096149
0
LINE
8
DEFAULT_255_2_778
10
4.6016625
20
22.8632149
11
7.5596625
21
22.8632149
0
LINE
8
DEFAULT_255_2_778
10
7.5596625
20
24.8132149
11
4.6016625
21
24.8132149
0
LINE
8
DEFAULT_255_2_778
10
4.5518625
20
20.3496149
11
4.5518625
21
25.8495149
0
LINE
8
DEFAULT_255_2_778
10
4.5518625
20
25.8495149
11
4.4706625
21
25.8630149
0
LINE
8
DEFAULT_255_2_778
10
4.4706625
20
25.8630149
11
1.9880625
21
25.8630149
0
LINE
8
DEFAULT_255_2_778
10
1.9880625
20
25.8630149
11
1.9880625
21
20.3359149
0
LINE
8
DEFAULT_255_2_778
10
1.9880625
20
20.3359149
11
4.4706625
21
20.3359149
0
LINE
8
DEFAULT_255_2_778
10
4.4706625
20
20.3359149
11
4.5518625
21
20.3496149
0
LINE
8
DEFAULT_255_2_778
10
5.3734625
20
20.5758149
11
5.3734625
21
22.8629149
0
LINE
8
DEFAULT_255_2_778
10
7.0596625
20
17.4093149
11
7.5596625
21
17.4543149
0
LINE
8
DEFAULT_255_2_778
10
7.5596625
20
14.0100149
11
7.0596625
21
13.8025149
0
LINE
8
DEFAULT_255_2_778
10
4.6016625
20
11.5861149
11
5.2596625
21
11.5975149
0
LINE
8
DEFAULT_255_2_778
10
5.2596625
20
10.2325149
11
4.6016625
21
10.2320149
0
LINE
8
DEFAULT_255_2_778
10
4.4706625
20
9.1890149
11
4.6016625
21
9.3200149
0
LINE
8
DEFAULT_255_2_778
10
10.0597625
20
11.5102149
11
9.8525625
21
11.0098149
0
LINE
8
DEFAULT_255_2_778
10
25.4598625
20
11.0096149
11
24.9597625
21
11.5099149
0
LINE
8
DEFAULT_255_2_778
10
24.9597625
20
11.5099149
11
20.1141625
21
11.5099149
0
LINE
8
DEFAULT_255_2_778
10
27.7098625
20
12.0094149
11
27.2097625
21
12.5098149
0
LINE
8
DEFAULT_255_2_778
10
27.2097625
20
12.5098149
11
24.9597625
21
12.5098149
0
LINE
8
DEFAULT_255_2_778
10
24.9597625
20
12.5098149
11
25.4598625
21
12.0094149
0
LINE
8
DEFAULT_255_2_778
10
24.9597625
20
12.5098149
11
24.9597625
21
11.5096149
0
LINE
8
DEFAULT_255_2_778
10
24.9597625
20
14.7595149
11
25.4598625
21
15.2590149
0
LINE
8
DEFAULT_255_2_778
10
27.2097625
20
14.7595149
11
27.7098625
21
15.2590149
0
LINE
8
DEFAULT_255_2_778
10
3.8385625
20
27.8474149
11
2.6500625
21
27.8577149
0
LINE
8
DEFAULT_255_2_778
10
2.6484625
20
27.6897149
11
2.6484625
21
30.8068149
0
LINE
8
DEFAULT_255_2_778
10
2.6484625
20
30.8068149
11
2.0015625
21
30.8068149
0
LINE
8
DEFAULT_255_2_778
10
3.8385625
20
27.6897149
11
3.8385625
21
28.3477149
0
LINE
8
DEFAULT_255_2_778
10
3.8385625
20
28.3477149
11
2.6484625
21
28.3580149
0
LINE
8
DEFAULT_255_2_778
10
1.8703625
20
27.5585149
11
2.0013625
21
27.6894149
0
LINE
8
DEFAULT_255_2_778
10
7.5594625
20
29.0878149
11
7.4813625
21
29.0875149
0
LINE
8
DEFAULT_255_2_778
10
7.4813625
20
29.0875149
11
7.4813625
21
29.4497149
0
LINE
8
DEFAULT_255_2_778
10
7.3543625
20
29.2129149
11
7.3543625
21
29.4497149
0
LINE
8
DEFAULT_255_2_778
10
7.1003625
20
29.2129149
11
6.9733625
21
29.0862149
0
LINE
8
DEFAULT_255_2_778
10
6.9733625
20
29.0862149
11
7.4813625
21
29.0862149
0
LINE
8
DEFAULT_255_2_778
10
7.4813625
20
29.0862149
11
7.3543625
21
29.2129149
0
LINE
8
DEFAULT_255_2_778
10
7.3543625
20
29.2129149
11
7.1003625
21
29.2129149
0
LINE
8
DEFAULT_255_2_778
10
7.1003625
20
29.2129149
11
7.1003625
21
29.4497149
0
LINE
8
DEFAULT_255_2_778
10
7.5594625
20
27.0878149
11
7.4813625
21
27.0875149
0
LINE
8
DEFAULT_255_2_778
10
7.4813625
20
27.0875149
11
7.4813625
21
27.5945149
0
LINE
8
DEFAULT_255_2_778
10
7.4813625
20
27.5945149
11
6.9733625
21
27.5945149
0
LINE
8
DEFAULT_255_2_778
10
6.9733625
20
27.5945149
11
7.1003625
21
27.4672149
0
LINE
8
DEFAULT_255_2_778
10
7.1003625
20
27.4672149
11
7.3543625
21
27.4672149
0
LINE
8
DEFAULT_255_2_778
10
7.3543625
20
27.4672149
11
7.3543625
21
27.2132149
0
LINE
8
DEFAULT_255_2_778
10
7.1003625
20
27.2132149
11
6.9733625
21
27.0864149
0
LINE
8
DEFAULT_255_2_778
10
6.9733625
20
27.0864149
11
7.4813625
21
27.0864149
0
LINE
8
DEFAULT_255_2_778
10
7.4813625
20
27.0864149
11
7.3543625
21
27.2132149
0
LINE
8
DEFAULT_255_2_778
10
7.3543625
20
27.2132149
11
7.1003625
21
27.2132149
0
LINE
8
DEFAULT_255_2_778
10
7.1003625
20
27.2132149
11
7.1003625
21
27.4672149
0
LINE
8
DEFAULT_255_2_778
10
7.3543625
20
27.4672149
11
7.4813625
21
27.5945149
0
LINE
8
DEFAULT_255_2_778
10
7.4813625
20
27.5945149
11
7.5594625
21
27.5958149
0
LINE
8
DEFAULT_255_2_778
10
7.5594625
20
26.2678149
11
7.5594625
21
29.4463149
0
LINE
8
DEFAULT_255_2_778
10
7.5594625
20
29.4463149
11
6.9593625
21
29.4463149
0
LINE
8
DEFAULT_255_2_778
10
7.5594625
20
33.5084149
11
6.9593625
21
33.5084149
0
LINE
8
DEFAULT_255_2_778
10
3.9761625
20
35.9413149
11
3.9761625
21
29.4378149
0
LINE
8
DEFAULT_255_2_778
10
3.9761625
20
29.4378149
11
6.9593625
21
29.4378149
0
LINE
8
DEFAULT_255_2_778
10
6.9593625
20
29.4378149
11
6.9593625
21
35.9418149
0
LINE
8
DEFAULT_255_2_778
10
6.9593625
20
35.9418149
11
3.9764625
21
35.9418149
0
LINE
8
DEFAULT_255_2_778
10
3.9764625
20
35.9418149
11
3.9764625
21
40.2093149
0
LINE
8
DEFAULT_255_2_778
10
6.9596625
20
31.9376149
11
3.9764625
21
31.9376149
0
LINE
8
DEFAULT_255_2_778
10
6.9596625
20
35.7105149
11
3.9764625
21
35.7105149
0
LINE
8
DEFAULT_255_2_778
10
7.5596625
20
37.3748149
11
3.9764625
21
37.3748149
0
LINE
8
DEFAULT_255_2_778
10
5.3734625
20
29.4497149
11
5.3734625
21
26.2670149
0
LINE
8
DEFAULT_255_2_778
10
6.9736625
20
29.4497149
11
6.9736625
21
26.2670149
0
LINE
8
DEFAULT_255_2_778
10
4.6016625
20
27.6892149
11
4.4706625
21
27.5582149
0
LINE
8
DEFAULT_255_2_778
10
4.6016625
20
54.7751149
11
6.5595625
21
54.7751149
0
LINE
8
DEFAULT_255_2_778
10
4.4704625
20
57.2161149
11
4.5516625
21
57.2296149
0
LINE
8
DEFAULT_255_2_778
10
4.5516625
20
57.2296149
11
4.5516625
21
62.7295149
0
LINE
8
DEFAULT_255_2_778
10
4.5516625
20
62.7295149
11
4.4704625
21
62.7430149
0
LINE
8
DEFAULT_255_2_778
10
5.3731625
20
64.2750149
11
5.3731625
21
54.7751149
0
LINE
8
DEFAULT_255_2_778
10
7.5594625
20
60.5094149
11
6.7093625
21
60.5094149
0
LINE
8
DEFAULT_255_2_778
10
6.7093625
20
60.5094149
11
6.7093625
21
58.5094149
0
LINE
8
DEFAULT_255_2_778
10
6.7093625
20
58.5094149
11
7.5594625
21
58.5094149
0
LINE
8
DEFAULT_255_2_778
10
7.5594625
20
56.4094149
11
6.5592625
21
56.4094149
0
LINE
8
DEFAULT_255_2_778
10
6.5592625
20
57.0910149
11
7.5594625
21
57.0910149
0
LINE
8
DEFAULT_255_2_778
10
6.5592625
20
57.8411149
11
7.5594625
21
57.8411149
0
LINE
8
DEFAULT_255_2_778
10
6.5592625
20
61.1910149
11
7.5594625
21
61.1910149
0
LINE
8
DEFAULT_255_2_778
10
6.5592625
20
61.9411149
11
7.5594625
21
61.9411149
0
LINE
8
DEFAULT_255_2_778
10
6.5592625
20
62.6094149
11
7.5594625
21
62.6094149
0
LINE
8
DEFAULT_255_2_778
10
6.7093625
20
58.5094149
11
5.4094625
21
58.3949149
0
LINE
8
DEFAULT_255_2_778
10
5.4094625
20
60.6261149
11
6.7093625
21
60.5094149
0
LINE
8
DEFAULT_255_2_778
10
6.5592625
20
64.2750149
11
4.6013625
21
64.2750149
0
LINE
8
DEFAULT_255_2_778
10
7.1006625
20
91.4723149
11
7.3546625
21
91.4723149
0
LINE
8
DEFAULT_255_2_778
10
7.3546625
20
91.4723149
11
7.4816625
21
91.3455149
0
LINE
8
DEFAULT_255_2_778
10
7.4816625
20
91.3455149
11
7.4816625
21
91.8535149
0
LINE
8
DEFAULT_255_2_778
10
7.4816625
20
91.8535149
11
7.3546625
21
91.7263149
0
LINE
8
DEFAULT_255_2_778
10
7.3546625
20
91.7263149
11
7.3546625
21
91.4723149
0
LINE
8
DEFAULT_255_2_778
10
7.4816625
20
89.5932149
11
7.4816625
21
89.8538149
0
LINE
8
DEFAULT_255_2_778
10
7.4816625
20
89.8538149
11
7.3546625
21
89.7266149
0
LINE
8
DEFAULT_255_2_778
10
7.3546625
20
89.7266149
11
7.3546625
21
89.5935149
0
LINE
8
DEFAULT_255_2_778
10
4.6016625
20
92.2800149
11
2.0015625
21
92.2800149
0
LINE
8
DEFAULT_255_2_778
10
2.0015625
20
92.2800149
11
1.8706625
21
92.4110149
0
LINE
8
DEFAULT_255_2_778
10
1.8706625
20
92.4110149
11
1.8706625
21
79.6290149
0
LINE
8
DEFAULT_255_2_778
10
1.8706625
20
79.6290149
11
2.0015625
21
79.7600149
0
LINE
8
DEFAULT_255_2_778
10
2.0015625
20
79.7600149
11
2.0015625
21
92.2800149
0
LINE
8
DEFAULT_255_2_778
10
4.4706625
20
99.6336149
11
1.9880625
21
99.6336149
0
LINE
8
DEFAULT_255_2_778
10
1.9880625
20
99.6336149
11
1.9880625
21
94.1065149
0
LINE
8
DEFAULT_255_2_778
10
1.9880625
20
94.1065149
11
4.4706625
21
94.1065149
0
LINE
8
DEFAULT_255_2_778
10
5.3734625
20
102.3276149
11
5.3734625
21
96.1633149
0
LINE
8
DEFAULT_255_2_778
10
7.5596625
20
99.5098149
11
6.7095625
21
99.5098149
0
LINE
8
DEFAULT_255_2_778
10
6.7095625
20
99.5098149
11
6.7095625
21
97.5098149
0
LINE
8
DEFAULT_255_2_778
10
6.7095625
20
97.5098149
11
7.5596625
21
97.5098149
0
LINE
8
DEFAULT_255_2_778
10
5.3734625
20
92.7679149
11
5.3734625
21
89.5935149
0
LINE
8
DEFAULT_255_2_778
10
6.9736625
20
92.7679149
11
6.9736625
21
89.5935149
0
LINE
8
DEFAULT_255_2_778
10
7.5596625
20
79.3091149
11
6.5595625
21
79.3091149
0
LINE
8
DEFAULT_255_2_778
10
1.8706625
20
79.6290149
11
4.4706625
21
79.6290149
0
LINE
8
DEFAULT_255_2_778
10
2.0015625
20
79.7600149
11
4.6016625
21
79.7600149
0
LINE
8
DEFAULT_255_2_778
10
7.5596625
20
81.6753149
11
3.9764625
21
81.6753149
0
LINE
8
DEFAULT_255_2_778
10
6.9596625
20
86.5899149
11
7.5596625
21
86.5899149
0
LINE
8
DEFAULT_255_2_778
10
7.5596625
20
86.5899149
11
7.5596625
21
79.3033149
0
LINE
8
DEFAULT_255_2_778
10
7.5596625
20
85.5363149
11
6.9596625
21
85.5363149
0
LINE
8
DEFAULT_255_2_778
10
7.5596625
20
91.3471149
11
7.4816625
21
91.3469149
0
LINE
8
DEFAULT_255_2_778
10
7.4816625
20
91.3469149
11
6.9736625
21
91.3458149
0
LINE
8
DEFAULT_255_2_778
10
6.9736625
20
91.3458149
11
7.1006625
21
91.4725149
0
LINE
8
DEFAULT_255_2_778
10
7.1006625
20
91.4725149
11
7.1006625
21
91.7265149
0
LINE
8
DEFAULT_255_2_778
10
7.1006625
20
91.7265149
11
6.9736625
21
91.8538149
0
LINE
8
DEFAULT_255_2_778
10
6.9736625
20
91.8538149
11
7.4816625
21
91.8538149
0
LINE
8
DEFAULT_255_2_778
10
7.4816625
20
91.8538149
11
7.0040625
21
91.8551149
0
LINE
8
DEFAULT_255_2_778
10
3.9766625
20
79.7597149
11
3.9766625
21
89.5810149
0
LINE
8
DEFAULT_255_2_778
10
3.9766625
20
89.5810149
11
6.9598625
21
89.5810149
0
LINE
8
DEFAULT_255_2_778
10
6.9598625
20
89.5810149
11
6.9598625
21
83.0852149
0
LINE
8
DEFAULT_255_2_778
10
6.9598625
20
83.0852149
11
3.9764625
21
83.0852149
0
LINE
8
DEFAULT_255_2_778
10
6.9596625
20
83.3154149
11
3.9764625
21
83.3154149
0
LINE
8
DEFAULT_255_2_778
10
6.9596625
20
87.0813149
11
3.9764625
21
87.0813149
0
LINE
8
DEFAULT_255_2_778
10
3.9764625
20
89.5935149
11
6.9596625
21
89.5935149
0
LINE
8
DEFAULT_255_2_778
10
7.4816625
20
91.8551149
11
7.5596625
21
91.8554149
0
LINE
8
DEFAULT_255_2_778
10
7.1006625
20
89.5935149
11
7.1006625
21
89.7266149
0
LINE
8
DEFAULT_255_2_778
10
7.1006625
20
89.7266149
11
6.9736625
21
89.8538149
0
LINE
8
DEFAULT_255_2_778
10
6.9736625
20
89.8538149
11
7.4816625
21
89.8538149
0
LINE
8
DEFAULT_255_2_778
10
7.4816625
20
89.8538149
11
7.5596625
21
89.8551149
0
LINE
8
DEFAULT_255_2_778
10
7.3546625
20
89.7266149
11
7.1006625
21
89.7266149
0
LINE
8
DEFAULT_255_2_778
10
7.3546625
20
91.7265149
11
7.1006625
21
91.7265149
0
LINE
8
DEFAULT_255_2_778
10
4.4706625
20
92.4110149
11
1.8706625
21
92.4110149
0
LINE
8
DEFAULT_255_2_778
10
6.9596625
20
89.5900149
11
7.5596625
21
89.5900149
0
LINE
8
DEFAULT_255_2_778
10
7.5596625
20
89.5900149
11
7.5596625
21
96.1636149
0
LINE
8
DEFAULT_255_2_778
10
7.5596625
20
96.1636149
11
4.6016625
21
96.1636149
0
LINE
8
DEFAULT_255_2_778
10
7.5596625
20
92.7679149
11
4.6016625
21
92.7679149
0
LINE
8
DEFAULT_255_2_778
10
7.5596625
20
94.2136149
11
4.6016625
21
94.2136149
0
LINE
8
DEFAULT_255_2_778
10
5.8097625
20
96.9166149
11
7.5596625
21
96.9166149
0
LINE
8
DEFAULT_255_2_778
10
5.8097625
20
100.1916149
11
7.5596625
21
100.1916149
0
LINE
8
DEFAULT_255_2_778
10
5.8097625
20
100.9417149
11
7.5596625
21
100.9417149
0
LINE
8
DEFAULT_255_2_778
10
6.7095625
20
97.5101149
11
5.4096625
21
97.4085149
0
LINE
8
DEFAULT_255_2_778
10
5.4096625
20
99.6267149
11
6.7095625
21
99.5101149
0
LINE
8
DEFAULT_255_2_778
10
7.5596625
20
101.5661149
11
7.0596625
21
101.6101149
0
LINE
8
DEFAULT_255_2_778
10
5.8097625
20
109.8275149
11
5.2596625
21
109.8275149
0
LINE
8
DEFAULT_255_2_778
10
5.2596625
20
109.8275149
11
5.2596625
21
102.3276149
0
LINE
8
DEFAULT_255_2_778
10
5.2596625
20
102.3276149
11
5.8097625
21
102.3276149
0
LINE
8
DEFAULT_255_2_778
10
5.3734625
20
110.5400149
11
5.3734625
21
109.8381149
0
LINE
8
DEFAULT_255_2_778
10
6.9736625
20
110.5400149
11
6.9736625
21
109.8381149
0
LINE
8
DEFAULT_255_2_778
10
7.5596625
20
105.0105149
11
7.0596625
21
105.2171149
0
ARC
8
DEFAULT_255_2_778
10
3.2773661
20
140.3951901
40
0.9326322
50
178.1653825
51
180.021311
0
ARC
8
DEFAULT_255_2_778
10
2.9762999
20
140.4124483
40
0.6312138
50
163.4507183
51
178.8562389
0
ARC
8
DEFAULT_255_2_778
10
2.7671741
20
140.4766295
40
0.4124743
50
135.9062854
51
163.7223134
0
ARC
8
DEFAULT_255_2_778
10
2.76226
20
140.4602739
40
0.4205992
50
106.55248
51
133.8398523
0
ARC
8
DEFAULT_255_2_778
10
2.828443
20
140.2240295
40
0.6659198
50
90.0356342
51
106.2200074
0
ARC
8
DEFAULT_255_2_778
10
2.8280487
20
140.2347378
40
0.6552113
50
88.9693661
51
90.0017383
0
ARC
8
DEFAULT_255_2_778
10
31.9106758
20
140.3951783
40
0.9341583
50
359.9794466
51
1.8323428
0
ARC
8
DEFAULT_255_2_778
10
32.2099989
20
140.4123025
40
0.6344856
50
1.1510228
51
16.4752326
0
ARC
8
DEFAULT_255_2_778
10
32.4197126
20
140.4748373
40
0.4156475
50
16.4073801
51
44.0139697
0
ARC
8
DEFAULT_255_2_778
10
32.4288364
20
140.4630189
40
0.4175615
50
46.0505283
51
73.5280909
0
ARC
8
DEFAULT_255_2_778
10
32.3611544
20
140.2235348
40
0.6664146
50
73.786044
51
89.9596675
0
ARC
8
DEFAULT_255_2_778
10
32.3616025
20
140.2366034
40
0.6533458
50
89.9981593
51
91.0321066
0
LINE
8
DEFAULT_255_2_778
10
5.809734
20
101.6095432
11
7.059634
21
101.6095432
0
LINE
8
DEFAULT_255_2_778
10
7.059634
20
101.6095432
11
7.059634
21
105.2166432
0
LINE
8
DEFAULT_255_2_778
10
7.059634
20
105.2166432
11
9.852534
21
108.0095432
0
LINE
8
DEFAULT_255_2_778
10
9.852534
20
108.0095432
11
13.294834
21
108.0095432
0
LINE
8
DEFAULT_255_2_778
10
13.496434
20
107.5100432
11
10.059734
21
107.5100432
0
LINE
8
DEFAULT_255_2_778
10
11.637134
20
109.8375432
11
11.637134
21
110.5395432
0
LINE
8
DEFAULT_255_2_778
10
14.809834
20
109.8375432
11
14.809834
21
110.5395432
0
LINE
8
DEFAULT_255_2_778
10
29.252834
20
103.0586432
11
29.121934
21
103.1896432
0
LINE
8
DEFAULT_255_2_778
10
29.121934
20
103.1896432
11
29.121934
21
110.5397432
0
LINE
8
DEFAULT_255_2_778
10
28.309934
20
103.0586432
11
29.252834
21
103.0586432
0
LINE
8
DEFAULT_255_2_778
10
29.252834
20
103.0586432
11
29.252834
21
110.5397432
0
LINE
8
DEFAULT_255_2_778
10
29.121934
20
103.1896432
11
28.309934
21
103.1896432
0
LINE
8
DEFAULT_255_2_778
10
34.894534
20
-0.1600568
11
34.894534
21
110.5397432
0
LINE
8
DEFAULT_255_2_778
10
0.348734
20
142.0397432
11
0.348734
21
142.5398432
0
LINE
8
DEFAULT_255_2_778
10
0.844834
20
110.5397432
11
0.844834
21
142.3897432
0
LINE
8
DEFAULT_255_2_778
10
0.844834
20
142.3897432
11
2.344734
21
140.3948432
0
LINE
8
DEFAULT_255_2_778
10
2.344734
20
140.3948432
11
2.344734
21
111.0398432
0
LINE
8
DEFAULT_255_2_778
10
2.344734
20
111.0398432
11
1.844734
21
110.5397432
0
LINE
8
DEFAULT_255_2_778
10
0.694834
20
142.5398432
11
0.348734
21
142.5398432
0
LINE
8
DEFAULT_255_2_778
10
0.348734
20
142.5398432
11
0.348734
21
145.0398432
0
LINE
8
DEFAULT_255_2_778
10
0.348734
20
145.0398432
11
34.894834
21
145.0398432
0
LINE
8
DEFAULT_255_2_778
10
34.894834
20
145.0398432
11
34.894834
21
142.5398432
0
LINE
8
DEFAULT_255_2_778
10
34.894834
20
142.5398432
11
0.694834
21
142.5398432
0
LINE
8
DEFAULT_255_2_778
10
34.894834
20
142.0397432
11
34.894834
21
142.5398432
0
LINE
8
DEFAULT_255_2_778
10
32.844834
20
111.0398432
11
33.344934
21
110.5397432
0
LINE
8
DEFAULT_255_2_778
10
34.994834
20
110.5397432
11
34.994834
21
142.0397432
0
LINE
8
DEFAULT_255_2_778
10
34.994834
20
142.0397432
11
34.494834
21
142.0397432
0
LINE
8
DEFAULT_255_2_778
10
34.494834
20
123.1410432
11
34.994834
21
123.1410432
0
LINE
8
DEFAULT_255_2_778
10
34.494834
20
125.1386432
11
34.994834
21
125.1386432
0
LINE
8
DEFAULT_255_2_778
10
34.494834
20
128.1411432
11
34.994834
21
128.1411432
0
LINE
8
DEFAULT_255_2_778
10
34.494834
20
130.1387432
11
34.994834
21
130.1387432
0
LINE
8
DEFAULT_255_2_778
10
34.344739
20
110.5398473
11
34.344739
21
142.3898473
0
LINE
8
DEFAULT_255_2_778
10
34.344739
20
142.3898473
11
0.844839
21
142.3898473
0
LINE
8
DEFAULT_255_2_778
10
0.844839
20
142.3898473
11
2.839839
21
140.8899473
0
LINE
8
DEFAULT_255_2_778
10
2.839839
20
140.8899473
11
32.349839
21
140.8899473
0
LINE
8
DEFAULT_255_2_778
10
32.349839
20
140.8899473
11
34.344739
21
142.3898473
0
LINE
8
DEFAULT_255_2_778
10
34.344739
20
142.3898473
11
32.844839
21
140.3948473
0
LINE
8
DEFAULT_255_2_778
10
32.844839
20
140.3948473
11
32.844839
21
111.0399473
0
LINE
8
DEFAULT_255_2_778
10
32.844839
20
111.0399473
11
2.344739
21
111.0399473
0
LINE
8
DEFAULT_255_2_778
10
0.348739
20
110.5398473
11
0.348739
21
-0.1602527
0
LINE
8
DEFAULT_255_2_778
10
0.348739
20
-0.1602527
11
34.894839
21
-0.1602527
0
ARC
8
DEFAULT_255_2_778
10
27.6395352
20
75.306913
40
0.3001307
50
180.0249367
51
269.9941397
0
ARC
8
DEFAULT_255_2_778
10
27.6396206
20
72.3065664
40
0.300216
50
90.0221446
51
179.9778689
0
ARC
8
DEFAULT_255_2_778
10
27.639814
20
45.3065918
40
0.3001094
50
180.0208901
51
269.9791099
0
ARC
8
DEFAULT_255_2_778
10
27.639814
20
42.306273
40
0.3001094
50
90.0208901
51
179.9791099
0
LINE
8
DEFAULT_255_2_778
10
27.6897045
20
61.9498824
11
29.1217045
21
61.9498824
0
LINE
8
DEFAULT_255_2_778
10
29.1217045
20
61.9498824
11
29.2526045
21
61.8188824
0
LINE
8
DEFAULT_255_2_778
10
29.2526045
20
61.8188824
11
27.6897045
21
61.8188824
0
LINE
8
DEFAULT_255_2_778
10
27.6897045
20
62.0199824
11
28.3097045
21
62.0199824
0
LINE
8
DEFAULT_255_2_778
10
27.6897045
20
65.8124824
11
28.3097045
21
65.8124824
0
LINE
8
DEFAULT_255_2_778
10
27.6897045
20
66.8125824
11
28.3097045
21
66.8125824
0
LINE
8
DEFAULT_255_2_778
10
25.4598045
20
81.3839824
11
25.4598045
21
83.4839824
0
LINE
8
DEFAULT_255_2_778
10
25.4598045
20
83.4839824
11
25.7099045
21
83.7337824
0
LINE
8
DEFAULT_255_2_778
10
25.7099045
20
83.7337824
11
25.4598045
21
83.9835824
0
LINE
8
DEFAULT_255_2_778
10
27.6897045
20
70.8125824
11
28.3097045
21
70.8125824
0
LINE
8
DEFAULT_255_2_778
10
27.3397045
20
71.7219824
11
27.6897045
21
71.7219824
0
LINE
8
DEFAULT_255_2_778
10
25.4598045
20
63.1041824
11
25.4598045
21
64.7041824
0
LINE
8
DEFAULT_255_2_778
10
25.4598045
20
64.7041824
11
27.6897045
21
64.7041824
0
LINE
8
DEFAULT_255_2_778
10
27.6897045
20
62.6036824
11
27.6897045
21
67.5997824
0
LINE
8
DEFAULT_255_2_778
10
27.6897045
20
67.5997824
11
25.4598045
21
67.5997824
0
LINE
8
DEFAULT_255_2_778
10
25.4598045
20
67.5997824
11
25.4598045
21
65.1996824
0
LINE
8
DEFAULT_255_2_778
10
25.4598045
20
65.1996824
11
27.6897045
21
65.1996824
0
LINE
8
DEFAULT_255_2_778
10
27.6897045
20
63.1041824
11
25.4598045
21
63.1041824
0
LINE
8
DEFAULT_255_2_778
10
25.4598045
20
63.1041824
11
25.7099045
21
62.8539824
0
LINE
8
DEFAULT_255_2_778
10
25.7099045
20
62.8539824
11
25.4598045
21
62.6036824
0
LINE
8
DEFAULT_255_2_778
10
25.4598045
20
64.7041824
11
25.7099045
21
64.9538824
0
LINE
8
DEFAULT_255_2_778
10
25.7099045
20
64.9538824
11
25.4598045
21
65.2036824
0
LINE
8
DEFAULT_255_2_778
10
25.4598045
20
76.3836824
11
25.7099045
21
76.6339824
0
LINE
8
DEFAULT_255_2_778
10
25.7099045
20
76.6339824
11
25.4598045
21
76.8842824
0
LINE
8
DEFAULT_255_2_778
10
27.3397045
20
76.8842824
11
25.4598045
21
76.8842824
0
LINE
8
DEFAULT_255_2_778
10
25.4598045
20
76.8842824
11
25.4598045
21
78.4841824
0
LINE
8
DEFAULT_255_2_778
10
25.4598045
20
78.4841824
11
25.7099045
21
78.7339824
0
LINE
8
DEFAULT_255_2_778
10
25.7099045
20
78.7339824
11
25.4598045
21
78.9836824
0
LINE
8
DEFAULT_255_2_778
10
25.4598045
20
68.1040824
11
25.4598045
21
69.7039824
0
LINE
8
DEFAULT_255_2_778
10
25.4598045
20
69.7039824
11
27.6897045
21
69.7039824
0
LINE
8
DEFAULT_255_2_778
10
27.6897045
20
67.6034824
11
27.6897045
21
71.7095824
0
LINE
8
DEFAULT_255_2_778
10
27.6897045
20
71.7095824
11
27.3397045
21
71.7095824
0
LINE
8
DEFAULT_255_2_778
10
27.3397045
20
71.7095824
11
27.3397045
21
76.3793824
0
LINE
8
DEFAULT_255_2_778
10
27.3397045
20
76.3793824
11
25.4598045
21
76.3793824
0
LINE
8
DEFAULT_255_2_778
10
25.4598045
20
76.3793824
11
25.4598045
21
70.1995824
0
LINE
8
DEFAULT_255_2_778
10
25.4598045
20
70.1995824
11
27.6897045
21
70.1995824
0
LINE
8
DEFAULT_255_2_778
10
27.6897045
20
68.1040824
11
25.4598045
21
68.1040824
0
LINE
8
DEFAULT_255_2_778
10
25.4598045
20
68.1040824
11
25.7099045
21
67.8537824
0
LINE
8
DEFAULT_255_2_778
10
25.7099045
20
67.8537824
11
25.4598045
21
67.6034824
0
LINE
8
DEFAULT_255_2_778
10
25.4598045
20
69.7039824
11
25.7099045
21
69.9537824
0
LINE
8
DEFAULT_255_2_778
10
25.7099045
20
69.9537824
11
25.4598045
21
70.2034824
0
LINE
8
DEFAULT_255_2_778
10
24.9598045
20
67.1044824
11
24.9598045
21
75.8801824
0
LINE
8
DEFAULT_255_2_778
10
24.9598045
20
75.8801824
11
25.4598045
21
76.3796824
0
LINE
8
DEFAULT_255_2_778
10
25.4598045
20
65.1996824
11
24.9598045
21
65.7000824
0
LINE
8
DEFAULT_255_2_778
10
25.4598045
20
70.1995824
11
24.9598045
21
70.6998824
0
LINE
8
DEFAULT_255_2_778
10
24.9598045
20
62.1040824
11
24.9598045
21
67.0996824
0
LINE
8
DEFAULT_255_2_778
10
24.9598045
20
67.0996824
11
25.4598045
21
67.5992824
0
LINE
8
DEFAULT_255_2_778
10
27.6897045
20
80.8122824
11
28.3097045
21
80.8122824
0
LINE
8
DEFAULT_255_2_778
10
27.6897045
20
81.8123824
11
28.3097045
21
81.8123824
0
LINE
8
DEFAULT_255_2_778
10
24.9598045
20
75.8846824
11
24.9598045
21
80.8802824
0
LINE
8
DEFAULT_255_2_778
10
24.9598045
20
80.8802824
11
25.4598045
21
81.3797824
0
LINE
8
DEFAULT_255_2_778
10
25.4598045
20
78.9797824
11
24.9598045
21
79.4800824
0
LINE
8
DEFAULT_255_2_778
10
27.3397045
20
76.3833824
11
27.3397045
21
77.3139824
0
LINE
8
DEFAULT_255_2_778
10
27.3397045
20
77.3139824
11
27.6897045
21
77.3139824
0
LINE
8
DEFAULT_255_2_778
10
27.6897045
20
77.3139824
11
27.6897045
21
81.3794824
0
LINE
8
DEFAULT_255_2_778
10
27.6897045
20
81.3794824
11
25.4598045
21
81.3794824
0
LINE
8
DEFAULT_255_2_778
10
25.4598045
20
81.3794824
11
25.4598045
21
78.9794824
0
LINE
8
DEFAULT_255_2_778
10
25.4598045
20
78.9794824
11
27.6897045
21
78.9794824
0
LINE
8
DEFAULT_255_2_778
10
25.4598045
20
78.4838824
11
27.6897045
21
78.4838824
0
LINE
8
DEFAULT_255_2_778
10
25.4598045
20
83.4839824
11
27.6897045
21
83.4839824
0
LINE
8
DEFAULT_255_2_778
10
27.6897045
20
84.8899824
11
29.1217045
21
84.8899824
0
LINE
8
DEFAULT_255_2_778
10
27.6897045
20
85.0209824
11
29.2526045
21
85.0209824
0
LINE
8
DEFAULT_255_2_778
10
25.4596045
20
83.9798824
11
24.9595045
21
84.4801824
0
LINE
8
DEFAULT_255_2_778
10
28.3094045
20
62.4112824
11
28.1570045
21
62.4112824
0
LINE
8
DEFAULT_255_2_778
10
28.1570045
20
62.4112824
11
28.1570045
21
62.9192824
0
LINE
8
DEFAULT_255_2_778
10
28.1570045
20
62.9192824
11
28.3094045
21
62.9192824
0
LINE
8
DEFAULT_255_2_778
10
28.3094045
20
64.4101824
11
28.1570045
21
64.4101824
0
LINE
8
DEFAULT_255_2_778
10
28.1570045
20
64.4101824
11
28.1570045
21
64.9181824
0
LINE
8
DEFAULT_255_2_778
10
28.1570045
20
64.9181824
11
28.3094045
21
64.9181824
0
LINE
8
DEFAULT_255_2_778
10
28.3094045
20
66.9171824
11
28.1570045
21
66.9171824
0
LINE
8
DEFAULT_255_2_778
10
28.1570045
20
66.9171824
11
28.1570045
21
66.8237824
0
LINE
8
DEFAULT_255_2_778
10
28.3094045
20
67.3362824
11
28.1570045
21
67.3362824
0
LINE
8
DEFAULT_255_2_778
10
28.1570045
20
67.3362824
11
28.1570045
21
67.8442824
0
LINE
8
DEFAULT_255_2_778
10
28.1570045
20
67.8442824
11
28.3094045
21
67.8442824
0
LINE
8
DEFAULT_255_2_778
10
28.3094045
20
68.4080824
11
28.1570045
21
68.4080824
0
LINE
8
DEFAULT_255_2_778
10
28.1570045
20
68.4080824
11
28.1570045
21
68.9160824
0
LINE
8
DEFAULT_255_2_778
10
28.1570045
20
68.9160824
11
28.3094045
21
68.9160824
0
LINE
8
DEFAULT_255_2_778
10
28.3094045
20
69.3351824
11
28.1570045
21
69.3351824
0
LINE
8
DEFAULT_255_2_778
10
28.1570045
20
69.3351824
11
28.1570045
21
69.8431824
0
LINE
8
DEFAULT_255_2_778
10
28.1570045
20
69.8431824
11
28.3094045
21
69.8431824
0
LINE
8
DEFAULT_255_2_778
10
28.3094045
20
70.4069824
11
28.1570045
21
70.4069824
0
LINE
8
DEFAULT_255_2_778
10
28.1570045
20
70.4069824
11
28.1570045
21
70.8122824
0
LINE
8
DEFAULT_255_2_778
10
28.1570045
20
62.4123824
11
27.8014045
21
62.4123824
0
LINE
8
DEFAULT_255_2_778
10
27.8014045
20
62.9203824
11
28.1570045
21
62.9203824
0
LINE
8
DEFAULT_255_2_778
10
28.1570045
20
64.4112824
11
27.8014045
21
64.4112824
0
LINE
8
DEFAULT_255_2_778
10
28.1570045
20
67.3372824
11
27.8014045
21
67.3372824
0
LINE
8
DEFAULT_255_2_778
10
27.8014045
20
64.9192824
11
28.1570045
21
64.9192824
0
LINE
8
DEFAULT_255_2_778
10
27.8014045
20
67.8455824
11
28.1570045
21
67.8455824
0
LINE
8
DEFAULT_255_2_778
10
28.1570045
20
69.3364824
11
27.8014045
21
69.3364824
0
LINE
8
DEFAULT_255_2_778
10
27.8014045
20
69.8444824
11
28.1570045
21
69.8444824
0
LINE
8
DEFAULT_255_2_778
10
29.1214045
20
61.9495824
11
29.1214045
21
84.8894824
0
LINE
8
DEFAULT_255_2_778
10
29.1214045
20
84.8894824
11
29.2524045
21
85.0204824
0
LINE
8
DEFAULT_255_2_778
10
29.2524045
20
85.0204824
11
29.2524045
21
61.8183824
0
LINE
8
DEFAULT_255_2_778
10
28.3094045
20
61.9492824
11
28.3094045
21
84.8891824
0
LINE
8
DEFAULT_255_2_778
10
27.8014045
20
84.8891824
11
27.8014045
21
81.8171824
0
LINE
8
DEFAULT_255_2_778
10
27.8014045
20
80.8119824
11
27.8014045
21
76.8170824
0
LINE
8
DEFAULT_255_2_778
10
27.3394045
20
71.8118824
11
28.3094045
21
71.8118824
0
LINE
8
DEFAULT_255_2_778
10
27.3394045
20
75.8118824
11
28.3094045
21
75.8118824
0
LINE
8
DEFAULT_255_2_778
10
27.3394045
20
76.8119824
11
28.3094045
21
76.8119824
0
LINE
8
DEFAULT_255_2_778
10
28.3094045
20
75.0067824
11
27.6395045
21
75.0067824
0
LINE
8
DEFAULT_255_2_778
10
27.6395045
20
75.0067824
11
27.6395045
21
72.6067824
0
LINE
8
DEFAULT_255_2_778
10
27.6395045
20
72.6067824
11
28.3094045
21
72.6067824
0
LINE
8
DEFAULT_255_2_778
10
27.8014045
20
75.8118824
11
27.8014045
21
75.0067824
0
LINE
8
DEFAULT_255_2_778
10
27.8014045
20
72.6067824
11
27.8014045
21
71.8171824
0
LINE
8
DEFAULT_255_2_778
10
27.8014045
20
70.8120824
11
27.8014045
21
66.8200824
0
LINE
8
DEFAULT_255_2_778
10
27.8014045
20
65.8122824
11
27.8014045
21
62.0196824
0
LINE
8
DEFAULT_255_2_778
10
28.0300045
20
77.8404824
11
28.0300045
21
77.3324824
0
LINE
8
DEFAULT_255_2_778
10
28.0300045
20
75.8123824
11
28.0300045
21
75.3335824
0
LINE
8
DEFAULT_255_2_778
10
28.0300045
20
69.8444824
11
28.0300045
21
69.3364824
0
LINE
8
DEFAULT_255_2_778
10
28.0300045
20
67.8455824
11
28.0300045
21
67.3375824
0
LINE
8
DEFAULT_255_2_778
10
28.0300045
20
64.9195824
11
28.0300045
21
64.4115824
0
LINE
8
DEFAULT_255_2_778
10
28.0300045
20
62.9205824
11
28.0300045
21
62.4125824
0
LINE
8
DEFAULT_255_2_778
10
27.9030045
20
84.8897824
11
27.9030045
21
83.8557824
0
LINE
8
DEFAULT_255_2_778
10
27.9030045
20
80.8124824
11
27.9030045
21
79.8557824
0
LINE
8
DEFAULT_255_2_778
10
28.1062045
20
84.8897824
11
28.1062045
21
83.8557824
0
LINE
8
DEFAULT_255_2_778
10
28.1062045
20
80.8124824
11
28.1062045
21
79.8557824
0
LINE
8
DEFAULT_255_2_778
10
27.9030045
20
79.3316824
11
27.9030045
21
77.8557824
0
LINE
8
DEFAULT_255_2_778
10
28.1062045
20
79.3316824
11
28.1062045
21
77.8557824
0
LINE
8
DEFAULT_255_2_778
10
27.9030045
20
77.3326824
11
27.9030045
21
76.8178824
0
LINE
8
DEFAULT_255_2_778
10
27.9030045
20
75.3337824
11
27.9030045
21
75.0075824
0
LINE
8
DEFAULT_255_2_778
10
27.9030045
20
72.6074824
11
27.9030045
21
71.8558824
0
LINE
8
DEFAULT_255_2_778
10
27.9030045
20
70.8125824
11
27.9030045
21
69.8558824
0
LINE
8
DEFAULT_255_2_778
10
27.9030045
20
69.3367824
11
27.9030045
21
67.8558824
0
LINE
8
DEFAULT_255_2_778
10
28.1062045
20
77.3326824
11
28.1062045
21
76.8178824
0
LINE
8
DEFAULT_255_2_778
10
28.1062045
20
75.3337824
11
28.1062045
21
75.0075824
0
LINE
8
DEFAULT_255_2_778
10
28.1062045
20
72.6074824
11
28.1062045
21
71.8558824
0
LINE
8
DEFAULT_255_2_778
10
28.1062045
20
70.8125824
11
28.1062045
21
69.8558824
0
LINE
8
DEFAULT_255_2_778
10
28.1062045
20
69.3367824
11
28.1062045
21
67.8558824
0
LINE
8
DEFAULT_255_2_778
10
27.9030045
20
67.3377824
11
27.9030045
21
66.8178824
0
LINE
8
DEFAULT_255_2_778
10
27.9030045
20
65.8127824
11
27.9030045
21
64.9295824
0
LINE
8
DEFAULT_255_2_778
10
27.9030045
20
64.4117824
11
27.9030045
21
62.9295824
0
LINE
8
DEFAULT_255_2_778
10
27.9030045
20
62.4128824
11
27.9030045
21
62.0201824
0
LINE
8
DEFAULT_255_2_778
10
28.1062045
20
67.3380824
11
28.1062045
21
66.8181824
0
LINE
8
DEFAULT_255_2_778
10
28.1062045
20
65.8129824
11
28.1062045
21
64.9298824
0
LINE
8
DEFAULT_255_2_778
10
28.1062045
20
64.4120824
11
28.1062045
21
62.9298824
0
LINE
8
DEFAULT_255_2_778
10
28.1062045
20
62.4131824
11
28.1062045
21
62.0204824
0
LINE
8
DEFAULT_255_2_778
10
28.3094045
20
72.4066824
11
28.1570045
21
72.4066824
0
LINE
8
DEFAULT_255_2_778
10
28.1570045
20
72.4066824
11
28.1570045
21
72.6080824
0
LINE
8
DEFAULT_255_2_778
10
28.3094045
20
75.3329824
11
28.1570045
21
75.3329824
0
LINE
8
DEFAULT_255_2_778
10
28.1570045
20
75.3329824
11
28.1570045
21
75.8131824
0
LINE
8
DEFAULT_255_2_778
10
28.3094045
20
76.9127824
11
28.1570045
21
76.9127824
0
LINE
8
DEFAULT_255_2_778
10
28.1570045
20
76.9127824
11
28.1570045
21
76.8183824
0
LINE
8
DEFAULT_255_2_778
10
28.3094045
20
77.3319824
11
28.1570045
21
77.3319824
0
LINE
8
DEFAULT_255_2_778
10
28.1570045
20
77.3319824
11
28.1570045
21
77.8398824
0
LINE
8
DEFAULT_255_2_778
10
28.1570045
20
77.8398824
11
28.3094045
21
77.8398824
0
LINE
8
DEFAULT_255_2_778
10
28.3094045
20
79.8388824
11
28.1570045
21
79.8388824
0
LINE
8
DEFAULT_255_2_778
10
28.1570045
20
79.8388824
11
28.1570045
21
79.3308824
0
LINE
8
DEFAULT_255_2_778
10
28.1570045
20
79.3308824
11
28.3094045
21
79.3308824
0
LINE
8
DEFAULT_255_2_778
10
28.3094045
20
83.8366824
11
28.1570045
21
83.8366824
0
LINE
8
DEFAULT_255_2_778
10
28.1570045
20
83.8366824
11
28.1570045
21
83.3286824
0
LINE
8
DEFAULT_255_2_778
10
28.1570045
20
83.3286824
11
28.3094045
21
83.3286824
0
LINE
8
DEFAULT_255_2_778
10
28.3094045
20
78.9114824
11
28.1570045
21
78.9114824
0
LINE
8
DEFAULT_255_2_778
10
28.1570045
20
78.9114824
11
28.1570045
21
78.4034824
0
LINE
8
DEFAULT_255_2_778
10
28.1570045
20
78.4034824
11
28.3094045
21
78.4034824
0
LINE
8
DEFAULT_255_2_778
10
28.3094045
20
79.9375824
11
28.1062045
21
79.9375824
0
LINE
8
DEFAULT_255_2_778
10
28.1570045
20
75.3340824
11
27.8014045
21
75.3340824
0
LINE
8
DEFAULT_255_2_778
10
28.1570045
20
77.3329824
11
27.8014045
21
77.3329824
0
LINE
8
DEFAULT_255_2_778
10
27.8014045
20
77.8409824
11
28.1570045
21
77.8409824
0
LINE
8
DEFAULT_255_2_778
10
27.8014045
20
79.8401824
11
28.1570045
21
79.8401824
0
LINE
8
DEFAULT_255_2_778
10
28.0300045
20
79.8401824
11
28.0300045
21
79.3321824
0
LINE
8
DEFAULT_255_2_778
10
28.0300045
20
79.3321824
11
27.8014045
21
79.3321824
0
LINE
8
DEFAULT_255_2_778
10
28.0300045
20
79.3321824
11
28.1570045
21
79.3321824
0
LINE
8
DEFAULT_255_2_778
10
27.8014045
20
83.8382824
11
28.1570045
21
83.8382824
0
LINE
8
DEFAULT_255_2_778
10
28.0300045
20
83.8382824
11
28.0300045
21
83.3302824
0
LINE
8
DEFAULT_255_2_778
10
28.0300045
20
83.3302824
11
27.8014045
21
83.3302824
0
LINE
8
DEFAULT_255_2_778
10
28.0300045
20
83.3302824
11
28.1570045
21
83.3302824
0
LINE
8
DEFAULT_255_2_778
10
28.3094045
20
84.3409824
11
28.1062045
21
84.3409824
0
LINE
8
DEFAULT_255_2_778
10
27.3397045
20
31.9497824
11
29.1217045
21
31.9497824
0
LINE
8
DEFAULT_255_2_778
10
29.1217045
20
31.9497824
11
29.2526045
21
31.8188824
0
LINE
8
DEFAULT_255_2_778
10
29.2526045
20
31.8188824
11
27.3397045
21
31.8188824
0
LINE
8
DEFAULT_255_2_778
10
27.6897045
20
35.8126824
11
28.3097045
21
35.8126824
0
LINE
8
DEFAULT_255_2_778
10
27.6897045
20
36.8128824
11
28.3097045
21
36.8128824
0
LINE
8
DEFAULT_255_2_778
10
27.6897045
20
40.8127824
11
28.3097045
21
40.8127824
0
LINE
8
DEFAULT_255_2_778
10
25.4596045
20
40.5442824
11
25.4596045
21
42.1441824
0
LINE
8
DEFAULT_255_2_778
10
25.4596045
20
42.1441824
11
27.3397045
21
42.1441824
0
LINE
8
DEFAULT_255_2_778
10
27.6897045
20
50.8127824
11
28.3097045
21
50.8127824
0
LINE
8
DEFAULT_255_2_778
10
27.6897045
20
51.8128824
11
28.3097045
21
51.8128824
0
LINE
8
DEFAULT_255_2_778
10
26.6917045
20
56.4197824
11
26.6917045
21
54.8899824
0
LINE
8
DEFAULT_255_2_778
10
26.6917045
20
54.8899824
11
29.1217045
21
54.8899824
0
LINE
8
DEFAULT_255_2_778
10
29.1217045
20
54.8899824
11
29.1217045
21
31.9500824
0
LINE
8
DEFAULT_255_2_778
10
26.8227045
20
56.4197824
11
26.8227045
21
55.0209824
0
LINE
8
DEFAULT_255_2_778
10
26.8227045
20
55.0209824
11
29.2526045
21
55.0209824
0
LINE
8
DEFAULT_255_2_778
10
29.2526045
20
55.0209824
11
29.2526045
21
31.8188824
0
LINE
8
DEFAULT_255_2_778
10
25.4598045
20
54.3239824
11
25.4598045
21
55.9239824
0
LINE
8
DEFAULT_255_2_778
10
25.4598045
20
55.9239824
11
26.6917045
21
55.9239824
0
LINE
8
DEFAULT_255_2_778
10
25.4598045
20
35.5438824
11
25.4598045
21
37.1438824
0
LINE
8
DEFAULT_255_2_778
10
25.4598045
20
37.1438824
11
27.6897045
21
37.1438824
0
LINE
8
DEFAULT_255_2_778
10
27.6897045
20
35.0432824
11
27.6897045
21
40.0394824
0
LINE
8
DEFAULT_255_2_778
10
27.6897045
20
40.0394824
11
25.4598045
21
40.0394824
0
LINE
8
DEFAULT_255_2_778
10
25.4598045
20
40.0394824
11
25.4598045
21
37.6393824
0
LINE
8
DEFAULT_255_2_778
10
25.4598045
20
37.6393824
11
27.6897045
21
37.6393824
0
LINE
8
DEFAULT_255_2_778
10
27.6897045
20
35.5438824
11
25.4598045
21
35.5438824
0
LINE
8
DEFAULT_255_2_778
10
25.4598045
20
35.5438824
11
25.7099045
21
35.2935824
0
LINE
8
DEFAULT_255_2_778
10
25.7099045
20
35.2935824
11
25.4598045
21
35.0432824
0
LINE
8
DEFAULT_255_2_778
10
25.4598045
20
37.1438824
11
25.7099045
21
37.3935824
0
LINE
8
DEFAULT_255_2_778
10
25.7099045
20
37.3935824
11
25.4598045
21
37.6433824
0
LINE
8
DEFAULT_255_2_778
10
27.6897045
20
40.0433824
11
27.6897045
21
41.7136824
0
LINE
8
DEFAULT_255_2_778
10
27.6897045
20
41.7136824
11
27.3397045
21
41.7136824
0
LINE
8
DEFAULT_255_2_778
10
27.3397045
20
41.7136824
11
27.3397045
21
47.3093824
0
LINE
8
DEFAULT_255_2_778
10
27.3397045
20
47.3093824
11
27.6897045
21
47.3093824
0
LINE
8
DEFAULT_255_2_778
10
27.6897045
20
47.3093824
11
27.6897045
21
48.8193824
0
LINE
8
DEFAULT_255_2_778
10
27.6897045
20
48.8193824
11
25.4598045
21
48.8193824
0
LINE
8
DEFAULT_255_2_778
10
25.4598045
20
48.8193824
11
25.4598045
21
42.6394824
0
LINE
8
DEFAULT_255_2_778
10
25.4598045
20
42.6394824
11
27.3400045
21
42.6394824
0
LINE
8
DEFAULT_255_2_778
10
27.6900045
20
40.5439824
11
25.4598045
21
40.5439824
0
LINE
8
DEFAULT_255_2_778
10
25.4598045
20
40.5439824
11
25.7099045
21
40.2936824
0
LINE
8
DEFAULT_255_2_778
10
25.7099045
20
40.2936824
11
25.4598045
21
40.0433824
0
LINE
8
DEFAULT_255_2_778
10
25.4598045
20
42.1439824
11
25.7099045
21
42.3936824
0
LINE
8
DEFAULT_255_2_778
10
25.7099045
20
42.3936824
11
25.4598045
21
42.6434824
0
LINE
8
DEFAULT_255_2_778
10
25.4598045
20
49.3239824
11
25.4598045
21
50.9238824
0
LINE
8
DEFAULT_255_2_778
10
25.4598045
20
50.9238824
11
27.6897045
21
50.9238824
0
LINE
8
DEFAULT_255_2_778
10
27.6897045
20
48.8233824
11
27.6897045
21
53.8194824
0
LINE
8
DEFAULT_255_2_778
10
27.6897045
20
53.8194824
11
25.4598045
21
53.8194824
0
LINE
8
DEFAULT_255_2_778
10
25.4598045
20
53.8194824
11
25.4598045
21
51.4194824
0
LINE
8
DEFAULT_255_2_778
10
25.4598045
20
51.4194824
11
27.6897045
21
51.4194824
0
LINE
8
DEFAULT_255_2_778
10
27.6897045
20
49.3239824
11
25.4598045
21
49.3239824
0
LINE
8
DEFAULT_255_2_778
10
25.4598045
20
49.3239824
11
25.7099045
21
49.0736824
0
LINE
8
DEFAULT_255_2_778
10
25.7099045
20
49.0736824
11
25.4598045
21
48.8233824
0
LINE
8
DEFAULT_255_2_778
10
25.4598045
20
50.9238824
11
25.7099045
21
51.1736824
0
LINE
8
DEFAULT_255_2_778
10
25.7099045
20
51.1736824
11
25.4598045
21
51.4233824
0
LINE
8
DEFAULT_255_2_778
10
27.6897045
20
54.3237824
11
25.4598045
21
54.3237824
0
LINE
8
DEFAULT_255_2_778
10
25.4598045
20
54.3237824
11
25.7099045
21
54.0734824
0
LINE
8
DEFAULT_255_2_778
10
25.7099045
20
54.0734824
11
25.4598045
21
53.8231824
0
LINE
8
DEFAULT_255_2_778
10
25.4598045
20
55.9236824
11
25.7099045
21
56.1734824
0
LINE
8
DEFAULT_255_2_778
10
25.7099045
20
56.1734824
11
25.4598045
21
56.4232824
0
LINE
8
DEFAULT_255_2_778
10
25.4598045
20
37.6393824
11
24.9598045
21
38.1396824
0
LINE
8
DEFAULT_255_2_778
10
25.4598045
20
42.6392824
11
24.9598045
21
43.1395824
0
LINE
8
DEFAULT_255_2_778
10
24.9598045
20
34.5437824
11
24.9598045
21
39.5393824
0
LINE
8
DEFAULT_255_2_778
10
24.9598045
20
39.5393824
11
25.4598045
21
40.0388824
0
LINE
8
DEFAULT_255_2_778
10
24.9598045
20
39.5435824
11
24.9598045
21
48.3192824
0
LINE
8
DEFAULT_255_2_778
10
24.9598045
20
48.3192824
11
25.4598045
21
48.8188824
0
LINE
8
DEFAULT_255_2_778
10
25.4598045
20
51.4188824
11
24.9598045
21
51.9192824
0
LINE
8
DEFAULT_255_2_778
10
25.4598045
20
56.4186824
11
24.9598045
21
56.9190824
0
LINE
8
DEFAULT_255_2_778
10
24.9598045
20
48.3232824
11
24.9598045
21
53.3188824
0
LINE
8
DEFAULT_255_2_778
10
24.9598045
20
53.3188824
11
25.4598045
21
53.8183824
0
LINE
8
DEFAULT_255_2_778
10
27.6897045
20
53.8223824
11
27.6897045
21
54.8886824
0
LINE
8
DEFAULT_255_2_778
10
26.8227045
20
55.0195824
11
26.6917045
21
54.8886824
0
LINE
8
DEFAULT_255_2_778
10
29.1217045
20
54.8886824
11
29.2526045
21
55.0195824
0
LINE
8
DEFAULT_255_2_778
10
28.3097045
20
33.0731824
11
28.1573045
21
33.0731824
0
LINE
8
DEFAULT_255_2_778
10
28.1573045
20
33.0731824
11
28.1573045
21
33.5811824
0
LINE
8
DEFAULT_255_2_778
10
28.1573045
20
33.5811824
11
28.3097045
21
33.5811824
0
LINE
8
DEFAULT_255_2_778
10
28.3097045
20
35.0721824
11
28.1573045
21
35.0721824
0
LINE
8
DEFAULT_255_2_778
10
28.1573045
20
35.0721824
11
28.1573045
21
35.5801824
0
LINE
8
DEFAULT_255_2_778
10
28.1573045
20
35.5801824
11
28.3097045
21
35.5801824
0
LINE
8
DEFAULT_255_2_778
10
28.3097045
20
37.0710824
11
28.1573045
21
37.0710824
0
LINE
8
DEFAULT_255_2_778
10
28.1573045
20
37.0710824
11
28.1573045
21
37.5790824
0
LINE
8
DEFAULT_255_2_778
10
28.1573045
20
37.5790824
11
28.3097045
21
37.5790824
0
LINE
8
DEFAULT_255_2_778
10
28.3097045
20
39.0699824
11
28.1573045
21
39.0699824
0
LINE
8
DEFAULT_255_2_778
10
28.1573045
20
39.0699824
11
28.1573045
21
39.5779824
0
LINE
8
DEFAULT_255_2_778
10
28.1573045
20
39.5779824
11
28.3097045
21
39.5779824
0
LINE
8
DEFAULT_255_2_778
10
28.1573045
20
33.0742824
11
27.8017045
21
33.0742824
0
LINE
8
DEFAULT_255_2_778
10
28.1573045
20
35.0731824
11
27.8017045
21
35.0731824
0
LINE
8
DEFAULT_255_2_778
10
28.1573045
20
37.0721824
11
27.8017045
21
37.0721824
0
LINE
8
DEFAULT_255_2_778
10
27.8017045
20
33.5822824
11
28.1573045
21
33.5822824
0
LINE
8
DEFAULT_255_2_778
10
27.8017045
20
35.5814824
11
28.1573045
21
35.5814824
0
LINE
8
DEFAULT_255_2_778
10
27.8017045
20
37.5806824
11
28.1573045
21
37.5806824
0
LINE
8
DEFAULT_255_2_778
10
28.1573045
20
39.0715824
11
27.8017045
21
39.0715824
0
LINE
8
DEFAULT_255_2_778
10
27.8017045
20
39.5795824
11
28.1573045
21
39.5795824
0
LINE
8
DEFAULT_255_2_778
10
28.3097045
20
45.0672824
11
28.1573045
21
45.0672824
0
LINE
8
DEFAULT_255_2_778
10
28.1573045
20
45.0672824
11
28.1573045
21
45.5752824
0
LINE
8
DEFAULT_255_2_778
10
28.1573045
20
45.5752824
11
28.3097045
21
45.5752824
0
LINE
8
DEFAULT_255_2_778
10
28.3097045
20
46.9265824
11
28.1573045
21
46.9265824
0
LINE
8
DEFAULT_255_2_778
10
28.1573045
20
46.9265824
11
28.1573045
21
46.8169824
0
LINE
8
DEFAULT_255_2_778
10
28.3097045
20
47.0664824
11
28.1573045
21
47.0664824
0
LINE
8
DEFAULT_255_2_778
10
28.1573045
20
47.0664824
11
28.1573045
21
47.5744824
0
LINE
8
DEFAULT_255_2_778
10
28.1573045
20
47.5744824
11
28.3097045
21
47.5744824
0
LINE
8
DEFAULT_255_2_778
10
28.3097045
20
48.4177824
11
28.1573045
21
48.4177824
0
LINE
8
DEFAULT_255_2_778
10
28.1573045
20
48.4177824
11
28.1573045
21
48.9257824
0
LINE
8
DEFAULT_255_2_778
10
28.1573045
20
48.9257824
11
28.3097045
21
48.9257824
0
LINE
8
DEFAULT_255_2_778
10
28.3097045
20
49.0654824
11
28.1573045
21
49.0654824
0
LINE
8
DEFAULT_255_2_778
10
28.1573045
20
49.0654824
11
28.1573045
21
49.5734824
0
LINE
8
DEFAULT_255_2_778
10
28.1573045
20
49.5734824
11
28.3097045
21
49.5734824
0
LINE
8
DEFAULT_255_2_778
10
28.3097045
20
50.4166824
11
28.1573045
21
50.4166824
0
LINE
8
DEFAULT_255_2_778
10
28.1573045
20
50.4166824
11
28.1573045
21
50.8119824
0
LINE
8
DEFAULT_255_2_778
10
28.3097045
20
52.4155824
11
28.1573045
21
52.4155824
0
LINE
8
DEFAULT_255_2_778
10
28.1573045
20
52.4155824
11
28.1573045
21
52.9235824
0
LINE
8
DEFAULT_255_2_778
10
28.1573045
20
52.9235824
11
28.3097045
21
52.9235824
0
LINE
8
DEFAULT_255_2_778
10
28.3097045
20
53.0632824
11
28.1573045
21
53.0632824
0
LINE
8
DEFAULT_255_2_778
10
28.1573045
20
53.0632824
11
28.1573045
21
53.5712824
0
LINE
8
DEFAULT_255_2_778
10
28.1573045
20
53.5712824
11
28.3097045
21
53.5712824
0
LINE
8
DEFAULT_255_2_778
10
28.1573045
20
45.0686824
11
27.8017045
21
45.0686824
0
LINE
8
DEFAULT_255_2_778
10
28.1573045
20
47.0675824
11
27.8017045
21
47.0675824
0
LINE
8
DEFAULT_255_2_778
10
27.8017045
20
45.5766824
11
28.1573045
21
45.5766824
0
LINE
8
DEFAULT_255_2_778
10
27.8017045
20
47.5757824
11
28.1573045
21
47.5757824
0
LINE
8
DEFAULT_255_2_778
10
28.1573045
20
49.0667824
11
27.8017045
21
49.0667824
0
LINE
8
DEFAULT_255_2_778
10
27.8017045
20
49.5747824
11
28.1573045
21
49.5747824
0
LINE
8
DEFAULT_255_2_778
10
28.3097045
20
54.4144824
11
28.1573045
21
54.4144824
0
LINE
8
DEFAULT_255_2_778
10
28.1573045
20
54.4144824
11
28.1573045
21
54.8888824
0
LINE
8
DEFAULT_255_2_778
10
28.1573045
20
53.0645824
11
27.8017045
21
53.0645824
0
LINE
8
DEFAULT_255_2_778
10
27.8017045
20
53.5725824
11
28.1573045
21
53.5725824
0
LINE
8
DEFAULT_255_2_778
10
28.3097045
20
31.9489824
11
28.3097045
21
54.8888824
0
LINE
8
DEFAULT_255_2_778
10
27.8017045
20
54.8888824
11
27.8017045
21
51.8168824
0
LINE
8
DEFAULT_255_2_778
10
27.8017045
20
50.8116824
11
27.8017045
21
46.8167824
0
LINE
8
DEFAULT_255_2_778
10
27.3397045
20
41.8115824
11
28.3097045
21
41.8115824
0
LINE
8
DEFAULT_255_2_778
10
27.3397045
20
45.8115824
11
28.3097045
21
45.8115824
0
LINE
8
DEFAULT_255_2_778
10
27.3397045
20
46.8116824
11
28.3097045
21
46.8116824
0
LINE
8
DEFAULT_255_2_778
10
28.3097045
20
45.0064824
11
27.6397045
21
45.0064824
0
LINE
8
DEFAULT_255_2_778
10
27.6397045
20
45.0064824
11
27.6397045
21
42.6063824
0
LINE
8
DEFAULT_255_2_778
10
27.6397045
20
42.6063824
11
28.3097045
21
42.6063824
0
LINE
8
DEFAULT_255_2_778
10
27.8017045
20
45.8115824
11
27.8017045
21
45.0064824
0
LINE
8
DEFAULT_255_2_778
10
27.8017045
20
42.6063824
11
27.8017045
21
41.8168824
0
LINE
8
DEFAULT_255_2_778
10
27.8017045
20
40.8117824
11
27.8017045
21
36.8167824
0
LINE
8
DEFAULT_255_2_778
10
27.8017045
20
35.8116824
11
27.8017045
21
31.9487824
0
LINE
8
DEFAULT_255_2_778
10
27.9032045
20
53.0643824
11
27.9032045
21
51.8165824
0
LINE
8
DEFAULT_255_2_778
10
27.9032045
20
54.8886824
11
27.9032045
21
53.5955824
0
LINE
8
DEFAULT_255_2_778
10
27.9032045
20
50.8113824
11
27.9032045
21
49.5956824
0
LINE
8
DEFAULT_255_2_778
10
27.9032045
20
49.0664824
11
27.9032045
21
47.5956824
0
LINE
8
DEFAULT_255_2_778
10
27.9032045
20
47.0675824
11
27.9032045
21
46.8167824
0
LINE
8
DEFAULT_255_2_778
10
27.9032045
20
45.8115824
11
27.9032045
21
45.5956824
0
LINE
8
DEFAULT_255_2_778
10
28.0303045
20
53.5723824
11
28.0303045
21
53.0643824
0
LINE
8
DEFAULT_255_2_778
10
28.0303045
20
49.5744824
11
28.0303045
21
49.0664824
0
LINE
8
DEFAULT_255_2_778
10
28.0303045
20
47.5755824
11
28.0303045
21
47.0675824
0
LINE
8
DEFAULT_255_2_778
10
28.0303045
20
45.5766824
11
28.0303045
21
45.0686824
0
LINE
8
DEFAULT_255_2_778
10
28.0303045
20
39.5795824
11
28.0303045
21
39.0715824
0
LINE
8
DEFAULT_255_2_778
10
28.0303045
20
37.5806824
11
28.0303045
21
37.0726824
0
LINE
8
DEFAULT_255_2_778
10
28.0303045
20
35.5817824
11
28.0303045
21
35.0737824
0
LINE
8
DEFAULT_255_2_778
10
28.0303045
20
33.5827824
11
28.0303045
21
33.0747824
0
LINE
8
DEFAULT_255_2_778
10
28.1064045
20
53.0645824
11
28.1064045
21
51.8168824
0
LINE
8
DEFAULT_255_2_778
10
28.1064045
20
54.8888824
11
28.1064045
21
53.5958824
0
LINE
8
DEFAULT_255_2_778
10
28.1064045
20
50.8116824
11
28.1064045
21
49.5958824
0
LINE
8
DEFAULT_255_2_778
10
28.1064045
20
49.0667824
11
28.1064045
21
47.5959824
0
LINE
8
DEFAULT_255_2_778
10
28.1064045
20
47.0678824
11
28.1064045
21
46.8169824
0
LINE
8
DEFAULT_255_2_778
10
28.1064045
20
45.8118824
11
28.1064045
21
45.5959824
0
LINE
8
DEFAULT_255_2_778
10
27.9032045
20
39.0718824
11
27.9032045
21
37.5959824
0
LINE
8
DEFAULT_255_2_778
10
28.1064045
20
39.0718824
11
28.1064045
21
37.5959824
0
LINE
8
DEFAULT_255_2_778
10
27.9032045
20
42.6066824
11
27.9032045
21
41.8171824
0
LINE
8
DEFAULT_255_2_778
10
27.9032045
20
37.0731824
11
27.9032045
21
36.8173824
0
LINE
8
DEFAULT_255_2_778
10
27.9032045
20
40.8122824
11
27.9032045
21
39.5964824
0
LINE
8
DEFAULT_255_2_778
10
27.9032045
20
35.8124824
11
27.9032045
21
35.5965824
0
LINE
8
DEFAULT_255_2_778
10
27.9032045
20
35.0745824
11
27.9032045
21
33.5965824
0
LINE
8
DEFAULT_255_2_778
10
28.1064045
20
42.6071824
11
28.1064045
21
41.8176824
0
LINE
8
DEFAULT_255_2_778
10
28.1064045
20
37.0736824
11
28.1064045
21
36.8178824
0
LINE
8
DEFAULT_255_2_778
10
28.1064045
20
40.8127824
11
28.1064045
21
39.5970824
0
LINE
8
DEFAULT_255_2_778
10
28.1064045
20
35.8129824
11
28.1064045
21
35.5970824
0
LINE
8
DEFAULT_255_2_778
10
28.1064045
20
35.0750824
11
28.1064045
21
33.5970824
0
LINE
8
DEFAULT_255_2_778
10
27.9032045
20
33.0761824
11
27.9032045
21
31.9503824
0
LINE
8
DEFAULT_255_2_778
10
28.1064045
20
33.0761824
11
28.1064045
21
31.9503824
0
LINE
8
DEFAULT_255_2_778
10
28.3099045
20
15.9999824
11
29.1219045
21
15.9999824
0
LINE
8
DEFAULT_255_2_778
10
29.1219045
20
15.9999824
11
29.1219045
21
9.3199824
0
LINE
8
DEFAULT_255_2_778
10
28.3099045
20
9.3199824
11
29.1219045
21
9.3199824
0
LINE
8
DEFAULT_255_2_778
10
29.1219045
20
9.3199824
11
29.2529045
21
9.1889824
0
LINE
8
DEFAULT_255_2_778
10
29.2529045
20
9.1889824
11
28.3099045
21
9.1889824
0
LINE
8
DEFAULT_255_2_778
10
28.3099045
20
16.1311824
11
29.2529045
21
16.1311824
0
LINE
8
DEFAULT_255_2_778
10
29.2529045
20
16.1311824
11
29.2529045
21
9.1889824
0
LINE
8
DEFAULT_255_2_778
10
29.1219045
20
15.9999824
11
29.2529045
21
16.1308824
0
ENDSEC
0
EOF