0
SECTION
2
HEADER
9
$MEASUREMENT
70
1
0
ENDSEC
0
SECTION
2
TABLES
0
TABLE
2
LTYPE
0
LTYPE
72
65
70
64
2
CONTINUOUS
3
______
73
0
40
0
0
ENDTAB
0
TABLE
2
LAYER
0
LAYER
2
DEFAULT_255_2_778
70
0
62
255
6
CONTINUOUS
0
LAYER
2
DEFAULT_255_1_388
70
0
62
255
6
CONTINUOUS
0
ENDTAB
0
ENDSEC
0
SECTION
2
ENTITIES
0
ARC
8
DEFAULT_255_2_778
10
3.5700693
20
171.0552017
40
0.7914215
50
129.1312896
51
180.1450914
0
ARC
8
DEFAULT_255_2_778
10
3.5703345
20
171.0556888
40
0.7912112
50
89.854026
51
129.1684493
0
ARC
8
DEFAULT_255_2_778
10
25.7993937
20
171.0553754
40
0.7915249
50
39.4792447
51
90.147911
0
ARC
8
DEFAULT_255_2_778
10
25.7999935
20
171.055222
40
0.7911595
50
359.8533901
51
39.5154338
0
ARC
8
DEFAULT_255_2_778
10
25.7996693
20
-1.9863506
40
0.7914836
50
309.4761667
51
0.1482649
0
ARC
8
DEFAULT_255_2_778
10
25.799398
20
-1.9867816
40
0.7913235
50
269.8517415
51
309.511178
0
ARC
8
DEFAULT_255_2_778
10
3.570342
20
-1.9867235
40
0.7913815
50
219.1282118
51
270.1454017
0
ARC
8
DEFAULT_255_2_778
10
3.5700247
20
-1.986341
40
0.7913769
50
179.8524075
51
219.1641908
0
LINE
8
DEFAULT_255_2_778
10
3.5723503
20
171.8468976
11
25.7973503
21
171.8468976
0
LINE
8
DEFAULT_255_2_778
10
26.5911503
20
171.0531976
11
26.5911503
21
-1.9843024
0
LINE
8
DEFAULT_255_2_778
10
25.7973503
20
-2.7781024
11
3.5723503
21
-2.7781024
0
LINE
8
DEFAULT_255_2_778
10
2.7786503
20
-1.9843024
11
2.7786503
21
171.0531976
0
LINE
8
DEFAULT_255_1_388
10
8.3996985
20
0.6821148
11
8.3996985
21
-0.6398
0
LINE
8
DEFAULT_255_1_388
10
8.3996985
20
-0.6398
11
8.2316355
21
-0.6398
0
LINE
8
DEFAULT_255_1_388
10
8.2316355
20
-0.6398
11
8.2316355
21
0.474295
0
LINE
8
DEFAULT_255_1_388
10
8.2316355
20
0.474295
11
7.894606
21
0.3505066
0
LINE
8
DEFAULT_255_1_388
10
7.894606
20
0.3505066
11
7.894606
21
0.5023055
0
LINE
8
DEFAULT_255_1_388
10
7.894606
20
0.5023055
11
8.3734951
21
0.6821148
0
LINE
8
DEFAULT_255_1_388
10
8.3734951
20
0.6821148
11
8.3996985
21
0.6821148
0
LINE
8
DEFAULT_255_1_388
10
9.738781
20
0.6757898
11
9.738781
21
0.5818191
0
LINE
8
DEFAULT_255_1_388
10
9.738781
20
0.5818191
11
9.1939316
21
-0.6398
0
LINE
8
DEFAULT_255_1_388
10
9.1939316
20
-0.6398
11
9.0186401
21
-0.6398
0
LINE
8
DEFAULT_255_1_388
10
9.0186401
20
-0.6398
11
9.5616824
21
0.538448
0
LINE
8
DEFAULT_255_1_388
10
9.5616824
20
0.538448
11
8.8496736
21
0.538448
0
LINE
8
DEFAULT_255_1_388
10
8.8496736
20
0.538448
11
8.8496736
21
0.6757898
0
LINE
8
DEFAULT_255_1_388
10
8.8496736
20
0.6757898
11
9.738781
21
0.6757898
0
LINE
8
DEFAULT_255_1_388
10
10.1390601
20
-0.0145334
11
10.0053325
21
0.0198021
0
LINE
8
DEFAULT_255_1_388
10
10.0053325
20
0.0198021
11
10.0721963
21
0.6757898
0
LINE
8
DEFAULT_255_1_388
10
10.0721963
20
0.6757898
11
10.7462554
21
0.6757898
0
LINE
8
DEFAULT_255_1_388
10
10.7462554
20
0.6757898
11
10.7462554
21
0.5212803
0
LINE
8
DEFAULT_255_1_388
10
10.7462554
20
0.5212803
11
10.2140559
21
0.5212803
0
LINE
8
DEFAULT_255_1_388
10
10.2140559
20
0.5212803
11
10.1742991
21
0.1625652
0
LINE
8
DEFAULT_255_1_388
10
9.9583472
20
-0.2937348
11
10.1164709
21
-0.2937348
0
LINE
8
DEFAULT_255_1_388
10
10.1833347
20
0.0216092
11
10.1390601
21
-0.0145334
0
ARC
8
DEFAULT_255_1_388
10
10.3829604
20
-0.1951759
40
0.4141476
50
93.7181681
51
120.253934
0
ARC
8
DEFAULT_255_1_388
10
10.3935656
20
-0.2860716
40
0.5055616
50
89.9660471
51
94.2495185
0
ARC
8
DEFAULT_255_1_388
10
10.3981478
20
-0.2197846
40
0.4392953
50
73.8045384
51
90.5585736
0
ARC
8
DEFAULT_255_1_388
10
10.4245736
20
-0.123248
40
0.3392225
50
41.3071072
51
73.543002
0
ARC
8
DEFAULT_255_1_388
10
10.3777556
20
-0.1635539
40
0.4009977
50
13.5075837
51
41.2174839
0
ARC
8
DEFAULT_255_1_388
10
10.1930653
20
-0.2119093
40
0.5918864
50
1.1330171
51
13.8830737
0
ARC
8
DEFAULT_255_1_388
10
10.0334299
20
-0.2204478
40
0.7516787
50
359.9925091
51
1.5431298
0
ARC
8
DEFAULT_255_1_388
10
10.1778914
20
-0.2250973
40
0.6072343
50
347.8572712
51
0.4294349
0
ARC
8
DEFAULT_255_1_388
10
10.3748049
20
-0.2697102
40
0.4053482
50
323.6727442
51
348.1674594
0
ARC
8
DEFAULT_255_1_388
10
10.4079013
20
-0.2898825
40
0.3667495
50
316.8171818
51
323.1486802
0
ARC
8
DEFAULT_255_1_388
10
10.4148137
20
-0.2940388
40
0.358869
50
281.839603
51
316.5458142
0
ARC
8
DEFAULT_255_1_388
10
10.3725425
20
-0.1190637
40
0.5388223
50
269.5770964
51
282.4214641
0
ARC
8
DEFAULT_255_1_388
10
10.3645345
20
-0.143107
40
0.5147801
50
256.2425863
51
270.4486481
0
ARC
8
DEFAULT_255_1_388
10
10.3308873
20
-0.2780876
40
0.3756708
50
228.9024379
51
256.33135
0
ARC
8
DEFAULT_255_1_388
10
10.3225853
20
-0.2911946
40
0.360344
50
193.7536029
51
228.5272638
0
ARC
8
DEFAULT_255_1_388
10
10.4618418
20
-0.2503537
40
0.5053599
50
184.9244437
51
194.4976052
0
ARC
8
DEFAULT_255_1_388
10
10.483506
20
-0.2463278
40
0.3700839
50
187.3596909
51
198.6733728
0
ARC
8
DEFAULT_255_1_388
10
10.3654303
20
-0.2872627
40
0.2451195
50
198.4453795
51
217.7945479
0
ARC
8
DEFAULT_255_1_388
10
10.3321476
20
-0.3108437
40
0.2043754
50
218.2887146
51
228.5613203
0
ARC
8
DEFAULT_255_1_388
10
10.3431482
20
-0.2960098
40
0.2227819
50
228.9652423
51
258.1237049
0
ARC
8
DEFAULT_255_1_388
10
10.366292
20
-0.1969036
40
0.3245374
50
257.7260585
51
270.4013717
0
ARC
8
DEFAULT_255_1_388
10
10.3713418
20
-0.2469745
40
0.2744726
50
269.4204315
51
286.420998
0
ARC
8
DEFAULT_255_1_388
10
10.3880474
20
-0.3076295
40
0.2115721
50
286.7250065
51
320.6004665
0
ARC
8
DEFAULT_255_1_388
10
10.3449389
20
-0.2726473
40
0.2670878
50
320.6712228
51
344.5440474
0
ARC
8
DEFAULT_255_1_388
10
10.2148103
20
-0.2344606
40
0.4026927
50
344.241448
51
356.735803
0
ARC
8
DEFAULT_255_1_388
10
10.074441
20
-0.2228344
40
0.5435085
50
356.3547471
51
0.0507222
0
ARC
8
DEFAULT_255_1_388
10
10.2246675
20
-0.2193188
40
0.3932934
50
359.5579289
51
12.9534322
0
ARC
8
DEFAULT_255_1_388
10
10.3433515
20
-0.1905414
40
0.2711827
50
12.6489751
51
41.608121
0
ARC
8
DEFAULT_255_1_388
10
10.3692675
20
-0.1685054
40
0.2371737
50
41.7851122
51
85.9892156
0
ARC
8
DEFAULT_255_1_388
10
10.3553985
20
-0.2600262
40
0.3295244
50
84.6965848
51
90.0672125
0
ARC
8
DEFAULT_255_1_388
10
10.3527553
20
-0.3351882
40
0.4046926
50
89.6804991
51
99.161352
0
ARC
8
DEFAULT_255_1_388
10
10.3296562
20
-0.1971152
40
0.2647044
50
98.9836248
51
113.8905702
0
ARC
8
DEFAULT_255_1_388
10
10.3038237
20
-0.1361882
40
0.1985386
50
114.195234
51
127.3641866
0
LINE
8
DEFAULT_255_1_388
10
11.5937988
20
0.6766934
11
11.6236165
21
0.6766934
0
LINE
8
DEFAULT_255_1_388
10
11.6236165
20
0.6766934
11
11.6236165
21
0.5348338
0
LINE
8
DEFAULT_255_1_388
10
11.6236165
20
0.5348338
11
11.5928953
21
0.5348338
0
LINE
8
DEFAULT_255_1_388
10
10.9775679
20
-0.1392253
11
10.9775679
21
-0.0750722
0
LINE
8
DEFAULT_255_1_388
10
11.1456309
20
-0.0967578
11
11.1456309
21
-0.1582001
0
ARC
8
DEFAULT_255_1_388
10
11.5987844
20
-0.0274174
40
0.562282
50
90.6001079
51
104.5146616
0
ARC
8
DEFAULT_255_1_388
10
11.5550804
20
0.13511
40
0.3939917
50
104.2855758
51
133.8630124
0
ARC
8
DEFAULT_255_1_388
10
11.5735056
20
0.1229243
40
0.4155734
50
134.5304124
51
161.6210222
0
ARC
8
DEFAULT_255_1_388
10
11.7594989
20
0.0573421
40
0.6127682
50
161.2850533
51
174.2074364
0
ARC
8
DEFAULT_255_1_388
10
11.9184555
20
0.0354437
40
0.7731446
50
173.7817938
51
174.9251711
0
ARC
8
DEFAULT_255_1_388
10
11.4058749
20
-0.120073
40
0.3412588
50
95.8332067
51
138.995412
0
ARC
8
DEFAULT_255_1_388
10
11.4310029
20
-0.2639305
40
0.4870358
50
89.8755506
51
97.0540979
0
ARC
8
DEFAULT_255_1_388
10
11.4363418
20
-0.1699159
40
0.3930432
50
71.6407016
51
90.6240821
0
ARC
8
DEFAULT_255_1_388
10
11.4532812
20
-0.1075567
40
0.3285421
50
39.6368051
51
71.0190743
0
ARC
8
DEFAULT_255_1_388
10
11.3816719
20
-0.1694414
40
0.4231706
50
10.6588054
51
39.9044509
0
ARC
8
DEFAULT_255_1_388
10
11.2075265
20
-0.2072777
40
0.60133
50
359.6827842
51
11.1326896
0
ARC
8
DEFAULT_255_1_388
10
11.2030601
20
-0.2152285
40
0.6058047
50
347.2485908
51
0.4371098
0
ARC
8
DEFAULT_255_1_388
10
11.3906386
20
-0.2603621
40
0.4128987
50
318.1408565
51
347.6118497
0
ARC
8
DEFAULT_255_1_388
10
11.4271983
20
-0.2904097
40
0.3656244
50
275.6342406
51
317.824739
0
ARC
8
DEFAULT_255_1_388
10
11.4023504
20
-0.1442173
40
0.513655
50
269.8872513
51
276.7916069
0
ARC
8
DEFAULT_255_1_388
10
11.3961697
20
-0.2595819
40
0.398323
50
246.9139443
51
270.7436787
0
ARC
8
DEFAULT_255_1_388
10
11.3968893
20
-0.2755956
40
0.3839368
50
218.1665534
51
245.8780431
0
ARC
8
DEFAULT_255_1_388
10
11.4958265
20
-0.1928097
40
0.5128958
50
191.4115343
51
218.6077624
0
ARC
8
DEFAULT_255_1_388
10
11.7138581
20
-0.1439223
40
0.7363054
50
179.6344971
51
191.7836758
0
ARC
8
DEFAULT_255_1_388
10
12.3418455
20
-0.0675505
40
1.3642984
50
171.4523743
51
180.3158856
0
ARC
8
DEFAULT_255_1_388
10
11.8474182
20
0.0093895
40
0.8639311
50
157.9802296
51
171.6246761
0
ARC
8
DEFAULT_255_1_388
10
11.5983533
20
0.1087038
40
0.5958004
50
141.4299236
51
157.8541251
0
ARC
8
DEFAULT_255_1_388
10
11.5261616
20
0.1597746
40
0.5075416
50
102.871586
51
140.8564533
0
ARC
8
DEFAULT_255_1_388
10
11.5990169
20
-0.1147057
40
0.7914163
50
90.377773
51
103.5868422
0
ARC
8
DEFAULT_255_1_388
10
11.403469
20
-0.1827457
40
0.2667015
50
89.8751238
51
126.2072139
0
ARC
8
DEFAULT_255_1_388
10
11.4086161
20
-0.2001153
40
0.2838229
50
124.9742447
51
144.8960197
0
ARC
8
DEFAULT_255_1_388
10
11.3888406
20
-0.1840019
40
0.2583845
50
145.2974778
51
160.2660922
0
ARC
8
DEFAULT_255_1_388
10
11.7344895
20
-0.1617849
40
0.5888695
50
179.6512124
51
190.285571
0
ARC
8
DEFAULT_255_1_388
10
11.5439374
20
-0.1977032
40
0.3949683
50
190.0944895
51
207.5099647
0
ARC
8
DEFAULT_255_1_388
10
11.4802956
20
-0.2279823
40
0.3245464
50
207.9585471
51
216.325377
0
ARC
8
DEFAULT_255_1_388
10
11.4420593
20
-0.2594288
40
0.2751259
50
215.7661336
51
232.5457193
0
ARC
8
DEFAULT_255_1_388
10
11.3989709
20
-0.3141727
40
0.2054668
50
232.8005815
51
270.6605497
0
ARC
8
DEFAULT_255_1_388
10
11.4041133
20
-0.2732147
40
0.2464268
50
269.3550767
51
288.474612
0
ARC
8
DEFAULT_255_1_388
10
11.414564
20
-0.3125279
40
0.2058436
50
289.1831976
51
322.9685307
0
ARC
8
DEFAULT_255_1_388
10
11.3457742
20
-0.2582721
40
0.2934408
50
322.6007085
51
346.5183319
0
ARC
8
DEFAULT_255_1_388
10
11.2155498
20
-0.2250566
40
0.4278249
50
346.2584622
51
358.7739592
0
ARC
8
DEFAULT_255_1_388
10
11.1004073
20
-0.2188171
40
0.5430876
50
358.3757628
51
0.0082477
0
ARC
8
DEFAULT_255_1_388
10
11.1860892
20
-0.2157144
40
0.4574157
50
359.6211417
51
11.28403
0
ARC
8
DEFAULT_255_1_388
10
11.3297498
20
-0.1857465
40
0.3106708
50
11.0483152
51
31.8145585
0
ARC
8
DEFAULT_255_1_388
10
11.3645203
20
-0.1668955
40
0.2711963
50
32.3028554
51
38.0820598
0
ARC
8
DEFAULT_255_1_388
10
11.4118436
20
-0.1240283
40
0.2075566
50
36.8249851
51
85.741667
0
ARC
8
DEFAULT_255_1_388
10
11.4042849
20
-0.1803935
40
0.2643487
50
85.0150021
51
90.050843
0
LINE
8
DEFAULT_255_1_388
10
12.3717678
20
-0.0127263
11
12.3717678
21
-0.1491645
0
LINE
8
DEFAULT_255_1_388
10
12.3717678
20
-0.1491645
11
11.9308284
21
-0.1491645
0
LINE
8
DEFAULT_255_1_388
10
11.9308284
20
-0.1491645
11
11.9308284
21
-0.0127263
0
LINE
8
DEFAULT_255_1_388
10
11.9308284
20
-0.0127263
11
12.3717678
21
-0.0127263
0
LINE
8
DEFAULT_255_1_388
10
13.572605
20
0.0586553
11
13.572605
21
-0.0244726
0
LINE
8
DEFAULT_255_1_388
10
12.514531
20
-0.0362189
11
12.514531
21
0.0586553
0
LINE
8
DEFAULT_255_1_388
10
13.4000242
20
-0.0371225
11
13.4000242
21
0.0604625
0
LINE
8
DEFAULT_255_1_388
10
12.6871118
20
0.0722088
11
12.6871118
21
-0.0244726
0
ARC
8
DEFAULT_255_1_388
10
12.6003788
20
-0.0289274
40
0.9722364
50
350.4878118
51
0.2625322
0
ARC
8
DEFAULT_255_1_388
10
12.8583748
20
-0.0733006
40
0.7104556
50
336.0277991
51
350.5787241
0
ARC
8
DEFAULT_255_1_388
10
13.0096855
20
-0.1416757
40
0.544417
50
319.887443
51
336.1331163
0
ARC
8
DEFAULT_255_1_388
10
13.0774667
20
-0.1959267
40
0.4576311
50
302.4806296
51
319.6144102
0
ARC
8
DEFAULT_255_1_388
10
13.0645288
20
-0.1709933
40
0.4856183
50
275.8196423
51
302.1885521
0
ARC
8
DEFAULT_255_1_388
10
13.045815
20
-0.0424534
40
0.6154183
50
269.9169897
51
276.339506
0
ARC
8
DEFAULT_255_1_388
10
13.040775
20
-0.119632
40
0.5382553
50
252.5221437
51
270.441579
0
ARC
8
DEFAULT_255_1_388
10
13.0246001
20
-0.1802954
40
0.4755426
50
237.5349961
51
252.1858334
0
ARC
8
DEFAULT_255_1_388
10
13.0346377
20
-0.167488
40
0.4917393
50
209.0632754
51
237.3492577
0
ARC
8
DEFAULT_255_1_388
10
13.1325703
20
-0.1059896
40
0.6072464
50
205.118533
51
209.6465345
0
ARC
8
DEFAULT_255_1_388
10
13.2221705
20
-0.0679826
40
0.7045164
50
188.7216633
51
204.8239753
0
ARC
8
DEFAULT_255_1_388
10
13.446848
20
-0.0301613
40
0.9323368
50
180.3722704
51
188.9253909
0
ARC
8
DEFAULT_255_1_388
10
13.4438042
20
0.0631416
40
0.929284
50
169.5253055
51
180.2766048
0
ARC
8
DEFAULT_255_1_388
10
13.2297841
20
0.1025024
40
0.7116745
50
155.8314601
51
169.5088611
0
ARC
8
DEFAULT_255_1_388
10
13.0857304
20
0.1693312
40
0.5528904
50
139.6259579
51
156.0379072
0
ARC
8
DEFAULT_255_1_388
10
13.0193838
20
0.2227143
40
0.4677708
50
122.6414784
51
139.3431662
0
ARC
8
DEFAULT_255_1_388
10
13.0307092
20
0.2020787
40
0.4912586
50
93.0224537
51
122.4556091
0
ARC
8
DEFAULT_255_1_388
10
13.0428613
20
0.0934776
40
0.6003837
50
89.9756766
51
93.6340839
0
ARC
8
DEFAULT_255_1_388
10
13.0472211
20
0.1383879
40
0.5554884
50
73.7463329
51
90.4234008
0
ARC
8
DEFAULT_255_1_388
10
13.0669684
20
0.2148772
40
0.4765353
50
57.663051
51
73.4516911
0
ARC
8
DEFAULT_255_1_388
10
13.0660722
20
0.2173108
40
0.4749629
50
29.1441355
51
57.4146687
0
ARC
8
DEFAULT_255_1_388
10
12.9608533
20
0.1516046
40
0.5988917
50
24.0985653
51
29.732054
0
ARC
8
DEFAULT_255_1_388
10
12.8446165
20
0.1034154
40
0.7246823
50
8.6654943
51
23.8241215
0
ARC
8
DEFAULT_255_1_388
10
12.5932583
20
0.0624037
40
0.9793537
50
359.7807044
51
8.8218476
0
ARC
8
DEFAULT_255_1_388
10
12.4642288
20
0.0652731
40
0.9358078
50
359.7054632
51
8.0359751
0
ARC
8
DEFAULT_255_1_388
10
12.8017339
20
0.1144252
40
0.5947474
50
7.8926278
51
20.2962188
0
ARC
8
DEFAULT_255_1_388
10
12.9848189
20
0.1819367
40
0.3996117
50
20.3231056
51
36.4990255
0
ARC
8
DEFAULT_255_1_388
10
13.0619487
20
0.2413399
40
0.3022818
50
36.1436715
51
85.6627846
0
ARC
8
DEFAULT_255_1_388
10
13.0436742
20
0.1243881
40
0.4203853
50
84.3845912
51
90.076054
0
ARC
8
DEFAULT_255_1_388
10
13.0389097
20
0.1986416
40
0.346157
50
89.3037228
51
109.9046209
0
ARC
8
DEFAULT_255_1_388
10
13.028493
20
0.2416379
40
0.3022217
50
110.8229774
51
143.917961
0
ARC
8
DEFAULT_255_1_388
10
13.1335289
20
0.1614455
40
0.434348
50
143.5289166
51
163.2980252
0
ARC
8
DEFAULT_255_1_388
10
13.3481576
20
0.0939685
40
0.659321
50
163.0418884
51
174.3139873
0
ARC
8
DEFAULT_255_1_388
10
13.6186541
20
0.0627378
40
0.9315905
50
174.050934
51
179.4174954
0
ARC
8
DEFAULT_255_1_388
10
13.5618485
20
-0.0291618
40
0.8747493
50
179.6928582
51
188.7908948
0
ARC
8
DEFAULT_255_1_388
10
13.2622285
20
-0.0770914
40
0.5713262
50
188.6328449
51
202.5630732
0
ARC
8
DEFAULT_255_1_388
10
13.1211122
20
-0.1337858
40
0.4192612
50
202.8078931
51
216.1195888
0
ARC
8
DEFAULT_255_1_388
10
13.0300639
20
-0.2070521
40
0.3025752
50
215.0755613
51
264.6379773
0
ARC
8
DEFAULT_255_1_388
10
13.0443476
20
-0.1135624
40
0.3970284
50
263.8464302
51
270.0830805
0
ARC
8
DEFAULT_255_1_388
10
13.0490021
20
-0.1426192
40
0.3679937
50
269.3649295
51
287.5149684
0
ARC
8
DEFAULT_255_1_388
10
13.0690462
20
-0.2154286
40
0.2925408
50
288.0629019
51
323.8115617
0
ARC
8
DEFAULT_255_1_388
10
12.9710438
20
-0.1423246
40
0.4148018
50
323.6546541
51
342.6591359
0
ARC
8
DEFAULT_255_1_388
10
12.7425096
20
-0.067972
40
0.6551163
50
342.4092446
51
353.6451501
0
ARC
8
DEFAULT_255_1_388
10
12.4239889
20
-0.0283435
40
0.9760748
50
353.4027553
51
359.4846611
0
LINE
8
DEFAULT_255_1_388
10
14.2891316
20
-0.6398
11
13.8328315
21
-0.6398
0
LINE
8
DEFAULT_255_1_388
10
13.8328315
20
-0.6398
11
13.8328315
21
0.6757898
0
LINE
8
DEFAULT_255_1_388
10
13.8328315
20
0.6757898
11
14.2629282
21
0.6757898
0
LINE
8
DEFAULT_255_1_388
10
14.2954565
20
-0.0244726
11
14.0063159
21
-0.0244726
0
LINE
8
DEFAULT_255_1_388
10
14.0063159
20
-0.0244726
11
14.0063159
21
-0.4979404
0
LINE
8
DEFAULT_255_1_388
10
14.0063159
20
-0.4979404
11
14.2927458
21
-0.4979404
0
LINE
8
DEFAULT_255_1_388
10
14.0063159
20
0.5330267
11
14.0063159
21
0.1146763
0
LINE
8
DEFAULT_255_1_388
10
14.0063159
20
0.1146763
11
14.2683496
21
0.1146763
0
LINE
8
DEFAULT_255_1_388
10
14.2629282
20
0.5330267
11
14.0063159
21
0.5330267
0
ARC
8
DEFAULT_255_1_388
10
14.2671703
20
-0.1530176
40
0.8288183
50
82.1256322
51
90.2932506
0
ARC
8
DEFAULT_255_1_388
10
14.3109277
20
0.152759
40
0.5199321
50
69.9044202
51
82.2857574
0
ARC
8
DEFAULT_255_1_388
10
14.375127
20
0.3262993
40
0.3348993
50
51.1840204
51
70.018125
0
ARC
8
DEFAULT_255_1_388
10
14.4038102
20
0.3679945
40
0.2844579
50
12.1018086
51
50.421322
0
ARC
8
DEFAULT_255_1_388
10
14.2480974
20
0.3288937
40
0.4449429
50
359.5252354
51
12.8212369
0
ARC
8
DEFAULT_255_1_388
10
14.4258404
20
0.3210943
40
0.2672162
50
323.4907456
51
0.8818258
0
ARC
8
DEFAULT_255_1_388
10
14.3787816
20
0.3574523
40
0.3266736
50
298.6824053
51
323.2758285
0
ARC
8
DEFAULT_255_1_388
10
14.3381108
20
0.4250509
40
0.4055105
50
293.1994739
51
299.139634
0
ARC
8
DEFAULT_255_1_388
10
14.4138057
20
-0.2595349
40
0.3229926
50
54.0009997
51
74.9168635
0
ARC
8
DEFAULT_255_1_388
10
14.4268984
20
-0.2373489
40
0.2973581
50
36.3578854
51
53.5293172
0
ARC
8
DEFAULT_255_1_388
10
14.4126352
20
-0.247515
40
0.3148715
50
4.8189348
51
36.3090187
0
ARC
8
DEFAULT_255_1_388
10
14.3249377
20
-0.2598617
40
0.4033265
50
359.9373213
51
5.5201284
0
ARC
8
DEFAULT_255_1_388
10
14.2884707
20
-0.2644267
40
0.4398126
50
344.7479357
51
0.5372278
0
ARC
8
DEFAULT_255_1_388
10
14.3999605
20
-0.2944795
40
0.3243441
50
311.1785587
51
344.6887681
0
ARC
8
DEFAULT_255_1_388
10
14.3671149
20
-0.2535916
40
0.3767511
50
286.0417804
51
310.8440924
0
ARC
8
DEFAULT_255_1_388
10
14.3100558
20
-0.0683115
40
0.5705957
50
274.1044074
51
286.4070149
0
ARC
8
DEFAULT_255_1_388
10
14.2901773
20
0.1434901
40
0.7832907
50
269.9235077
51
274.4458593
0
ARC
8
DEFAULT_255_1_388
10
14.2953491
20
-0.1196538
40
0.3782955
50
269.6057074
51
281.3740795
0
ARC
8
DEFAULT_255_1_388
10
14.321299
20
-0.2426431
40
0.2526069
50
281.105298
51
302.5134029
0
ARC
8
DEFAULT_255_1_388
10
14.3378377
20
-0.2723056
40
0.2187131
50
303.0365425
51
311.8818034
0
ARC
8
DEFAULT_255_1_388
10
14.3458555
20
-0.2818398
40
0.2062624
50
311.9916937
51
351.7143773
0
ARC
8
DEFAULT_255_1_388
10
14.2539579
20
-0.2632729
40
0.2999202
50
350.7343295
51
0.2221526
0
ARC
8
DEFAULT_255_1_388
10
14.2418667
20
-0.256913
40
0.3120525
50
359.045729
51
17.2295312
0
ARC
8
DEFAULT_255_1_388
10
14.3587698
20
-0.2221845
40
0.1901144
50
17.6685208
51
78.9940245
0
ARC
8
DEFAULT_255_1_388
10
14.3006059
20
-0.4309989
40
0.4065575
50
76.565218
51
90.7103392
0
LINE
8
DEFAULT_255_1_388
10
14.2955656
20
-0.0244726
11
14.2954565
21
-0.0244726
0
ARC
8
DEFAULT_255_1_388
10
14.2708885
20
0.4842949
40
0.3696273
50
269.6064514
51
281.4533785
0
ARC
8
DEFAULT_255_1_388
10
14.2959525
20
0.3660283
40
0.2487412
50
281.2044438
51
302.5143998
0
ARC
8
DEFAULT_255_1_388
10
14.3113779
20
0.3382576
40
0.2170405
50
303.0211308
51
309.8378766
0
ARC
8
DEFAULT_255_1_388
10
14.3319897
20
0.3151486
40
0.1860946
50
309.5229446
51
356.9509628
0
ARC
8
DEFAULT_255_1_388
10
14.2574023
20
0.3258831
40
0.2612347
50
355.4699226
51
0.0498632
0
ARC
8
DEFAULT_255_1_388
10
14.2259696
20
0.3283789
40
0.2926762
50
359.5558955
51
11.2092924
0
ARC
8
DEFAULT_255_1_388
10
14.3336663
20
0.3506667
40
0.1827036
50
10.9185717
51
31.322519
0
ARC
8
DEFAULT_255_1_388
10
14.3658212
20
0.3685571
40
0.1459418
50
31.8850633
51
52.1415586
0
ARC
8
DEFAULT_255_1_388
10
14.3349641
20
0.3249674
40
0.1993088
50
52.8283418
51
71.9850132
0
ARC
8
DEFAULT_255_1_388
10
14.2926801
20
0.2005158
40
0.3307407
50
71.686634
51
82.8453416
0
ARC
8
DEFAULT_255_1_388
10
14.2657449
20
-0.0030108
40
0.536039
50
82.6981895
51
90.1730083
0
ARC
8
DEFAULT_255_1_388
10
14.263228
20
0.0848836
40
0.4481429
50
89.8851568
51
90.0383283
0
LINE
8
DEFAULT_255_1_388
10
15.4908723
20
0.6821148
11
15.4908723
21
-0.6398
0
LINE
8
DEFAULT_255_1_388
10
15.4908723
20
-0.6398
11
15.3228093
21
-0.6398
0
LINE
8
DEFAULT_255_1_388
10
15.3228093
20
-0.6398
11
15.3228093
21
0.474295
0
LINE
8
DEFAULT_255_1_388
10
15.3228093
20
0.474295
11
14.9857798
21
0.3505066
0
LINE
8
DEFAULT_255_1_388
10
14.9857798
20
0.3505066
11
14.9857798
21
0.5023055
0
LINE
8
DEFAULT_255_1_388
10
14.9857798
20
0.5023055
11
15.4646689
21
0.6821148
0
LINE
8
DEFAULT_255_1_388
10
15.4646689
20
0.6821148
11
15.4908723
21
0.6821148
0
LINE
8
DEFAULT_255_1_388
10
16.6067744
20
0.6766934
11
16.636592
21
0.6766934
0
LINE
8
DEFAULT_255_1_388
10
16.636592
20
0.6766934
11
16.636592
21
0.5348338
0
LINE
8
DEFAULT_255_1_388
10
16.636592
20
0.5348338
11
16.6058708
21
0.5348338
0
LINE
8
DEFAULT_255_1_388
10
15.9905435
20
-0.1392253
11
15.9905435
21
-0.0750722
0
LINE
8
DEFAULT_255_1_388
10
16.1586064
20
-0.0967578
11
16.1586064
21
-0.1582001
0
ARC
8
DEFAULT_255_1_388
10
16.61176
20
-0.0274174
40
0.562282
50
90.6001079
51
104.5146616
0
ARC
8
DEFAULT_255_1_388
10
16.5680559
20
0.13511
40
0.3939917
50
104.2855758
51
133.8630124
0
ARC
8
DEFAULT_255_1_388
10
16.5864812
20
0.1229243
40
0.4155734
50
134.5304124
51
161.6210222
0
ARC
8
DEFAULT_255_1_388
10
16.7724744
20
0.0573421
40
0.6127682
50
161.2850533
51
174.2074364
0
ARC
8
DEFAULT_255_1_388
10
16.9314311
20
0.0354437
40
0.7731446
50
173.7817938
51
174.9251711
0
ARC
8
DEFAULT_255_1_388
10
16.4188505
20
-0.120073
40
0.3412588
50
95.8332067
51
138.995412
0
ARC
8
DEFAULT_255_1_388
10
16.4439785
20
-0.2639305
40
0.4870358
50
89.8755506
51
97.0540979
0
ARC
8
DEFAULT_255_1_388
10
16.4493174
20
-0.1699159
40
0.3930432
50
71.6407016
51
90.6240821
0
ARC
8
DEFAULT_255_1_388
10
16.4662568
20
-0.1075567
40
0.3285421
50
39.6368051
51
71.0190743
0
ARC
8
DEFAULT_255_1_388
10
16.3946475
20
-0.1694414
40
0.4231706
50
10.6588054
51
39.9044509
0
ARC
8
DEFAULT_255_1_388
10
16.2205021
20
-0.2072777
40
0.60133
50
359.6827842
51
11.1326896
0
ARC
8
DEFAULT_255_1_388
10
16.2160357
20
-0.2152285
40
0.6058047
50
347.2485908
51
0.4371098
0
ARC
8
DEFAULT_255_1_388
10
16.4036142
20
-0.2603621
40
0.4128987
50
318.1408565
51
347.6118497
0
ARC
8
DEFAULT_255_1_388
10
16.4401739
20
-0.2904097
40
0.3656244
50
275.6342406
51
317.824739
0
ARC
8
DEFAULT_255_1_388
10
16.415326
20
-0.1442173
40
0.513655
50
269.8872513
51
276.7916069
0
ARC
8
DEFAULT_255_1_388
10
16.4091452
20
-0.2595819
40
0.398323
50
246.9139443
51
270.7436787
0
ARC
8
DEFAULT_255_1_388
10
16.4098648
20
-0.2755956
40
0.3839368
50
218.1665534
51
245.8780431
0
ARC
8
DEFAULT_255_1_388
10
16.508802
20
-0.1928097
40
0.5128958
50
191.4115343
51
218.6077624
0
ARC
8
DEFAULT_255_1_388
10
16.7268337
20
-0.1439223
40
0.7363054
50
179.6344971
51
191.7836758
0
ARC
8
DEFAULT_255_1_388
10
17.3548211
20
-0.0675505
40
1.3642984
50
171.4523743
51
180.3158856
0
ARC
8
DEFAULT_255_1_388
10
16.8603938
20
0.0093895
40
0.8639311
50
157.9802296
51
171.6246761
0
ARC
8
DEFAULT_255_1_388
10
16.6113289
20
0.1087038
40
0.5958004
50
141.4299236
51
157.8541251
0
ARC
8
DEFAULT_255_1_388
10
16.5391372
20
0.1597746
40
0.5075416
50
102.871586
51
140.8564533
0
ARC
8
DEFAULT_255_1_388
10
16.6119925
20
-0.1147057
40
0.7914163
50
90.377773
51
103.5868422
0
ARC
8
DEFAULT_255_1_388
10
16.4164446
20
-0.1827457
40
0.2667015
50
89.8751238
51
126.2072139
0
ARC
8
DEFAULT_255_1_388
10
16.4215917
20
-0.2001153
40
0.2838229
50
124.9742447
51
144.8960197
0
ARC
8
DEFAULT_255_1_388
10
16.4018162
20
-0.1840019
40
0.2583845
50
145.2974778
51
160.2660922
0
ARC
8
DEFAULT_255_1_388
10
16.747465
20
-0.1617849
40
0.5888695
50
179.6512124
51
190.285571
0
ARC
8
DEFAULT_255_1_388
10
16.556913
20
-0.1977032
40
0.3949683
50
190.0944895
51
207.5099647
0
ARC
8
DEFAULT_255_1_388
10
16.4932712
20
-0.2279823
40
0.3245464
50
207.9585471
51
216.325377
0
ARC
8
DEFAULT_255_1_388
10
16.4550349
20
-0.2594288
40
0.2751259
50
215.7661336
51
232.5457193
0
ARC
8
DEFAULT_255_1_388
10
16.4119465
20
-0.3141727
40
0.2054668
50
232.8005815
51
270.6605497
0
ARC
8
DEFAULT_255_1_388
10
16.4170889
20
-0.2732147
40
0.2464268
50
269.3550767
51
288.474612
0
ARC
8
DEFAULT_255_1_388
10
16.4275396
20
-0.3125279
40
0.2058436
50
289.1831976
51
322.9685307
0
ARC
8
DEFAULT_255_1_388
10
16.3587498
20
-0.2582721
40
0.2934408
50
322.6007085
51
346.5183319
0
ARC
8
DEFAULT_255_1_388
10
16.2285254
20
-0.2250566
40
0.4278249
50
346.2584622
51
358.7739592
0
ARC
8
DEFAULT_255_1_388
10
16.1133829
20
-0.2188171
40
0.5430876
50
358.3757628
51
0.0082477
0
ARC
8
DEFAULT_255_1_388
10
16.1990648
20
-0.2157144
40
0.4574157
50
359.6211417
51
11.28403
0
ARC
8
DEFAULT_255_1_388
10
16.3427254
20
-0.1857465
40
0.3106708
50
11.0483152
51
31.8145585
0
ARC
8
DEFAULT_255_1_388
10
16.3774959
20
-0.1668955
40
0.2711963
50
32.3028554
51
38.0820598
0
ARC
8
DEFAULT_255_1_388
10
16.4248192
20
-0.1240283
40
0.2075566
50
36.8249851
51
85.741667
0
ARC
8
DEFAULT_255_1_388
10
16.4172605
20
-0.1803935
40
0.2643487
50
85.0150021
51
90.050843
0
LINE
8
DEFAULT_255_1_388
10
17.2492087
20
0.6757898
11
17.2492087
21
-0.6398
0
LINE
8
DEFAULT_255_1_388
10
17.2492087
20
-0.6398
11
17.0757244
21
-0.6398
0
LINE
8
DEFAULT_255_1_388
10
17.0757244
20
-0.6398
11
17.0757244
21
0.6757898
0
LINE
8
DEFAULT_255_1_388
10
17.0757244
20
0.6757898
11
17.2492087
21
0.6757898
0
LINE
8
DEFAULT_255_1_388
10
18.3099934
20
0.1101585
11
18.3099934
21
-0.0317011
0
LINE
8
DEFAULT_255_1_388
10
18.3099934
20
-0.0317011
11
17.7398442
21
-0.0317011
0
LINE
8
DEFAULT_255_1_388
10
17.7398442
20
-0.0317011
11
17.7398442
21
-0.4979404
0
LINE
8
DEFAULT_255_1_388
10
17.7398442
20
-0.4979404
11
18.402157
21
-0.4979404
0
LINE
8
DEFAULT_255_1_388
10
18.402157
20
-0.4979404
11
18.402157
21
-0.6398
0
LINE
8
DEFAULT_255_1_388
10
18.402157
20
-0.6398
11
17.5663599
21
-0.6398
0
LINE
8
DEFAULT_255_1_388
10
17.5663599
20
-0.6398
11
17.5663599
21
0.6757898
0
LINE
8
DEFAULT_255_1_388
10
17.5663599
20
0.6757898
11
18.3931213
21
0.6757898
0
LINE
8
DEFAULT_255_1_388
10
18.3931213
20
0.6757898
11
18.3931213
21
0.5330267
0
LINE
8
DEFAULT_255_1_388
10
18.3931213
20
0.5330267
11
17.7398442
21
0.5330267
0
LINE
8
DEFAULT_255_1_388
10
17.7398442
20
0.5330267
11
17.7398442
21
0.1101585
0
LINE
8
DEFAULT_255_1_388
10
17.7398442
20
0.1101585
11
18.3099934
21
0.1101585
0
LINE
8
DEFAULT_255_1_388
10
19.3436711
20
0.0830516
11
19.3436711
21
-0.0588081
0
LINE
8
DEFAULT_255_1_388
10
19.3436711
20
-0.0588081
11
18.7915933
21
-0.0588081
0
LINE
8
DEFAULT_255_1_388
10
18.7915933
20
-0.0588081
11
18.7915933
21
-0.6398
0
LINE
8
DEFAULT_255_1_388
10
18.7915933
20
-0.6398
11
18.6181089
21
-0.6398
0
LINE
8
DEFAULT_255_1_388
10
18.6181089
20
-0.6398
11
18.6181089
21
0.6757898
0
LINE
8
DEFAULT_255_1_388
10
18.6181089
20
0.6757898
11
19.433124
21
0.6757898
0
LINE
8
DEFAULT_255_1_388
10
19.433124
20
0.6757898
11
19.433124
21
0.5330267
0
LINE
8
DEFAULT_255_1_388
10
19.433124
20
0.5330267
11
18.7915933
21
0.5330267
0
LINE
8
DEFAULT_255_1_388
10
18.7915933
20
0.5330267
11
18.7915933
21
0.0830516
0
LINE
8
DEFAULT_255_1_388
10
18.7915933
20
0.0830516
11
19.3436711
21
0.0830516
0
LINE
8
DEFAULT_255_1_388
10
20.5137871
20
0.2953892
11
20.3393992
21
0.2953892
0
LINE
8
DEFAULT_255_1_388
10
19.5605266
20
-0.2584958
11
19.7349146
21
-0.2584958
0
ARC
8
DEFAULT_255_1_388
10
20.4134719
20
1.3017821
40
1.4087688
50
248.9196578
51
254.1442424
0
ARC
8
DEFAULT_255_1_388
10
20.2244599
20
0.8151805
40
0.8867498
50
241.6337352
51
249.0064643
0
ARC
8
DEFAULT_255_1_388
10
20.0524912
20
0.5000764
40
0.5277799
50
230.4982261
51
241.8087583
0
ARC
8
DEFAULT_255_1_388
10
19.9642683
20
0.3876686
40
0.3849419
50
227.4062979
51
229.9877433
0
ARC
8
DEFAULT_255_1_388
10
19.909403
20
0.3341155
40
0.3084129
50
200.6782127
51
228.1765252
0
ARC
8
DEFAULT_255_1_388
10
19.9175399
20
0.3324277
40
0.315461
50
179.506278
51
199.8695278
0
ARC
8
DEFAULT_255_1_388
10
19.9164988
20
0.3407671
40
0.3144584
50
132.4834401
51
181.0242352
0
ARC
8
DEFAULT_255_1_388
10
19.9834192
20
0.2775788
40
0.4063094
50
129.2526113
51
133.4249077
0
ARC
8
DEFAULT_255_1_388
10
19.9999784
20
0.2527619
40
0.436014
50
101.9878945
51
128.8741833
0
ARC
8
DEFAULT_255_1_388
10
20.04482
20
0.059136
40
0.6347415
50
89.5906376
51
102.3170567
0
ARC
8
DEFAULT_255_1_388
10
20.0527511
20
0.0949586
40
0.5989122
50
77.2359491
51
90.3248968
0
ARC
8
DEFAULT_255_1_388
10
20.0760442
20
0.2037554
40
0.4876594
50
63.8379856
51
77.0808925
0
ARC
8
DEFAULT_255_1_388
10
20.1072976
20
0.2619882
40
0.4216191
50
45.9863127
51
64.1608798
0
ARC
8
DEFAULT_255_1_388
10
20.1366369
20
0.295499
40
0.3771394
50
32.2747934
51
45.6544796
0
ARC
8
DEFAULT_255_1_388
10
20.1441176
20
0.2976426
40
0.3696765
50
359.6507495
51
32.6129943
0
ARC
8
DEFAULT_255_1_388
10
20.0380358
20
0.2981788
40
0.3013762
50
359.469654
51
14.983205
0
ARC
8
DEFAULT_255_1_388
10
20.1173611
20
0.3194288
40
0.2192542
50
14.9781954
51
48.2004799
0
ARC
8
DEFAULT_255_1_388
10
20.0988722
20
0.2961937
40
0.2489048
50
48.5926661
51
74.1242559
0
ARC
8
DEFAULT_255_1_388
10
20.0613524
20
0.1723607
40
0.3782845
50
73.7889321
51
86.6653996
0
ARC
8
DEFAULT_255_1_388
10
20.0498339
20
0.0365955
40
0.5145025
50
86.2642725
51
90.0533288
0
ARC
8
DEFAULT_255_1_388
10
20.0466431
20
0.0810376
40
0.4700681
50
89.669455
51
99.2313411
0
ARC
8
DEFAULT_255_1_388
10
20.0193591
20
0.2435401
40
0.3052945
50
99.0695987
51
113.7659242
0
ARC
8
DEFAULT_255_1_388
10
19.9885585
20
0.3161772
40
0.226407
50
114.0402885
51
127.9848946
0
ARC
8
DEFAULT_255_1_388
10
19.9615062
20
0.3494884
40
0.1835045
50
127.7287217
51
176.7106493
0
ARC
8
DEFAULT_255_1_388
10
20.0378727
20
0.338121
40
0.2604907
50
175.1780759
51
180.0581213
0
ARC
8
DEFAULT_255_1_388
10
19.943007
20
0.3367411
40
0.1656287
50
179.6140658
51
228.124674
0
ARC
8
DEFAULT_255_1_388
10
19.9927428
20
0.382794
40
0.2332038
50
226.5785315
51
230.8792476
0
ARC
8
DEFAULT_255_1_388
10
20.0456914
20
0.4530908
40
0.3211664
50
231.4636401
51
241.9261664
0
ARC
8
DEFAULT_255_1_388
10
20.1803698
20
0.7009349
40
0.6032345
50
241.7177136
51
248.3259138
0
ARC
8
DEFAULT_255_1_388
10
20.3362293
20
1.0870771
40
1.0196417
50
248.2007377
51
252.4527713
0
ARC
8
DEFAULT_255_1_388
10
20.4715819
20
1.5055092
40
1.4594143
50
252.3388938
51
254.347037
0
ARC
8
DEFAULT_255_1_388
10
19.623112
20
-1.5292905
40
1.6917621
50
71.0197462
51
74.4085467
0
ARC
8
DEFAULT_255_1_388
10
19.8138208
20
-0.9787856
40
1.1091618
50
66.1845203
51
71.086519
0
ARC
8
DEFAULT_255_1_388
10
19.9888756
20
-0.5846561
40
0.6779073
50
59.3537334
51
66.269255
0
ARC
8
DEFAULT_255_1_388
10
20.0888483
20
-0.4155223
40
0.4814366
50
49.1021732
51
59.3294421
0
ARC
8
DEFAULT_255_1_388
10
20.1809471
20
-0.3105425
40
0.3417875
50
32.7924183
51
49.2503526
0
ARC
8
DEFAULT_255_1_388
10
20.2159085
20
-0.2855689
40
0.2988789
50
31.121225
51
32.3977355
0
ARC
8
DEFAULT_255_1_388
10
20.2071263
20
-0.2888272
40
0.3080861
50
8.1116803
51
30.7958224
0
ARC
8
DEFAULT_255_1_388
10
20.1159608
20
-0.3043563
40
0.4005385
50
359.8390945
51
8.4707348
0
ARC
8
DEFAULT_255_1_388
10
20.1863656
20
-0.3098249
40
0.3301608
50
337.4732479
51
0.7538283
0
ARC
8
DEFAULT_255_1_388
10
20.2064681
20
-0.3120446
40
0.3107929
50
307.5917028
51
336.4313755
0
ARC
8
DEFAULT_255_1_388
10
20.1553739
20
-0.2552491
40
0.3870096
50
307.6560665
51
308.4561779
0
ARC
8
DEFAULT_255_1_388
10
20.1287955
20
-0.2144168
40
0.435591
50
284.3733666
51
307.1426212
0
ARC
8
DEFAULT_255_1_388
10
20.073085
20
-0.0094609
40
0.6479685
50
272.4384566
51
284.6464689
0
ARC
8
DEFAULT_255_1_388
10
20.0588235
20
0.1929434
40
0.8508149
50
269.9708517
51
272.8180721
0
ARC
8
DEFAULT_255_1_388
10
20.0539917
20
-0.0362717
40
0.6216151
50
248.2707343
51
270.4054609
0
ARC
8
DEFAULT_255_1_388
10
20.0478789
20
-0.0577327
40
0.5994203
50
246.1380358
51
248.054058
0
ARC
8
DEFAULT_255_1_388
10
20.0007931
20
-0.1566295
40
0.4899388
50
233.1671897
51
246.4951656
0
ARC
8
DEFAULT_255_1_388
10
19.9384566
20
-0.2407863
40
0.3852115
50
215.3403381
51
233.084328
0
ARC
8
DEFAULT_255_1_388
10
19.9077931
20
-0.2630907
40
0.3472969
50
179.2419235
51
215.2648426
0
ARC
8
DEFAULT_255_1_388
10
19.9941482
20
-0.2615021
40
0.259251
50
179.3355796
51
199.1045873
0
ARC
8
DEFAULT_255_1_388
10
19.9567623
20
-0.2712777
40
0.2207454
50
199.8830064
51
232.7061328
0
ARC
8
DEFAULT_255_1_388
10
20.0098898
20
-0.2044544
40
0.306101
50
232.3736206
51
255.5136621
0
ARC
8
DEFAULT_255_1_388
10
20.0482403
20
-0.0644823
40
0.4512213
50
255.2447928
51
267.5318292
0
ARC
8
DEFAULT_255_1_388
10
20.058087
20
0.0741709
40
0.5901825
50
267.1564563
51
270.0294721
0
ARC
8
DEFAULT_255_1_388
10
20.0612196
20
0.0242623
40
0.5402814
50
269.6999944
51
278.1662446
0
ARC
8
DEFAULT_255_1_388
10
20.0900223
20
-0.1704026
40
0.3435003
50
278.0229022
51
290.6255326
0
ARC
8
DEFAULT_255_1_388
10
20.129139
20
-0.2747453
40
0.2320666
50
290.6616368
51
307.0374127
0
ARC
8
DEFAULT_255_1_388
10
20.162929
20
-0.316196
40
0.1786372
50
306.3942078
51
355.303191
0
ARC
8
DEFAULT_255_1_388
10
20.1053583
20
-0.3075814
40
0.2367516
50
354.3662092
51
0.0709489
0
ARC
8
DEFAULT_255_1_388
10
20.1213452
20
-0.3050439
40
0.2207761
50
359.4175379
51
16.1975911
0
ARC
8
DEFAULT_255_1_388
10
20.1725569
20
-0.2910046
40
0.1676828
50
16.4721294
51
52.6261798
0
ARC
8
DEFAULT_255_1_388
10
20.0802077
20
-0.4129394
40
0.3206412
50
52.7381828
51
62.4979144
0
ARC
8
DEFAULT_255_1_388
10
19.924383
20
-0.7061764
40
0.6527035
50
62.2517425
51
68.1219454
0
ARC
8
DEFAULT_255_1_388
10
19.7309318
20
-1.1816049
40
1.1659797
50
68.006043
51
71.8055127
0
ARC
8
DEFAULT_255_1_388
10
19.5289225
20
-1.7874277
40
1.8045908
50
71.718361
51
73.9260743
0
LINE
8
DEFAULT_255_1_388
10
7.577632
20
165.8037468
11
7.7520199
21
165.8037468
0
LINE
8
DEFAULT_255_1_388
10
6.7391242
20
165.9826525
11
6.7391242
21
166.1091516
0
LINE
8
DEFAULT_255_1_388
10
7.7520199
20
166.2790217
11
7.577632
21
166.2790217
0
LINE
8
DEFAULT_255_1_388
10
6.9135121
20
166.1046337
11
6.9135121
21
165.9772312
0
ARC
8
DEFAULT_255_1_388
10
7.1354433
20
165.8709329
40
0.6202263
50
340.1774904
51
353.7812217
0
ARC
8
DEFAULT_255_1_388
10
7.3122286
20
165.8050893
40
0.4315926
50
311.4560052
51
340.4420756
0
ARC
8
DEFAULT_255_1_388
10
7.3084826
20
165.8175665
40
0.4434573
50
282.4332229
51
310.7514507
0
ARC
8
DEFAULT_255_1_388
10
7.2590644
20
166.0217703
40
0.6535262
50
269.9358869
51
282.8096729
0
ARC
8
DEFAULT_255_1_388
10
7.2532583
20
166.1730329
40
0.8048043
50
269.9995752
51
270.3612856
0
ARC
8
DEFAULT_255_1_388
10
7.2473073
20
165.8931781
40
0.5249831
50
250.7885263
51
270.6488451
0
ARC
8
DEFAULT_255_1_388
10
7.2283898
20
165.8214853
40
0.4510942
50
219.3628377
51
250.0611024
0
ARC
8
DEFAULT_255_1_388
10
7.3216772
20
165.9007653
40
0.5735046
50
193.5480293
51
219.5755675
0
ARC
8
DEFAULT_255_1_388
10
7.5884981
20
165.970052
40
0.849146
50
181.1220183
51
193.8754971
0
ARC
8
DEFAULT_255_1_388
10
7.8208214
20
165.9824914
40
1.0816971
50
179.9914644
51
181.5398227
0
ARC
8
DEFAULT_255_1_388
10
7.6131525
20
166.1133586
40
0.8740384
50
169.5837606
51
180.275782
0
ARC
8
DEFAULT_255_1_388
10
7.4064873
20
166.1515439
40
0.6638751
50
155.0367033
51
169.6002779
0
ARC
8
DEFAULT_255_1_388
10
7.2787331
20
166.2131336
40
0.5220662
50
136.7831557
51
155.2472983
0
ARC
8
DEFAULT_255_1_388
10
7.2349122
20
166.2503577
40
0.4646502
50
121.7633063
51
136.4281161
0
ARC
8
DEFAULT_255_1_388
10
7.2500962
20
166.2223049
40
0.4964979
50
95.6460018
51
121.5489589
0
ARC
8
DEFAULT_255_1_388
10
7.2677936
20
166.0975704
40
0.6223912
50
89.9245727
51
96.1375919
0
ARC
8
DEFAULT_255_1_388
10
7.2734641
20
166.1109721
40
0.6090084
50
76.6779212
51
90.456405
0
ARC
8
DEFAULT_255_1_388
10
7.3177454
20
166.289906
40
0.42469
50
47.4858803
51
76.9287069
0
ARC
8
DEFAULT_255_1_388
10
7.3012068
20
166.2786623
40
0.4441778
50
16.5424081
51
46.8934505
0
ARC
8
DEFAULT_255_1_388
10
7.1203118
20
166.2192265
40
0.6345318
50
5.4072971
51
17.0363711
0
ARC
8
DEFAULT_255_1_388
10
6.9584843
20
166.1932304
40
0.6250632
50
7.8888693
51
15.9242022
0
ARC
8
DEFAULT_255_1_388
10
7.1819828
20
166.2581309
40
0.3923364
50
15.7650676
51
27.9410069
0
ARC
8
DEFAULT_255_1_388
10
7.3061997
20
166.3246317
40
0.2514401
50
27.8167196
51
46.4007942
0
ARC
8
DEFAULT_255_1_388
10
7.3117839
20
166.3239882
40
0.2480958
50
47.4372362
51
75.0695672
0
ARC
8
DEFAULT_255_1_388
10
7.2770675
20
166.2031277
40
0.3738281
50
74.7009379
51
87.8124314
0
ARC
8
DEFAULT_255_1_388
10
7.2688292
20
166.0847659
40
0.4924321
50
87.3802571
51
90.0251599
0
ARC
8
DEFAULT_255_1_388
10
7.2644939
20
166.2167997
40
0.3604218
50
89.3451886
51
108.5744412
0
ARC
8
DEFAULT_255_1_388
10
7.2490931
20
166.2745836
40
0.3007661
50
109.2998307
51
143.3037387
0
ARC
8
DEFAULT_255_1_388
10
7.3348221
20
166.2086584
40
0.4089031
50
143.075267
51
163.1918576
0
ARC
8
DEFAULT_255_1_388
10
7.5544055
20
166.1393652
40
0.6391492
50
162.9375929
51
174.6208776
0
ARC
8
DEFAULT_255_1_388
10
7.8498437
20
166.1069711
40
0.9363344
50
174.342123
51
180.1430283
0
ARC
8
DEFAULT_255_1_388
10
7.7450978
20
165.9726117
40
0.8315986
50
179.6817261
51
189.150555
0
ARC
8
DEFAULT_255_1_388
10
7.4637727
20
165.9257559
40
0.5464044
50
188.9911061
51
203.5772363
0
ARC
8
DEFAULT_255_1_388
10
7.3423019
20
165.8753539
40
0.4149206
50
203.9075402
51
215.1312435
0
ARC
8
DEFAULT_255_1_388
10
7.2384817
20
165.7948907
40
0.2837747
50
213.9071511
51
263.8848919
0
ARC
8
DEFAULT_255_1_388
10
7.252581
20
165.8831519
40
0.3730641
50
263.1757928
51
270.1031044
0
ARC
8
DEFAULT_255_1_388
10
7.256189
20
166.0234511
40
0.5133712
50
269.6722503
51
279.0606936
0
ARC
8
DEFAULT_255_1_388
10
7.2862045
20
165.842015
40
0.3294739
50
278.8749101
51
293.6349581
0
ARC
8
DEFAULT_255_1_388
10
7.3222249
20
165.7574251
40
0.2375405
50
293.8553806
51
310.0518171
0
ARC
8
DEFAULT_255_1_388
10
7.3227758
20
165.7504021
40
0.2318463
50
311.0644687
51
332.0111037
0
ARC
8
DEFAULT_255_1_388
10
7.1886431
20
165.8243702
40
0.3850112
50
331.6586806
51
343.2877423
0
ARC
8
DEFAULT_255_1_388
10
6.9565896
20
165.8956806
40
0.6277712
50
343.1446576
51
351.0103568
0
ARC
8
DEFAULT_255_1_388
10
6.793322
20
165.9256873
40
0.7937327
50
350.71248
51
351.1626997
0
LINE
8
DEFAULT_255_1_388
10
7.9182758
20
165.8724177
11
7.9182758
21
165.884164
0
LINE
8
DEFAULT_255_1_388
10
8.8082868
20
165.8760319
11
8.8082868
21
165.8642856
0
ARC
8
DEFAULT_255_1_388
10
8.5467202
20
165.887804
40
0.628455
50
166.3005265
51
180.3318609
0
ARC
8
DEFAULT_255_1_388
10
8.4496552
20
165.9095267
40
0.52901
50
153.8608648
51
166.0965672
0
ARC
8
DEFAULT_255_1_388
10
8.3747718
20
165.9496652
40
0.4441126
50
135.1317053
51
154.2534962
0
ARC
8
DEFAULT_255_1_388
10
8.3434369
20
165.9773431
40
0.4023863
50
121.7042632
51
134.7771455
0
ARC
8
DEFAULT_255_1_388
10
8.3509801
20
165.9628469
40
0.4186852
50
93.4001111
51
121.5399523
0
ARC
8
DEFAULT_255_1_388
10
8.3616635
20
165.8698759
40
0.5121521
50
89.9706387
51
93.9763381
0
ARC
8
DEFAULT_255_1_388
10
8.3669619
20
165.9138563
40
0.4681988
50
71.3321659
51
90.6162917
0
ARC
8
DEFAULT_255_1_388
10
8.3852653
20
165.9816003
40
0.3981841
50
41.1813875
51
70.7072086
0
ARC
8
DEFAULT_255_1_388
10
8.3315369
20
165.932813
40
0.4707474
50
12.1971434
51
41.3446641
0
ARC
8
DEFAULT_255_1_388
10
8.1148633
20
165.8812328
40
0.6934429
50
359.5702713
51
12.5803533
0
ARC
8
DEFAULT_255_1_388
10
8.1680949
20
165.8607207
40
0.6402018
50
347.0196754
51
0.3190452
0
ARC
8
DEFAULT_255_1_388
10
8.2759002
20
165.8375189
40
0.5299421
50
334.350439
51
346.8460534
0
ARC
8
DEFAULT_255_1_388
10
8.3710249
20
165.7881244
40
0.4228234
50
310.4228125
51
334.8045131
0
ARC
8
DEFAULT_255_1_388
10
8.3802227
20
165.7809301
40
0.4113892
50
301.8488154
51
310.0972985
0
ARC
8
DEFAULT_255_1_388
10
8.3765967
20
165.7894573
40
0.4205483
50
274.3078723
51
301.6554173
0
ARC
8
DEFAULT_255_1_388
10
8.3641423
20
165.8881943
40
0.5199658
50
269.954904
51
274.859116
0
ARC
8
DEFAULT_255_1_388
10
8.3586247
20
165.8318239
40
0.4636233
50
250.8887647
51
270.6313164
0
ARC
8
DEFAULT_255_1_388
10
8.3417407
20
165.7689405
40
0.398705
50
221.1701369
51
250.2227012
0
ARC
8
DEFAULT_255_1_388
10
8.3962073
20
165.8185716
40
0.4723796
50
191.6263861
51
221.3526879
0
ARC
8
DEFAULT_255_1_388
10
8.6085918
20
165.8677203
40
0.6903321
50
179.6101251
51
192.0694841
0
ARC
8
DEFAULT_255_1_388
10
8.6562266
20
165.8606681
40
0.5698993
50
179.636304
51
190.6161344
0
ARC
8
DEFAULT_255_1_388
10
8.4714598
20
165.8246635
40
0.3816643
50
190.4136062
51
208.7168709
0
ARC
8
DEFAULT_255_1_388
10
8.4140632
20
165.7961905
40
0.3176572
50
209.187109
51
217.4221816
0
ARC
8
DEFAULT_255_1_388
10
8.3545102
20
165.7437729
40
0.2385702
50
216.1156863
51
265.2575395
0
ARC
8
DEFAULT_255_1_388
10
8.3634139
20
165.8082608
40
0.3035941
50
264.5891546
51
270.0602378
0
ARC
8
DEFAULT_255_1_388
10
8.3671335
20
165.7655539
40
0.2609091
50
269.2532353
51
291.8793864
0
ARC
8
DEFAULT_255_1_388
10
8.3704214
20
165.7455359
40
0.241148
50
292.9269367
51
323.1777736
0
ARC
8
DEFAULT_255_1_388
10
8.32335
20
165.7868762
40
0.3036446
50
322.25666
51
323.087958
0
ARC
8
DEFAULT_255_1_388
10
8.2930757
20
165.8051332
40
0.3388345
50
323.6941379
51
343.8493587
0
ARC
8
DEFAULT_255_1_388
10
8.1155193
20
165.8591698
40
0.5244204
50
343.5746655
51
355.008149
0
ARC
8
DEFAULT_255_1_388
10
7.8896885
20
165.8825797
40
0.7514406
50
354.728272
51
0.1208026
0
ARC
8
DEFAULT_255_1_388
10
8.0885911
20
165.8877947
40
0.5525482
50
359.6235211
51
11.2016685
0
ARC
8
DEFAULT_255_1_388
10
8.2611738
20
165.9233284
40
0.3763527
50
10.9991302
51
30.8317616
0
ARC
8
DEFAULT_255_1_388
10
8.3057042
20
165.9467988
40
0.3260975
50
31.3007463
51
37.395541
0
ARC
8
DEFAULT_255_1_388
10
8.3615761
20
165.9939773
40
0.253082
50
36.5918894
51
62.2439906
0
ARC
8
DEFAULT_255_1_388
10
8.3668052
20
165.9936378
40
0.2509927
50
63.3364883
51
89.7193846
0
ARC
8
DEFAULT_255_1_388
10
8.3619506
20
165.9288375
40
0.3158485
50
88.8962924
51
90.004475
0
ARC
8
DEFAULT_255_1_388
10
8.3583933
20
165.9941071
40
0.250604
50
89.1923115
51
114.7099029
0
ARC
8
DEFAULT_255_1_388
10
8.3616275
20
165.9983675
40
0.2481307
50
115.7996284
51
142.2901353
0
ARC
8
DEFAULT_255_1_388
10
8.4084546
20
165.9564752
40
0.310833
50
141.4607507
51
142.383894
0
ARC
8
DEFAULT_255_1_388
10
8.4232397
20
165.9496449
40
0.3267335
50
143.0176473
51
163.2340089
0
ARC
8
DEFAULT_255_1_388
10
8.6007686
20
165.8934553
40
0.5129308
50
162.9446504
51
174.3733893
0
ARC
8
DEFAULT_255_1_388
10
8.8421659
20
165.8663483
40
0.75583
50
174.1225809
51
180.1563667
0
LINE
8
DEFAULT_255_1_388
10
9.0179137
20
166.3639567
11
9.1760375
21
166.3639567
0
LINE
8
DEFAULT_255_1_388
10
9.1760375
20
166.3639567
11
9.1814589
21
166.241072
0
LINE
8
DEFAULT_255_1_388
10
9.7868471
20
166.0323486
11
9.7868471
21
165.3863
0
LINE
8
DEFAULT_255_1_388
10
9.7868471
20
165.3863
11
9.6196876
21
165.3863
0
LINE
8
DEFAULT_255_1_388
10
9.6196876
20
165.3863
11
9.6196876
21
166.0332521
0
LINE
8
DEFAULT_255_1_388
10
9.1850731
20
166.0829482
11
9.1850731
21
165.3863
0
LINE
8
DEFAULT_255_1_388
10
9.1850731
20
165.3863
11
9.0179137
21
165.3863
0
LINE
8
DEFAULT_255_1_388
10
9.0179137
20
165.3863
11
9.0179137
21
166.3639567
0
ARC
8
DEFAULT_255_1_388
10
9.4744888
20
166.0147868
40
0.3702317
50
116.459579
51
142.3237674
0
ARC
8
DEFAULT_255_1_388
10
9.4681168
20
166.0124216
40
0.3695717
50
89.9344799
51
115.4117431
0
ARC
8
DEFAULT_255_1_388
10
9.4742217
20
165.9207477
40
0.4612803
50
90.0009789
51
90.7058119
0
ARC
8
DEFAULT_255_1_388
10
9.4811613
20
165.9904095
40
0.3916802
50
71.6503198
51
91.0163578
0
ARC
8
DEFAULT_255_1_388
10
9.5212678
20
166.1233483
40
0.2529032
50
13.4487463
51
70.7930078
0
ARC
8
DEFAULT_255_1_388
10
9.2623049
20
166.0412303
40
0.5242314
50
1.3250409
51
15.5955556
0
ARC
8
DEFAULT_255_1_388
10
9.0324291
20
166.0266495
40
0.7544396
50
0.4328171
51
2.0283925
0
ARC
8
DEFAULT_255_1_388
10
9.2420494
20
166.032166
40
0.3776398
50
0.1647891
51
8.9343738
0
ARC
8
DEFAULT_255_1_388
10
9.3839534
20
166.0552206
40
0.2338783
50
8.7538928
51
22.2899346
0
ARC
8
DEFAULT_255_1_388
10
9.4591964
20
166.0862479
40
0.1524893
50
22.2261896
51
42.6534349
0
ARC
8
DEFAULT_255_1_388
10
9.4663006
20
166.0889551
40
0.1454574
50
43.7652806
51
71.277358
0
ARC
8
DEFAULT_255_1_388
10
9.4376569
20
166.0094698
40
0.2299367
50
70.8751244
51
84.317538
0
ARC
8
DEFAULT_255_1_388
10
9.4245281
20
165.898887
40
0.3412827
50
83.9624774
51
90.1534326
0
ARC
8
DEFAULT_255_1_388
10
9.421404
20
165.9825668
40
0.2576111
50
89.5084243
51
108.792202
0
ARC
8
DEFAULT_255_1_388
10
9.4143408
20
166.0083171
40
0.2309638
50
109.1912151
51
125.3077659
0
ARC
8
DEFAULT_255_1_388
10
9.4510265
20
165.9564216
40
0.2945169
50
125.2968281
51
154.5573532
0
LINE
8
DEFAULT_255_1_388
10
10.0985768
20
166.6006906
11
10.2657362
21
166.6006906
0
LINE
8
DEFAULT_255_1_388
10
10.2657362
20
166.6006906
11
10.2657362
21
166.3639567
0
LINE
8
DEFAULT_255_1_388
10
10.2657362
20
166.3639567
11
10.4482563
21
166.3639567
0
LINE
8
DEFAULT_255_1_388
10
10.4482563
20
166.3639567
11
10.4482563
21
166.234747
0
LINE
8
DEFAULT_255_1_388
10
10.4482563
20
166.234747
11
10.2657362
21
166.234747
0
LINE
8
DEFAULT_255_1_388
10
10.2657362
20
166.234747
11
10.2657362
21
165.6284553
0
LINE
8
DEFAULT_255_1_388
10
10.4527741
20
165.5218347
11
10.4527741
21
165.3863
0
LINE
8
DEFAULT_255_1_388
10
10.0985768
20
165.6284553
11
10.0985768
21
166.234747
0
LINE
8
DEFAULT_255_1_388
10
10.0985768
20
166.234747
11
9.9205746
21
166.234747
0
LINE
8
DEFAULT_255_1_388
10
9.9205746
20
166.234747
11
9.9205746
21
166.3639567
0
LINE
8
DEFAULT_255_1_388
10
9.9205746
20
166.3639567
11
10.0985768
21
166.3639567
0
LINE
8
DEFAULT_255_1_388
10
10.0985768
20
166.3639567
11
10.0985768
21
166.6006906
0
ARC
8
DEFAULT_255_1_388
10
10.491587
20
165.6272842
40
0.2258538
50
179.7029045
51
187.9180047
0
ARC
8
DEFAULT_255_1_388
10
10.4076444
20
165.6152019
40
0.1410477
50
187.7540838
51
200.2454047
0
ARC
8
DEFAULT_255_1_388
10
10.3603349
20
165.5975591
40
0.0905561
50
200.1304287
51
219.1733455
0
ARC
8
DEFAULT_255_1_388
10
10.3450516
20
165.5871695
40
0.0721626
50
220.4434631
51
249.6169985
0
ARC
8
DEFAULT_255_1_388
10
10.3624742
20
165.6309919
40
0.1193141
50
249.1038184
51
262.7745376
0
ARC
8
DEFAULT_255_1_388
10
10.3723924
20
165.7017481
40
0.1907583
50
262.4921618
51
270.2607019
0
ARC
8
DEFAULT_255_1_388
10
10.3721006
20
165.7259817
40
0.2149929
50
270.309081
51
275.6615459
0
ARC
8
DEFAULT_255_1_388
10
10.3560414
20
165.8948342
40
0.3846066
50
275.5607354
51
279.087751
0
ARC
8
DEFAULT_255_1_388
10
10.3188346
20
166.1309428
40
0.6236283
50
279.0369545
51
281.5000133
0
ARC
8
DEFAULT_255_1_388
10
10.2797614
20
166.3286499
40
0.825157
50
281.4217093
51
282.1031556
0
ARC
8
DEFAULT_255_1_388
10
10.3173589
20
165.8743229
40
0.5064619
50
275.2597791
51
285.5081125
0
ARC
8
DEFAULT_255_1_388
10
10.3242603
20
165.8117452
40
0.4435166
50
270.0268175
51
275.1130565
0
ARC
8
DEFAULT_255_1_388
10
10.3220055
20
165.6624367
40
0.2942182
50
257.3572424
51
270.4795428
0
ARC
8
DEFAULT_255_1_388
10
10.2980325
20
165.5613952
40
0.1903838
50
230.8036715
51
257.7414447
0
ARC
8
DEFAULT_255_1_388
10
10.2903821
20
165.5490723
40
0.1760087
50
219.9745381
51
230.1985446
0
ARC
8
DEFAULT_255_1_388
10
10.3277108
20
165.5776116
40
0.2229598
50
196.5081334
51
219.4319996
0
ARC
8
DEFAULT_255_1_388
10
10.441972
20
165.6134617
40
0.3427033
50
184.6408645
51
196.8266009
0
ARC
8
DEFAULT_255_1_388
10
10.5820625
20
165.627601
40
0.4834863
50
179.8987586
51
184.9677262
0
LINE
8
DEFAULT_255_1_388
10
11.1159904
20
166.3693781
11
11.1159904
21
166.213965
0
LINE
8
DEFAULT_255_1_388
10
10.8105856
20
166.0802375
11
10.8105856
21
165.3863
0
LINE
8
DEFAULT_255_1_388
10
10.8105856
20
165.3863
11
10.6434262
21
165.3863
0
LINE
8
DEFAULT_255_1_388
10
10.6434262
20
165.3863
11
10.6434262
21
166.3639567
0
LINE
8
DEFAULT_255_1_388
10
10.6434262
20
166.3639567
11
10.8060678
21
166.3639567
0
LINE
8
DEFAULT_255_1_388
10
10.8060678
20
166.3639567
11
10.8087785
21
166.2510112
0
ARC
8
DEFAULT_255_1_388
10
11.0410064
20
165.7573068
40
0.4627735
50
80.6751522
51
86.893806
0
ARC
8
DEFAULT_255_1_388
10
11.0341893
20
165.6481103
40
0.5721798
50
86.8046851
51
90.0423898
0
ARC
8
DEFAULT_255_1_388
10
11.0300313
20
165.9248197
40
0.2954939
50
89.2758283
51
106.6212906
0
ARC
8
DEFAULT_255_1_388
10
11.0070338
20
166.0084009
40
0.2088351
50
107.1347109
51
157.6456887
0
ARC
8
DEFAULT_255_1_388
10
11.08384
20
165.9656908
40
0.296292
50
155.6557383
51
157.256838
0
ARC
8
DEFAULT_255_1_388
10
11.0618014
20
166.0967472
40
0.296341
50
127.8167201
51
148.6300223
0
ARC
8
DEFAULT_255_1_388
10
11.0332761
20
166.1260066
40
0.2557782
50
91.3329934
51
126.7875218
0
ARC
8
DEFAULT_255_1_388
10
11.0418149
20
166.0456718
40
0.3363561
50
89.9858247
51
92.4688453
0
ARC
8
DEFAULT_255_1_388
10
11.0427642
20
166.0765114
40
0.3055179
50
85.3587643
51
90.1624243
0
ARC
8
DEFAULT_255_1_388
10
11.0522707
20
166.1894458
40
0.1921848
50
78.4019195
51
85.4592653
0
ARC
8
DEFAULT_255_1_388
10
11.0685768
20
166.2672142
40
0.1127267
50
67.7849217
51
78.573798
0
ARC
8
DEFAULT_255_1_388
10
11.0807402
20
166.2987374
40
0.0789473
50
63.4805074
51
67.3074739
0
LINE
8
DEFAULT_255_1_388
10
11.2072504
20
165.8724177
11
11.2072504
21
165.884164
0
LINE
8
DEFAULT_255_1_388
10
12.0972614
20
165.8760319
11
12.0972614
21
165.8642856
0
ARC
8
DEFAULT_255_1_388
10
11.8356948
20
165.887804
40
0.628455
50
166.3005265
51
180.3318609
0
ARC
8
DEFAULT_255_1_388
10
11.7386298
20
165.9095267
40
0.52901
50
153.8608648
51
166.0965672
0
ARC
8
DEFAULT_255_1_388
10
11.6637464
20
165.9496652
40
0.4441126
50
135.1317053
51
154.2534962
0
ARC
8
DEFAULT_255_1_388
10
11.6324115
20
165.9773431
40
0.4023863
50
121.7042632
51
134.7771455
0
ARC
8
DEFAULT_255_1_388
10
11.6399547
20
165.9628469
40
0.4186852
50
93.4001111
51
121.5399523
0
ARC
8
DEFAULT_255_1_388
10
11.6506381
20
165.8698759
40
0.5121521
50
89.9706387
51
93.9763381
0
ARC
8
DEFAULT_255_1_388
10
11.6559365
20
165.9138563
40
0.4681988
50
71.3321659
51
90.6162917
0
ARC
8
DEFAULT_255_1_388
10
11.6742399
20
165.9816003
40
0.3981841
50
41.1813875
51
70.7072086
0
ARC
8
DEFAULT_255_1_388
10
11.6205115
20
165.932813
40
0.4707474
50
12.1971434
51
41.3446641
0
ARC
8
DEFAULT_255_1_388
10
11.4038379
20
165.8812328
40
0.6934429
50
359.5702713
51
12.5803533
0
ARC
8
DEFAULT_255_1_388
10
11.4570695
20
165.8607207
40
0.6402018
50
347.0196754
51
0.3190452
0
ARC
8
DEFAULT_255_1_388
10
11.5648748
20
165.8375189
40
0.5299421
50
334.350439
51
346.8460534
0
ARC
8
DEFAULT_255_1_388
10
11.6599995
20
165.7881244
40
0.4228234
50
310.4228125
51
334.8045131
0
ARC
8
DEFAULT_255_1_388
10
11.6691973
20
165.7809301
40
0.4113892
50
301.8488154
51
310.0972985
0
ARC
8
DEFAULT_255_1_388
10
11.6655713
20
165.7894573
40
0.4205483
50
274.3078723
51
301.6554173
0
ARC
8
DEFAULT_255_1_388
10
11.6531169
20
165.8881943
40
0.5199658
50
269.954904
51
274.859116
0
ARC
8
DEFAULT_255_1_388
10
11.6475993
20
165.8318239
40
0.4636233
50
250.8887647
51
270.6313164
0
ARC
8
DEFAULT_255_1_388
10
11.6307154
20
165.7689405
40
0.398705
50
221.1701369
51
250.2227012
0
ARC
8
DEFAULT_255_1_388
10
11.6851819
20
165.8185716
40
0.4723796
50
191.6263861
51
221.3526879
0
ARC
8
DEFAULT_255_1_388
10
11.8975664
20
165.8677203
40
0.6903321
50
179.6101251
51
192.0694841
0
ARC
8
DEFAULT_255_1_388
10
11.9452012
20
165.8606681
40
0.5698993
50
179.636304
51
190.6161344
0
ARC
8
DEFAULT_255_1_388
10
11.7604344
20
165.8246635
40
0.3816643
50
190.4136062
51
208.7168709
0
ARC
8
DEFAULT_255_1_388
10
11.7030378
20
165.7961905
40
0.3176572
50
209.187109
51
217.4221816
0
ARC
8
DEFAULT_255_1_388
10
11.6434848
20
165.7437729
40
0.2385702
50
216.1156863
51
265.2575395
0
ARC
8
DEFAULT_255_1_388
10
11.6523885
20
165.8082608
40
0.3035941
50
264.5891546
51
270.0602378
0
ARC
8
DEFAULT_255_1_388
10
11.6561081
20
165.7655539
40
0.2609091
50
269.2532353
51
291.8793864
0
ARC
8
DEFAULT_255_1_388
10
11.659396
20
165.7455359
40
0.241148
50
292.9269367
51
323.1777736
0
ARC
8
DEFAULT_255_1_388
10
11.6123246
20
165.7868762
40
0.3036446
50
322.25666
51
323.087958
0
ARC
8
DEFAULT_255_1_388
10
11.5820503
20
165.8051332
40
0.3388345
50
323.6941379
51
343.8493587
0
ARC
8
DEFAULT_255_1_388
10
11.404494
20
165.8591698
40
0.5244204
50
343.5746655
51
355.008149
0
ARC
8
DEFAULT_255_1_388
10
11.1786631
20
165.8825797
40
0.7514406
50
354.728272
51
0.1208026
0
ARC
8
DEFAULT_255_1_388
10
11.3775657
20
165.8877947
40
0.5525482
50
359.6235211
51
11.2016685
0
ARC
8
DEFAULT_255_1_388
10
11.5501484
20
165.9233284
40
0.3763527
50
10.9991302
51
30.8317616
0
ARC
8
DEFAULT_255_1_388
10
11.5946788
20
165.9467988
40
0.3260975
50
31.3007463
51
37.395541
0
ARC
8
DEFAULT_255_1_388
10
11.6505507
20
165.9939773
40
0.253082
50
36.5918894
51
62.2439906
0
ARC
8
DEFAULT_255_1_388
10
11.6557799
20
165.9936378
40
0.2509927
50
63.3364883
51
89.7193846
0
ARC
8
DEFAULT_255_1_388
10
11.6509252
20
165.9288375
40
0.3158485
50
88.8962924
51
90.004475
0
ARC
8
DEFAULT_255_1_388
10
11.6473679
20
165.9941071
40
0.250604
50
89.1923115
51
114.7099029
0
ARC
8
DEFAULT_255_1_388
10
11.6506021
20
165.9983675
40
0.2481307
50
115.7996284
51
142.2901353
0
ARC
8
DEFAULT_255_1_388
10
11.6974292
20
165.9564752
40
0.310833
50
141.4607507
51
142.383894
0
ARC
8
DEFAULT_255_1_388
10
11.7122143
20
165.9496449
40
0.3267335
50
143.0176473
51
163.2340089
0
ARC
8
DEFAULT_255_1_388
10
11.8897432
20
165.8934553
40
0.5129308
50
162.9446504
51
174.3733893
0
ARC
8
DEFAULT_255_1_388
10
12.1311405
20
165.8663483
40
0.75583
50
174.1225809
51
180.1563667
0
LINE
8
DEFAULT_255_1_388
10
12.4885048
20
166.774175
11
12.4885048
21
165.3863
0
LINE
8
DEFAULT_255_1_388
10
12.4885048
20
165.3863
11
12.3213454
21
165.3863
0
LINE
8
DEFAULT_255_1_388
10
12.3213454
20
165.3863
11
12.3213454
21
166.774175
0
LINE
8
DEFAULT_255_1_388
10
12.3213454
20
166.774175
11
12.4885048
21
166.774175
0
LINE
8
DEFAULT_255_1_388
10
12.9565512
20
166.7018898
11
12.9565512
21
165.5281596
0
LINE
8
DEFAULT_255_1_388
10
12.9565512
20
165.5281596
11
13.5800106
21
165.5281596
0
LINE
8
DEFAULT_255_1_388
10
13.5800106
20
165.5281596
11
13.5800106
21
165.3863
0
LINE
8
DEFAULT_255_1_388
10
13.5800106
20
165.3863
11
12.7821632
21
165.3863
0
LINE
8
DEFAULT_255_1_388
10
12.7821632
20
165.3863
11
12.7821632
21
166.7018898
0
LINE
8
DEFAULT_255_1_388
10
12.7821632
20
166.7018898
11
12.9565512
21
166.7018898
0
LINE
8
DEFAULT_255_1_388
10
13.7074132
20
165.8724177
11
13.7074132
21
165.884164
0
LINE
8
DEFAULT_255_1_388
10
14.5974242
20
165.8760319
11
14.5974242
21
165.8642856
0
ARC
8
DEFAULT_255_1_388
10
14.3358577
20
165.887804
40
0.628455
50
166.3005265
51
180.3318609
0
ARC
8
DEFAULT_255_1_388
10
14.2387927
20
165.9095267
40
0.52901
50
153.8608648
51
166.0965672
0
ARC
8
DEFAULT_255_1_388
10
14.1639093
20
165.9496652
40
0.4441126
50
135.1317053
51
154.2534962
0
ARC
8
DEFAULT_255_1_388
10
14.1325743
20
165.9773431
40
0.4023863
50
121.7042632
51
134.7771455
0
ARC
8
DEFAULT_255_1_388
10
14.1401175
20
165.9628469
40
0.4186852
50
93.4001111
51
121.5399523
0
ARC
8
DEFAULT_255_1_388
10
14.1508009
20
165.8698759
40
0.5121521
50
89.9706387
51
93.9763381
0
ARC
8
DEFAULT_255_1_388
10
14.1560994
20
165.9138563
40
0.4681988
50
71.3321659
51
90.6162917
0
ARC
8
DEFAULT_255_1_388
10
14.1744028
20
165.9816003
40
0.3981841
50
41.1813875
51
70.7072086
0
ARC
8
DEFAULT_255_1_388
10
14.1206744
20
165.932813
40
0.4707474
50
12.1971434
51
41.3446641
0
ARC
8
DEFAULT_255_1_388
10
13.9040008
20
165.8812328
40
0.6934429
50
359.5702713
51
12.5803533
0
ARC
8
DEFAULT_255_1_388
10
13.9572324
20
165.8607207
40
0.6402018
50
347.0196754
51
0.3190452
0
ARC
8
DEFAULT_255_1_388
10
14.0650377
20
165.8375189
40
0.5299421
50
334.350439
51
346.8460534
0
ARC
8
DEFAULT_255_1_388
10
14.1601623
20
165.7881244
40
0.4228234
50
310.4228125
51
334.8045131
0
ARC
8
DEFAULT_255_1_388
10
14.1693601
20
165.7809301
40
0.4113892
50
301.8488154
51
310.0972985
0
ARC
8
DEFAULT_255_1_388
10
14.1657342
20
165.7894573
40
0.4205483
50
274.3078723
51
301.6554173
0
ARC
8
DEFAULT_255_1_388
10
14.1532798
20
165.8881943
40
0.5199658
50
269.954904
51
274.859116
0
ARC
8
DEFAULT_255_1_388
10
14.1477622
20
165.8318239
40
0.4636233
50
250.8887647
51
270.6313164
0
ARC
8
DEFAULT_255_1_388
10
14.1308782
20
165.7689405
40
0.398705
50
221.1701369
51
250.2227012
0
ARC
8
DEFAULT_255_1_388
10
14.1853448
20
165.8185716
40
0.4723796
50
191.6263861
51
221.3526879
0
ARC
8
DEFAULT_255_1_388
10
14.3977293
20
165.8677203
40
0.6903321
50
179.6101251
51
192.0694841
0
ARC
8
DEFAULT_255_1_388
10
14.445364
20
165.8606681
40
0.5698993
50
179.636304
51
190.6161344
0
ARC
8
DEFAULT_255_1_388
10
14.2605972
20
165.8246635
40
0.3816643
50
190.4136062
51
208.7168709
0
ARC
8
DEFAULT_255_1_388
10
14.2032007
20
165.7961905
40
0.3176572
50
209.187109
51
217.4221816
0
ARC
8
DEFAULT_255_1_388
10
14.1436477
20
165.7437729
40
0.2385702
50
216.1156863
51
265.2575395
0
ARC
8
DEFAULT_255_1_388
10
14.1525513
20
165.8082608
40
0.3035941
50
264.5891546
51
270.0602378
0
ARC
8
DEFAULT_255_1_388
10
14.156271
20
165.7655539
40
0.2609091
50
269.2532353
51
291.8793864
0
ARC
8
DEFAULT_255_1_388
10
14.1595589
20
165.7455359
40
0.241148
50
292.9269367
51
323.1777736
0
ARC
8
DEFAULT_255_1_388
10
14.1124874
20
165.7868762
40
0.3036446
50
322.25666
51
323.087958
0
ARC
8
DEFAULT_255_1_388
10
14.0822132
20
165.8051332
40
0.3388345
50
323.6941379
51
343.8493587
0
ARC
8
DEFAULT_255_1_388
10
13.9046568
20
165.8591698
40
0.5244204
50
343.5746655
51
355.008149
0
ARC
8
DEFAULT_255_1_388
10
13.678826
20
165.8825797
40
0.7514406
50
354.728272
51
0.1208026
0
ARC
8
DEFAULT_255_1_388
10
13.8777285
20
165.8877947
40
0.5525482
50
359.6235211
51
11.2016685
0
ARC
8
DEFAULT_255_1_388
10
14.0503113
20
165.9233284
40
0.3763527
50
10.9991302
51
30.8317616
0
ARC
8
DEFAULT_255_1_388
10
14.0948416
20
165.9467988
40
0.3260975
50
31.3007463
51
37.395541
0
ARC
8
DEFAULT_255_1_388
10
14.1507136
20
165.9939773
40
0.253082
50
36.5918894
51
62.2439906
0
ARC
8
DEFAULT_255_1_388
10
14.1559427
20
165.9936378
40
0.2509927
50
63.3364883
51
89.7193846
0
ARC
8
DEFAULT_255_1_388
10
14.151088
20
165.9288375
40
0.3158485
50
88.8962924
51
90.004475
0
ARC
8
DEFAULT_255_1_388
10
14.1475308
20
165.9941071
40
0.250604
50
89.1923115
51
114.7099029
0
ARC
8
DEFAULT_255_1_388
10
14.150765
20
165.9983675
40
0.2481307
50
115.7996284
51
142.2901353
0
ARC
8
DEFAULT_255_1_388
10
14.1975921
20
165.9564752
40
0.310833
50
141.4607507
51
142.383894
0
ARC
8
DEFAULT_255_1_388
10
14.2123772
20
165.9496449
40
0.3267335
50
143.0176473
51
163.2340089
0
ARC
8
DEFAULT_255_1_388
10
14.3899061
20
165.8934553
40
0.5129308
50
162.9446504
51
174.3733893
0
ARC
8
DEFAULT_255_1_388
10
14.6313033
20
165.8663483
40
0.75583
50
174.1225809
51
180.1563667
0
LINE
8
DEFAULT_255_1_388
10
15.4323178
20
166.255529
11
15.4404499
21
166.3639567
0
LINE
8
DEFAULT_255_1_388
10
15.4404499
20
166.3639567
11
15.5931522
21
166.3639567
0
LINE
8
DEFAULT_255_1_388
10
15.5931522
20
166.3639567
11
15.5931522
21
165.4097927
0
LINE
8
DEFAULT_255_1_388
10
14.8169904
20
165.1703481
11
14.9037326
21
165.2706438
0
LINE
8
DEFAULT_255_1_388
10
15.4250893
20
165.3998535
11
15.4250893
21
165.483885
0
LINE
8
DEFAULT_255_1_388
10
15.4250893
20
165.6537551
11
15.4250893
21
166.1001159
0
ARC
8
DEFAULT_255_1_388
10
15.571187
20
165.888122
40
0.8039074
50
169.8802333
51
180.3464902
0
ARC
8
DEFAULT_255_1_388
10
15.3064676
20
165.937287
40
0.5346711
50
152.8534324
51
170.0824729
0
ARC
8
DEFAULT_255_1_388
10
15.2127071
20
165.9816868
40
0.4309932
50
142.0147746
51
152.418569
0
ARC
8
DEFAULT_255_1_388
10
15.141052
20
166.0469169
40
0.3344504
50
94.3317494
51
143.2674518
0
ARC
8
DEFAULT_255_1_388
10
15.1527379
20
165.9588903
40
0.423138
50
89.9487512
51
95.0093077
0
ARC
8
DEFAULT_255_1_388
10
15.1574177
20
165.9768021
40
0.4052487
50
72.9496911
51
90.6081488
0
ARC
8
DEFAULT_255_1_388
10
15.18049
20
166.0603718
40
0.3185963
50
37.7743532
51
72.5099202
0
ARC
8
DEFAULT_255_1_388
10
15.0769766
20
165.4054774
40
0.5161937
50
346.3655403
51
0.4789834
0
ARC
8
DEFAULT_255_1_388
10
15.2308599
20
165.3663644
40
0.3574311
50
314.3365584
51
346.6438898
0
ARC
8
DEFAULT_255_1_388
10
15.2193744
20
165.38249
40
0.3770042
50
280.7144
51
313.872307
0
ARC
8
DEFAULT_255_1_388
10
15.1816479
20
165.5506099
40
0.5492378
50
269.6628653
51
281.3208129
0
ARC
8
DEFAULT_255_1_388
10
15.1798139
20
165.5042105
40
0.5028309
50
245.5258654
51
269.8407328
0
ARC
8
DEFAULT_255_1_388
10
15.1368985
20
165.4237065
40
0.4118207
50
232.6664457
51
246.3200328
0
ARC
8
DEFAULT_255_1_388
10
15.0824229
20
165.3514386
40
0.3213227
50
214.3036526
51
232.5750527
0
ARC
8
DEFAULT_255_1_388
10
15.2082261
20
165.5118259
40
0.3884393
50
218.381912
51
236.3657409
0
ARC
8
DEFAULT_255_1_388
10
15.163203
20
165.4490326
40
0.3112322
50
236.8637655
51
270.6382272
0
ARC
8
DEFAULT_255_1_388
10
15.1693713
20
165.4862587
40
0.3484494
50
269.5557858
51
282.3972101
0
ARC
8
DEFAULT_255_1_388
10
15.1959299
20
165.3720767
40
0.2312324
50
282.043923
51
308.3079272
0
ARC
8
DEFAULT_255_1_388
10
15.2055413
20
165.356747
40
0.2132542
50
308.8347234
51
315.2037678
0
ARC
8
DEFAULT_255_1_388
10
15.1967122
20
165.3632123
40
0.2240808
50
315.6213011
51
345.6795376
0
ARC
8
DEFAULT_255_1_388
10
15.0865548
20
165.3938736
40
0.3384084
50
345.2627538
51
358.6311244
0
ARC
8
DEFAULT_255_1_388
10
14.9867053
20
165.3997581
40
0.4383839
50
358.1739988
51
0.0124651
0
ARC
8
DEFAULT_255_1_388
10
15.1761229
20
165.6991381
40
0.3291173
50
275.6950404
51
319.1537182
0
ARC
8
DEFAULT_255_1_388
10
15.152286
20
165.8369049
40
0.4686772
50
269.8805882
51
276.9235205
0
ARC
8
DEFAULT_255_1_388
10
15.1463161
20
165.71199
40
0.3437976
50
244.0748846
51
270.8321697
0
ARC
8
DEFAULT_255_1_388
10
15.1547669
20
165.7142423
40
0.3495805
50
217.781776
51
242.9905232
0
ARC
8
DEFAULT_255_1_388
10
15.22231
20
165.7743567
40
0.4398355
50
217.5209891
51
218.58043
0
ARC
8
DEFAULT_255_1_388
10
15.2538938
20
165.792913
40
0.4762087
50
195.3497149
51
216.9773048
0
ARC
8
DEFAULT_255_1_388
10
15.4814828
20
165.8590667
40
0.7131994
50
183.9387193
51
195.6348167
0
ARC
8
DEFAULT_255_1_388
10
15.7375022
20
165.8820646
40
0.9702086
50
179.929381
51
184.2551265
0
ARC
8
DEFAULT_255_1_388
10
15.5888689
20
165.8608515
40
0.6535206
50
179.6989243
51
188.5749266
0
ARC
8
DEFAULT_255_1_388
10
15.3623879
20
165.8254789
40
0.4242988
50
188.4117627
51
202.0559679
0
ARC
8
DEFAULT_255_1_388
10
15.2534139
20
165.7826952
40
0.3072368
50
202.2924994
51
215.4475859
0
ARC
8
DEFAULT_255_1_388
10
15.180921
20
165.7265576
40
0.2156547
50
214.4673097
51
264.3362727
0
ARC
8
DEFAULT_255_1_388
10
15.1923879
20
165.7981673
40
0.2880794
50
263.4723224
51
270.0965288
0
ARC
8
DEFAULT_255_1_388
10
15.1969114
20
165.7813896
40
0.2713313
50
269.1472473
51
291.7978484
0
ARC
8
DEFAULT_255_1_388
10
15.2039374
20
165.7500081
40
0.2396396
50
293.0243185
51
327.6232391
0
ARC
8
DEFAULT_255_1_388
10
15.1242808
20
165.8082435
40
0.3381603
50
326.5171836
51
332.8160011
0
ARC
8
DEFAULT_255_1_388
10
15.1637989
20
165.9612272
40
0.29591
50
27.9928465
51
47.6314088
0
ARC
8
DEFAULT_255_1_388
10
15.2044694
20
165.9999256
40
0.2399437
50
48.5793547
51
88.6245273
0
ARC
8
DEFAULT_255_1_388
10
15.1947812
20
165.9159448
40
0.3242237
50
87.2690754
51
90.0178312
0
ARC
8
DEFAULT_255_1_388
10
15.1915512
20
165.9897957
40
0.2503923
50
89.2839515
51
110.1847982
0
ARC
8
DEFAULT_255_1_388
10
15.1846312
20
166.0197002
40
0.2199699
50
111.180781
51
145.0423499
0
ARC
8
DEFAULT_255_1_388
10
15.2207173
20
165.9884759
40
0.2674811
50
143.9895932
51
144.106678
0
ARC
8
DEFAULT_255_1_388
10
15.2577244
20
165.966319
40
0.3104736
50
144.7981654
51
162.8715843
0
ARC
8
DEFAULT_255_1_388
10
15.4483843
20
165.9050138
40
0.5107383
50
162.598526
51
173.3417416
0
ARC
8
DEFAULT_255_1_388
10
15.7485216
20
165.8677767
40
0.8131718
50
173.1877249
51
180.2459848
0
LINE
8
DEFAULT_255_1_388
10
16.0268632
20
166.3639567
11
16.0268632
21
165.3863
0
LINE
8
DEFAULT_255_1_388
10
16.0268632
20
165.3863
11
15.8597038
21
165.3863
0
LINE
8
DEFAULT_255_1_388
10
15.8597038
20
165.3863
11
15.8597038
21
166.3639567
0
LINE
8
DEFAULT_255_1_388
10
15.8597038
20
166.3639567
11
16.0268632
21
166.3639567
0
ARC
8
DEFAULT_255_1_388
10
15.95624
20
166.6243428
40
0.1100948
50
161.4148232
51
180.5532607
0
ARC
8
DEFAULT_255_1_388
10
15.942271
20
166.6281875
40
0.0956324
50
138.1830164
51
160.9307633
0
ARC
8
DEFAULT_255_1_388
10
15.9298897
20
166.6389313
40
0.0792417
50
104.6371663
51
138.0036136
0
ARC
8
DEFAULT_255_1_388
10
15.9419436
20
166.5976963
40
0.1221906
50
92.0601206
51
105.2198859
0
ARC
8
DEFAULT_255_1_388
10
15.94458
20
166.5588583
40
0.161103
50
89.9790681
51
92.5006086
0
ARC
8
DEFAULT_255_1_388
10
15.9456976
20
166.5844998
40
0.1354654
50
78.0234649
51
90.4478111
0
ARC
8
DEFAULT_255_1_388
10
15.956056
20
166.6310203
40
0.0878096
50
55.0521508
51
78.336297
0
ARC
8
DEFAULT_255_1_388
10
15.9617095
20
166.6405168
40
0.0767913
50
42.0506198
51
54.4508489
0
ARC
8
DEFAULT_255_1_388
10
15.9465127
20
166.6265821
40
0.0974091
50
1.7493657
51
42.1498724
0
ARC
8
DEFAULT_255_1_388
10
15.9179033
20
166.6233166
40
0.1261276
50
359.9832635
51
2.8353994
0
ARC
8
DEFAULT_255_1_388
10
15.9365443
20
166.6222412
40
0.1074916
50
342.1062453
51
0.5535864
0
ARC
8
DEFAULT_255_1_388
10
15.9525867
20
166.6178197
40
0.0908695
50
316.7110111
51
341.6513114
0
ARC
8
DEFAULT_255_1_388
10
15.9601299
20
166.6110607
40
0.0807447
50
285.4398289
51
316.5320129
0
ARC
8
DEFAULT_255_1_388
10
15.947747
20
166.6522023
40
0.1237022
50
272.3543902
51
285.8951677
0
ARC
8
DEFAULT_255_1_388
10
15.944718
20
166.6937742
40
0.1653687
50
269.9725761
51
272.8112722
0
ARC
8
DEFAULT_255_1_388
10
15.9436232
20
166.6686727
40
0.1402709
50
258.8433431
51
270.4148607
0
ARC
8
DEFAULT_255_1_388
10
15.9335012
20
166.6196739
40
0.0902407
50
238.54281
51
259.1289544
0
ARC
8
DEFAULT_255_1_388
10
15.9258333
20
166.6057694
40
0.0743817
50
222.5056676
51
237.9918132
0
ARC
8
DEFAULT_255_1_388
10
15.9401927
20
166.6188295
40
0.0937918
50
184.1070774
51
222.4604165
0
ARC
8
DEFAULT_255_1_388
10
15.970434
20
166.6231538
40
0.1242838
50
179.9419581
51
185.0970785
0
LINE
8
DEFAULT_255_1_388
10
16.4081674
20
166.3639567
11
16.6223122
21
166.0070488
0
LINE
8
DEFAULT_255_1_388
10
16.6223122
20
166.0070488
11
16.8391676
21
166.3639567
0
LINE
8
DEFAULT_255_1_388
10
16.8391676
20
166.3639567
11
17.0343375
21
166.3639567
0
LINE
8
DEFAULT_255_1_388
10
17.0343375
20
166.3639567
11
16.7144757
21
165.8805498
0
LINE
8
DEFAULT_255_1_388
10
16.7144757
20
165.8805498
11
17.0442768
21
165.3863
0
LINE
8
DEFAULT_255_1_388
10
17.0442768
20
165.3863
11
16.850914
21
165.3863
0
LINE
8
DEFAULT_255_1_388
10
16.850914
20
165.3863
11
16.6250229
21
165.7522436
0
LINE
8
DEFAULT_255_1_388
10
16.6250229
20
165.7522436
11
16.3991317
21
165.3863
0
LINE
8
DEFAULT_255_1_388
10
16.3991317
20
165.3863
11
16.2048654
21
165.3863
0
LINE
8
DEFAULT_255_1_388
10
16.2048654
20
165.3863
11
16.5346664
21
165.8805498
0
LINE
8
DEFAULT_255_1_388
10
16.5346664
20
165.8805498
11
16.2148046
21
166.3639567
0
LINE
8
DEFAULT_255_1_388
10
16.2148046
20
166.3639567
11
16.4081674
21
166.3639567
0
LINE
8
DEFAULT_255_1_388
10
17.8629062
20
166.0115666
11
17.7291786
21
166.0459021
0
LINE
8
DEFAULT_255_1_388
10
17.7291786
20
166.0459021
11
17.7960424
21
166.7018898
0
LINE
8
DEFAULT_255_1_388
10
17.7960424
20
166.7018898
11
18.4701015
21
166.7018898
0
LINE
8
DEFAULT_255_1_388
10
18.4701015
20
166.7018898
11
18.4701015
21
166.5473803
0
LINE
8
DEFAULT_255_1_388
10
18.4701015
20
166.5473803
11
17.937902
21
166.5473803
0
LINE
8
DEFAULT_255_1_388
10
17.937902
20
166.5473803
11
17.8981452
21
166.1886652
0
LINE
8
DEFAULT_255_1_388
10
17.6821933
20
165.7323652
11
17.840317
21
165.7323652
0
LINE
8
DEFAULT_255_1_388
10
17.9071808
20
166.0477092
11
17.8629062
21
166.0115666
0
ARC
8
DEFAULT_255_1_388
10
18.1068065
20
165.8309241
40
0.4141476
50
93.7181681
51
120.253934
0
ARC
8
DEFAULT_255_1_388
10
18.1174117
20
165.7400284
40
0.5055616
50
89.9660471
51
94.2495185
0
ARC
8
DEFAULT_255_1_388
10
18.1219939
20
165.8063154
40
0.4392953
50
73.8045384
51
90.5585736
0
ARC
8
DEFAULT_255_1_388
10
18.1484197
20
165.902852
40
0.3392225
50
41.3071072
51
73.543002
0
ARC
8
DEFAULT_255_1_388
10
18.1016017
20
165.8625461
40
0.4009977
50
13.5075837
51
41.2174839
0
ARC
8
DEFAULT_255_1_388
10
17.9169114
20
165.8141907
40
0.5918864
50
1.1330171
51
13.8830737
0
ARC
8
DEFAULT_255_1_388
10
17.757276
20
165.8056522
40
0.7516787
50
359.9925091
51
1.5431298
0
ARC
8
DEFAULT_255_1_388
10
17.9017375
20
165.8010027
40
0.6072343
50
347.8572712
51
0.4294349
0
ARC
8
DEFAULT_255_1_388
10
18.098651
20
165.7563898
40
0.4053482
50
323.6727442
51
348.1674594
0
ARC
8
DEFAULT_255_1_388
10
18.1317474
20
165.7362175
40
0.3667495
50
316.8171818
51
323.1486802
0
ARC
8
DEFAULT_255_1_388
10
18.1386598
20
165.7320612
40
0.358869
50
281.839603
51
316.5458142
0
ARC
8
DEFAULT_255_1_388
10
18.0963886
20
165.9070363
40
0.5388223
50
269.5770964
51
282.4214641
0
ARC
8
DEFAULT_255_1_388
10
18.0883806
20
165.882993
40
0.5147801
50
256.2425863
51
270.4486481
0
ARC
8
DEFAULT_255_1_388
10
18.0547334
20
165.7480124
40
0.3756708
50
228.9024379
51
256.33135
0
ARC
8
DEFAULT_255_1_388
10
18.0464314
20
165.7349054
40
0.360344
50
193.7536029
51
228.5272638
0
ARC
8
DEFAULT_255_1_388
10
18.1856879
20
165.7757463
40
0.5053599
50
184.9244437
51
194.4976052
0
ARC
8
DEFAULT_255_1_388
10
18.207352
20
165.7797722
40
0.3700839
50
187.3596909
51
198.6733728
0
ARC
8
DEFAULT_255_1_388
10
18.0892764
20
165.7388373
40
0.2451195
50
198.4453795
51
217.7945479
0
ARC
8
DEFAULT_255_1_388
10
18.0559937
20
165.7152563
40
0.2043754
50
218.2887146
51
228.5613203
0
ARC
8
DEFAULT_255_1_388
10
18.0669943
20
165.7300902
40
0.2227819
50
228.9652423
51
258.1237049
0
ARC
8
DEFAULT_255_1_388
10
18.0901381
20
165.8291964
40
0.3245374
50
257.7260585
51
270.4013717
0
ARC
8
DEFAULT_255_1_388
10
18.0951879
20
165.7791255
40
0.2744726
50
269.4204315
51
286.420998
0
ARC
8
DEFAULT_255_1_388
10
18.1118934
20
165.7184705
40
0.2115721
50
286.7250065
51
320.6004665
0
ARC
8
DEFAULT_255_1_388
10
18.068785
20
165.7534527
40
0.2670878
50
320.6712228
51
344.5440474
0
ARC
8
DEFAULT_255_1_388
10
17.9386564
20
165.7916394
40
0.4026927
50
344.241448
51
356.735803
0
ARC
8
DEFAULT_255_1_388
10
17.7982871
20
165.8032656
40
0.5435085
50
356.3547471
51
0.0507222
0
ARC
8
DEFAULT_255_1_388
10
17.9485136
20
165.8067812
40
0.3932934
50
359.5579289
51
12.9534322
0
ARC
8
DEFAULT_255_1_388
10
18.0671976
20
165.8355586
40
0.2711827
50
12.6489751
51
41.608121
0
ARC
8
DEFAULT_255_1_388
10
18.0931136
20
165.8575946
40
0.2371737
50
41.7851122
51
85.9892156
0
ARC
8
DEFAULT_255_1_388
10
18.0792446
20
165.7660738
40
0.3295244
50
84.6965848
51
90.0672125
0
ARC
8
DEFAULT_255_1_388
10
18.0766014
20
165.6909118
40
0.4046926
50
89.6804991
51
99.161352
0
ARC
8
DEFAULT_255_1_388
10
18.0535023
20
165.8289848
40
0.2647044
50
98.9836248
51
113.8905702
0
ARC
8
DEFAULT_255_1_388
10
18.0276698
20
165.8899118
40
0.1985386
50
114.195234
51
127.3641866
0
LINE
8
DEFAULT_255_1_388
10
18.9020053
20
166.0115666
11
18.7682777
21
166.0459021
0
LINE
8
DEFAULT_255_1_388
10
18.7682777
20
166.0459021
11
18.8351415
21
166.7018898
0
LINE
8
DEFAULT_255_1_388
10
18.8351415
20
166.7018898
11
19.5092006
21
166.7018898
0
LINE
8
DEFAULT_255_1_388
10
19.5092006
20
166.7018898
11
19.5092006
21
166.5473803
0
LINE
8
DEFAULT_255_1_388
10
19.5092006
20
166.5473803
11
18.9770011
21
166.5473803
0
LINE
8
DEFAULT_255_1_388
10
18.9770011
20
166.5473803
11
18.9372443
21
166.1886652
0
LINE
8
DEFAULT_255_1_388
10
18.7212924
20
165.7323652
11
18.8794162
21
165.7323652
0
LINE
8
DEFAULT_255_1_388
10
18.9462799
20
166.0477092
11
18.9020053
21
166.0115666
0
ARC
8
DEFAULT_255_1_388
10
19.1459056
20
165.8309241
40
0.4141476
50
93.7181681
51
120.253934
0
ARC
8
DEFAULT_255_1_388
10
19.1565109
20
165.7400284
40
0.5055616
50
89.9660471
51
94.2495185
0
ARC
8
DEFAULT_255_1_388
10
19.161093
20
165.8063154
40
0.4392953
50
73.8045384
51
90.5585736
0
ARC
8
DEFAULT_255_1_388
10
19.1875188
20
165.902852
40
0.3392225
50
41.3071072
51
73.543002
0
ARC
8
DEFAULT_255_1_388
10
19.1407008
20
165.8625461
40
0.4009977
50
13.5075837
51
41.2174839
0
ARC
8
DEFAULT_255_1_388
10
18.9560106
20
165.8141907
40
0.5918864
50
1.1330171
51
13.8830737
0
ARC
8
DEFAULT_255_1_388
10
18.7963751
20
165.8056522
40
0.7516787
50
359.9925091
51
1.5431298
0
ARC
8
DEFAULT_255_1_388
10
18.9408366
20
165.8010027
40
0.6072343
50
347.8572712
51
0.4294349
0
ARC
8
DEFAULT_255_1_388
10
19.1377501
20
165.7563898
40
0.4053482
50
323.6727442
51
348.1674594
0
ARC
8
DEFAULT_255_1_388
10
19.1708466
20
165.7362175
40
0.3667495
50
316.8171818
51
323.1486802
0
ARC
8
DEFAULT_255_1_388
10
19.1777589
20
165.7320612
40
0.358869
50
281.839603
51
316.5458142
0
ARC
8
DEFAULT_255_1_388
10
19.1354877
20
165.9070363
40
0.5388223
50
269.5770964
51
282.4214641
0
ARC
8
DEFAULT_255_1_388
10
19.1274798
20
165.882993
40
0.5147801
50
256.2425863
51
270.4486481
0
ARC
8
DEFAULT_255_1_388
10
19.0938325
20
165.7480124
40
0.3756708
50
228.9024379
51
256.33135
0
ARC
8
DEFAULT_255_1_388
10
19.0855306
20
165.7349054
40
0.360344
50
193.7536029
51
228.5272638
0
ARC
8
DEFAULT_255_1_388
10
19.2247871
20
165.7757463
40
0.5053599
50
184.9244437
51
194.4976052
0
ARC
8
DEFAULT_255_1_388
10
19.2464512
20
165.7797722
40
0.3700839
50
187.3596909
51
198.6733728
0
ARC
8
DEFAULT_255_1_388
10
19.1283755
20
165.7388373
40
0.2451195
50
198.4453795
51
217.7945479
0
ARC
8
DEFAULT_255_1_388
10
19.0950928
20
165.7152563
40
0.2043754
50
218.2887146
51
228.5613203
0
ARC
8
DEFAULT_255_1_388
10
19.1060935
20
165.7300902
40
0.2227819
50
228.9652423
51
258.1237049
0
ARC
8
DEFAULT_255_1_388
10
19.1292372
20
165.8291964
40
0.3245374
50
257.7260585
51
270.4013717
0
ARC
8
DEFAULT_255_1_388
10
19.134287
20
165.7791255
40
0.2744726
50
269.4204315
51
286.420998
0
ARC
8
DEFAULT_255_1_388
10
19.1509926
20
165.7184705
40
0.2115721
50
286.7250065
51
320.6004665
0
ARC
8
DEFAULT_255_1_388
10
19.1078841
20
165.7534527
40
0.2670878
50
320.6712228
51
344.5440474
0
ARC
8
DEFAULT_255_1_388
10
18.9777555
20
165.7916394
40
0.4026927
50
344.241448
51
356.735803
0
ARC
8
DEFAULT_255_1_388
10
18.8373862
20
165.8032656
40
0.5435085
50
356.3547471
51
0.0507222
0
ARC
8
DEFAULT_255_1_388
10
18.9876127
20
165.8067812
40
0.3932934
50
359.5579289
51
12.9534322
0
ARC
8
DEFAULT_255_1_388
10
19.1062967
20
165.8355586
40
0.2711827
50
12.6489751
51
41.608121
0
ARC
8
DEFAULT_255_1_388
10
19.1322127
20
165.8575946
40
0.2371737
50
41.7851122
51
85.9892156
0
ARC
8
DEFAULT_255_1_388
10
19.1183437
20
165.7660738
40
0.3295244
50
84.6965848
51
90.0672125
0
ARC
8
DEFAULT_255_1_388
10
19.1157005
20
165.6909118
40
0.4046926
50
89.6804991
51
99.161352
0
ARC
8
DEFAULT_255_1_388
10
19.0926014
20
165.8289848
40
0.2647044
50
98.9836248
51
113.8905702
0
ARC
8
DEFAULT_255_1_388
10
19.0667689
20
165.8899118
40
0.1985386
50
114.195234
51
127.3641866
0
ARC
8
DEFAULT_255_1_388
10
20.2109244
20
166.355672
40
0.3175098
50
338.8762533
51
0.5167111
0
ARC
8
DEFAULT_255_1_388
10
20.2298838
20
166.35056
40
0.2979894
50
325.8415285
51
338.4793574
0
ARC
8
DEFAULT_255_1_388
10
20.1859472
20
166.3810242
40
0.351452
50
296.7587686
51
325.7536481
0
ARC
8
DEFAULT_255_1_388
10
20.1531099
20
166.4364363
40
0.4157374
50
296.0927901
51
297.3613472
0
ARC
8
DEFAULT_255_1_388
10
20.1825295
20
165.6981593
40
0.395855
50
47.9007294
51
67.1948823
0
ARC
8
DEFAULT_255_1_388
10
20.2045937
20
165.7258599
40
0.360516
50
35.2363914
51
47.551141
0
ARC
8
DEFAULT_255_1_388
10
20.2340341
20
165.7455093
40
0.3251343
50
359.2759765
51
35.4014143
0
ARC
8
DEFAULT_255_1_388
10
20.1502267
20
165.7372787
40
0.4089365
50
343.1293083
51
0.5775513
0
ARC
8
DEFAULT_255_1_388
10
20.231738
20
165.7148336
40
0.3244269
50
310.8496669
51
342.7449331
0
ARC
8
DEFAULT_255_1_388
10
20.1847255
20
165.7684913
40
0.3957651
50
281.5472888
51
310.9170406
0
ARC
8
DEFAULT_255_1_388
10
20.144613
20
165.9431814
40
0.5749654
50
269.619248
51
281.9789564
0
ARC
8
DEFAULT_255_1_388
10
20.1364907
20
165.9432776
40
0.5750649
50
257.4585678
51
270.4285689
0
ARC
8
DEFAULT_255_1_388
10
20.0936428
20
165.7628741
40
0.389671
50
228.7554326
51
257.8484789
0
ARC
8
DEFAULT_255_1_388
10
20.0587913
20
165.7209228
40
0.335154
50
184.0104975
51
228.5071184
0
ARC
8
DEFAULT_255_1_388
10
20.1896305
20
165.740843
40
0.4671891
50
179.9315832
51
185.3253753
0
ARC
8
DEFAULT_255_1_388
10
20.0572818
20
165.7450592
40
0.33486
50
145.6796023
51
180.6259786
0
ARC
8
DEFAULT_255_1_388
10
20.0756584
20
165.7322271
40
0.3572723
50
115.5537685
51
145.6415986
0
ARC
8
DEFAULT_255_1_388
10
20.1139628
20
165.6636087
40
0.4357296
50
113.243307
51
116.2057839
0
ARC
8
DEFAULT_255_1_388
10
20.096828
20
166.3833379
40
0.3549126
50
222.9549744
51
244.1370481
0
ARC
8
DEFAULT_255_1_388
10
20.0830923
20
166.3679378
40
0.3343711
50
213.3436887
51
222.6274467
0
ARC
8
DEFAULT_255_1_388
10
20.0614992
20
166.3532653
40
0.3082678
50
180.431584
51
213.271499
0
ARC
8
DEFAULT_255_1_388
10
20.1249991
20
166.3585296
40
0.3718363
50
179.9991191
51
181.1690594
0
ARC
8
DEFAULT_255_1_388
10
20.1722447
20
166.3624072
40
0.4190996
50
164.6186169
51
180.529336
0
ARC
8
DEFAULT_255_1_388
10
20.0712096
20
166.389578
40
0.3144772
50
132.2455553
51
164.5090724
0
ARC
8
DEFAULT_255_1_388
10
20.1035075
20
166.353007
40
0.3632644
50
100.7053914
51
132.1386381
0
ARC
8
DEFAULT_255_1_388
10
20.1378135
20
166.1980118
40
0.5219578
50
89.6730358
51
101.2451698
0
ARC
8
DEFAULT_255_1_388
10
20.1448127
20
166.2176648
40
0.5023124
50
76.287748
51
90.4586006
0
ARC
8
DEFAULT_255_1_388
10
20.1792629
20
166.3551671
40
0.3605639
50
47.8240511
51
76.4266241
0
ARC
8
DEFAULT_255_1_388
10
20.2043013
20
166.3844599
40
0.3220463
50
6.9168387
51
47.6262497
0
ARC
8
DEFAULT_255_1_388
10
20.0708466
20
166.3598004
40
0.4575765
50
359.8415968
51
7.9697453
0
ARC
8
DEFAULT_255_1_388
10
20.1092735
20
165.7477519
40
0.2827228
50
359.445363
51
16.9256873
0
ARC
8
DEFAULT_255_1_388
10
20.1620169
20
165.7622781
40
0.2280396
50
17.2920767
51
45.4630727
0
ARC
8
DEFAULT_255_1_388
10
20.1559305
20
165.7570324
40
0.2360485
50
45.30305
51
83.1920945
0
ARC
8
DEFAULT_255_1_388
10
20.139805
20
165.6668473
40
0.3275527
50
82.2612665
51
90.1434275
0
ARC
8
DEFAULT_255_1_388
10
20.1363326
20
165.6930869
40
0.3013237
50
89.4956434
51
104.8580688
0
ARC
8
DEFAULT_255_1_388
10
20.1164516
20
165.7684455
40
0.2233867
50
104.8856641
51
135.244616
0
ARC
8
DEFAULT_255_1_388
10
20.1220505
20
165.7634352
40
0.2308906
50
135.3399546
51
172.1044062
0
ARC
8
DEFAULT_255_1_388
10
20.2128029
20
165.7460667
40
0.3232034
50
171.2645637
51
180.186429
0
ARC
8
DEFAULT_255_1_388
10
20.1938034
20
165.7424426
40
0.304213
50
179.5154935
51
193.6464289
0
ARC
8
DEFAULT_255_1_388
10
20.101971
20
165.7190473
40
0.209456
50
193.3540274
51
225.8258581
0
ARC
8
DEFAULT_255_1_388
10
20.1065582
20
165.7270076
40
0.2183738
50
226.4180634
51
255.8552336
0
ARC
8
DEFAULT_255_1_388
10
20.1354048
20
165.8323521
40
0.3275812
50
255.4654104
51
268.7987425
0
ARC
8
DEFAULT_255_1_388
10
20.1407225
20
165.9265545
40
0.4218877
50
268.3449238
51
270.0094605
0
ARC
8
DEFAULT_255_1_388
10
20.1433458
20
165.8497094
40
0.3450519
50
269.5759586
51
282.0820163
0
ARC
8
DEFAULT_255_1_388
10
20.1686495
20
165.7378363
40
0.2303642
50
281.752014
51
306.6056188
0
ARC
8
DEFAULT_255_1_388
10
20.1797303
20
165.7196802
40
0.2091906
50
307.1346085
51
314.027845
0
ARC
8
DEFAULT_255_1_388
10
20.1756814
20
165.7226459
40
0.2141385
50
314.2552483
51
350.1694025
0
ARC
8
DEFAULT_255_1_388
10
20.0799052
20
165.7434175
40
0.312082
50
349.4140529
51
0.2933014
0
ARC
8
DEFAULT_255_1_388
10
20.1384329
20
166.3237924
40
0.2588377
50
89.477747
51
105.729729
0
ARC
8
DEFAULT_255_1_388
10
20.1231249
20
166.3806367
40
0.1999733
50
105.9233417
51
135.1660906
0
ARC
8
DEFAULT_255_1_388
10
20.1254279
20
166.3790412
40
0.2027322
50
135.3052302
51
168.9883645
0
ARC
8
DEFAULT_255_1_388
10
20.2185296
20
166.3576996
40
0.2982129
50
168.3801673
51
180.3602268
0
ARC
8
DEFAULT_255_1_388
10
20.1928412
20
166.3534622
40
0.2725291
50
179.5033122
51
194.9125571
0
ARC
8
DEFAULT_255_1_388
10
20.1269819
20
166.3361427
40
0.204431
50
194.9720816
51
224.194444
0
ARC
8
DEFAULT_255_1_388
10
20.1238185
20
166.3335635
40
0.2003651
50
224.2962453
51
262.015664
0
ARC
8
DEFAULT_255_1_388
10
20.1398189
20
166.4158315
40
0.2840925
50
261.1245923
51
270.1962896
0
ARC
8
DEFAULT_255_1_388
10
20.143167
20
166.3947859
40
0.2630559
50
269.4827276
51
285.0987215
0
ARC
8
DEFAULT_255_1_388
10
20.1605106
20
166.3297175
40
0.1957162
50
285.1585357
51
315.9484501
0
ARC
8
DEFAULT_255_1_388
10
20.150498
20
166.3389315
40
0.2093195
50
316.0413965
51
351.916092
0
ARC
8
DEFAULT_255_1_388
10
20.0680354
20
166.3548323
40
0.2932279
50
351.105835
51
0.1939062
0
ARC
8
DEFAULT_255_1_388
10
20.0975988
20
166.3582224
40
0.2636739
50
359.4789618
51
16.0678224
0
ARC
8
DEFAULT_255_1_388
10
20.151146
20
166.3726721
40
0.2082215
50
16.3252067
51
44.7913869
0
ARC
8
DEFAULT_255_1_388
10
20.1491522
20
166.372732
40
0.2095992
50
44.3957814
51
88.2499162
0
ARC
8
DEFAULT_255_1_388
10
20.1408856
20
166.3039006
40
0.2787189
50
86.9833854
51
90.0192215
0
LINE
8
DEFAULT_255_1_388
10
21.5946273
20
166.164269
11
21.5946273
21
165.9474135
0
LINE
8
DEFAULT_255_1_388
10
20.7642516
20
165.9248244
11
20.7642516
21
166.1480048
0
LINE
8
DEFAULT_255_1_388
10
21.4274679
20
165.9022353
11
21.4274679
21
166.1760153
0
LINE
8
DEFAULT_255_1_388
10
20.931411
20
166.1886652
11
20.931411
21
165.9212102
0
ARC
8
DEFAULT_255_1_388
10
20.2168607
20
165.9419118
40
1.3777776
50
353.8440855
51
0.2287917
0
ARC
8
DEFAULT_255_1_388
10
20.7387625
20
165.8836414
40
0.852639
50
344.4934746
51
353.9763743
0
ARC
8
DEFAULT_255_1_388
10
21.0754432
20
165.7879191
40
0.5026273
50
329.2803599
51
344.7473406
0
ARC
8
DEFAULT_255_1_388
10
21.1869928
20
165.7267038
40
0.3754848
50
324.9361395
51
328.6153007
0
ARC
8
DEFAULT_255_1_388
10
21.2295577
20
165.6969586
40
0.3235566
50
280.5801797
51
324.9173226
0
ARC
8
DEFAULT_255_1_388
10
21.1844206
20
165.8849236
40
0.5167077
50
269.5979457
51
281.6732777
0
ARC
8
DEFAULT_255_1_388
10
21.176311
20
165.8714113
40
0.5032026
50
256.6228565
51
270.5105488
0
ARC
8
DEFAULT_255_1_388
10
21.1310852
20
165.6972345
40
0.3233092
50
215.8618351
51
257.2787793
0
ARC
8
DEFAULT_255_1_388
10
21.2459559
20
165.7743106
40
0.4615831
50
197.9695203
51
215.2622745
0
ARC
8
DEFAULT_255_1_388
10
21.5255235
20
165.8686641
40
0.7566307
50
187.8816486
51
198.2346584
0
ARC
8
DEFAULT_255_1_388
10
21.9708473
20
165.9329453
40
1.2065653
50
180.8977266
51
188.0054894
0
ARC
8
DEFAULT_255_1_388
10
22.2758687
20
165.94444
40
1.5117443
50
180.7434591
51
181.152202
0
ARC
8
DEFAULT_255_1_388
10
22.1083683
20
166.1534371
40
1.3441277
50
173.7674302
51
180.2315596
0
ARC
8
DEFAULT_255_1_388
10
21.6001552
20
166.2108779
40
0.8326847
50
164.3058537
51
173.9000553
0
ARC
8
DEFAULT_255_1_388
10
21.2725552
20
166.3052652
40
0.4917711
50
148.7922028
51
164.5682288
0
ARC
8
DEFAULT_255_1_388
10
21.1656289
20
166.3649457
40
0.3694204
50
144.5883979
51
148.1161588
0
ARC
8
DEFAULT_255_1_388
10
21.1269035
20
166.3919667
40
0.322202
50
101.6440149
51
144.5142619
0
ARC
8
DEFAULT_255_1_388
10
21.1747227
20
166.2019337
40
0.5180451
50
89.528284
51
102.5820197
0
ARC
8
DEFAULT_255_1_388
10
21.1836219
20
166.1975376
40
0.5224441
50
77.0437914
51
90.508231
0
ARC
8
DEFAULT_255_1_388
10
21.2288472
20
166.3823272
40
0.3322297
50
48.2777708
51
77.4996087
0
ARC
8
DEFAULT_255_1_388
10
21.2370212
20
166.3968557
40
0.315966
50
36.3141586
51
47.6307332
0
ARC
8
DEFAULT_255_1_388
10
21.1392935
20
166.3310159
40
0.4337313
50
18.2931065
51
35.6770203
0
ARC
8
DEFAULT_255_1_388
10
20.8531775
20
166.2328107
40
0.7362203
50
8.0246996
51
18.5605636
0
ARC
8
DEFAULT_255_1_388
10
20.3848131
20
166.1636432
40
1.2096583
50
1.127539
51
8.1718423
0
ARC
8
DEFAULT_255_1_388
10
20.0199264
20
166.1493374
40
1.5747719
50
0.5432713
51
1.38669
0
ARC
8
DEFAULT_255_1_388
10
20.2256643
20
166.1800163
40
1.2018103
50
359.8092569
51
4.9408001
0
ARC
8
DEFAULT_255_1_388
10
20.6993224
20
166.22229
40
0.7262727
50
4.8364937
51
12.2906017
0
ARC
8
DEFAULT_255_1_388
10
21.0092689
20
166.2913485
40
0.4087324
50
12.0806994
51
23.8171225
0
ARC
8
DEFAULT_255_1_388
10
21.1413085
20
166.3472508
40
0.2653719
50
24.2874621
51
31.3934353
0
ARC
8
DEFAULT_255_1_388
10
21.2003521
20
166.3858822
40
0.1948607
50
30.7407708
51
82.4658033
0
ARC
8
DEFAULT_255_1_388
10
21.1801182
20
166.2865017
40
0.2961198
50
81.1057101
51
90.2187368
0
ARC
8
DEFAULT_255_1_388
10
21.1760994
20
166.3155421
40
0.2670929
50
89.380395
51
105.6763916
0
ARC
8
DEFAULT_255_1_388
10
21.1554716
20
166.390532
40
0.1893189
50
105.7980655
51
149.7387869
0
ARC
8
DEFAULT_255_1_388
10
21.2751856
20
166.3185719
40
0.3289892
50
149.4208441
51
163.628295
0
ARC
8
DEFAULT_255_1_388
10
21.5104085
20
166.2468345
40
0.5749004
50
163.3764549
51
172.141138
0
ARC
8
DEFAULT_255_1_388
10
21.8816807
20
166.1936582
40
0.9499585
50
172.0258462
51
178.0705453
0
ARC
8
DEFAULT_255_1_388
10
22.223836
20
166.1774682
40
1.2924734
50
177.8639301
51
179.5036263
0
ARC
8
DEFAULT_255_1_388
10
22.1019378
20
165.9171151
40
1.170534
50
179.7995545
51
185.246089
0
ARC
8
DEFAULT_255_1_388
10
21.6470971
20
165.8740404
40
0.7136613
50
185.1411911
51
193.0082205
0
ARC
8
DEFAULT_255_1_388
10
21.3497232
20
165.8037441
40
0.4080987
50
192.7897338
51
205.2507384
0
ARC
8
DEFAULT_255_1_388
10
21.2319442
20
165.7511538
40
0.2791522
50
205.8001921
51
211.2545876
0
ARC
8
DEFAULT_255_1_388
10
21.1730981
20
165.7117132
40
0.2084074
50
210.3789935
51
238.4007996
0
ARC
8
DEFAULT_255_1_388
10
21.1709067
20
165.7169786
40
0.2117943
50
239.6521916
51
265.9793852
0
ARC
8
DEFAULT_255_1_388
10
21.1804916
20
165.7926358
40
0.2879689
50
265.1324455
51
270.0603288
0
ARC
8
DEFAULT_255_1_388
10
21.1837293
20
165.7561418
40
0.2514919
50
269.3314378
51
287.2180039
0
ARC
8
DEFAULT_255_1_388
10
21.1992375
20
165.6995291
40
0.1928357
50
287.7957942
51
329.0808983
0
ARC
8
DEFAULT_255_1_388
10
21.0915132
20
165.7667651
40
0.319808
50
328.6635261
51
343.3325043
0
ARC
8
DEFAULT_255_1_388
10
20.8470591
20
165.8429195
40
0.5758408
50
343.0498092
51
351.9392499
0
ARC
8
DEFAULT_255_1_388
10
20.4569913
20
165.9004205
40
0.9701202
50
351.8071632
51
357.7957897
0
ARC
8
DEFAULT_255_1_388
10
20.093539
20
165.9192724
40
1.3340376
50
357.5870923
51
359.2682493
0
LINE
8
DEFAULT_255_2_778
10
11.0359959
20
168.3731531
11
10.9838959
21
168.7104531
0
LINE
8
DEFAULT_255_2_778
10
10.9838959
20
168.7104531
11
10.4068959
21
168.7104531
0
LINE
8
DEFAULT_255_2_778
10
10.4068959
20
168.7104531
11
10.2364959
21
168.3731531
0
LINE
8
DEFAULT_255_2_778
10
10.2364959
20
168.3731531
11
9.8694959
21
168.3731531
0
LINE
8
DEFAULT_255_2_778
10
9.8694959
20
168.3731531
11
10.7531959
21
170.0106531
0
LINE
8
DEFAULT_255_2_778
10
10.7531959
20
170.0106531
11
11.0608959
21
170.0106531
0
LINE
8
DEFAULT_255_2_778
10
11.0608959
20
170.0106531
11
11.3754959
21
168.3731531
0
LINE
8
DEFAULT_255_2_778
10
11.3754959
20
168.3731531
11
11.0357959
21
168.3731531
0
LINE
8
DEFAULT_255_2_778
10
11.0357959
20
168.3731531
11
11.0359959
21
168.3731531
0
LINE
8
DEFAULT_255_2_778
10
10.8486959
20
169.5934531
11
10.5430959
21
168.9838531
0
LINE
8
DEFAULT_255_2_778
10
10.5430959
20
168.9838531
11
10.9418959
21
168.9838531
0
LINE
8
DEFAULT_255_2_778
10
10.9418959
20
168.9838531
11
10.8486959
21
169.5934531
0
LINE
8
DEFAULT_255_2_778
10
10.8486959
20
169.5934531
11
10.8486959
21
169.5934531
0
LINE
8
DEFAULT_255_2_778
10
12.1615594
20
170.1006646
11
11.8593594
21
168.3729646
0
LINE
8
DEFAULT_255_2_778
10
11.8593594
20
168.3729646
11
11.5368594
21
168.3729646
0
LINE
8
DEFAULT_255_2_778
10
11.5368594
20
168.3729646
11
11.8400594
21
170.1006646
0
LINE
8
DEFAULT_255_2_778
10
11.8400594
20
170.1006646
11
12.1615594
21
170.1006646
0
LINE
8
DEFAULT_255_2_778
10
12.1615594
20
170.1006646
11
12.1615594
21
170.1006646
0
LINE
8
DEFAULT_255_2_778
10
12.7717594
20
170.1006646
11
12.4695594
21
168.3729646
0
LINE
8
DEFAULT_255_2_778
10
12.4695594
20
168.3729646
11
12.1470594
21
168.3729646
0
LINE
8
DEFAULT_255_2_778
10
12.1470594
20
168.3729646
11
12.4502594
21
170.1006646
0
LINE
8
DEFAULT_255_2_778
10
12.4502594
20
170.1006646
11
12.7717594
21
170.1006646
0
LINE
8
DEFAULT_255_2_778
10
12.7717594
20
170.1006646
11
12.7717594
21
170.1006646
0
ARC
8
DEFAULT_255_2_778
10
13.3180767
20
168.8887764
40
0.5383522
50
238.763891
51
270.7055166
0
ARC
8
DEFAULT_255_2_778
10
13.2867625
20
168.833452
40
0.4748131
50
204.061185
51
238.5328679
0
ARC
8
DEFAULT_255_2_778
10
13.3693681
20
168.8730331
40
0.5663841
50
179.4896096
51
204.3103027
0
ARC
8
DEFAULT_255_2_778
10
13.4933843
20
168.8775727
40
0.6903781
50
175.123126
51
179.9580366
0
ARC
8
DEFAULT_255_2_778
10
13.5850479
20
168.9125152
40
0.7790728
50
149.5392097
51
174.9446897
0
ARC
8
DEFAULT_255_2_778
10
13.459184
20
168.9960212
40
0.628301
50
120.7003982
51
150.2846053
0
ARC
8
DEFAULT_255_2_778
10
13.4196851
20
169.0557024
40
0.556829
50
89.4236852
51
120.3409826
0
ARC
8
DEFAULT_255_2_778
10
13.4252352
20
168.9569671
40
0.6555361
50
88.4553682
51
89.9955718
0
ARC
8
DEFAULT_255_2_778
10
13.4481363
20
169.1411369
40
0.4711572
50
58.4514404
51
90.636095
0
ARC
8
DEFAULT_255_2_778
10
13.4744403
20
169.2045423
40
0.403504
50
35.6058989
51
56.9235594
0
ARC
8
DEFAULT_255_2_778
10
13.3641882
20
169.1307058
40
0.5361477
50
0.6851965
51
35.1616077
0
ARC
8
DEFAULT_255_2_778
10
13.1616313
20
169.1103229
40
0.7391521
50
359.9888194
51
2.0774415
0
ARC
8
DEFAULT_255_2_778
10
13.0480025
20
169.1120249
40
0.852783
50
353.383538
51
359.8759623
0
ARC
8
DEFAULT_255_2_778
10
13.534221
20
168.8596119
40
0.4107176
50
177.8018731
51
179.9839782
0
ARC
8
DEFAULT_255_2_778
10
13.3756217
20
168.848124
40
0.2523852
50
177.3650374
51
219.8309448
0
ARC
8
DEFAULT_255_2_778
10
13.3462068
20
168.8348401
40
0.2214564
50
222.0668323
51
271.55222
0
ARC
8
DEFAULT_255_2_778
10
13.3632002
20
169.0396289
40
0.4263057
50
268.5221572
51
269.9980687
0
ARC
8
DEFAULT_255_2_778
10
13.3616001
20
169.0100217
40
0.3967017
50
270.2290309
51
318.5203973
0
ARC
8
DEFAULT_255_2_778
10
13.4310056
20
168.8267979
40
0.4555006
50
292.4982989
51
325.2807674
0
ARC
8
DEFAULT_255_2_778
10
13.3411907
20
169.0053545
40
0.6549996
50
269.6158853
51
293.7802026
0
ARC
8
DEFAULT_255_2_778
10
13.3368026
20
169.092233
40
0.7418635
50
269.0811303
51
269.9997673
0
ARC
8
DEFAULT_255_2_778
10
13.4205249
20
169.0851977
40
0.2651417
50
88.6426435
51
89.9971979
0
ARC
8
DEFAULT_255_2_778
10
13.4187009
20
169.1204788
40
0.2298681
50
89.5421073
51
130.5025885
0
ARC
8
DEFAULT_255_2_778
10
13.5174398
20
169.0203327
40
0.370282
50
132.0556576
51
154.4346079
0
ARC
8
DEFAULT_255_2_778
10
13.9187288
20
168.8027869
40
0.8264843
50
152.8348001
51
159.2008974
0
ARC
8
DEFAULT_255_2_778
10
13.283715
20
169.1737268
40
0.3137404
50
351.1327381
51
359.8552777
0
ARC
8
DEFAULT_255_2_778
10
13.3301744
20
169.1733274
40
0.2672803
50
359.9157472
51
8.073482
0
ARC
8
DEFAULT_255_2_778
10
13.4328726
20
169.1886276
40
0.1634528
50
7.8192239
51
49.4174523
0
ARC
8
DEFAULT_255_2_778
10
13.4309336
20
169.1754377
40
0.174876
50
51.746929
51
91.3525911
0
LINE
8
DEFAULT_255_2_778
10
12.8055056
20
168.936265
11
12.8090056
21
168.981165
0
LINE
8
DEFAULT_255_2_778
10
13.8951056
20
169.013765
11
13.8768056
21
168.875365
0
LINE
8
DEFAULT_255_2_778
10
13.8768056
20
168.875365
11
13.1238056
21
168.875365
0
LINE
8
DEFAULT_255_2_778
10
13.6588056
20
168.747265
11
13.8054056
21
168.567365
0
LINE
8
DEFAULT_255_2_778
10
13.3249056
20
168.350465
11
13.3247056
21
168.350465
0
LINE
8
DEFAULT_255_2_778
10
13.1461056
20
169.096265
11
13.5868056
21
169.096265
0
LINE
8
DEFAULT_255_2_778
10
13.5868056
20
169.096265
11
13.5937056
21
169.125365
0
LINE
8
DEFAULT_255_2_778
10
13.4268056
20
169.350265
11
13.4268056
21
169.350265
0
ARC
8
DEFAULT_255_2_778
10
14.7973588
20
169.1688783
40
0.4439397
50
89.8554796
51
141.1589213
0
ARC
8
DEFAULT_255_2_778
10
14.7984572
20
169.107943
40
0.5048737
50
88.7717605
51
89.9975792
0
ARC
8
DEFAULT_255_2_778
10
14.8178417
20
169.2968406
40
0.315976
50
50.4893295
51
91.5528058
0
ARC
8
DEFAULT_255_2_778
10
14.8339359
20
169.3312178
40
0.2793745
50
33.8414583
51
48.5499238
0
ARC
8
DEFAULT_255_2_778
10
14.731985
20
169.2723286
40
0.3969262
50
4.3932888
51
32.7062485
0
ARC
8
DEFAULT_255_2_778
10
14.4819065
20
169.2369301
40
0.6491822
50
359.8769204
51
5.8177478
0
ARC
8
DEFAULT_255_2_778
10
14.2701804
20
169.2378881
40
0.8609097
50
353.9399056
51
359.8434284
0
ARC
8
DEFAULT_255_2_778
10
14.4164047
20
169.2035967
40
0.3954956
50
352.2407688
51
359.7520116
0
ARC
8
DEFAULT_255_2_778
10
14.5201997
20
169.2024041
40
0.2916973
50
359.8980094
51
5.448398
0
ARC
8
DEFAULT_255_2_778
10
14.6814536
20
169.2195865
40
0.129553
50
4.6550554
51
97.2610773
0
ARC
8
DEFAULT_255_2_778
10
14.655996
20
169.0938531
40
0.2544097
50
87.9539208
51
89.9945997
0
ARC
8
DEFAULT_255_2_778
10
14.6629447
20
169.0782668
40
0.2700847
50
91.4691634
51
141.078713
0
ARC
8
DEFAULT_255_2_778
10
14.7966376
20
168.9364301
40
0.4639576
50
137.8219849
51
140.394746
0
ARC
8
DEFAULT_255_2_778
10
16.9661161
20
168.983211
40
1.026426
50
77.5141066
51
90.4821212
0
ARC
8
DEFAULT_255_2_778
10
17.0845798
20
169.4924611
40
0.5036389
50
52.814306
51
78.1469212
0
ARC
8
DEFAULT_255_2_778
10
17.1732245
20
169.6207438
40
0.3479303
50
357.5432245
51
51.6759047
0
ARC
8
DEFAULT_255_2_778
10
16.9814613
20
169.6061938
40
0.5393738
50
356.248244
51
359.9613012
0
ARC
8
DEFAULT_255_2_778
10
17.128092
20
169.5935882
40
0.3922439
50
295.0867564
51
356.6841236
0
ARC
8
DEFAULT_255_2_778
10
16.9599154
20
169.8563279
40
0.7026958
50
292.6018649
51
298.4245718
0
ARC
8
DEFAULT_255_2_778
10
17.1412835
20
168.943675
40
0.2784307
50
29.5992916
51
71.4243751
0
ARC
8
DEFAULT_255_2_778
10
17.0686219
20
168.9014727
40
0.3624559
50
358.8250622
51
29.7265593
0
ARC
8
DEFAULT_255_2_778
10
16.932071
20
168.8943262
40
0.4989307
50
356.3312443
51
359.9671937
0
ARC
8
DEFAULT_255_2_778
10
16.9581925
20
168.8755387
40
0.4719696
50
307.6792206
51
358.4048608
0
ARC
8
DEFAULT_255_2_778
10
16.8807048
20
168.9963643
40
0.6150877
50
279.1080464
51
306.5123219
0
ARC
8
DEFAULT_255_2_778
10
16.7961448
20
169.4184116
40
1.0453321
50
269.63465
51
280.0226117
0
ARC
8
DEFAULT_255_2_778
10
16.8094212
20
168.9835308
40
0.3407431
50
267.9747348
51
304.6141501
0
ARC
8
DEFAULT_255_2_778
10
16.8661516
20
168.8973067
40
0.2375665
50
305.166569
51
352.3059676
0
ARC
8
DEFAULT_255_2_778
10
16.775822
20
168.9183166
40
0.3300111
50
350.7906063
51
359.6837465
0
ARC
8
DEFAULT_255_2_778
10
16.9356152
20
168.9239465
40
0.170376
50
357.4933304
51
35.754963
0
ARC
8
DEFAULT_255_2_778
10
16.9423472
20
168.9096963
40
0.1739313
50
40.8670445
51
88.9145542
0
ARC
8
DEFAULT_255_2_778
10
16.9113357
20
168.7244792
40
0.360752
50
84.5431107
51
87.5464559
0
ARC
8
DEFAULT_255_2_778
10
16.8864523
20
169.6965688
40
0.3741259
50
268.9933192
51
299.9063201
0
ARC
8
DEFAULT_255_2_778
10
16.9296435
20
169.6037438
40
0.2722705
50
301.7671328
51
305.0688299
0
ARC
8
DEFAULT_255_2_778
10
16.9572403
20
169.5676463
40
0.2268776
50
304.6024496
51
352.3134516
0
ARC
8
DEFAULT_255_2_778
10
16.9035208
20
169.5783322
40
0.2815642
50
351.6205962
51
359.745937
0
ARC
8
DEFAULT_255_2_778
10
17.0391775
20
169.5844083
40
0.1460884
50
357.1260689
51
87.9509322
0
ARC
8
DEFAULT_255_2_778
10
16.9733166
20
169.3050677
40
0.4312349
50
80.5121161
51
90.1776895
0
ARC
8
DEFAULT_255_2_778
10
18.304359
20
168.6332308
40
0.6634375
50
79.3314563
51
88.7113465
0
ARC
8
DEFAULT_255_2_778
10
18.3079683
20
168.8666839
40
0.4299655
50
88.4925657
51
89.9946723
0
ARC
8
DEFAULT_255_2_778
10
18.2982438
20
168.9867608
40
0.3100425
50
88.1952228
51
143.885382
0
ARC
8
DEFAULT_255_2_778
10
18.4077805
20
169.2317129
40
0.3980768
50
117.0828142
51
147.9763761
0
ARC
8
DEFAULT_255_2_778
10
18.3544747
20
169.3150295
40
0.2997784
50
89.5977622
51
115.2613452
0
ARC
8
DEFAULT_255_2_778
10
18.3464621
20
169.1428482
40
0.4720608
50
75.0830674
51
88.7719532
0
ARC
8
DEFAULT_255_2_778
10
19.3883565
20
168.4600588
40
0.303463
50
178.9513385
51
196.6911244
0
ARC
8
DEFAULT_255_2_778
10
19.5567182
20
168.4654238
40
0.4717738
50
177.8405456
51
179.9770623
0
ARC
8
DEFAULT_255_2_778
10
18.7787325
20
168.7700947
40
0.4198561
50
270.5473861
51
316.8967404
0
ARC
8
DEFAULT_255_2_778
10
18.7827705
20
168.7804581
40
0.4302003
50
268.5226571
51
269.9964175
0
ARC
8
DEFAULT_255_2_778
10
18.7647216
20
168.7285252
40
0.3781887
50
226.455184
51
271.0541416
0
ARC
8
DEFAULT_255_2_778
10
18.7161161
20
168.6831869
40
0.311866
50
179.0506747
51
227.1894377
0
ARC
8
DEFAULT_255_2_778
10
18.7977006
20
168.6882683
40
0.3934079
50
177.4603384
51
179.9875271
0
ARC
8
DEFAULT_255_2_778
10
18.7677222
20
168.7042892
40
0.3630457
50
122.3464314
51
179.7772632
0
ARC
8
DEFAULT_255_2_778
10
18.9127921
20
168.4771577
40
0.6325515
50
98.6956815
51
122.4402135
0
ARC
8
DEFAULT_255_2_778
10
18.9977072
20
168.0221789
40
1.0952432
50
89.6404969
51
99.4883828
0
ARC
8
DEFAULT_255_2_778
10
18.91142
20
169.237456
40
0.2635833
50
349.2520325
51
359.7979352
0
ARC
8
DEFAULT_255_2_778
10
18.9485896
20
169.2366836
40
0.2264121
50
359.9602232
51
5.7075699
0
ARC
8
DEFAULT_255_2_778
10
19.0517084
20
169.2508244
40
0.1224577
50
3.9221136
51
47.9806675
0
ARC
8
DEFAULT_255_2_778
10
19.0461009
20
169.2334028
40
0.1393558
50
51.0640414
51
91.6537281
0
ARC
8
DEFAULT_255_2_778
10
19.0343864
20
169.0992856
40
0.2735232
50
88.3883484
51
89.9950272
0
ARC
8
DEFAULT_255_2_778
10
19.0289472
20
169.1771996
40
0.1956856
50
88.4002709
51
125.6558116
0
ARC
8
DEFAULT_255_2_778
10
19.0229477
20
169.1954867
40
0.1774238
50
127.5242925
51
170.6536699
0
ARC
8
DEFAULT_255_2_778
10
18.8789596
20
169.2092573
40
0.3527561
50
122.7014157
51
177.7346919
0
ARC
8
DEFAULT_255_2_778
10
19.030198
20
169.0042043
40
0.6072396
50
91.7146868
51
124.2570002
0
ARC
8
DEFAULT_255_2_778
10
19.05893
20
168.7473064
40
0.865138
50
89.9735854
51
93.1077226
0
ARC
8
DEFAULT_255_2_778
10
19.0592938
20
168.690756
40
0.9216883
50
89.4414218
51
89.9978259
0
ARC
8
DEFAULT_255_2_778
10
19.0704714
20
169.0922068
40
0.5201984
50
63.6868659
51
90.2414521
0
ARC
8
DEFAULT_255_2_778
10
19.1244671
20
169.2201249
40
0.3816898
50
44.805062
51
62.4405121
0
ARC
8
DEFAULT_255_2_778
10
19.1511934
20
169.2443957
40
0.3456276
50
358.4368244
51
45.0725574
0
ARC
8
DEFAULT_255_2_778
10
18.9988451
20
169.2357092
40
0.4978477
50
354.0151208
51
359.9146153
0
ARC
8
DEFAULT_255_2_778
10
19.916384
20
168.5134006
40
0.5223437
50
178.2666392
51
179.9853875
0
ARC
8
DEFAULT_255_2_778
10
19.7189724
20
168.5055635
40
0.3250299
50
178.5948625
51
200.018038
0
ARC
8
DEFAULT_255_2_778
10
18.8607749
20
168.8944835
40
0.2979407
50
268.1351457
51
269.9967975
0
ARC
8
DEFAULT_255_2_778
10
18.8555143
20
168.8919809
40
0.2954847
50
271.0168715
51
323.4470831
0
ARC
8
DEFAULT_255_2_778
10
19.0185177
20
168.5324003
40
0.3950093
50
89.6139406
51
115.9632081
0
ARC
8
DEFAULT_255_2_778
10
18.9568146
20
168.6735476
40
0.2411766
50
117.4642621
51
142.4598629
0
ARC
8
DEFAULT_255_2_778
10
18.9147894
20
168.7104762
40
0.1853888
50
143.595728
51
174.110017
0
ARC
8
DEFAULT_255_2_778
10
18.8922711
20
168.7049244
40
0.1637466
50
171.368069
51
179.7835889
0
ARC
8
DEFAULT_255_2_778
10
18.8267207
20
168.7018088
40
0.098266
50
177.8221965
51
224.0379617
0
ARC
8
DEFAULT_255_2_778
10
18.8464576
20
168.7268517
40
0.1299333
50
225.9269812
51
272.0384171
0
ARC
8
DEFAULT_255_2_778
10
20.216987
20
169.2619976
40
0.3515032
50
37.8132465
51
89.9360651
0
ARC
8
DEFAULT_255_2_778
10
20.0346749
20
168.7717418
40
0.4267183
50
285.291584
51
321.0175046
0
ARC
8
DEFAULT_255_2_778
10
20.0570669
20
168.7255225
40
0.3763475
50
269.8450062
51
283.8588709
0
ARC
8
DEFAULT_255_2_778
10
20.0560587
20
168.7582286
40
0.4090522
50
268.5880369
51
269.9986183
0
ARC
8
DEFAULT_255_2_778
10
20.0420305
20
168.7050487
40
0.3557701
50
236.3475668
51
270.6359501
0
ARC
8
DEFAULT_255_2_778
10
20.0598141
20
168.7165321
40
0.3752788
50
201.8435891
51
235.058908
0
ARC
8
DEFAULT_255_2_778
10
20.3322211
20
168.8355871
40
0.6724873
50
181.1917384
51
202.6233367
0
ARC
8
DEFAULT_255_2_778
10
20.6351677
20
168.8686339
40
0.9764219
50
180.0156472
51
182.7609519
0
ARC
8
DEFAULT_255_2_778
10
20.5470549
20
168.8692658
40
0.8883095
50
174.2087211
51
180.0579587
0
ARC
8
DEFAULT_255_2_778
10
20.6346038
20
168.8821468
40
0.9727968
50
152.6606942
51
172.4775279
0
ARC
8
DEFAULT_255_2_778
10
20.4685375
20
168.9566269
40
0.7911386
50
151.1967159
51
151.9287309
0
ARC
8
DEFAULT_255_2_778
10
20.2724416
20
169.0806657
40
0.559722
50
125.8155177
51
152.6517649
0
ARC
8
DEFAULT_255_2_778
10
20.1926864
20
169.1751789
40
0.4365104
50
121.2895022
51
124.5859333
0
ARC
8
DEFAULT_255_2_778
10
20.2005174
20
169.1608255
40
0.4528439
50
89.3885498
51
121.1930117
0
ARC
8
DEFAULT_255_2_778
10
20.205315
20
169.0790492
40
0.5345942
50
88.6747242
51
89.9962477
0
ARC
8
DEFAULT_255_2_778
10
21.0229427
20
168.8416181
40
1.044966
50
173.5557888
51
179.5636493
0
ARC
8
DEFAULT_255_2_778
10
20.5582157
20
168.848589
40
0.5802095
50
179.9025124
51
183.3187157
0
ARC
8
DEFAULT_255_2_778
10
20.270534
20
168.819649
40
0.2915917
50
180.9134286
51
207.6247443
0
ARC
8
DEFAULT_255_2_778
10
20.135005
20
168.7552881
40
0.1417894
50
209.9763709
51
272.172214
0
ARC
8
DEFAULT_255_2_778
10
20.1512082
20
168.8790383
40
0.2656585
50
267.6638236
51
269.9934853
0
ARC
8
DEFAULT_255_2_778
10
20.1452669
20
168.8828962
40
0.2695812
50
271.2564257
51
323.4819236
0
ARC
8
DEFAULT_255_2_778
10
20.0042443
20
169.0217425
40
0.4663623
50
320.0808185
51
322.7722781
0
ARC
8
DEFAULT_255_2_778
10
20.2905955
20
169.1680938
40
0.1811681
50
17.7085133
51
91.4917236
0
ARC
8
DEFAULT_255_2_778
10
20.2776466
20
169.0673302
40
0.2819906
50
88.3270304
51
89.9962875
0
ARC
8
DEFAULT_255_2_778
10
20.2751839
20
169.1154886
40
0.2338453
50
89.3920923
51
141.8934507
0
ARC
8
DEFAULT_255_2_778
10
20.4150372
20
169.0058724
40
0.411538
50
141.9009784
51
164.0634131
0
ARC
8
DEFAULT_255_2_778
10
20.9401614
20
168.8381385
40
0.9626867
50
163.0454941
51
172.7936709
0
LINE
8
DEFAULT_255_2_778
10
14.1790793
20
169.5902006
11
14.4788793
21
169.5913006
0
LINE
8
DEFAULT_255_2_778
10
14.4788793
20
169.5913006
11
14.4515793
21
169.4473006
0
LINE
8
DEFAULT_255_2_778
10
15.1262793
20
169.1470006
11
14.9968793
21
168.3731006
0
LINE
8
DEFAULT_255_2_778
10
14.9968793
20
168.3731006
11
14.6764793
21
168.3731006
0
LINE
8
DEFAULT_255_2_778
10
14.6764793
20
168.3731006
11
14.8082793
21
169.1502006
0
LINE
8
DEFAULT_255_2_778
10
14.4391793
20
169.2322006
11
14.2856793
21
168.3729006
0
LINE
8
DEFAULT_255_2_778
10
14.2856793
20
168.3729006
11
13.9652793
21
168.3729006
0
LINE
8
DEFAULT_255_2_778
10
13.9652793
20
168.3729006
11
14.1787793
21
169.5900006
0
LINE
8
DEFAULT_255_2_778
10
14.1787793
20
169.5900006
11
14.1790793
21
169.5902006
0
LINE
8
DEFAULT_255_2_778
10
16.0157793
20
169.2053006
11
15.9692793
21
168.9433006
0
LINE
8
DEFAULT_255_2_778
10
15.9692793
20
168.9433006
11
15.3466793
21
168.9433006
0
LINE
8
DEFAULT_255_2_778
10
15.3466793
20
168.9433006
11
15.3921793
21
169.2053006
0
LINE
8
DEFAULT_255_2_778
10
15.3921793
20
169.2053006
11
16.0157793
21
169.2053006
0
LINE
8
DEFAULT_255_2_778
10
16.0157793
20
169.2053006
11
16.0157793
21
169.2053006
0
LINE
8
DEFAULT_255_2_778
10
16.7894793
20
168.3731006
11
16.1544793
21
168.3731006
0
LINE
8
DEFAULT_255_2_778
10
16.1544793
20
168.3731006
11
16.4417793
21
170.0106006
0
LINE
8
DEFAULT_255_2_778
10
16.4417793
20
170.0106006
11
16.9574793
21
170.0096006
0
LINE
8
DEFAULT_255_2_778
10
16.7894793
20
168.3731006
11
16.7894793
21
168.3731006
0
LINE
8
DEFAULT_255_2_778
10
16.9267793
20
169.0851006
11
16.6131793
21
169.0862006
0
LINE
8
DEFAULT_255_2_778
10
16.6131793
20
169.0862006
11
16.5348793
21
168.6441006
0
LINE
8
DEFAULT_255_2_778
10
16.5348793
20
168.6441006
11
16.7973793
21
168.6430006
0
LINE
8
DEFAULT_255_2_778
10
16.9267793
20
169.0849006
11
16.9267793
21
169.0851006
0
LINE
8
DEFAULT_255_2_778
10
16.7267793
20
169.7376006
11
16.6539793
21
169.3248006
0
LINE
8
DEFAULT_255_2_778
10
16.6539793
20
169.3248006
11
16.8798793
21
169.3225006
0
LINE
8
DEFAULT_255_2_778
10
16.9719793
20
169.7363006
11
16.7267793
21
169.7373006
0
LINE
8
DEFAULT_255_2_778
10
16.7267793
20
169.7373006
11
16.7267793
21
169.7376006
0
LINE
8
DEFAULT_255_2_778
10
18.4681793
20
169.5990006
11
18.4271793
21
169.2852006
0
LINE
8
DEFAULT_255_2_778
10
18.0477793
20
169.1695006
11
17.9056793
21
168.3731006
0
LINE
8
DEFAULT_255_2_778
10
17.9056793
20
168.3731006
11
17.5852793
21
168.3731006
0
LINE
8
DEFAULT_255_2_778
10
17.5852793
20
168.3731006
11
17.7987793
21
169.5902006
0
LINE
8
DEFAULT_255_2_778
10
17.7987793
20
169.5902006
11
18.0998793
21
169.5913006
0
LINE
8
DEFAULT_255_2_778
10
18.0998793
20
169.5913006
11
18.0702793
21
169.4428006
0
LINE
8
DEFAULT_255_2_778
10
18.4679793
20
169.5990006
11
18.4681793
21
169.5990006
0
LINE
8
DEFAULT_255_2_778
10
19.4122793
20
168.3729006
11
19.0976793
21
168.3729006
0
LINE
8
DEFAULT_255_2_778
10
19.0045793
20
169.1174006
11
19.1545793
21
169.1153006
0
LINE
8
DEFAULT_255_2_778
10
19.1545793
20
169.1153006
11
19.1703793
21
169.1883006
0
LINE
8
DEFAULT_255_2_778
10
18.8478793
20
169.2243006
11
18.5264793
21
169.2232006
0
LINE
8
DEFAULT_255_2_778
10
19.4939793
20
169.1838006
11
19.3997793
21
168.6012006
0
LINE
8
DEFAULT_255_2_778
10
19.3997793
20
168.6012006
11
19.3942793
21
168.5292006
0
LINE
8
DEFAULT_255_2_778
10
19.4135793
20
168.3943006
11
19.4124793
21
168.3729006
0
LINE
8
DEFAULT_255_2_778
10
19.4124793
20
168.3729006
11
19.4122793
21
168.3729006
0
LINE
8
DEFAULT_255_2_778
10
19.0928793
20
168.7160006
11
19.1325793
21
168.9264006
0
LINE
8
DEFAULT_255_2_778
10
19.1325793
20
168.9264006
11
19.0211793
21
168.9274006
0
LINE
8
DEFAULT_255_2_778
10
18.8510793
20
168.5970006
11
18.8510793
21
168.5967006
0
LINE
8
DEFAULT_255_2_778
10
20.4946793
20
169.4775006
11
20.6150793
21
170.1006006
0
LINE
8
DEFAULT_255_2_778
10
20.6150793
20
170.1006006
11
20.9364793
21
170.1006006
0
LINE
8
DEFAULT_255_2_778
10
20.9364793
20
170.1006006
11
20.6343793
21
168.3729006
0
LINE
8
DEFAULT_255_2_778
10
20.6343793
20
168.3729006
11
20.3480793
21
168.3729006
0
LINE
8
DEFAULT_255_2_778
10
20.3480793
20
168.3729006
11
20.3663793
21
168.5033006
0
LINE
8
DEFAULT_255_2_778
10
19.6632793
20
168.9589006
11
19.6701793
21
169.0095006
0
LINE
8
DEFAULT_255_2_778
10
20.2176793
20
169.6135006
11
20.2173793
21
169.6135006
0
LINE
8
DEFAULT_255_2_778
10
20.3755793
20
168.7396006
11
20.4631793
21
169.2232006
0
LINE
8
DEFAULT_255_2_778
10
19.9850793
20
168.9589006
11
19.9845793
21
168.9589006
0
LINE
8
DEFAULT_255_2_778
10
21.5304594
20
170.1006646
11
21.2282594
21
168.3729646
0
LINE
8
DEFAULT_255_2_778
10
21.2282594
20
168.3729646
11
20.9057594
21
168.3729646
0
LINE
8
DEFAULT_255_2_778
10
20.9057594
20
168.3729646
11
21.2089594
21
170.1006646
0
LINE
8
DEFAULT_255_2_778
10
21.2089594
20
170.1006646
11
21.5304594
21
170.1006646
0
LINE
8
DEFAULT_255_2_778
10
21.5304594
20
170.1006646
11
21.5304594
21
170.1006646
0
ARC
8
DEFAULT_255_2_778
10
22.0768767
20
168.8887764
40
0.5383522
50
238.763891
51
270.7055166
0
ARC
8
DEFAULT_255_2_778
10
22.0455625
20
168.833452
40
0.4748131
50
204.061185
51
238.5328679
0
ARC
8
DEFAULT_255_2_778
10
22.1281681
20
168.8730331
40
0.5663841
50
179.4896096
51
204.3103027
0
ARC
8
DEFAULT_255_2_778
10
22.2521843
20
168.8775727
40
0.6903781
50
175.123126
51
179.9580366
0
ARC
8
DEFAULT_255_2_778
10
22.3438479
20
168.9125152
40
0.7790728
50
149.5392097
51
174.9446897
0
ARC
8
DEFAULT_255_2_778
10
22.217984
20
168.9960212
40
0.628301
50
120.7003982
51
150.2846053
0
ARC
8
DEFAULT_255_2_778
10
22.1784851
20
169.0557024
40
0.556829
50
89.4236852
51
120.3409826
0
ARC
8
DEFAULT_255_2_778
10
22.1840352
20
168.9569671
40
0.6555361
50
88.4553682
51
89.9955718
0
ARC
8
DEFAULT_255_2_778
10
22.2069363
20
169.1411369
40
0.4711572
50
58.4514404
51
90.636095
0
ARC
8
DEFAULT_255_2_778
10
22.2332403
20
169.2045423
40
0.403504
50
35.6058989
51
56.9235594
0
ARC
8
DEFAULT_255_2_778
10
22.1229882
20
169.1307058
40
0.5361477
50
0.6851965
51
35.1616077
0
ARC
8
DEFAULT_255_2_778
10
21.9204313
20
169.1103229
40
0.7391521
50
359.9888194
51
2.0774415
0
ARC
8
DEFAULT_255_2_778
10
21.8068025
20
169.1120249
40
0.852783
50
353.383538
51
359.8759623
0
ARC
8
DEFAULT_255_2_778
10
22.293021
20
168.8596119
40
0.4107176
50
177.8018731
51
179.9839782
0
ARC
8
DEFAULT_255_2_778
10
22.1344217
20
168.848124
40
0.2523852
50
177.3650374
51
219.8309448
0
ARC
8
DEFAULT_255_2_778
10
22.1050068
20
168.8348401
40
0.2214564
50
222.0668323
51
271.55222
0
ARC
8
DEFAULT_255_2_778
10
22.1220002
20
169.0396289
40
0.4263057
50
268.5221572
51
269.9980687
0
ARC
8
DEFAULT_255_2_778
10
22.1204001
20
169.0100217
40
0.3967017
50
270.2290309
51
318.5203973
0
ARC
8
DEFAULT_255_2_778
10
22.1898056
20
168.8267979
40
0.4555006
50
292.4982989
51
325.2807674
0
ARC
8
DEFAULT_255_2_778
10
22.0999907
20
169.0053545
40
0.6549996
50
269.6158853
51
293.7802026
0
ARC
8
DEFAULT_255_2_778
10
22.0956026
20
169.092233
40
0.7418635
50
269.0811303
51
269.9997673
0
ARC
8
DEFAULT_255_2_778
10
22.1793249
20
169.0851977
40
0.2651417
50
88.6426435
51
89.9971979
0
ARC
8
DEFAULT_255_2_778
10
22.1775009
20
169.1204788
40
0.2298681
50
89.5421073
51
130.5025885
0
ARC
8
DEFAULT_255_2_778
10
22.2762398
20
169.0203327
40
0.370282
50
132.0556576
51
154.4346079
0
ARC
8
DEFAULT_255_2_778
10
22.6775288
20
168.8027869
40
0.8264843
50
152.8348001
51
159.2008974
0
ARC
8
DEFAULT_255_2_778
10
22.042515
20
169.1737268
40
0.3137404
50
351.1327381
51
359.8552777
0
ARC
8
DEFAULT_255_2_778
10
22.0889744
20
169.1733274
40
0.2672803
50
359.9157472
51
8.073482
0
ARC
8
DEFAULT_255_2_778
10
22.1916726
20
169.1886276
40
0.1634528
50
7.8192239
51
49.4174523
0
ARC
8
DEFAULT_255_2_778
10
22.1897336
20
169.1754377
40
0.174876
50
51.746929
51
91.3525911
0
LINE
8
DEFAULT_255_2_778
10
21.5643056
20
168.936265
11
21.5678056
21
168.981165
0
LINE
8
DEFAULT_255_2_778
10
22.6539056
20
169.013765
11
22.6356056
21
168.875365
0
LINE
8
DEFAULT_255_2_778
10
22.6356056
20
168.875365
11
21.8826056
21
168.875365
0
LINE
8
DEFAULT_255_2_778
10
22.4176056
20
168.747265
11
22.5642056
21
168.567365
0
LINE
8
DEFAULT_255_2_778
10
22.0837056
20
168.350465
11
22.0835056
21
168.350465
0
LINE
8
DEFAULT_255_2_778
10
21.9049056
20
169.096265
11
22.3456056
21
169.096265
0
LINE
8
DEFAULT_255_2_778
10
22.3456056
20
169.096265
11
22.3525056
21
169.125365
0
LINE
8
DEFAULT_255_2_778
10
22.1856056
20
169.350265
11
22.1856056
21
169.350265
0
ARC
8
DEFAULT_255_2_778
10
22.5732251
20
168.4893848
40
0.7187609
50
318.1171527
51
335.3457065
0
ARC
8
DEFAULT_255_2_778
10
22.7861338
20
168.3072586
40
0.4387075
50
306.2044829
51
317.2623563
0
ARC
8
DEFAULT_255_2_778
10
22.8118587
20
168.2765063
40
0.3987066
50
269.0092455
51
305.8318035
0
ARC
8
DEFAULT_255_2_778
10
22.8209703
20
168.4411254
40
0.5634934
50
257.9736769
51
268.3723286
0
ARC
8
DEFAULT_255_2_778
10
22.976467
20
169.2953273
40
1.431581
50
256.8370098
51
259.0102636
0
ARC
8
DEFAULT_255_2_778
10
22.7299218
20
168.543381
40
0.396887
50
268.3457775
51
269.9906226
0
ARC
8
DEFAULT_255_2_778
10
22.744688
20
168.3839479
40
0.2379166
50
266.425992
51
328.6474802
0
LINE
8
DEFAULT_255_2_778
10
23.1491646
20
169.5899594
11
23.2378646
21
168.8364594
0
LINE
8
DEFAULT_255_2_778
10
23.2378646
20
168.8364594
11
23.5889646
21
169.5899594
0
LINE
8
DEFAULT_255_2_778
10
23.5889646
20
169.5899594
11
23.9453646
21
169.5899594
0
LINE
8
DEFAULT_255_2_778
10
23.9453646
20
169.5899594
11
23.2264646
21
168.1895594
0
LINE
8
DEFAULT_255_2_778
10
22.6504646
20
167.9013594
11
22.6742646
21
168.1487594
0
LINE
8
DEFAULT_255_2_778
10
22.6742646
20
168.1487594
11
22.7184646
21
168.1466594
0
LINE
8
DEFAULT_255_2_778
10
22.9478646
20
168.2601594
11
23.0182646
21
168.3895594
0
LINE
8
DEFAULT_255_2_778
10
23.0182646
20
168.3895594
11
22.8171646
21
169.5896594
0
LINE
8
DEFAULT_255_2_778
10
22.8171646
20
169.5896594
11
23.1489646
21
169.5896594
0
LINE
8
DEFAULT_255_2_778
10
23.1489646
20
169.5896594
11
23.1491646
21
169.5899594
0
LINE
8
DEFAULT_255_2_778
10
5.4244542
20
169.9894666
11
5.4244542
21
168.8041666
0
LINE
8
DEFAULT_255_2_778
10
5.4244542
20
168.8041666
11
8.3507542
21
168.7671666
0
LINE
8
DEFAULT_255_2_778
10
8.3507542
20
168.7671666
11
8.3507542
21
169.9894666
0
LINE
8
DEFAULT_255_2_778
10
8.3507542
20
169.9894666
11
7.4246542
21
170.8414666
0
LINE
8
DEFAULT_255_2_778
10
7.4246542
20
170.8414666
11
6.2764542
21
170.8414666
0
LINE
8
DEFAULT_255_2_778
10
6.2764542
20
170.8414666
11
5.4244542
21
169.9894666
0
LINE
8
DEFAULT_255_2_778
10
5.5726542
20
168.5819666
11
8.2025542
21
168.5819666
0
LINE
8
DEFAULT_255_2_778
10
8.2025542
20
168.5819666
11
7.4617542
21
167.8781666
0
LINE
8
DEFAULT_255_2_778
10
7.4617542
20
167.8781666
11
6.3504542
21
167.8781666
0
LINE
8
DEFAULT_255_2_778
10
6.3504542
20
167.8781666
11
5.5726542
21
168.5819666
0
ARC
8
DEFAULT_255_2_778
10
7.8458226
20
169.1310768
40
0.1423419
50
264.5115721
51
318.4176283
0
ARC
8
DEFAULT_255_2_778
10
7.8189879
20
169.1281225
40
0.1616977
50
325.5297452
51
3.3557414
0
ARC
8
DEFAULT_255_2_778
10
7.8389795
20
169.4846157
40
0.142084
50
354.4959081
51
48.5537602
0
ARC
8
DEFAULT_255_2_778
10
7.8416444
20
169.4574068
40
0.1619557
50
55.6500697
51
93.3401169
0
ARC
8
DEFAULT_255_2_778
10
7.8414709
20
169.683925
40
0.0654958
50
261.8698976
51
8.1301024
0
ARC
8
DEFAULT_255_2_778
10
7.7988672
20
170.0666455
40
0.1074847
50
358.3696885
51
95.9524071
0
ARC
8
DEFAULT_255_2_778
10
7.7588839
20
169.8382916
40
0.3364968
50
85.0838783
51
90.1320543
0
LINE
8
DEFAULT_255_2_778
10
5.6838084
20
168.9893875
11
6.1283084
21
170.2117875
0
LINE
8
DEFAULT_255_2_778
10
6.1283084
20
170.2117875
11
6.3876084
21
170.2117875
0
LINE
8
DEFAULT_255_2_778
10
6.3876084
20
170.2117875
11
6.8691084
21
169.0264875
0
LINE
8
DEFAULT_255_2_778
10
6.8691084
20
169.0264875
11
6.5358084
21
169.0264875
0
LINE
8
DEFAULT_255_2_778
10
6.5358084
20
169.0264875
11
6.4246084
21
169.2857875
0
LINE
8
DEFAULT_255_2_778
10
6.4246084
20
169.2857875
11
6.0913084
21
169.2857875
0
LINE
8
DEFAULT_255_2_778
10
6.0913084
20
169.2857875
11
6.0913084
21
169.4338875
0
LINE
8
DEFAULT_255_2_778
10
6.0913084
20
169.4338875
11
6.3876084
21
169.4338875
0
LINE
8
DEFAULT_255_2_778
10
6.3876084
20
169.4338875
11
6.2024084
21
169.8783875
0
LINE
8
DEFAULT_255_2_778
10
6.2024084
20
169.8783875
11
5.8690084
21
168.9893875
0
LINE
8
DEFAULT_255_2_778
10
5.8690084
20
168.9893875
11
5.6838084
21
168.9893875
0
LINE
8
DEFAULT_255_2_778
10
5.6838084
20
168.9893875
11
5.6838084
21
168.9893875
0
LINE
8
DEFAULT_255_2_778
10
6.7580084
20
169.6561875
11
6.9062084
21
169.6561875
0
LINE
8
DEFAULT_255_2_778
10
6.9062084
20
169.6561875
11
6.9062084
21
169.5079875
0
LINE
8
DEFAULT_255_2_778
10
6.9062084
20
169.5079875
11
6.7580084
21
169.5079875
0
LINE
8
DEFAULT_255_2_778
10
6.7580084
20
169.5079875
11
6.7580084
21
169.6561875
0
LINE
8
DEFAULT_255_2_778
10
7.2766084
20
169.9895875
11
7.6100084
21
169.9895875
0
LINE
8
DEFAULT_255_2_778
10
7.6100084
20
169.9895875
11
7.6100084
21
169.6190875
0
LINE
8
DEFAULT_255_2_778
10
7.6100084
20
169.6190875
11
7.3507084
21
169.6190875
0
LINE
8
DEFAULT_255_2_778
10
7.3507084
20
169.6190875
11
7.3507084
21
169.4709875
0
LINE
8
DEFAULT_255_2_778
10
7.3507084
20
169.4709875
11
7.6840084
21
169.4709875
0
LINE
8
DEFAULT_255_2_778
10
7.6840084
20
169.4709875
11
7.6840084
21
169.1375875
0
LINE
8
DEFAULT_255_2_778
10
7.6840084
20
169.1375875
11
7.2766084
21
169.1375875
0
LINE
8
DEFAULT_255_2_778
10
7.2766084
20
169.1375875
11
7.2766084
21
169.9895875
0
LINE
8
DEFAULT_255_2_778
10
7.2766084
20
169.9895875
11
7.2766084
21
169.9895875
0
LINE
8
DEFAULT_255_2_778
10
6.9803084
20
170.1747875
11
6.9803084
21
168.9893875
0
LINE
8
DEFAULT_255_2_778
10
6.9803084
20
168.9893875
11
7.8322084
21
168.9893875
0
LINE
8
DEFAULT_255_2_778
10
7.9804084
20
169.1375875
11
7.9804084
21
169.4709875
0
LINE
8
DEFAULT_255_2_778
10
7.9063084
20
169.6931875
11
7.9063084
21
170.0635875
0
LINE
8
DEFAULT_255_2_778
10
7.7581084
20
170.1747875
11
6.9803084
21
170.1747875
0
LINE
8
DEFAULT_255_2_778
10
6.9803084
20
170.1747875
11
6.9803084
21
170.1747875
0
LINE
8
DEFAULT_255_2_778
10
6.3394427
20
168.1990198
11
6.3367427
21
168.1990198
0
ARC
8
DEFAULT_255_2_778
10
6.3340483
20
168.3240854
40
0.1250946
50
247.1356448
51
271.2341787
0
ARC
8
DEFAULT_255_2_778
10
6.3160916
20
168.2817164
40
0.0790776
50
215.0349981
51
247.1960091
0
ARC
8
DEFAULT_255_2_778
10
6.3109464
20
168.2763964
40
0.0718243
50
178.625123
51
213.9163394
0
ARC
8
DEFAULT_255_2_778
10
6.3131693
20
168.3934391
40
0.0740421
50
147.0420611
51
181.175799
0
ARC
8
DEFAULT_255_2_778
10
6.3147919
20
168.3895628
40
0.0775487
50
112.4780918
51
145.2909011
0
ARC
8
DEFAULT_255_2_778
10
6.333917
20
168.3451534
40
0.1258981
50
88.7138988
51
112.7934617
0
ARC
8
DEFAULT_255_2_778
10
6.339481
20
168.3456878
40
0.1253619
50
67.159311
51
91.2516049
0
ARC
8
DEFAULT_255_2_778
10
6.3569794
20
168.3876852
40
0.0798654
50
35.1978461
51
67.0331611
0
ARC
8
DEFAULT_255_2_778
10
6.3626391
20
168.3936431
40
0.0718243
50
358.625123
51
33.9163394
0
ARC
8
DEFAULT_255_2_778
10
6.3604162
20
168.2766004
40
0.0740421
50
327.0420611
51
1.175799
0
ARC
8
DEFAULT_255_2_778
10
6.361381
20
168.2778218
40
0.0739133
50
291.6436853
51
325.8406333
0
ARC
8
DEFAULT_255_2_778
10
6.3401809
20
168.286874
40
0.0482768
50
265.9160158
51
308.3617549
0
ARC
8
DEFAULT_255_2_778
10
6.3451719
20
168.2758207
40
0.036631
50
312.9754563
51
3.2850623
0
ARC
8
DEFAULT_255_2_778
10
6.3448152
20
168.393502
40
0.0369754
50
357.082104
51
47.4006092
0
ARC
8
DEFAULT_255_2_778
10
6.339634
20
168.3833686
40
0.0480383
50
51.0349629
51
93.4505724
0
ARC
8
DEFAULT_255_2_778
10
6.3340455
20
168.383049
40
0.0483461
50
86.8017862
51
128.8135095
0
ARC
8
DEFAULT_255_2_778
10
6.3287702
20
168.393502
40
0.0369754
50
132.5993908
51
182.917896
0
ARC
8
DEFAULT_255_2_778
10
6.3284135
20
168.2758207
40
0.036631
50
176.7149377
51
227.0245437
0
ARC
8
DEFAULT_255_2_778
10
6.3334908
20
168.287186
40
0.0485752
50
231.7867693
51
273.8385805
0
ARC
8
DEFAULT_255_2_778
10
6.5570034
20
168.2755567
40
0.0766655
50
226.2029837
51
273.3195937
0
ARC
8
DEFAULT_255_2_778
10
6.5622798
20
168.2735746
40
0.0790566
50
176.8492311
51
222.4458356
0
ARC
8
DEFAULT_255_2_778
10
6.5699928
20
168.2754647
40
0.043631
50
176.5112098
51
217.639275
0
ARC
8
DEFAULT_255_2_778
10
6.5593879
20
168.2703664
40
0.0322122
50
221.9818643
51
273.6574471
0
ARC
8
DEFAULT_255_2_778
10
6.5632217
20
168.2708151
40
0.0326438
50
266.8760675
51
317.6392064
0
ARC
8
DEFAULT_255_2_778
10
6.5527926
20
168.2754647
40
0.043631
50
322.360725
51
3.4887902
0
ARC
8
DEFAULT_255_2_778
10
6.5605056
20
168.2735746
40
0.0790566
50
317.5541644
51
3.1507689
0
ARC
8
DEFAULT_255_2_778
10
6.5656687
20
168.2758223
40
0.0769357
50
266.6274163
51
313.7210327
0
LINE
8
DEFAULT_255_2_778
10
6.4394427
20
168.1374198
11
6.3828427
21
168.1374198
0
LINE
8
DEFAULT_255_2_778
10
6.3828427
20
168.1374198
11
6.3394427
21
168.1990198
0
LINE
8
DEFAULT_255_2_778
10
6.2391427
20
168.2781198
11
6.2391427
21
168.3919198
0
LINE
8
DEFAULT_255_2_778
10
6.4344427
20
168.3919198
11
6.4344427
21
168.2781198
0
LINE
8
DEFAULT_255_2_778
10
6.3886427
20
168.2091198
11
6.4394427
21
168.1376198
0
LINE
8
DEFAULT_255_2_778
10
6.4394427
20
168.1376198
11
6.4394427
21
168.1374198
0
LINE
8
DEFAULT_255_2_778
10
6.3817427
20
168.2779198
11
6.3817427
21
168.3916198
0
LINE
8
DEFAULT_255_2_778
10
6.2918427
20
168.3916198
11
6.2918427
21
168.2779198
0
LINE
8
DEFAULT_255_2_778
10
6.3367427
20
168.2387198
11
6.3367427
21
168.2387198
0
LINE
8
DEFAULT_255_2_778
10
6.4833427
20
168.2779198
11
6.4833427
21
168.4670198
0
LINE
8
DEFAULT_255_2_778
10
6.4833427
20
168.4670198
11
6.5264427
21
168.4670198
0
LINE
8
DEFAULT_255_2_778
10
6.5264427
20
168.4670198
11
6.5264427
21
168.2781198
0
LINE
8
DEFAULT_255_2_778
10
6.5963427
20
168.2781198
11
6.5963427
21
168.4670198
0
LINE
8
DEFAULT_255_2_778
10
6.5963427
20
168.4670198
11
6.6394427
21
168.4670198
0
LINE
8
DEFAULT_255_2_778
10
6.6394427
20
168.4670198
11
6.6394427
21
168.2779198
0
LINE
8
DEFAULT_255_2_778
10
6.5611427
20
168.1990198
11
6.5614427
21
168.1990198
0
ARC
8
DEFAULT_255_2_778
10
12.1641553
20
169.5021635
40
5.5033955
50
191.4837585
51
191.8239227
0
ARC
8
DEFAULT_255_2_778
10
8.3589245
20
168.6983972
40
1.6145995
50
189.6626565
51
190.4158531
0
ARC
8
DEFAULT_255_2_778
10
6.1197449
20
168.5312409
40
0.6557616
50
349.0334606
51
350.8880298
0
ARC
8
DEFAULT_255_2_778
10
6.0674183
20
168.5348866
40
0.7078549
50
346.9283592
51
349.5494987
0
ARC
8
DEFAULT_255_2_778
10
7.2958769
20
168.3040243
40
0.1856762
50
15.5793022
51
22.5708948
0
ARC
8
DEFAULT_255_2_778
10
7.3328007
20
168.3088058
40
0.1489195
50
11.1061152
51
17.6230497
0
ARC
8
DEFAULT_255_2_778
10
8.063214
20
168.1930593
40
0.6018696
50
164.5010167
51
166.1150622
0
ARC
8
DEFAULT_255_2_778
10
7.6620856
20
168.3040243
40
0.1856762
50
157.4291052
51
164.4206978
0
LINE
8
DEFAULT_255_2_778
10
6.7201313
20
168.2024917
11
6.6762313
21
168.2024917
0
LINE
8
DEFAULT_255_2_778
10
6.6762313
20
168.2024917
11
6.7392313
21
168.4670917
0
LINE
8
DEFAULT_255_2_778
10
6.7392313
20
168.4670917
11
6.7942313
21
168.4670917
0
LINE
8
DEFAULT_255_2_778
10
6.7942313
20
168.4670917
11
6.8577313
21
168.2024917
0
LINE
8
DEFAULT_255_2_778
10
6.8577313
20
168.2024917
11
6.8138313
21
168.2024917
0
LINE
8
DEFAULT_255_2_778
10
6.8138313
20
168.2024917
11
6.8000313
21
168.2664917
0
LINE
8
DEFAULT_255_2_778
10
6.8000313
20
168.2664917
11
6.7336313
21
168.2664917
0
LINE
8
DEFAULT_255_2_778
10
6.7336313
20
168.2664917
11
6.7199313
21
168.2024917
0
LINE
8
DEFAULT_255_2_778
10
6.7199313
20
168.2024917
11
6.7201313
21
168.2024917
0
LINE
8
DEFAULT_255_2_778
10
6.7569313
20
168.3749917
11
6.7418313
21
168.3035917
0
LINE
8
DEFAULT_255_2_778
10
6.7418313
20
168.3035917
11
6.7926313
21
168.3035917
0
LINE
8
DEFAULT_255_2_778
10
6.7926313
20
168.3035917
11
6.7775313
21
168.3744917
0
LINE
8
DEFAULT_255_2_778
10
6.7569313
20
168.3747917
11
6.7569313
21
168.3749917
0
LINE
8
DEFAULT_255_2_778
10
7.0231313
20
168.2024917
11
6.8741313
21
168.2024917
0
LINE
8
DEFAULT_255_2_778
10
6.8741313
20
168.2024917
11
6.8741313
21
168.4670917
0
LINE
8
DEFAULT_255_2_778
10
6.8741313
20
168.4670917
11
6.9170313
21
168.4670917
0
LINE
8
DEFAULT_255_2_778
10
6.9170313
20
168.4670917
11
6.9170313
21
168.2434917
0
LINE
8
DEFAULT_255_2_778
10
6.9170313
20
168.2434917
11
7.0231313
21
168.2434917
0
LINE
8
DEFAULT_255_2_778
10
7.0231313
20
168.2434917
11
7.0231313
21
168.2024917
0
LINE
8
DEFAULT_255_2_778
10
7.0231313
20
168.2024917
11
7.0231313
21
168.2024917
0
LINE
8
DEFAULT_255_2_778
10
7.1760313
20
168.2024917
11
7.0321313
21
168.2024917
0
LINE
8
DEFAULT_255_2_778
10
7.0321313
20
168.2024917
11
7.0321313
21
168.2434917
0
LINE
8
DEFAULT_255_2_778
10
7.0321313
20
168.2434917
11
7.0823313
21
168.2434917
0
LINE
8
DEFAULT_255_2_778
10
7.0823313
20
168.2434917
11
7.0823313
21
168.4260917
0
LINE
8
DEFAULT_255_2_778
10
7.0823313
20
168.4260917
11
7.0321313
21
168.4260917
0
LINE
8
DEFAULT_255_2_778
10
7.0321313
20
168.4260917
11
7.0321313
21
168.4670917
0
LINE
8
DEFAULT_255_2_778
10
7.0321313
20
168.4670917
11
7.1760313
21
168.4670917
0
LINE
8
DEFAULT_255_2_778
10
7.1760313
20
168.4670917
11
7.1760313
21
168.4260917
0
LINE
8
DEFAULT_255_2_778
10
7.1760313
20
168.4260917
11
7.1257313
21
168.4260917
0
LINE
8
DEFAULT_255_2_778
10
7.1257313
20
168.4260917
11
7.1257313
21
168.2434917
0
LINE
8
DEFAULT_255_2_778
10
7.1257313
20
168.2434917
11
7.1760313
21
168.2434917
0
LINE
8
DEFAULT_255_2_778
10
7.1760313
20
168.2434917
11
7.1760313
21
168.2024917
0
LINE
8
DEFAULT_255_2_778
10
7.1760313
20
168.2024917
11
7.1760313
21
168.2024917
0
LINE
8
DEFAULT_255_2_778
10
7.2940313
20
168.2024917
11
7.2509313
21
168.2024917
0
LINE
8
DEFAULT_255_2_778
10
7.2509313
20
168.2024917
11
7.2509313
21
168.4260917
0
LINE
8
DEFAULT_255_2_778
10
7.2509313
20
168.4260917
11
7.1855313
21
168.4260917
0
LINE
8
DEFAULT_255_2_778
10
7.1855313
20
168.4260917
11
7.1855313
21
168.4670917
0
LINE
8
DEFAULT_255_2_778
10
7.1855313
20
168.4670917
11
7.3596313
21
168.4670917
0
LINE
8
DEFAULT_255_2_778
10
7.3596313
20
168.4670917
11
7.3596313
21
168.4260917
0
LINE
8
DEFAULT_255_2_778
10
7.3596313
20
168.4260917
11
7.2943313
21
168.4260917
0
LINE
8
DEFAULT_255_2_778
10
7.2943313
20
168.4260917
11
7.2943313
21
168.2024917
0
LINE
8
DEFAULT_255_2_778
10
7.2943313
20
168.2024917
11
7.2940313
21
168.2024917
0
LINE
8
DEFAULT_255_2_778
10
7.4996313
20
168.2024917
11
7.4565313
21
168.2024917
0
LINE
8
DEFAULT_255_2_778
10
7.4565313
20
168.2024917
11
7.4565313
21
168.2985917
0
LINE
8
DEFAULT_255_2_778
10
7.4565313
20
168.2985917
11
7.3832313
21
168.4670917
0
LINE
8
DEFAULT_255_2_778
10
7.3832313
20
168.4670917
11
7.4281313
21
168.4670917
0
LINE
8
DEFAULT_255_2_778
10
7.4281313
20
168.4670917
11
7.4673313
21
168.3752917
0
LINE
8
DEFAULT_255_2_778
10
7.4906313
20
168.3752917
11
7.5287313
21
168.4670917
0
LINE
8
DEFAULT_255_2_778
10
7.5287313
20
168.4670917
11
7.5731313
21
168.4670917
0
LINE
8
DEFAULT_255_2_778
10
7.5731313
20
168.4670917
11
7.4998313
21
168.2985917
0
LINE
8
DEFAULT_255_2_778
10
7.4998313
20
168.2985917
11
7.4998313
21
168.2024917
0
LINE
8
DEFAULT_255_2_778
10
7.4998313
20
168.2024917
11
7.4996313
21
168.2024917
0
LINE
8
DEFAULT_255_2_778
10
18.6536417
20
77.9198073
11
18.6536417
21
5.1594073
0
LINE
8
DEFAULT_255_2_778
10
18.6536417
20
5.1594073
11
19.9765417
21
5.1594073
0
LINE
8
DEFAULT_255_2_778
10
17.3307834
20
83.2114333
11
19.9765834
21
83.2114333
0
LINE
8
DEFAULT_255_2_778
10
19.9765834
20
83.2114333
11
19.9765834
21
77.9197333
0
LINE
8
DEFAULT_255_2_778
10
19.9765834
20
77.9197333
11
17.3307834
21
77.9197333
0
LINE
8
DEFAULT_255_2_778
10
17.3307834
20
77.9197333
11
17.3307834
21
83.2114333
0
LINE
8
DEFAULT_255_2_778
10
18.1245
20
78.4489666
11
18.1245
21
82.6822666
0
LINE
8
DEFAULT_255_2_778
10
17.8599167
20
81.888575
11
18.1245167
21
82.682275
0
LINE
8
DEFAULT_255_2_778
10
18.1245167
20
82.682275
11
18.3891167
21
81.888575
0
LINE
8
DEFAULT_255_2_778
10
18.3891167
20
81.888575
11
17.8599167
21
81.888575
0
LINE
8
DEFAULT_255_2_778
10
19.1828
20
82.6822666
11
19.1828
21
78.4489666
0
LINE
8
DEFAULT_255_2_778
10
18.9182167
20
79.242675
11
19.1828167
21
78.448975
0
LINE
8
DEFAULT_255_2_778
10
19.1828167
20
78.448975
11
19.4474167
21
79.242675
0
LINE
8
DEFAULT_255_2_778
10
19.4474167
20
79.242675
11
18.9182167
21
79.242675
0
LINE
8
DEFAULT_255_2_778
10
19.9765417
20
155.9719073
11
18.6536417
21
155.9719073
0
LINE
8
DEFAULT_255_2_778
10
18.6536417
20
155.9719073
11
18.6536417
21
83.2115073
0
LINE
8
DEFAULT_255_1_388
10
4.5179882
20
164.4915987
11
4.5179882
21
164.1075838
0
LINE
8
DEFAULT_255_1_388
10
4.5179882
20
164.1075838
11
4.8848354
21
164.1075838
0
LINE
8
DEFAULT_255_1_388
10
4.8848354
20
164.1075838
11
4.8848354
21
163.9494601
0
LINE
8
DEFAULT_255_1_388
10
4.8848354
20
163.9494601
11
4.5179882
21
163.9494601
0
LINE
8
DEFAULT_255_1_388
10
4.5179882
20
163.9494601
11
4.5179882
21
163.5338204
0
LINE
8
DEFAULT_255_1_388
10
4.5179882
20
163.5338204
11
4.3499252
21
163.5338204
0
LINE
8
DEFAULT_255_1_388
10
4.3499252
20
163.5338204
11
4.3499252
21
163.9494601
0
LINE
8
DEFAULT_255_1_388
10
4.3499252
20
163.9494601
11
3.983078
21
163.9494601
0
LINE
8
DEFAULT_255_1_388
10
3.983078
20
163.9494601
11
3.983078
21
164.1075838
0
LINE
8
DEFAULT_255_1_388
10
3.983078
20
164.1075838
11
4.3499252
21
164.1075838
0
LINE
8
DEFAULT_255_1_388
10
4.3499252
20
164.1075838
11
4.3499252
21
164.4915987
0
LINE
8
DEFAULT_255_1_388
10
4.3499252
20
164.4915987
11
4.5179882
21
164.4915987
0
LINE
8
DEFAULT_255_1_388
10
5.9329701
20
163.5383382
11
5.9329701
21
163.4019
0
LINE
8
DEFAULT_255_1_388
10
5.9329701
20
163.4019
11
5.0709696
21
163.4019
0
LINE
8
DEFAULT_255_1_388
10
5.0709696
20
163.4019
11
5.0709696
21
163.5220741
0
LINE
8
DEFAULT_255_1_388
10
5.0709696
20
163.5220741
11
5.5263661
21
164.0280702
0
LINE
8
DEFAULT_255_1_388
10
5.2128292
20
164.3298607
11
5.0456698
21
164.3298607
0
LINE
8
DEFAULT_255_1_388
10
5.6248546
20
163.920546
11
5.2724645
21
163.5383382
0
LINE
8
DEFAULT_255_1_388
10
5.2724645
20
163.5383382
11
5.9329701
21
163.5383382
0
ARC
8
DEFAULT_255_1_388
10
4.0087721
20
165.3700983
40
2.0258655
50
318.5132526
51
320.7829045
0
ARC
8
DEFAULT_255_1_388
10
4.6035678
20
164.8859929
40
1.2589638
50
320.7372878
51
323.9739031
0
ARC
8
DEFAULT_255_1_388
10
5.0444609
20
164.5665554
40
0.7145141
50
323.8962701
51
328.64194
0
ARC
8
DEFAULT_255_1_388
10
5.2746867
20
164.4245545
40
0.4440242
50
328.8294576
51
331.7891185
0
ARC
8
DEFAULT_255_1_388
10
5.3869187
20
164.3666374
40
0.3177517
50
331.4254512
51
352.9365785
0
ARC
8
DEFAULT_255_1_388
10
5.4022187
20
164.363205
40
0.3021496
50
353.2257659
51
0.0166158
0
ARC
8
DEFAULT_255_1_388
10
5.4258948
20
164.3657894
40
0.2784847
50
359.486299
51
15.9343185
0
ARC
8
DEFAULT_255_1_388
10
5.4829214
20
164.3811269
40
0.2194403
50
16.1712913
51
43.5286088
0
ARC
8
DEFAULT_255_1_388
10
5.4916159
20
164.3898191
40
0.2071504
50
43.4417391
51
83.1661095
0
ARC
8
DEFAULT_255_1_388
10
5.476532
20
164.3069316
40
0.2912888
50
82.160179
51
90.1505708
0
ARC
8
DEFAULT_255_1_388
10
5.4729802
20
164.2465279
40
0.3517025
50
89.5460741
51
102.5418361
0
ARC
8
DEFAULT_255_1_388
10
5.4456522
20
164.3624933
40
0.2325748
50
102.1738499
51
129.206123
0
ARC
8
DEFAULT_255_1_388
10
5.4367975
20
164.3764664
40
0.2161591
50
129.72865
51
135.753947
0
ARC
8
DEFAULT_255_1_388
10
5.4504457
20
164.3655728
40
0.2335433
50
136.1757367
51
166.3673339
0
ARC
8
DEFAULT_255_1_388
10
5.5637146
20
164.3352148
40
0.3507873
50
165.9090694
51
178.8684636
0
ARC
8
DEFAULT_255_1_388
10
5.6612917
20
164.3299263
40
0.4484624
50
178.4391136
51
180.0083808
0
ARC
8
DEFAULT_255_1_388
10
5.5033619
20
164.3343197
40
0.4577138
50
163.2878482
51
180.5581842
0
ARC
8
DEFAULT_255_1_388
10
5.413166
20
164.3591393
40
0.3641968
50
133.4540601
51
162.947111
0
ARC
8
DEFAULT_255_1_388
10
5.4332542
20
164.3377789
40
0.3935189
50
100.7869829
51
133.4382499
0
ARC
8
DEFAULT_255_1_388
10
5.4723787
20
164.1635399
40
0.5720313
50
89.660664
51
101.3702276
0
ARC
8
DEFAULT_255_1_388
10
5.4798395
20
164.1704263
40
0.5651495
50
78.2172678
51
90.412935
0
ARC
8
DEFAULT_255_1_388
10
5.5197861
20
164.3531511
40
0.378122
50
55.9269121
51
78.4888449
0
ARC
8
DEFAULT_255_1_388
10
5.5418576
20
164.3912187
40
0.3342379
50
47.929771
51
55.4049217
0
ARC
8
DEFAULT_255_1_388
10
5.5533107
20
164.4028618
40
0.3179217
50
4.334829
51
48.0560205
0
ARC
8
DEFAULT_255_1_388
10
5.4300908
20
164.3837487
40
0.442341
50
359.9251713
51
5.5971671
0
ARC
8
DEFAULT_255_1_388
10
5.4783063
20
164.3900728
40
0.3941854
50
337.8914027
51
358.9967534
0
ARC
8
DEFAULT_255_1_388
10
5.1730633
20
164.5078295
40
0.7213271
50
326.9132501
51
338.3508308
0
ARC
8
DEFAULT_255_1_388
10
4.7246745
20
164.7952105
40
1.2538973
50
319.6471833
51
327.0959558
0
ARC
8
DEFAULT_255_1_388
10
4.2933403
20
165.151005
40
1.8129975
50
317.2588228
51
319.9045804
0
LINE
8
DEFAULT_255_1_388
10
6.8157526
20
164.7174898
11
6.8157526
21
163.843743
0
LINE
8
DEFAULT_255_1_388
10
6.8157526
20
163.843743
11
6.9982726
21
163.843743
0
LINE
8
DEFAULT_255_1_388
10
6.9982726
20
163.843743
11
6.9982726
21
163.7073048
0
LINE
8
DEFAULT_255_1_388
10
6.9982726
20
163.7073048
11
6.8157526
21
163.7073048
0
LINE
8
DEFAULT_255_1_388
10
6.8157526
20
163.7073048
11
6.8157526
21
163.4019
0
LINE
8
DEFAULT_255_1_388
10
6.8157526
20
163.4019
11
6.6476896
21
163.4019
0
LINE
8
DEFAULT_255_1_388
10
6.6476896
20
163.4019
11
6.6476896
21
163.7073048
0
LINE
8
DEFAULT_255_1_388
10
6.6476896
20
163.7073048
11
6.0486264
21
163.7073048
0
LINE
8
DEFAULT_255_1_388
10
6.0486264
20
163.7073048
11
6.0486264
21
163.8057933
0
LINE
8
DEFAULT_255_1_388
10
6.0486264
20
163.8057933
11
6.6377504
21
164.7174898
0
LINE
8
DEFAULT_255_1_388
10
6.6377504
20
164.7174898
11
6.8157526
21
164.7174898
0
LINE
8
DEFAULT_255_1_388
10
6.6278112
20
164.4527455
11
6.2383749
21
163.843743
0
LINE
8
DEFAULT_255_1_388
10
6.2383749
20
163.843743
11
6.6476896
21
163.843743
0
LINE
8
DEFAULT_255_1_388
10
6.6476896
20
163.843743
11
6.6476896
21
164.488888
0
LINE
8
DEFAULT_255_1_388
10
6.6476896
20
164.488888
11
6.6278112
21
164.4527455
0
LINE
8
DEFAULT_255_1_388
10
7.2539813
20
164.7174898
11
7.628057
21
163.6323089
0
LINE
8
DEFAULT_255_1_388
10
7.628057
20
163.6323089
11
8.0039398
21
164.7174898
0
LINE
8
DEFAULT_255_1_388
10
8.0039398
20
164.7174898
11
8.1936884
21
164.7174898
0
LINE
8
DEFAULT_255_1_388
10
8.1936884
20
164.7174898
11
7.7057636
21
163.4019
0
LINE
8
DEFAULT_255_1_388
10
7.7057636
20
163.4019
11
7.5521576
21
163.4019
0
LINE
8
DEFAULT_255_1_388
10
7.5521576
20
163.4019
11
7.0651364
21
164.7174898
0
LINE
8
DEFAULT_255_1_388
10
7.0651364
20
164.7174898
11
7.2539813
21
164.7174898
0
LINE
8
DEFAULT_255_1_388
10
23.1190856
20
164.179869
11
23.1190856
21
163.9630135
0
LINE
8
DEFAULT_255_1_388
10
22.2887099
20
163.9404244
11
22.2887099
21
164.1636048
0
LINE
8
DEFAULT_255_1_388
10
22.9519262
20
163.9178353
11
22.9519262
21
164.1916153
0
LINE
8
DEFAULT_255_1_388
10
22.4558693
20
164.2042652
11
22.4558693
21
163.9368102
0
ARC
8
DEFAULT_255_1_388
10
21.741319
20
163.9575118
40
1.3777776
50
353.8440855
51
0.2287917
0
ARC
8
DEFAULT_255_1_388
10
22.2632208
20
163.8992414
40
0.852639
50
344.4934746
51
353.9763743
0
ARC
8
DEFAULT_255_1_388
10
22.5999015
20
163.8035191
40
0.5026273
50
329.2803599
51
344.7473406
0
ARC
8
DEFAULT_255_1_388
10
22.7114511
20
163.7423038
40
0.3754848
50
324.9361395
51
328.6153007
0
ARC
8
DEFAULT_255_1_388
10
22.7540161
20
163.7125586
40
0.3235566
50
280.5801797
51
324.9173226
0
ARC
8
DEFAULT_255_1_388
10
22.7088789
20
163.9005236
40
0.5167077
50
269.5979457
51
281.6732777
0
ARC
8
DEFAULT_255_1_388
10
22.7007693
20
163.8870113
40
0.5032026
50
256.6228565
51
270.5105488
0
ARC
8
DEFAULT_255_1_388
10
22.6555435
20
163.7128345
40
0.3233092
50
215.8618351
51
257.2787793
0
ARC
8
DEFAULT_255_1_388
10
22.7704142
20
163.7899106
40
0.4615831
50
197.9695203
51
215.2622745
0
ARC
8
DEFAULT_255_1_388
10
23.0499818
20
163.8842641
40
0.7566307
50
187.8816486
51
198.2346584
0
ARC
8
DEFAULT_255_1_388
10
23.4953056
20
163.9485453
40
1.2065653
50
180.8977266
51
188.0054894
0
ARC
8
DEFAULT_255_1_388
10
23.800327
20
163.96004
40
1.5117443
50
180.7434591
51
181.152202
0
ARC
8
DEFAULT_255_1_388
10
23.6328266
20
164.1690371
40
1.3441277
50
173.7674302
51
180.2315596
0
ARC
8
DEFAULT_255_1_388
10
23.1246135
20
164.2264779
40
0.8326847
50
164.3058537
51
173.9000553
0
ARC
8
DEFAULT_255_1_388
10
22.7970135
20
164.3208652
40
0.4917711
50
148.7922028
51
164.5682288
0
ARC
8
DEFAULT_255_1_388
10
22.6900872
20
164.3805457
40
0.3694204
50
144.5883979
51
148.1161588
0
ARC
8
DEFAULT_255_1_388
10
22.6513618
20
164.4075667
40
0.322202
50
101.6440149
51
144.5142619
0
ARC
8
DEFAULT_255_1_388
10
22.699181
20
164.2175337
40
0.5180451
50
89.528284
51
102.5820197
0
ARC
8
DEFAULT_255_1_388
10
22.7080802
20
164.2131376
40
0.5224441
50
77.0437914
51
90.508231
0
ARC
8
DEFAULT_255_1_388
10
22.7533055
20
164.3979272
40
0.3322297
50
48.2777708
51
77.4996087
0
ARC
8
DEFAULT_255_1_388
10
22.7614795
20
164.4124557
40
0.315966
50
36.3141586
51
47.6307332
0
ARC
8
DEFAULT_255_1_388
10
22.6637518
20
164.3466159
40
0.4337313
50
18.2931065
51
35.6770203
0
ARC
8
DEFAULT_255_1_388
10
22.3776358
20
164.2484107
40
0.7362203
50
8.0246996
51
18.5605636
0
ARC
8
DEFAULT_255_1_388
10
21.9092714
20
164.1792432
40
1.2096583
50
1.127539
51
8.1718423
0
ARC
8
DEFAULT_255_1_388
10
21.5443847
20
164.1649374
40
1.5747719
50
0.5432713
51
1.38669
0
ARC
8
DEFAULT_255_1_388
10
21.7501226
20
164.1956163
40
1.2018103
50
359.8092569
51
4.9408001
0
ARC
8
DEFAULT_255_1_388
10
22.2237807
20
164.23789
40
0.7262727
50
4.8364937
51
12.2906017
0
ARC
8
DEFAULT_255_1_388
10
22.5337272
20
164.3069485
40
0.4087324
50
12.0806994
51
23.8171225
0
ARC
8
DEFAULT_255_1_388
10
22.6657668
20
164.3628508
40
0.2653719
50
24.2874621
51
31.3934353
0
ARC
8
DEFAULT_255_1_388
10
22.7248104
20
164.4014822
40
0.1948607
50
30.7407708
51
82.4658033
0
ARC
8
DEFAULT_255_1_388
10
22.7045765
20
164.3021017
40
0.2961198
50
81.1057101
51
90.2187368
0
ARC
8
DEFAULT_255_1_388
10
22.7005577
20
164.3311421
40
0.2670929
50
89.380395
51
105.6763916
0
ARC
8
DEFAULT_255_1_388
10
22.6799299
20
164.406132
40
0.1893189
50
105.7980655
51
149.7387869
0
ARC
8
DEFAULT_255_1_388
10
22.7996439
20
164.3341719
40
0.3289892
50
149.4208441
51
163.628295
0
ARC
8
DEFAULT_255_1_388
10
23.0348668
20
164.2624345
40
0.5749004
50
163.3764549
51
172.141138
0
ARC
8
DEFAULT_255_1_388
10
23.406139
20
164.2092582
40
0.9499585
50
172.0258462
51
178.0705453
0
ARC
8
DEFAULT_255_1_388
10
23.7482943
20
164.1930682
40
1.2924734
50
177.8639301
51
179.5036263
0
ARC
8
DEFAULT_255_1_388
10
23.6263961
20
163.9327151
40
1.170534
50
179.7995545
51
185.246089
0
ARC
8
DEFAULT_255_1_388
10
23.1715554
20
163.8896404
40
0.7136613
50
185.1411911
51
193.0082205
0
ARC
8
DEFAULT_255_1_388
10
22.8741815
20
163.8193441
40
0.4080987
50
192.7897338
51
205.2507384
0
ARC
8
DEFAULT_255_1_388
10
22.7564025
20
163.7667538
40
0.2791522
50
205.8001921
51
211.2545876
0
ARC
8
DEFAULT_255_1_388
10
22.6975564
20
163.7273132
40
0.2084074
50
210.3789935
51
238.4007996
0
ARC
8
DEFAULT_255_1_388
10
22.695365
20
163.7325786
40
0.2117943
50
239.6521916
51
265.9793852
0
ARC
8
DEFAULT_255_1_388
10
22.7049499
20
163.8082358
40
0.2879689
50
265.1324455
51
270.0603288
0
ARC
8
DEFAULT_255_1_388
10
22.7081876
20
163.7717418
40
0.2514919
50
269.3314378
51
287.2180039
0
ARC
8
DEFAULT_255_1_388
10
22.7236958
20
163.7151291
40
0.1928357
50
287.7957942
51
329.0808983
0
ARC
8
DEFAULT_255_1_388
10
22.6159715
20
163.7823651
40
0.319808
50
328.6635261
51
343.3325043
0
ARC
8
DEFAULT_255_1_388
10
22.3715174
20
163.8585195
40
0.5758408
50
343.0498092
51
351.9392499
0
ARC
8
DEFAULT_255_1_388
10
21.9814496
20
163.9160205
40
0.9701202
50
351.8071632
51
357.7957897
0
ARC
8
DEFAULT_255_1_388
10
21.6179973
20
163.9348724
40
1.3340376
50
357.5870923
51
359.2682493
0
LINE
8
DEFAULT_255_1_388
10
23.4380439
20
164.7174898
11
23.8121196
21
163.6323089
0
LINE
8
DEFAULT_255_1_388
10
23.8121196
20
163.6323089
11
24.1880024
21
164.7174898
0
LINE
8
DEFAULT_255_1_388
10
24.1880024
20
164.7174898
11
24.3777509
21
164.7174898
0
LINE
8
DEFAULT_255_1_388
10
24.3777509
20
164.7174898
11
23.8898261
21
163.4019
0
LINE
8
DEFAULT_255_1_388
10
23.8898261
20
163.4019
11
23.7362202
21
163.4019
0
LINE
8
DEFAULT_255_1_388
10
23.7362202
20
163.4019
11
23.2491989
21
164.7174898
0
LINE
8
DEFAULT_255_1_388
10
23.2491989
20
164.7174898
11
23.4380439
21
164.7174898
0
LINE
8
DEFAULT_255_1_388
10
21.7261903
20
5.9674898
11
21.7261903
21
4.7937596
0
LINE
8
DEFAULT_255_1_388
10
21.7261903
20
4.7937596
11
22.3496498
21
4.7937596
0
LINE
8
DEFAULT_255_1_388
10
22.3496498
20
4.7937596
11
22.3496498
21
4.6519
0
LINE
8
DEFAULT_255_1_388
10
22.3496498
20
4.6519
11
21.5518024
21
4.6519
0
LINE
8
DEFAULT_255_1_388
10
21.5518024
20
4.6519
11
21.5518024
21
5.9674898
0
LINE
8
DEFAULT_255_1_388
10
21.5518024
20
5.9674898
11
21.7261903
21
5.9674898
0
LINE
8
DEFAULT_255_1_388
10
23.3661598
20
4.7883382
11
23.3661598
21
4.6519
0
LINE
8
DEFAULT_255_1_388
10
23.3661598
20
4.6519
11
22.5041593
21
4.6519
0
LINE
8
DEFAULT_255_1_388
10
22.5041593
20
4.6519
11
22.5041593
21
4.7720741
0
LINE
8
DEFAULT_255_1_388
10
22.5041593
20
4.7720741
11
22.9595558
21
5.2780702
0
LINE
8
DEFAULT_255_1_388
10
22.6460189
20
5.5798607
11
22.4788595
21
5.5798607
0
LINE
8
DEFAULT_255_1_388
10
23.0580443
20
5.170546
11
22.7056542
21
4.7883382
0
LINE
8
DEFAULT_255_1_388
10
22.7056542
20
4.7883382
11
23.3661598
21
4.7883382
0
ARC
8
DEFAULT_255_1_388
10
21.4419618
20
6.6200983
40
2.0258655
50
318.5132526
51
320.7829045
0
ARC
8
DEFAULT_255_1_388
10
22.0367575
20
6.1359929
40
1.2589638
50
320.7372878
51
323.9739031
0
ARC
8
DEFAULT_255_1_388
10
22.4776506
20
5.8165554
40
0.7145141
50
323.8962701
51
328.64194
0
ARC
8
DEFAULT_255_1_388
10
22.7078764
20
5.6745545
40
0.4440242
50
328.8294576
51
331.7891185
0
ARC
8
DEFAULT_255_1_388
10
22.8201084
20
5.6166374
40
0.3177517
50
331.4254512
51
352.9365785
0
ARC
8
DEFAULT_255_1_388
10
22.8354084
20
5.613205
40
0.3021496
50
353.2257659
51
0.0166158
0
ARC
8
DEFAULT_255_1_388
10
22.8590845
20
5.6157894
40
0.2784847
50
359.486299
51
15.9343185
0
ARC
8
DEFAULT_255_1_388
10
22.9161111
20
5.6311269
40
0.2194403
50
16.1712913
51
43.5286088
0
ARC
8
DEFAULT_255_1_388
10
22.9248056
20
5.6398191
40
0.2071504
50
43.4417391
51
83.1661095
0
ARC
8
DEFAULT_255_1_388
10
22.9097217
20
5.5569316
40
0.2912888
50
82.160179
51
90.1505708
0
ARC
8
DEFAULT_255_1_388
10
22.9061699
20
5.4965279
40
0.3517025
50
89.5460741
51
102.5418361
0
ARC
8
DEFAULT_255_1_388
10
22.8788419
20
5.6124933
40
0.2325748
50
102.1738499
51
129.206123
0
ARC
8
DEFAULT_255_1_388
10
22.8699872
20
5.6264664
40
0.2161591
50
129.72865
51
135.753947
0
ARC
8
DEFAULT_255_1_388
10
22.8836354
20
5.6155728
40
0.2335433
50
136.1757367
51
166.3673339
0
ARC
8
DEFAULT_255_1_388
10
22.9969043
20
5.5852148
40
0.3507873
50
165.9090694
51
178.8684636
0
ARC
8
DEFAULT_255_1_388
10
23.0944814
20
5.5799263
40
0.4484624
50
178.4391136
51
180.0083808
0
ARC
8
DEFAULT_255_1_388
10
22.9365516
20
5.5843197
40
0.4577138
50
163.2878482
51
180.5581842
0
ARC
8
DEFAULT_255_1_388
10
22.8463557
20
5.6091393
40
0.3641968
50
133.4540601
51
162.947111
0
ARC
8
DEFAULT_255_1_388
10
22.8664438
20
5.5877789
40
0.3935189
50
100.7869829
51
133.4382499
0
ARC
8
DEFAULT_255_1_388
10
22.9055683
20
5.4135399
40
0.5720313
50
89.660664
51
101.3702276
0
ARC
8
DEFAULT_255_1_388
10
22.9130292
20
5.4204263
40
0.5651495
50
78.2172678
51
90.412935
0
ARC
8
DEFAULT_255_1_388
10
22.9529758
20
5.6031511
40
0.378122
50
55.9269121
51
78.4888449
0
ARC
8
DEFAULT_255_1_388
10
22.9750473
20
5.6412187
40
0.3342379
50
47.929771
51
55.4049217
0
ARC
8
DEFAULT_255_1_388
10
22.9865004
20
5.6528618
40
0.3179217
50
4.334829
51
48.0560205
0
ARC
8
DEFAULT_255_1_388
10
22.8632805
20
5.6337487
40
0.442341
50
359.9251713
51
5.5971671
0
ARC
8
DEFAULT_255_1_388
10
22.911496
20
5.6400728
40
0.3941854
50
337.8914027
51
358.9967534
0
ARC
8
DEFAULT_255_1_388
10
22.606253
20
5.7578295
40
0.7213271
50
326.9132501
51
338.3508308
0
ARC
8
DEFAULT_255_1_388
10
22.1578642
20
6.0452105
40
1.2538973
50
319.6471833
51
327.0959558
0
ARC
8
DEFAULT_255_1_388
10
21.72653
20
6.401005
40
1.8129975
50
317.2588228
51
319.9045804
0
LINE
8
DEFAULT_255_1_388
10
24.0926256
20
5.9738148
11
24.0926256
21
4.6519
0
LINE
8
DEFAULT_255_1_388
10
24.0926256
20
4.6519
11
23.9245626
21
4.6519
0
LINE
8
DEFAULT_255_1_388
10
23.9245626
20
4.6519
11
23.9245626
21
5.765995
0
LINE
8
DEFAULT_255_1_388
10
23.9245626
20
5.765995
11
23.5875331
21
5.6422066
0
LINE
8
DEFAULT_255_1_388
10
23.5875331
20
5.6422066
11
23.5875331
21
5.7940055
0
LINE
8
DEFAULT_255_1_388
10
23.5875331
20
5.7940055
11
24.0664223
21
5.9738148
0
LINE
8
DEFAULT_255_1_388
10
24.0664223
20
5.9738148
11
24.0926256
21
5.9738148
0
LINE
8
DEFAULT_255_1_388
10
21.7261903
20
13.9049898
11
21.7261903
21
12.7312596
0
LINE
8
DEFAULT_255_1_388
10
21.7261903
20
12.7312596
11
22.3496498
21
12.7312596
0
LINE
8
DEFAULT_255_1_388
10
22.3496498
20
12.7312596
11
22.3496498
21
12.5894
0
LINE
8
DEFAULT_255_1_388
10
22.3496498
20
12.5894
11
21.5518024
21
12.5894
0
LINE
8
DEFAULT_255_1_388
10
21.5518024
20
12.5894
11
21.5518024
21
13.9049898
0
LINE
8
DEFAULT_255_1_388
10
21.5518024
20
13.9049898
11
21.7261903
21
13.9049898
0
LINE
8
DEFAULT_255_1_388
10
23.3661598
20
12.7258382
11
23.3661598
21
12.5894
0
LINE
8
DEFAULT_255_1_388
10
23.3661598
20
12.5894
11
22.5041593
21
12.5894
0
LINE
8
DEFAULT_255_1_388
10
22.5041593
20
12.5894
11
22.5041593
21
12.7095741
0
LINE
8
DEFAULT_255_1_388
10
22.5041593
20
12.7095741
11
22.9595558
21
13.2155702
0
LINE
8
DEFAULT_255_1_388
10
22.6460189
20
13.5173607
11
22.4788595
21
13.5173607
0
LINE
8
DEFAULT_255_1_388
10
23.0580443
20
13.108046
11
22.7056542
21
12.7258382
0
LINE
8
DEFAULT_255_1_388
10
22.7056542
20
12.7258382
11
23.3661598
21
12.7258382
0
ARC
8
DEFAULT_255_1_388
10
21.4419618
20
14.5575983
40
2.0258655
50
318.5132526
51
320.7829045
0
ARC
8
DEFAULT_255_1_388
10
22.0367575
20
14.0734929
40
1.2589638
50
320.7372878
51
323.9739031
0
ARC
8
DEFAULT_255_1_388
10
22.4776506
20
13.7540554
40
0.7145141
50
323.8962701
51
328.64194
0
ARC
8
DEFAULT_255_1_388
10
22.7078764
20
13.6120545
40
0.4440242
50
328.8294576
51
331.7891185
0
ARC
8
DEFAULT_255_1_388
10
22.8201084
20
13.5541374
40
0.3177517
50
331.4254512
51
352.9365785
0
ARC
8
DEFAULT_255_1_388
10
22.8354084
20
13.550705
40
0.3021496
50
353.2257659
51
0.0166158
0
ARC
8
DEFAULT_255_1_388
10
22.8590845
20
13.5532894
40
0.2784847
50
359.486299
51
15.9343185
0
ARC
8
DEFAULT_255_1_388
10
22.9161111
20
13.5686269
40
0.2194403
50
16.1712913
51
43.5286088
0
ARC
8
DEFAULT_255_1_388
10
22.9248056
20
13.5773191
40
0.2071504
50
43.4417391
51
83.1661095
0
ARC
8
DEFAULT_255_1_388
10
22.9097217
20
13.4944316
40
0.2912888
50
82.160179
51
90.1505708
0
ARC
8
DEFAULT_255_1_388
10
22.9061699
20
13.4340279
40
0.3517025
50
89.5460741
51
102.5418361
0
ARC
8
DEFAULT_255_1_388
10
22.8788419
20
13.5499933
40
0.2325748
50
102.1738499
51
129.206123
0
ARC
8
DEFAULT_255_1_388
10
22.8699872
20
13.5639664
40
0.2161591
50
129.72865
51
135.753947
0
ARC
8
DEFAULT_255_1_388
10
22.8836354
20
13.5530728
40
0.2335433
50
136.1757367
51
166.3673339
0
ARC
8
DEFAULT_255_1_388
10
22.9969043
20
13.5227148
40
0.3507873
50
165.9090694
51
178.8684636
0
ARC
8
DEFAULT_255_1_388
10
23.0944814
20
13.5174263
40
0.4484624
50
178.4391136
51
180.0083808
0
ARC
8
DEFAULT_255_1_388
10
22.9365516
20
13.5218197
40
0.4577138
50
163.2878482
51
180.5581842
0
ARC
8
DEFAULT_255_1_388
10
22.8463557
20
13.5466393
40
0.3641968
50
133.4540601
51
162.947111
0
ARC
8
DEFAULT_255_1_388
10
22.8664438
20
13.5252789
40
0.3935189
50
100.7869829
51
133.4382499
0
ARC
8
DEFAULT_255_1_388
10
22.9055683
20
13.3510399
40
0.5720313
50
89.660664
51
101.3702276
0
ARC
8
DEFAULT_255_1_388
10
22.9130292
20
13.3579263
40
0.5651495
50
78.2172678
51
90.412935
0
ARC
8
DEFAULT_255_1_388
10
22.9529758
20
13.5406511
40
0.378122
50
55.9269121
51
78.4888449
0
ARC
8
DEFAULT_255_1_388
10
22.9750473
20
13.5787187
40
0.3342379
50
47.929771
51
55.4049217
0
ARC
8
DEFAULT_255_1_388
10
22.9865004
20
13.5903618
40
0.3179217
50
4.334829
51
48.0560205
0
ARC
8
DEFAULT_255_1_388
10
22.8632805
20
13.5712487
40
0.442341
50
359.9251713
51
5.5971671
0
ARC
8
DEFAULT_255_1_388
10
22.911496
20
13.5775728
40
0.3941854
50
337.8914027
51
358.9967534
0
ARC
8
DEFAULT_255_1_388
10
22.606253
20
13.6953295
40
0.7213271
50
326.9132501
51
338.3508308
0
ARC
8
DEFAULT_255_1_388
10
22.1578642
20
13.9827105
40
1.2538973
50
319.6471833
51
327.0959558
0
ARC
8
DEFAULT_255_1_388
10
21.72653
20
14.338505
40
1.8129975
50
317.2588228
51
319.9045804
0
LINE
8
DEFAULT_255_1_388
10
24.0926256
20
13.9113148
11
24.0926256
21
12.5894
0
LINE
8
DEFAULT_255_1_388
10
24.0926256
20
12.5894
11
23.9245626
21
12.5894
0
LINE
8
DEFAULT_255_1_388
10
23.9245626
20
12.5894
11
23.9245626
21
13.703495
0
LINE
8
DEFAULT_255_1_388
10
23.9245626
20
13.703495
11
23.5875331
21
13.5797066
0
LINE
8
DEFAULT_255_1_388
10
23.5875331
20
13.5797066
11
23.5875331
21
13.7315055
0
LINE
8
DEFAULT_255_1_388
10
23.5875331
20
13.7315055
11
24.0664223
21
13.9113148
0
LINE
8
DEFAULT_255_1_388
10
24.0664223
20
13.9113148
11
24.0926256
21
13.9113148
0
LINE
8
DEFAULT_255_1_388
10
19.9763946
20
21.2253553
11
19.9763946
21
21.1422274
0
LINE
8
DEFAULT_255_1_388
10
18.9183206
20
21.1304811
11
18.9183206
21
21.2253553
0
LINE
8
DEFAULT_255_1_388
10
19.8038138
20
21.1295775
11
19.8038138
21
21.2271625
0
LINE
8
DEFAULT_255_1_388
10
19.0909014
20
21.2389088
11
19.0909014
21
21.1422274
0
ARC
8
DEFAULT_255_1_388
10
19.0041684
20
21.1377726
40
0.9722364
50
350.4878118
51
0.2625322
0
ARC
8
DEFAULT_255_1_388
10
19.2621644
20
21.0933994
40
0.7104556
50
336.0277991
51
350.5787241
0
ARC
8
DEFAULT_255_1_388
10
19.4134751
20
21.0250243
40
0.544417
50
319.887443
51
336.1331163
0
ARC
8
DEFAULT_255_1_388
10
19.4812563
20
20.9707733
40
0.4576311
50
302.4806296
51
319.6144102
0
ARC
8
DEFAULT_255_1_388
10
19.4683184
20
20.9957067
40
0.4856183
50
275.8196423
51
302.1885521
0
ARC
8
DEFAULT_255_1_388
10
19.4496046
20
21.1242466
40
0.6154183
50
269.9169897
51
276.339506
0
ARC
8
DEFAULT_255_1_388
10
19.4445646
20
21.047068
40
0.5382553
50
252.5221437
51
270.441579
0
ARC
8
DEFAULT_255_1_388
10
19.4283897
20
20.9864046
40
0.4755426
50
237.5349961
51
252.1858334
0
ARC
8
DEFAULT_255_1_388
10
19.4384273
20
20.999212
40
0.4917393
50
209.0632754
51
237.3492577
0
ARC
8
DEFAULT_255_1_388
10
19.5363599
20
21.0607104
40
0.6072464
50
205.118533
51
209.6465345
0
ARC
8
DEFAULT_255_1_388
10
19.6259601
20
21.0987174
40
0.7045164
50
188.7216633
51
204.8239753
0
ARC
8
DEFAULT_255_1_388
10
19.8506376
20
21.1365387
40
0.9323368
50
180.3722704
51
188.9253909
0
ARC
8
DEFAULT_255_1_388
10
19.8475938
20
21.2298416
40
0.929284
50
169.5253055
51
180.2766048
0
ARC
8
DEFAULT_255_1_388
10
19.6335737
20
21.2692024
40
0.7116745
50
155.8314601
51
169.5088611
0
ARC
8
DEFAULT_255_1_388
10
19.48952
20
21.3360312
40
0.5528904
50
139.6259579
51
156.0379072
0
ARC
8
DEFAULT_255_1_388
10
19.4231733
20
21.3894143
40
0.4677708
50
122.6414784
51
139.3431662
0
ARC
8
DEFAULT_255_1_388
10
19.4344988
20
21.3687787
40
0.4912586
50
93.0224537
51
122.4556091
0
ARC
8
DEFAULT_255_1_388
10
19.4466509
20
21.2601776
40
0.6003837
50
89.9756766
51
93.6340839
0
ARC
8
DEFAULT_255_1_388
10
19.4510107
20
21.3050879
40
0.5554884
50
73.7463329
51
90.4234008
0
ARC
8
DEFAULT_255_1_388
10
19.470758
20
21.3815772
40
0.4765353
50
57.663051
51
73.4516911
0
ARC
8
DEFAULT_255_1_388
10
19.4698618
20
21.3840108
40
0.4749629
50
29.1441355
51
57.4146687
0
ARC
8
DEFAULT_255_1_388
10
19.3646429
20
21.3183046
40
0.5988917
50
24.0985653
51
29.732054
0
ARC
8
DEFAULT_255_1_388
10
19.2484061
20
21.2701154
40
0.7246823
50
8.6654943
51
23.8241215
0
ARC
8
DEFAULT_255_1_388
10
18.9970479
20
21.2291037
40
0.9793537
50
359.7807044
51
8.8218476
0
ARC
8
DEFAULT_255_1_388
10
18.8680184
20
21.2319731
40
0.9358078
50
359.7054632
51
8.0359751
0
ARC
8
DEFAULT_255_1_388
10
19.2055235
20
21.2811252
40
0.5947474
50
7.8926278
51
20.2962188
0
ARC
8
DEFAULT_255_1_388
10
19.3886085
20
21.3486367
40
0.3996117
50
20.3231056
51
36.4990255
0
ARC
8
DEFAULT_255_1_388
10
19.4657383
20
21.4080399
40
0.3022818
50
36.1436715
51
85.6627846
0
ARC
8
DEFAULT_255_1_388
10
19.4474638
20
21.2910881
40
0.4203853
50
84.3845912
51
90.076054
0
ARC
8
DEFAULT_255_1_388
10
19.4426993
20
21.3653416
40
0.346157
50
89.3037228
51
109.9046209
0
ARC
8
DEFAULT_255_1_388
10
19.4322826
20
21.4083379
40
0.3022217
50
110.8229774
51
143.917961
0
ARC
8
DEFAULT_255_1_388
10
19.5373185
20
21.3281455
40
0.434348
50
143.5289166
51
163.2980252
0
ARC
8
DEFAULT_255_1_388
10
19.7519472
20
21.2606685
40
0.659321
50
163.0418884
51
174.3139873
0
ARC
8
DEFAULT_255_1_388
10
20.0224437
20
21.2294378
40
0.9315905
50
174.050934
51
179.4174954
0
ARC
8
DEFAULT_255_1_388
10
19.9656381
20
21.1375382
40
0.8747493
50
179.6928582
51
188.7908948
0
ARC
8
DEFAULT_255_1_388
10
19.6660181
20
21.0896086
40
0.5713262
50
188.6328449
51
202.5630732
0
ARC
8
DEFAULT_255_1_388
10
19.5249018
20
21.0329142
40
0.4192612
50
202.8078931
51
216.1195888
0
ARC
8
DEFAULT_255_1_388
10
19.4338535
20
20.9596479
40
0.3025752
50
215.0755613
51
264.6379773
0
ARC
8
DEFAULT_255_1_388
10
19.4481372
20
21.0531376
40
0.3970284
50
263.8464302
51
270.0830805
0
ARC
8
DEFAULT_255_1_388
10
19.4527917
20
21.0240808
40
0.3679937
50
269.3649295
51
287.5149684
0
ARC
8
DEFAULT_255_1_388
10
19.4728358
20
20.9512714
40
0.2925408
50
288.0629019
51
323.8115617
0
ARC
8
DEFAULT_255_1_388
10
19.3748334
20
21.0243754
40
0.4148018
50
323.6546541
51
342.6591359
0
ARC
8
DEFAULT_255_1_388
10
19.1462992
20
21.098728
40
0.6551163
50
342.4092446
51
353.6451501
0
ARC
8
DEFAULT_255_1_388
10
18.8277785
20
21.1383565
40
0.9760748
50
353.4027553
51
359.4846611
0
LINE
8
DEFAULT_255_1_388
10
20.9883868
20
21.8424898
11
21.1627747
21
21.8424898
0
LINE
8
DEFAULT_255_1_388
10
21.1627747
20
21.8424898
11
21.1627747
21
20.947961
0
LINE
8
DEFAULT_255_1_388
10
20.7308709
20
20.5106358
11
20.6847891
21
20.5088287
0
LINE
8
DEFAULT_255_1_388
10
20.2104178
20
20.9461539
11
20.2104178
21
21.8424898
0
LINE
8
DEFAULT_255_1_388
10
20.2104178
20
21.8424898
11
20.382095
21
21.8424898
0
LINE
8
DEFAULT_255_1_388
10
20.382095
20
21.8424898
11
20.382095
21
20.9515753
0
LINE
8
DEFAULT_255_1_388
10
20.9883868
20
20.9506717
11
20.9883868
21
21.8424898
0
ARC
8
DEFAULT_255_1_388
10
20.6730546
20
20.945727
40
0.4897252
50
343.0897723
51
0.2613727
0
ARC
8
DEFAULT_255_1_388
10
20.7662517
20
20.919727
40
0.3930016
50
315.3344451
51
342.7642569
0
ARC
8
DEFAULT_255_1_388
10
20.7411012
20
20.9458085
40
0.4292244
50
284.6605441
51
315.2183439
0
ARC
8
DEFAULT_255_1_388
10
20.6898792
20
21.1197508
40
0.6104926
50
273.8500371
51
285.1796441
0
ARC
8
DEFAULT_255_1_388
10
20.6799857
20
21.1581762
40
0.6493653
50
257.6315393
51
270.4238259
0
ARC
8
DEFAULT_255_1_388
10
20.632194
20
20.9532915
40
0.4390079
50
230.6086859
51
257.9965362
0
ARC
8
DEFAULT_255_1_388
10
20.6175998
20
20.9303643
40
0.4120404
50
227.745033
51
230.1538266
0
ARC
8
DEFAULT_255_1_388
10
20.6022528
20
20.9119253
40
0.3880742
50
189.2524335
51
227.5915299
0
ARC
8
DEFAULT_255_1_388
10
20.7734399
20
20.9487735
40
0.5630282
50
180.2665782
51
190.1525221
0
ARC
8
DEFAULT_255_1_388
10
20.7984127
20
20.9484254
40
0.4163296
50
179.566507
51
191.9954402
0
ARC
8
DEFAULT_255_1_388
10
20.6602816
20
20.9176151
40
0.274815
50
191.6974619
51
215.1403758
0
ARC
8
DEFAULT_255_1_388
10
20.6335208
20
20.9016689
40
0.2437647
50
215.6958251
51
224.8509274
0
ARC
8
DEFAULT_255_1_388
10
20.6397684
20
20.9106016
40
0.2545012
50
225.2846515
51
255.0110023
0
ARC
8
DEFAULT_255_1_388
10
20.676213
20
21.0359017
40
0.384974
50
254.5945979
51
267.9129427
0
ARC
8
DEFAULT_255_1_388
10
20.6845823
20
21.1576444
40
0.506956
50
267.4687563
51
270.0233681
0
ARC
8
DEFAULT_255_1_388
10
20.6879819
20
21.0916288
40
0.440952
50
269.5851384
51
281.1845308
0
ARC
8
DEFAULT_255_1_388
10
20.7193423
20
20.9394469
40
0.2855802
50
280.9345159
51
300.9740496
0
ARC
8
DEFAULT_255_1_388
10
20.7432603
20
20.8954128
40
0.2355257
50
301.4982546
51
315.1468616
0
ARC
8
DEFAULT_255_1_388
10
20.7270099
20
20.9087488
40
0.2564594
50
315.5952932
51
345.6679188
0
ARC
8
DEFAULT_255_1_388
10
20.6010656
20
20.9438235
40
0.3871766
50
345.2525685
51
358.6303941
0
ARC
8
DEFAULT_255_1_388
10
20.4867047
20
20.9505695
40
0.5016822
50
358.1723541
51
0.0116795
0
LINE
8
DEFAULT_255_1_388
10
22.3455406
20
21.8424898
11
22.3455406
21
21.6997267
0
LINE
8
DEFAULT_255_1_388
10
22.3455406
20
21.6997267
11
21.9226724
21
21.6997267
0
LINE
8
DEFAULT_255_1_388
10
21.9226724
20
21.6997267
11
21.9226724
21
20.5269
0
LINE
8
DEFAULT_255_1_388
10
21.9226724
20
20.5269
11
21.7500916
21
20.5269
0
LINE
8
DEFAULT_255_1_388
10
21.7500916
20
20.5269
11
21.7500916
21
21.6997267
0
LINE
8
DEFAULT_255_1_388
10
21.7500916
20
21.6997267
11
21.328127
21
21.6997267
0
LINE
8
DEFAULT_255_1_388
10
21.328127
20
21.6997267
11
21.328127
21
21.8424898
0
LINE
8
DEFAULT_255_1_388
10
21.328127
20
21.8424898
11
22.3455406
21
21.8424898
0
LINE
8
DEFAULT_255_1_388
10
23.0467066
20
21.8488148
11
23.0467066
21
20.5269
0
LINE
8
DEFAULT_255_1_388
10
23.0467066
20
20.5269
11
22.8786436
21
20.5269
0
LINE
8
DEFAULT_255_1_388
10
22.8786436
20
20.5269
11
22.8786436
21
21.640995
0
LINE
8
DEFAULT_255_1_388
10
22.8786436
20
21.640995
11
22.5416141
21
21.5172066
0
LINE
8
DEFAULT_255_1_388
10
22.5416141
20
21.5172066
11
22.5416141
21
21.6690055
0
LINE
8
DEFAULT_255_1_388
10
22.5416141
20
21.6690055
11
23.0205032
21
21.8488148
0
LINE
8
DEFAULT_255_1_388
10
23.0205032
20
21.8488148
11
23.0467066
21
21.8488148
0
LINE
8
DEFAULT_255_1_388
10
23.746969
20
21.1521666
11
23.6132415
21
21.1865021
0
LINE
8
DEFAULT_255_1_388
10
23.6132415
20
21.1865021
11
23.6801053
21
21.8424898
0
LINE
8
DEFAULT_255_1_388
10
23.6801053
20
21.8424898
11
24.3541644
21
21.8424898
0
LINE
8
DEFAULT_255_1_388
10
24.3541644
20
21.8424898
11
24.3541644
21
21.6879803
0
LINE
8
DEFAULT_255_1_388
10
24.3541644
20
21.6879803
11
23.8219649
21
21.6879803
0
LINE
8
DEFAULT_255_1_388
10
23.8219649
20
21.6879803
11
23.7822081
21
21.3292652
0
LINE
8
DEFAULT_255_1_388
10
23.5662562
20
20.8729652
11
23.7243799
21
20.8729652
0
LINE
8
DEFAULT_255_1_388
10
23.7912437
20
21.1883092
11
23.746969
21
21.1521666
0
ARC
8
DEFAULT_255_1_388
10
23.9908694
20
20.9715241
40
0.4141476
50
93.7181681
51
120.253934
0
ARC
8
DEFAULT_255_1_388
10
24.0014746
20
20.8806284
40
0.5055616
50
89.9660471
51
94.2495185
0
ARC
8
DEFAULT_255_1_388
10
24.0060568
20
20.9469154
40
0.4392953
50
73.8045384
51
90.5585736
0
ARC
8
DEFAULT_255_1_388
10
24.0324826
20
21.043452
40
0.3392225
50
41.3071072
51
73.543002
0
ARC
8
DEFAULT_255_1_388
10
23.9856646
20
21.0031461
40
0.4009977
50
13.5075837
51
41.2174839
0
ARC
8
DEFAULT_255_1_388
10
23.8009743
20
20.9547907
40
0.5918864
50
1.1330171
51
13.8830737
0
ARC
8
DEFAULT_255_1_388
10
23.6413389
20
20.9462522
40
0.7516787
50
359.9925091
51
1.5431298
0
ARC
8
DEFAULT_255_1_388
10
23.7858004
20
20.9416027
40
0.6072343
50
347.8572712
51
0.4294349
0
ARC
8
DEFAULT_255_1_388
10
23.9827139
20
20.8969898
40
0.4053482
50
323.6727442
51
348.1674594
0
ARC
8
DEFAULT_255_1_388
10
24.0158103
20
20.8768175
40
0.3667495
50
316.8171818
51
323.1486802
0
ARC
8
DEFAULT_255_1_388
10
24.0227227
20
20.8726612
40
0.358869
50
281.839603
51
316.5458142
0
ARC
8
DEFAULT_255_1_388
10
23.9804515
20
21.0476363
40
0.5388223
50
269.5770964
51
282.4214641
0
ARC
8
DEFAULT_255_1_388
10
23.9724435
20
21.023593
40
0.5147801
50
256.2425863
51
270.4486481
0
ARC
8
DEFAULT_255_1_388
10
23.9387963
20
20.8886124
40
0.3756708
50
228.9024379
51
256.33135
0
ARC
8
DEFAULT_255_1_388
10
23.9304943
20
20.8755054
40
0.360344
50
193.7536029
51
228.5272638
0
ARC
8
DEFAULT_255_1_388
10
24.0697508
20
20.9163463
40
0.5053599
50
184.9244437
51
194.4976052
0
ARC
8
DEFAULT_255_1_388
10
24.0914149
20
20.9203722
40
0.3700839
50
187.3596909
51
198.6733728
0
ARC
8
DEFAULT_255_1_388
10
23.9733393
20
20.8794373
40
0.2451195
50
198.4453795
51
217.7945479
0
ARC
8
DEFAULT_255_1_388
10
23.9400565
20
20.8558563
40
0.2043754
50
218.2887146
51
228.5613203
0
ARC
8
DEFAULT_255_1_388
10
23.9510572
20
20.8706902
40
0.2227819
50
228.9652423
51
258.1237049
0
ARC
8
DEFAULT_255_1_388
10
23.974201
20
20.9697964
40
0.3245374
50
257.7260585
51
270.4013717
0
ARC
8
DEFAULT_255_1_388
10
23.9792508
20
20.9197255
40
0.2744726
50
269.4204315
51
286.420998
0
ARC
8
DEFAULT_255_1_388
10
23.9959563
20
20.8590705
40
0.2115721
50
286.7250065
51
320.6004665
0
ARC
8
DEFAULT_255_1_388
10
23.9528479
20
20.8940527
40
0.2670878
50
320.6712228
51
344.5440474
0
ARC
8
DEFAULT_255_1_388
10
23.8227193
20
20.9322394
40
0.4026927
50
344.241448
51
356.735803
0
ARC
8
DEFAULT_255_1_388
10
23.68235
20
20.9438656
40
0.5435085
50
356.3547471
51
0.0507222
0
ARC
8
DEFAULT_255_1_388
10
23.8325765
20
20.9473812
40
0.3932934
50
359.5579289
51
12.9534322
0
ARC
8
DEFAULT_255_1_388
10
23.9512605
20
20.9761586
40
0.2711827
50
12.6489751
51
41.608121
0
ARC
8
DEFAULT_255_1_388
10
23.9771765
20
20.9981946
40
0.2371737
50
41.7851122
51
85.9892156
0
ARC
8
DEFAULT_255_1_388
10
23.9633075
20
20.9066738
40
0.3295244
50
84.6965848
51
90.0672125
0
ARC
8
DEFAULT_255_1_388
10
23.9606643
20
20.8315118
40
0.4046926
50
89.6804991
51
99.161352
0
ARC
8
DEFAULT_255_1_388
10
23.9375652
20
20.9695848
40
0.2647044
50
98.9836248
51
113.8905702
0
ARC
8
DEFAULT_255_1_388
10
23.9117327
20
21.0305118
40
0.1985386
50
114.195234
51
127.3641866
0
LINE
8
DEFAULT_255_1_388
10
19.8440946
20
29.1628553
11
19.8440946
21
29.0797274
0
LINE
8
DEFAULT_255_1_388
10
18.7860206
20
29.0679811
11
18.7860206
21
29.1628553
0
LINE
8
DEFAULT_255_1_388
10
19.6715138
20
29.0670775
11
19.6715138
21
29.1646625
0
LINE
8
DEFAULT_255_1_388
10
18.9586014
20
29.1764088
11
18.9586014
21
29.0797274
0
ARC
8
DEFAULT_255_1_388
10
18.8718684
20
29.0752726
40
0.9722364
50
350.4878118
51
0.2625322
0
ARC
8
DEFAULT_255_1_388
10
19.1298644
20
29.0308994
40
0.7104556
50
336.0277991
51
350.5787241
0
ARC
8
DEFAULT_255_1_388
10
19.2811751
20
28.9625243
40
0.544417
50
319.887443
51
336.1331163
0
ARC
8
DEFAULT_255_1_388
10
19.3489563
20
28.9082733
40
0.4576311
50
302.4806296
51
319.6144102
0
ARC
8
DEFAULT_255_1_388
10
19.3360184
20
28.9332067
40
0.4856183
50
275.8196423
51
302.1885521
0
ARC
8
DEFAULT_255_1_388
10
19.3173046
20
29.0617466
40
0.6154183
50
269.9169897
51
276.339506
0
ARC
8
DEFAULT_255_1_388
10
19.3122646
20
28.984568
40
0.5382553
50
252.5221437
51
270.441579
0
ARC
8
DEFAULT_255_1_388
10
19.2960897
20
28.9239046
40
0.4755426
50
237.5349961
51
252.1858334
0
ARC
8
DEFAULT_255_1_388
10
19.3061273
20
28.936712
40
0.4917393
50
209.0632754
51
237.3492577
0
ARC
8
DEFAULT_255_1_388
10
19.4040599
20
28.9982104
40
0.6072464
50
205.118533
51
209.6465345
0
ARC
8
DEFAULT_255_1_388
10
19.4936601
20
29.0362174
40
0.7045164
50
188.7216633
51
204.8239753
0
ARC
8
DEFAULT_255_1_388
10
19.7183376
20
29.0740387
40
0.9323368
50
180.3722704
51
188.9253909
0
ARC
8
DEFAULT_255_1_388
10
19.7152938
20
29.1673416
40
0.929284
50
169.5253055
51
180.2766048
0
ARC
8
DEFAULT_255_1_388
10
19.5012737
20
29.2067024
40
0.7116745
50
155.8314601
51
169.5088611
0
ARC
8
DEFAULT_255_1_388
10
19.35722
20
29.2735312
40
0.5528904
50
139.6259579
51
156.0379072
0
ARC
8
DEFAULT_255_1_388
10
19.2908733
20
29.3269143
40
0.4677708
50
122.6414784
51
139.3431662
0
ARC
8
DEFAULT_255_1_388
10
19.3021988
20
29.3062787
40
0.4912586
50
93.0224537
51
122.4556091
0
ARC
8
DEFAULT_255_1_388
10
19.3143509
20
29.1976776
40
0.6003837
50
89.9756766
51
93.6340839
0
ARC
8
DEFAULT_255_1_388
10
19.3187107
20
29.2425879
40
0.5554884
50
73.7463329
51
90.4234008
0
ARC
8
DEFAULT_255_1_388
10
19.338458
20
29.3190772
40
0.4765353
50
57.663051
51
73.4516911
0
ARC
8
DEFAULT_255_1_388
10
19.3375618
20
29.3215108
40
0.4749629
50
29.1441355
51
57.4146687
0
ARC
8
DEFAULT_255_1_388
10
19.2323429
20
29.2558046
40
0.5988917
50
24.0985653
51
29.732054
0
ARC
8
DEFAULT_255_1_388
10
19.1161061
20
29.2076154
40
0.7246823
50
8.6654943
51
23.8241215
0
ARC
8
DEFAULT_255_1_388
10
18.8647479
20
29.1666037
40
0.9793537
50
359.7807044
51
8.8218476
0
ARC
8
DEFAULT_255_1_388
10
18.7357184
20
29.1694731
40
0.9358078
50
359.7054632
51
8.0359751
0
ARC
8
DEFAULT_255_1_388
10
19.0732235
20
29.2186252
40
0.5947474
50
7.8926278
51
20.2962188
0
ARC
8
DEFAULT_255_1_388
10
19.2563085
20
29.2861367
40
0.3996117
50
20.3231056
51
36.4990255
0
ARC
8
DEFAULT_255_1_388
10
19.3334383
20
29.3455399
40
0.3022818
50
36.1436715
51
85.6627846
0
ARC
8
DEFAULT_255_1_388
10
19.3151638
20
29.2285881
40
0.4203853
50
84.3845912
51
90.076054
0
ARC
8
DEFAULT_255_1_388
10
19.3103993
20
29.3028416
40
0.346157
50
89.3037228
51
109.9046209
0
ARC
8
DEFAULT_255_1_388
10
19.2999826
20
29.3458379
40
0.3022217
50
110.8229774
51
143.917961
0
ARC
8
DEFAULT_255_1_388
10
19.4050185
20
29.2656455
40
0.434348
50
143.5289166
51
163.2980252
0
ARC
8
DEFAULT_255_1_388
10
19.6196472
20
29.1981685
40
0.659321
50
163.0418884
51
174.3139873
0
ARC
8
DEFAULT_255_1_388
10
19.8901437
20
29.1669378
40
0.9315905
50
174.050934
51
179.4174954
0
ARC
8
DEFAULT_255_1_388
10
19.8333381
20
29.0750382
40
0.8747493
50
179.6928582
51
188.7908948
0
ARC
8
DEFAULT_255_1_388
10
19.5337181
20
29.0271086
40
0.5713262
50
188.6328449
51
202.5630732
0
ARC
8
DEFAULT_255_1_388
10
19.3926018
20
28.9704142
40
0.4192612
50
202.8078931
51
216.1195888
0
ARC
8
DEFAULT_255_1_388
10
19.3015535
20
28.8971479
40
0.3025752
50
215.0755613
51
264.6379773
0
ARC
8
DEFAULT_255_1_388
10
19.3158372
20
28.9906376
40
0.3970284
50
263.8464302
51
270.0830805
0
ARC
8
DEFAULT_255_1_388
10
19.3204917
20
28.9615808
40
0.3679937
50
269.3649295
51
287.5149684
0
ARC
8
DEFAULT_255_1_388
10
19.3405358
20
28.8887714
40
0.2925408
50
288.0629019
51
323.8115617
0
ARC
8
DEFAULT_255_1_388
10
19.2425334
20
28.9618754
40
0.4148018
50
323.6546541
51
342.6591359
0
ARC
8
DEFAULT_255_1_388
10
19.0139992
20
29.036228
40
0.6551163
50
342.4092446
51
353.6451501
0
ARC
8
DEFAULT_255_1_388
10
18.6954785
20
29.0758565
40
0.9760748
50
353.4027553
51
359.4846611
0
LINE
8
DEFAULT_255_1_388
10
20.8560868
20
29.7799898
11
21.0304747
21
29.7799898
0
LINE
8
DEFAULT_255_1_388
10
21.0304747
20
29.7799898
11
21.0304747
21
28.885461
0
LINE
8
DEFAULT_255_1_388
10
20.5985709
20
28.4481358
11
20.5524891
21
28.4463287
0
LINE
8
DEFAULT_255_1_388
10
20.0781178
20
28.8836539
11
20.0781178
21
29.7799898
0
LINE
8
DEFAULT_255_1_388
10
20.0781178
20
29.7799898
11
20.249795
21
29.7799898
0
LINE
8
DEFAULT_255_1_388
10
20.249795
20
29.7799898
11
20.249795
21
28.8890753
0
LINE
8
DEFAULT_255_1_388
10
20.8560868
20
28.8881717
11
20.8560868
21
29.7799898
0
ARC
8
DEFAULT_255_1_388
10
20.5407546
20
28.883227
40
0.4897252
50
343.0897723
51
0.2613727
0
ARC
8
DEFAULT_255_1_388
10
20.6339517
20
28.857227
40
0.3930016
50
315.3344451
51
342.7642569
0
ARC
8
DEFAULT_255_1_388
10
20.6088012
20
28.8833085
40
0.4292244
50
284.6605441
51
315.2183439
0
ARC
8
DEFAULT_255_1_388
10
20.5575792
20
29.0572508
40
0.6104926
50
273.8500371
51
285.1796441
0
ARC
8
DEFAULT_255_1_388
10
20.5476857
20
29.0956762
40
0.6493653
50
257.6315393
51
270.4238259
0
ARC
8
DEFAULT_255_1_388
10
20.499894
20
28.8907915
40
0.4390079
50
230.6086859
51
257.9965362
0
ARC
8
DEFAULT_255_1_388
10
20.4852998
20
28.8678643
40
0.4120404
50
227.745033
51
230.1538266
0
ARC
8
DEFAULT_255_1_388
10
20.4699528
20
28.8494253
40
0.3880742
50
189.2524335
51
227.5915299
0
ARC
8
DEFAULT_255_1_388
10
20.6411399
20
28.8862735
40
0.5630282
50
180.2665782
51
190.1525221
0
ARC
8
DEFAULT_255_1_388
10
20.6661127
20
28.8859254
40
0.4163296
50
179.566507
51
191.9954402
0
ARC
8
DEFAULT_255_1_388
10
20.5279816
20
28.8551151
40
0.274815
50
191.6974619
51
215.1403758
0
ARC
8
DEFAULT_255_1_388
10
20.5012208
20
28.8391689
40
0.2437647
50
215.6958251
51
224.8509274
0
ARC
8
DEFAULT_255_1_388
10
20.5074684
20
28.8481016
40
0.2545012
50
225.2846515
51
255.0110023
0
ARC
8
DEFAULT_255_1_388
10
20.543913
20
28.9734017
40
0.384974
50
254.5945979
51
267.9129427
0
ARC
8
DEFAULT_255_1_388
10
20.5522823
20
29.0951444
40
0.506956
50
267.4687563
51
270.0233681
0
ARC
8
DEFAULT_255_1_388
10
20.5556819
20
29.0291288
40
0.440952
50
269.5851384
51
281.1845308
0
ARC
8
DEFAULT_255_1_388
10
20.5870423
20
28.8769469
40
0.2855802
50
280.9345159
51
300.9740496
0
ARC
8
DEFAULT_255_1_388
10
20.6109603
20
28.8329128
40
0.2355257
50
301.4982546
51
315.1468616
0
ARC
8
DEFAULT_255_1_388
10
20.5947099
20
28.8462488
40
0.2564594
50
315.5952932
51
345.6679188
0
ARC
8
DEFAULT_255_1_388
10
20.4687656
20
28.8813235
40
0.3871766
50
345.2525685
51
358.6303941
0
ARC
8
DEFAULT_255_1_388
10
20.3544047
20
28.8880695
40
0.5016822
50
358.1723541
51
0.0116795
0
LINE
8
DEFAULT_255_1_388
10
22.2132406
20
29.7799898
11
22.2132406
21
29.6372267
0
LINE
8
DEFAULT_255_1_388
10
22.2132406
20
29.6372267
11
21.7903724
21
29.6372267
0
LINE
8
DEFAULT_255_1_388
10
21.7903724
20
29.6372267
11
21.7903724
21
28.4644
0
LINE
8
DEFAULT_255_1_388
10
21.7903724
20
28.4644
11
21.6177916
21
28.4644
0
LINE
8
DEFAULT_255_1_388
10
21.6177916
20
28.4644
11
21.6177916
21
29.6372267
0
LINE
8
DEFAULT_255_1_388
10
21.6177916
20
29.6372267
11
21.195827
21
29.6372267
0
LINE
8
DEFAULT_255_1_388
10
21.195827
20
29.6372267
11
21.195827
21
29.7799898
0
LINE
8
DEFAULT_255_1_388
10
21.195827
20
29.7799898
11
22.2132406
21
29.7799898
0
LINE
8
DEFAULT_255_1_388
10
22.9144066
20
29.7863148
11
22.9144066
21
28.4644
0
LINE
8
DEFAULT_255_1_388
10
22.9144066
20
28.4644
11
22.7463436
21
28.4644
0
LINE
8
DEFAULT_255_1_388
10
22.7463436
20
28.4644
11
22.7463436
21
29.578495
0
LINE
8
DEFAULT_255_1_388
10
22.7463436
20
29.578495
11
22.4093141
21
29.4547066
0
LINE
8
DEFAULT_255_1_388
10
22.4093141
20
29.4547066
11
22.4093141
21
29.6065055
0
LINE
8
DEFAULT_255_1_388
10
22.4093141
20
29.6065055
11
22.8882032
21
29.7863148
0
LINE
8
DEFAULT_255_1_388
10
22.8882032
20
29.7863148
11
22.9144066
21
29.7863148
0
LINE
8
DEFAULT_255_1_388
10
24.1098224
20
29.7799898
11
24.1098224
21
28.906243
0
LINE
8
DEFAULT_255_1_388
10
24.1098224
20
28.906243
11
24.2923424
21
28.906243
0
LINE
8
DEFAULT_255_1_388
10
24.2923424
20
28.906243
11
24.2923424
21
28.7698048
0
LINE
8
DEFAULT_255_1_388
10
24.2923424
20
28.7698048
11
24.1098224
21
28.7698048
0
LINE
8
DEFAULT_255_1_388
10
24.1098224
20
28.7698048
11
24.1098224
21
28.4644
0
LINE
8
DEFAULT_255_1_388
10
24.1098224
20
28.4644
11
23.9417594
21
28.4644
0
LINE
8
DEFAULT_255_1_388
10
23.9417594
20
28.4644
11
23.9417594
21
28.7698048
0
LINE
8
DEFAULT_255_1_388
10
23.9417594
20
28.7698048
11
23.3426961
21
28.7698048
0
LINE
8
DEFAULT_255_1_388
10
23.3426961
20
28.7698048
11
23.3426961
21
28.8682933
0
LINE
8
DEFAULT_255_1_388
10
23.3426961
20
28.8682933
11
23.9318202
21
29.7799898
0
LINE
8
DEFAULT_255_1_388
10
23.9318202
20
29.7799898
11
24.1098224
21
29.7799898
0
LINE
8
DEFAULT_255_1_388
10
23.921881
20
29.5152455
11
23.5324447
21
28.906243
0
LINE
8
DEFAULT_255_1_388
10
23.5324447
20
28.906243
11
23.9417594
21
28.906243
0
LINE
8
DEFAULT_255_1_388
10
23.9417594
20
28.906243
11
23.9417594
21
29.551388
0
LINE
8
DEFAULT_255_1_388
10
23.9417594
20
29.551388
11
23.921881
21
29.5152455
0
LINE
8
DEFAULT_255_1_388
10
19.9763946
20
37.1003553
11
19.9763946
21
37.0172274
0
LINE
8
DEFAULT_255_1_388
10
18.9183206
20
37.0054811
11
18.9183206
21
37.1003553
0
LINE
8
DEFAULT_255_1_388
10
19.8038138
20
37.0045775
11
19.8038138
21
37.1021625
0
LINE
8
DEFAULT_255_1_388
10
19.0909014
20
37.1139088
11
19.0909014
21
37.0172274
0
ARC
8
DEFAULT_255_1_388
10
19.0041684
20
37.0127726
40
0.9722364
50
350.4878118
51
0.2625322
0
ARC
8
DEFAULT_255_1_388
10
19.2621644
20
36.9683994
40
0.7104556
50
336.0277991
51
350.5787241
0
ARC
8
DEFAULT_255_1_388
10
19.4134751
20
36.9000243
40
0.544417
50
319.887443
51
336.1331163
0
ARC
8
DEFAULT_255_1_388
10
19.4812563
20
36.8457733
40
0.4576311
50
302.4806296
51
319.6144102
0
ARC
8
DEFAULT_255_1_388
10
19.4683184
20
36.8707067
40
0.4856183
50
275.8196423
51
302.1885521
0
ARC
8
DEFAULT_255_1_388
10
19.4496046
20
36.9992466
40
0.6154183
50
269.9169897
51
276.339506
0
ARC
8
DEFAULT_255_1_388
10
19.4445646
20
36.922068
40
0.5382553
50
252.5221437
51
270.441579
0
ARC
8
DEFAULT_255_1_388
10
19.4283897
20
36.8614046
40
0.4755426
50
237.5349961
51
252.1858334
0
ARC
8
DEFAULT_255_1_388
10
19.4384273
20
36.874212
40
0.4917393
50
209.0632754
51
237.3492577
0
ARC
8
DEFAULT_255_1_388
10
19.5363599
20
36.9357104
40
0.6072464
50
205.118533
51
209.6465345
0
ARC
8
DEFAULT_255_1_388
10
19.6259601
20
36.9737174
40
0.7045164
50
188.7216633
51
204.8239753
0
ARC
8
DEFAULT_255_1_388
10
19.8506376
20
37.0115387
40
0.9323368
50
180.3722704
51
188.9253909
0
ARC
8
DEFAULT_255_1_388
10
19.8475938
20
37.1048416
40
0.929284
50
169.5253055
51
180.2766048
0
ARC
8
DEFAULT_255_1_388
10
19.6335737
20
37.1442024
40
0.7116745
50
155.8314601
51
169.5088611
0
ARC
8
DEFAULT_255_1_388
10
19.48952
20
37.2110312
40
0.5528904
50
139.6259579
51
156.0379072
0
ARC
8
DEFAULT_255_1_388
10
19.4231733
20
37.2644143
40
0.4677708
50
122.6414784
51
139.3431662
0
ARC
8
DEFAULT_255_1_388
10
19.4344988
20
37.2437787
40
0.4912586
50
93.0224537
51
122.4556091
0
ARC
8
DEFAULT_255_1_388
10
19.4466509
20
37.1351776
40
0.6003837
50
89.9756766
51
93.6340839
0
ARC
8
DEFAULT_255_1_388
10
19.4510107
20
37.1800879
40
0.5554884
50
73.7463329
51
90.4234008
0
ARC
8
DEFAULT_255_1_388
10
19.470758
20
37.2565772
40
0.4765353
50
57.663051
51
73.4516911
0
ARC
8
DEFAULT_255_1_388
10
19.4698618
20
37.2590108
40
0.4749629
50
29.1441355
51
57.4146687
0
ARC
8
DEFAULT_255_1_388
10
19.3646429
20
37.1933046
40
0.5988917
50
24.0985653
51
29.732054
0
ARC
8
DEFAULT_255_1_388
10
19.2484061
20
37.1451154
40
0.7246823
50
8.6654943
51
23.8241215
0
ARC
8
DEFAULT_255_1_388
10
18.9970479
20
37.1041037
40
0.9793537
50
359.7807044
51
8.8218476
0
ARC
8
DEFAULT_255_1_388
10
18.8680184
20
37.1069731
40
0.9358078
50
359.7054632
51
8.0359751
0
ARC
8
DEFAULT_255_1_388
10
19.2055235
20
37.1561252
40
0.5947474
50
7.8926278
51
20.2962188
0
ARC
8
DEFAULT_255_1_388
10
19.3886085
20
37.2236367
40
0.3996117
50
20.3231056
51
36.4990255
0
ARC
8
DEFAULT_255_1_388
10
19.4657383
20
37.2830399
40
0.3022818
50
36.1436715
51
85.6627846
0
ARC
8
DEFAULT_255_1_388
10
19.4474638
20
37.1660881
40
0.4203853
50
84.3845912
51
90.076054
0
ARC
8
DEFAULT_255_1_388
10
19.4426993
20
37.2403416
40
0.346157
50
89.3037228
51
109.9046209
0
ARC
8
DEFAULT_255_1_388
10
19.4322826
20
37.2833379
40
0.3022217
50
110.8229774
51
143.917961
0
ARC
8
DEFAULT_255_1_388
10
19.5373185
20
37.2031455
40
0.434348
50
143.5289166
51
163.2980252
0
ARC
8
DEFAULT_255_1_388
10
19.7519472
20
37.1356685
40
0.659321
50
163.0418884
51
174.3139873
0
ARC
8
DEFAULT_255_1_388
10
20.0224437
20
37.1044378
40
0.9315905
50
174.050934
51
179.4174954
0
ARC
8
DEFAULT_255_1_388
10
19.9656381
20
37.0125382
40
0.8747493
50
179.6928582
51
188.7908948
0
ARC
8
DEFAULT_255_1_388
10
19.6660181
20
36.9646086
40
0.5713262
50
188.6328449
51
202.5630732
0
ARC
8
DEFAULT_255_1_388
10
19.5249018
20
36.9079142
40
0.4192612
50
202.8078931
51
216.1195888
0
ARC
8
DEFAULT_255_1_388
10
19.4338535
20
36.8346479
40
0.3025752
50
215.0755613
51
264.6379773
0
ARC
8
DEFAULT_255_1_388
10
19.4481372
20
36.9281376
40
0.3970284
50
263.8464302
51
270.0830805
0
ARC
8
DEFAULT_255_1_388
10
19.4527917
20
36.8990808
40
0.3679937
50
269.3649295
51
287.5149684
0
ARC
8
DEFAULT_255_1_388
10
19.4728358
20
36.8262714
40
0.2925408
50
288.0629019
51
323.8115617
0
ARC
8
DEFAULT_255_1_388
10
19.3748334
20
36.8993754
40
0.4148018
50
323.6546541
51
342.6591359
0
ARC
8
DEFAULT_255_1_388
10
19.1462992
20
36.973728
40
0.6551163
50
342.4092446
51
353.6451501
0
ARC
8
DEFAULT_255_1_388
10
18.8277785
20
37.0133565
40
0.9760748
50
353.4027553
51
359.4846611
0
LINE
8
DEFAULT_255_1_388
10
20.9883868
20
37.7174898
11
21.1627747
21
37.7174898
0
LINE
8
DEFAULT_255_1_388
10
21.1627747
20
37.7174898
11
21.1627747
21
36.822961
0
LINE
8
DEFAULT_255_1_388
10
20.7308709
20
36.3856358
11
20.6847891
21
36.3838287
0
LINE
8
DEFAULT_255_1_388
10
20.2104178
20
36.8211539
11
20.2104178
21
37.7174898
0
LINE
8
DEFAULT_255_1_388
10
20.2104178
20
37.7174898
11
20.382095
21
37.7174898
0
LINE
8
DEFAULT_255_1_388
10
20.382095
20
37.7174898
11
20.382095
21
36.8265753
0
LINE
8
DEFAULT_255_1_388
10
20.9883868
20
36.8256717
11
20.9883868
21
37.7174898
0
ARC
8
DEFAULT_255_1_388
10
20.6730546
20
36.820727
40
0.4897252
50
343.0897723
51
0.2613727
0
ARC
8
DEFAULT_255_1_388
10
20.7662517
20
36.794727
40
0.3930016
50
315.3344451
51
342.7642569
0
ARC
8
DEFAULT_255_1_388
10
20.7411012
20
36.8208085
40
0.4292244
50
284.6605441
51
315.2183439
0
ARC
8
DEFAULT_255_1_388
10
20.6898792
20
36.9947508
40
0.6104926
50
273.8500371
51
285.1796441
0
ARC
8
DEFAULT_255_1_388
10
20.6799857
20
37.0331762
40
0.6493653
50
257.6315393
51
270.4238259
0
ARC
8
DEFAULT_255_1_388
10
20.632194
20
36.8282915
40
0.4390079
50
230.6086859
51
257.9965362
0
ARC
8
DEFAULT_255_1_388
10
20.6175998
20
36.8053643
40
0.4120404
50
227.745033
51
230.1538266
0
ARC
8
DEFAULT_255_1_388
10
20.6022528
20
36.7869253
40
0.3880742
50
189.2524335
51
227.5915299
0
ARC
8
DEFAULT_255_1_388
10
20.7734399
20
36.8237735
40
0.5630282
50
180.2665782
51
190.1525221
0
ARC
8
DEFAULT_255_1_388
10
20.7984127
20
36.8234254
40
0.4163296
50
179.566507
51
191.9954402
0
ARC
8
DEFAULT_255_1_388
10
20.6602816
20
36.7926151
40
0.274815
50
191.6974619
51
215.1403758
0
ARC
8
DEFAULT_255_1_388
10
20.6335208
20
36.7766689
40
0.2437647
50
215.6958251
51
224.8509274
0
ARC
8
DEFAULT_255_1_388
10
20.6397684
20
36.7856016
40
0.2545012
50
225.2846515
51
255.0110023
0
ARC
8
DEFAULT_255_1_388
10
20.676213
20
36.9109017
40
0.384974
50
254.5945979
51
267.9129427
0
ARC
8
DEFAULT_255_1_388
10
20.6845823
20
37.0326444
40
0.506956
50
267.4687563
51
270.0233681
0
ARC
8
DEFAULT_255_1_388
10
20.6879819
20
36.9666288
40
0.440952
50
269.5851384
51
281.1845308
0
ARC
8
DEFAULT_255_1_388
10
20.7193423
20
36.8144469
40
0.2855802
50
280.9345159
51
300.9740496
0
ARC
8
DEFAULT_255_1_388
10
20.7432603
20
36.7704128
40
0.2355257
50
301.4982546
51
315.1468616
0
ARC
8
DEFAULT_255_1_388
10
20.7270099
20
36.7837488
40
0.2564594
50
315.5952932
51
345.6679188
0
ARC
8
DEFAULT_255_1_388
10
20.6010656
20
36.8188235
40
0.3871766
50
345.2525685
51
358.6303941
0
ARC
8
DEFAULT_255_1_388
10
20.4867047
20
36.8255695
40
0.5016822
50
358.1723541
51
0.0116795
0
LINE
8
DEFAULT_255_1_388
10
22.3455406
20
37.7174898
11
22.3455406
21
37.5747267
0
LINE
8
DEFAULT_255_1_388
10
22.3455406
20
37.5747267
11
21.9226724
21
37.5747267
0
LINE
8
DEFAULT_255_1_388
10
21.9226724
20
37.5747267
11
21.9226724
21
36.4019
0
LINE
8
DEFAULT_255_1_388
10
21.9226724
20
36.4019
11
21.7500916
21
36.4019
0
LINE
8
DEFAULT_255_1_388
10
21.7500916
20
36.4019
11
21.7500916
21
37.5747267
0
LINE
8
DEFAULT_255_1_388
10
21.7500916
20
37.5747267
11
21.328127
21
37.5747267
0
LINE
8
DEFAULT_255_1_388
10
21.328127
20
37.5747267
11
21.328127
21
37.7174898
0
LINE
8
DEFAULT_255_1_388
10
21.328127
20
37.7174898
11
22.3455406
21
37.7174898
0
LINE
8
DEFAULT_255_1_388
10
23.0467066
20
37.7238148
11
23.0467066
21
36.4019
0
LINE
8
DEFAULT_255_1_388
10
23.0467066
20
36.4019
11
22.8786436
21
36.4019
0
LINE
8
DEFAULT_255_1_388
10
22.8786436
20
36.4019
11
22.8786436
21
37.515995
0
LINE
8
DEFAULT_255_1_388
10
22.8786436
20
37.515995
11
22.5416141
21
37.3922066
0
LINE
8
DEFAULT_255_1_388
10
22.5416141
20
37.3922066
11
22.5416141
21
37.5440055
0
LINE
8
DEFAULT_255_1_388
10
22.5416141
20
37.5440055
11
23.0205032
21
37.7238148
0
LINE
8
DEFAULT_255_1_388
10
23.0205032
20
37.7238148
11
23.0467066
21
37.7238148
0
LINE
8
DEFAULT_255_1_388
10
23.7794974
20
37.0045775
11
23.7794974
21
37.1410157
0
LINE
8
DEFAULT_255_1_388
10
23.7794974
20
37.1410157
11
23.9050928
21
37.1410157
0
LINE
8
DEFAULT_255_1_388
10
23.690948
20
37.3723282
11
23.5237886
21
37.3723282
0
LINE
8
DEFAULT_255_1_388
10
23.5120423
20
36.7488688
11
23.6801053
21
36.7488688
0
LINE
8
DEFAULT_255_1_388
10
23.9050928
20
37.0045775
11
23.7794974
21
37.0045775
0
ARC
8
DEFAULT_255_1_388
10
23.9018155
20
37.5226922
40
0.3816905
50
270.491971
51
281.8953028
0
ARC
8
DEFAULT_255_1_388
10
23.9289582
20
37.3987199
40
0.2547877
50
281.6690378
51
301.2943765
0
ARC
8
DEFAULT_255_1_388
10
23.9481033
20
37.3636926
40
0.2149197
50
301.7834992
51
311.754567
0
ARC
8
DEFAULT_255_1_388
10
23.9584074
20
37.352265
40
0.1995326
50
311.7325027
51
354.2803031
0
ARC
8
DEFAULT_255_1_388
10
23.876649
20
37.366328
40
0.2823461
50
353.0941646
51
0.1174696
0
ARC
8
DEFAULT_255_1_388
10
23.8248048
20
37.3716874
40
0.3342238
50
359.1804452
51
15.0452323
0
ARC
8
DEFAULT_255_1_388
10
23.9762107
20
37.4158546
40
0.1765747
50
13.957816
51
77.6713812
0
ARC
8
DEFAULT_255_1_388
10
23.9327342
20
37.2600464
40
0.3381982
50
76.111571
51
90.7028736
0
ARC
8
DEFAULT_255_1_388
10
23.9260754
20
37.290825
40
0.3074046
50
89.5321574
51
103.5319393
0
ARC
8
DEFAULT_255_1_388
10
23.9035138
20
37.3807443
40
0.2147041
50
103.2930114
51
133.5619756
0
ARC
8
DEFAULT_255_1_388
10
23.898508
20
37.3874351
40
0.2064084
50
133.8349761
51
173.5343225
0
ARC
8
DEFAULT_255_1_388
10
23.9798737
20
37.3730144
40
0.2889266
50
172.5097183
51
180.1360699
0
ARC
8
DEFAULT_255_1_388
10
23.8728501
20
37.376888
40
0.3490913
50
155.3483706
51
180.7484035
0
ARC
8
DEFAULT_255_1_388
10
23.8673477
20
37.3736519
40
0.3454798
50
131.5745177
51
154.4799474
0
ARC
8
DEFAULT_255_1_388
10
23.9025759
20
37.3380422
40
0.3955058
50
96.9874487
51
131.9690874
0
ARC
8
DEFAULT_255_1_388
10
23.9272652
20
37.1979407
40
0.537622
50
89.8592909
51
97.7827481
0
ARC
8
DEFAULT_255_1_388
10
23.9326761
20
37.168436
40
0.5671399
50
78.3654493
51
90.4132586
0
ARC
8
DEFAULT_255_1_388
10
23.9729402
20
37.3550918
40
0.3762034
50
56.6229818
51
78.6387103
0
ARC
8
DEFAULT_255_1_388
10
23.9971231
20
37.3973846
40
0.3275964
50
47.0254604
51
56.085558
0
ARC
8
DEFAULT_255_1_388
10
23.9993482
20
37.4018189
40
0.3228382
50
10.9207523
51
46.777927
0
ARC
8
DEFAULT_255_1_388
10
23.8459076
20
37.3663401
40
0.4802559
50
359.6364235
51
11.6087615
0
ARC
8
DEFAULT_255_1_388
10
24.0523242
20
37.3646404
40
0.273833
50
332.3549969
51
359.7179765
0
ARC
8
DEFAULT_255_1_388
10
23.9791643
20
37.3993285
40
0.3547505
50
325.2332381
51
332.8746682
0
ARC
8
DEFAULT_255_1_388
10
23.9963225
20
37.3873763
40
0.3338396
50
292.9803892
51
325.2391113
0
ARC
8
DEFAULT_255_1_388
10
23.9652421
20
37.4478679
40
0.4016959
50
292.542178
51
293.6931461
0
ARC
8
DEFAULT_255_1_388
10
24.0095993
20
36.7213036
40
0.372079
50
57.643292
51
72.8626085
0
ARC
8
DEFAULT_255_1_388
10
24.0494828
20
36.7859273
40
0.2961455
50
36.7246661
51
57.4701329
0
ARC
8
DEFAULT_255_1_388
10
24.0481984
20
36.787347
40
0.2963321
50
8.054535
51
36.3561529
0
ARC
8
DEFAULT_255_1_388
10
23.9511657
20
36.7699073
40
0.3948682
50
359.8316595
51
8.5873361
0
ARC
8
DEFAULT_255_1_388
10
23.9089131
20
36.764497
40
0.4371398
50
343.9831631
51
0.557075
0
ARC
8
DEFAULT_255_1_388
10
24.0086181
20
36.7371963
40
0.3337749
50
311.6358204
51
343.7652116
0
ARC
8
DEFAULT_255_1_388
10
23.9660434
20
36.7851955
40
0.3979351
50
279.7829743
51
311.625622
0
ARC
8
DEFAULT_255_1_388
10
23.932157
20
36.9468642
40
0.5630417
50
269.7285092
51
280.3857694
0
ARC
8
DEFAULT_255_1_388
10
23.9251883
20
36.9422241
40
0.5584119
50
256.6827433
51
270.4412869
0
ARC
8
DEFAULT_255_1_388
10
23.8870869
20
36.7864698
40
0.3980715
50
229.4223821
51
256.8554507
0
ARC
8
DEFAULT_255_1_388
10
23.8404423
20
36.7339683
40
0.3278564
50
181.8183354
51
229.6455015
0
ARC
8
DEFAULT_255_1_388
10
23.9574032
20
36.7486825
40
0.4453611
50
179.9760419
51
183.2330638
0
ARC
8
DEFAULT_255_1_388
10
23.9380584
20
36.7463781
40
0.2579652
50
179.4467996
51
196.2871626
0
ARC
8
DEFAULT_255_1_388
10
23.8832038
20
36.7313709
40
0.2011057
50
196.5661293
51
227.7059371
0
ARC
8
DEFAULT_255_1_388
10
23.9016645
20
36.7520155
40
0.2287994
50
227.7653015
51
257.8763321
0
ARC
8
DEFAULT_255_1_388
10
23.9269729
20
36.8580961
40
0.3378385
50
257.4583525
51
270.4267406
0
ARC
8
DEFAULT_255_1_388
10
23.9320978
20
36.890723
40
0.3704652
50
269.5965319
51
280.8788143
0
ARC
8
DEFAULT_255_1_388
10
23.9579206
20
36.7617529
40
0.2389415
50
280.6347277
51
299.8594068
0
ARC
8
DEFAULT_255_1_388
10
23.9793976
20
36.7209736
40
0.19289
50
300.3575552
51
314.5515667
0
ARC
8
DEFAULT_255_1_388
10
23.9700651
20
36.7278025
40
0.204312
50
315.0730962
51
345.0429362
0
ARC
8
DEFAULT_255_1_388
10
23.8662159
20
36.7580539
40
0.31246
50
344.598526
51
357.9270698
0
ARC
8
DEFAULT_255_1_388
10
23.7652464
20
36.7649705
40
0.4136265
50
357.4755098
51
0.0224936
0
ARC
8
DEFAULT_255_1_388
10
23.8805341
20
36.7677099
40
0.2983498
50
359.5051035
51
13.4236939
0
ARC
8
DEFAULT_255_1_388
10
23.9780431
20
36.7926637
40
0.1977186
50
12.9497905
51
48.7550905
0
ARC
8
DEFAULT_255_1_388
10
23.9575353
20
36.7646373
40
0.2323321
50
49.509109
51
72.1832965
0
ARC
8
DEFAULT_255_1_388
10
23.9172821
20
36.6451632
40
0.358397
50
71.9008458
51
84.3555134
0
ARC
8
DEFAULT_255_1_388
10
23.8991216
20
36.4919712
40
0.512641
50
84.019632
51
89.3326067
0
LINE
8
DEFAULT_255_1_388
10
19.9763946
20
45.0378553
11
19.9763946
21
44.9547274
0
LINE
8
DEFAULT_255_1_388
10
18.9183206
20
44.9429811
11
18.9183206
21
45.0378553
0
LINE
8
DEFAULT_255_1_388
10
19.8038138
20
44.9420775
11
19.8038138
21
45.0396625
0
LINE
8
DEFAULT_255_1_388
10
19.0909014
20
45.0514088
11
19.0909014
21
44.9547274
0
ARC
8
DEFAULT_255_1_388
10
19.0041684
20
44.9502726
40
0.9722364
50
350.4878118
51
0.2625322
0
ARC
8
DEFAULT_255_1_388
10
19.2621644
20
44.9058994
40
0.7104556
50
336.0277991
51
350.5787241
0
ARC
8
DEFAULT_255_1_388
10
19.4134751
20
44.8375243
40
0.544417
50
319.887443
51
336.1331163
0
ARC
8
DEFAULT_255_1_388
10
19.4812563
20
44.7832733
40
0.4576311
50
302.4806296
51
319.6144102
0
ARC
8
DEFAULT_255_1_388
10
19.4683184
20
44.8082067
40
0.4856183
50
275.8196423
51
302.1885521
0
ARC
8
DEFAULT_255_1_388
10
19.4496046
20
44.9367466
40
0.6154183
50
269.9169897
51
276.339506
0
ARC
8
DEFAULT_255_1_388
10
19.4445646
20
44.859568
40
0.5382553
50
252.5221437
51
270.441579
0
ARC
8
DEFAULT_255_1_388
10
19.4283897
20
44.7989046
40
0.4755426
50
237.5349961
51
252.1858334
0
ARC
8
DEFAULT_255_1_388
10
19.4384273
20
44.811712
40
0.4917393
50
209.0632754
51
237.3492577
0
ARC
8
DEFAULT_255_1_388
10
19.5363599
20
44.8732104
40
0.6072464
50
205.118533
51
209.6465345
0
ARC
8
DEFAULT_255_1_388
10
19.6259601
20
44.9112174
40
0.7045164
50
188.7216633
51
204.8239753
0
ARC
8
DEFAULT_255_1_388
10
19.8506376
20
44.9490387
40
0.9323368
50
180.3722704
51
188.9253909
0
ARC
8
DEFAULT_255_1_388
10
19.8475938
20
45.0423416
40
0.929284
50
169.5253055
51
180.2766048
0
ARC
8
DEFAULT_255_1_388
10
19.6335737
20
45.0817024
40
0.7116745
50
155.8314601
51
169.5088611
0
ARC
8
DEFAULT_255_1_388
10
19.48952
20
45.1485312
40
0.5528904
50
139.6259579
51
156.0379072
0
ARC
8
DEFAULT_255_1_388
10
19.4231733
20
45.2019143
40
0.4677708
50
122.6414784
51
139.3431662
0
ARC
8
DEFAULT_255_1_388
10
19.4344988
20
45.1812787
40
0.4912586
50
93.0224537
51
122.4556091
0
ARC
8
DEFAULT_255_1_388
10
19.4466509
20
45.0726776
40
0.6003837
50
89.9756766
51
93.6340839
0
ARC
8
DEFAULT_255_1_388
10
19.4510107
20
45.1175879
40
0.5554884
50
73.7463329
51
90.4234008
0
ARC
8
DEFAULT_255_1_388
10
19.470758
20
45.1940772
40
0.4765353
50
57.663051
51
73.4516911
0
ARC
8
DEFAULT_255_1_388
10
19.4698618
20
45.1965108
40
0.4749629
50
29.1441355
51
57.4146687
0
ARC
8
DEFAULT_255_1_388
10
19.3646429
20
45.1308046
40
0.5988917
50
24.0985653
51
29.732054
0
ARC
8
DEFAULT_255_1_388
10
19.2484061
20
45.0826154
40
0.7246823
50
8.6654943
51
23.8241215
0
ARC
8
DEFAULT_255_1_388
10
18.9970479
20
45.0416037
40
0.9793537
50
359.7807044
51
8.8218476
0
ARC
8
DEFAULT_255_1_388
10
18.8680184
20
45.0444731
40
0.9358078
50
359.7054632
51
8.0359751
0
ARC
8
DEFAULT_255_1_388
10
19.2055235
20
45.0936252
40
0.5947474
50
7.8926278
51
20.2962188
0
ARC
8
DEFAULT_255_1_388
10
19.3886085
20
45.1611367
40
0.3996117
50
20.3231056
51
36.4990255
0
ARC
8
DEFAULT_255_1_388
10
19.4657383
20
45.2205399
40
0.3022818
50
36.1436715
51
85.6627846
0
ARC
8
DEFAULT_255_1_388
10
19.4474638
20
45.1035881
40
0.4203853
50
84.3845912
51
90.076054
0
ARC
8
DEFAULT_255_1_388
10
19.4426993
20
45.1778416
40
0.346157
50
89.3037228
51
109.9046209
0
ARC
8
DEFAULT_255_1_388
10
19.4322826
20
45.2208379
40
0.3022217
50
110.8229774
51
143.917961
0
ARC
8
DEFAULT_255_1_388
10
19.5373185
20
45.1406455
40
0.434348
50
143.5289166
51
163.2980252
0
ARC
8
DEFAULT_255_1_388
10
19.7519472
20
45.0731685
40
0.659321
50
163.0418884
51
174.3139873
0
ARC
8
DEFAULT_255_1_388
10
20.0224437
20
45.0419378
40
0.9315905
50
174.050934
51
179.4174954
0
ARC
8
DEFAULT_255_1_388
10
19.9656381
20
44.9500382
40
0.8747493
50
179.6928582
51
188.7908948
0
ARC
8
DEFAULT_255_1_388
10
19.6660181
20
44.9021086
40
0.5713262
50
188.6328449
51
202.5630732
0
ARC
8
DEFAULT_255_1_388
10
19.5249018
20
44.8454142
40
0.4192612
50
202.8078931
51
216.1195888
0
ARC
8
DEFAULT_255_1_388
10
19.4338535
20
44.7721479
40
0.3025752
50
215.0755613
51
264.6379773
0
ARC
8
DEFAULT_255_1_388
10
19.4481372
20
44.8656376
40
0.3970284
50
263.8464302
51
270.0830805
0
ARC
8
DEFAULT_255_1_388
10
19.4527917
20
44.8365808
40
0.3679937
50
269.3649295
51
287.5149684
0
ARC
8
DEFAULT_255_1_388
10
19.4728358
20
44.7637714
40
0.2925408
50
288.0629019
51
323.8115617
0
ARC
8
DEFAULT_255_1_388
10
19.3748334
20
44.8368754
40
0.4148018
50
323.6546541
51
342.6591359
0
ARC
8
DEFAULT_255_1_388
10
19.1462992
20
44.911228
40
0.6551163
50
342.4092446
51
353.6451501
0
ARC
8
DEFAULT_255_1_388
10
18.8277785
20
44.9508565
40
0.9760748
50
353.4027553
51
359.4846611
0
LINE
8
DEFAULT_255_1_388
10
20.9883868
20
45.6549898
11
21.1627747
21
45.6549898
0
LINE
8
DEFAULT_255_1_388
10
21.1627747
20
45.6549898
11
21.1627747
21
44.760461
0
LINE
8
DEFAULT_255_1_388
10
20.7308709
20
44.3231358
11
20.6847891
21
44.3213287
0
LINE
8
DEFAULT_255_1_388
10
20.2104178
20
44.7586539
11
20.2104178
21
45.6549898
0
LINE
8
DEFAULT_255_1_388
10
20.2104178
20
45.6549898
11
20.382095
21
45.6549898
0
LINE
8
DEFAULT_255_1_388
10
20.382095
20
45.6549898
11
20.382095
21
44.7640753
0
LINE
8
DEFAULT_255_1_388
10
20.9883868
20
44.7631717
11
20.9883868
21
45.6549898
0
ARC
8
DEFAULT_255_1_388
10
20.6730546
20
44.758227
40
0.4897252
50
343.0897723
51
0.2613727
0
ARC
8
DEFAULT_255_1_388
10
20.7662517
20
44.732227
40
0.3930016
50
315.3344451
51
342.7642569
0
ARC
8
DEFAULT_255_1_388
10
20.7411012
20
44.7583085
40
0.4292244
50
284.6605441
51
315.2183439
0
ARC
8
DEFAULT_255_1_388
10
20.6898792
20
44.9322508
40
0.6104926
50
273.8500371
51
285.1796441
0
ARC
8
DEFAULT_255_1_388
10
20.6799857
20
44.9706762
40
0.6493653
50
257.6315393
51
270.4238259
0
ARC
8
DEFAULT_255_1_388
10
20.632194
20
44.7657915
40
0.4390079
50
230.6086859
51
257.9965362
0
ARC
8
DEFAULT_255_1_388
10
20.6175998
20
44.7428643
40
0.4120404
50
227.745033
51
230.1538266
0
ARC
8
DEFAULT_255_1_388
10
20.6022528
20
44.7244253
40
0.3880742
50
189.2524335
51
227.5915299
0
ARC
8
DEFAULT_255_1_388
10
20.7734399
20
44.7612735
40
0.5630282
50
180.2665782
51
190.1525221
0
ARC
8
DEFAULT_255_1_388
10
20.7984127
20
44.7609254
40
0.4163296
50
179.566507
51
191.9954402
0
ARC
8
DEFAULT_255_1_388
10
20.6602816
20
44.7301151
40
0.274815
50
191.6974619
51
215.1403758
0
ARC
8
DEFAULT_255_1_388
10
20.6335208
20
44.7141689
40
0.2437647
50
215.6958251
51
224.8509274
0
ARC
8
DEFAULT_255_1_388
10
20.6397684
20
44.7231016
40
0.2545012
50
225.2846515
51
255.0110023
0
ARC
8
DEFAULT_255_1_388
10
20.676213
20
44.8484017
40
0.384974
50
254.5945979
51
267.9129427
0
ARC
8
DEFAULT_255_1_388
10
20.6845823
20
44.9701444
40
0.506956
50
267.4687563
51
270.0233681
0
ARC
8
DEFAULT_255_1_388
10
20.6879819
20
44.9041288
40
0.440952
50
269.5851384
51
281.1845308
0
ARC
8
DEFAULT_255_1_388
10
20.7193423
20
44.7519469
40
0.2855802
50
280.9345159
51
300.9740496
0
ARC
8
DEFAULT_255_1_388
10
20.7432603
20
44.7079128
40
0.2355257
50
301.4982546
51
315.1468616
0
ARC
8
DEFAULT_255_1_388
10
20.7270099
20
44.7212488
40
0.2564594
50
315.5952932
51
345.6679188
0
ARC
8
DEFAULT_255_1_388
10
20.6010656
20
44.7563235
40
0.3871766
50
345.2525685
51
358.6303941
0
ARC
8
DEFAULT_255_1_388
10
20.4867047
20
44.7630695
40
0.5016822
50
358.1723541
51
0.0116795
0
LINE
8
DEFAULT_255_1_388
10
22.3455406
20
45.6549898
11
22.3455406
21
45.5122267
0
LINE
8
DEFAULT_255_1_388
10
22.3455406
20
45.5122267
11
21.9226724
21
45.5122267
0
LINE
8
DEFAULT_255_1_388
10
21.9226724
20
45.5122267
11
21.9226724
21
44.3394
0
LINE
8
DEFAULT_255_1_388
10
21.9226724
20
44.3394
11
21.7500916
21
44.3394
0
LINE
8
DEFAULT_255_1_388
10
21.7500916
20
44.3394
11
21.7500916
21
45.5122267
0
LINE
8
DEFAULT_255_1_388
10
21.7500916
20
45.5122267
11
21.328127
21
45.5122267
0
LINE
8
DEFAULT_255_1_388
10
21.328127
20
45.5122267
11
21.328127
21
45.6549898
0
LINE
8
DEFAULT_255_1_388
10
21.328127
20
45.6549898
11
22.3455406
21
45.6549898
0
LINE
8
DEFAULT_255_1_388
10
23.0467066
20
45.6613148
11
23.0467066
21
44.3394
0
LINE
8
DEFAULT_255_1_388
10
23.0467066
20
44.3394
11
22.8786436
21
44.3394
0
LINE
8
DEFAULT_255_1_388
10
22.8786436
20
44.3394
11
22.8786436
21
45.453495
0
LINE
8
DEFAULT_255_1_388
10
22.8786436
20
45.453495
11
22.5416141
21
45.3297066
0
LINE
8
DEFAULT_255_1_388
10
22.5416141
20
45.3297066
11
22.5416141
21
45.4815055
0
LINE
8
DEFAULT_255_1_388
10
22.5416141
20
45.4815055
11
23.0205032
21
45.6613148
0
LINE
8
DEFAULT_255_1_388
10
23.0205032
20
45.6613148
11
23.0467066
21
45.6613148
0
LINE
8
DEFAULT_255_1_388
10
24.398439
20
44.4758382
11
24.398439
21
44.3394
0
LINE
8
DEFAULT_255_1_388
10
24.398439
20
44.3394
11
23.5364385
21
44.3394
0
LINE
8
DEFAULT_255_1_388
10
23.5364385
20
44.3394
11
23.5364385
21
44.4595741
0
LINE
8
DEFAULT_255_1_388
10
23.5364385
20
44.4595741
11
23.991835
21
44.9655702
0
LINE
8
DEFAULT_255_1_388
10
23.6782981
20
45.2673607
11
23.5111387
21
45.2673607
0
LINE
8
DEFAULT_255_1_388
10
24.0903235
20
44.858046
11
23.7379334
21
44.4758382
0
LINE
8
DEFAULT_255_1_388
10
23.7379334
20
44.4758382
11
24.398439
21
44.4758382
0
ARC
8
DEFAULT_255_1_388
10
22.474241
20
46.3075983
40
2.0258655
50
318.5132526
51
320.7829045
0
ARC
8
DEFAULT_255_1_388
10
23.0690367
20
45.8234929
40
1.2589638
50
320.7372878
51
323.9739031
0
ARC
8
DEFAULT_255_1_388
10
23.5099298
20
45.5040554
40
0.7145141
50
323.8962701
51
328.64194
0
ARC
8
DEFAULT_255_1_388
10
23.7401556
20
45.3620545
40
0.4440242
50
328.8294576
51
331.7891185
0
ARC
8
DEFAULT_255_1_388
10
23.8523876
20
45.3041374
40
0.3177517
50
331.4254512
51
352.9365785
0
ARC
8
DEFAULT_255_1_388
10
23.8676876
20
45.300705
40
0.3021496
50
353.2257659
51
0.0166158
0
ARC
8
DEFAULT_255_1_388
10
23.8913637
20
45.3032894
40
0.2784847
50
359.486299
51
15.9343185
0
ARC
8
DEFAULT_255_1_388
10
23.9483903
20
45.3186269
40
0.2194403
50
16.1712913
51
43.5286088
0
ARC
8
DEFAULT_255_1_388
10
23.9570848
20
45.3273191
40
0.2071504
50
43.4417391
51
83.1661095
0
ARC
8
DEFAULT_255_1_388
10
23.9420009
20
45.2444316
40
0.2912888
50
82.160179
51
90.1505708
0
ARC
8
DEFAULT_255_1_388
10
23.9384491
20
45.1840279
40
0.3517025
50
89.5460741
51
102.5418361
0
ARC
8
DEFAULT_255_1_388
10
23.9111211
20
45.2999933
40
0.2325748
50
102.1738499
51
129.206123
0
ARC
8
DEFAULT_255_1_388
10
23.9022664
20
45.3139664
40
0.2161591
50
129.72865
51
135.753947
0
ARC
8
DEFAULT_255_1_388
10
23.9159146
20
45.3030728
40
0.2335433
50
136.1757367
51
166.3673339
0
ARC
8
DEFAULT_255_1_388
10
24.0291835
20
45.2727148
40
0.3507873
50
165.9090694
51
178.8684636
0
ARC
8
DEFAULT_255_1_388
10
24.1267606
20
45.2674263
40
0.4484624
50
178.4391136
51
180.0083808
0
ARC
8
DEFAULT_255_1_388
10
23.9688308
20
45.2718197
40
0.4577138
50
163.2878482
51
180.5581842
0
ARC
8
DEFAULT_255_1_388
10
23.8786349
20
45.2966393
40
0.3641968
50
133.4540601
51
162.947111
0
ARC
8
DEFAULT_255_1_388
10
23.898723
20
45.2752789
40
0.3935189
50
100.7869829
51
133.4382499
0
ARC
8
DEFAULT_255_1_388
10
23.9378475
20
45.1010399
40
0.5720313
50
89.660664
51
101.3702276
0
ARC
8
DEFAULT_255_1_388
10
23.9453084
20
45.1079263
40
0.5651495
50
78.2172678
51
90.412935
0
ARC
8
DEFAULT_255_1_388
10
23.985255
20
45.2906511
40
0.378122
50
55.9269121
51
78.4888449
0
ARC
8
DEFAULT_255_1_388
10
24.0073265
20
45.3287187
40
0.3342379
50
47.929771
51
55.4049217
0
ARC
8
DEFAULT_255_1_388
10
24.0187796
20
45.3403618
40
0.3179217
50
4.334829
51
48.0560205
0
ARC
8
DEFAULT_255_1_388
10
23.8955597
20
45.3212487
40
0.442341
50
359.9251713
51
5.5971671
0
ARC
8
DEFAULT_255_1_388
10
23.9437752
20
45.3275728
40
0.3941854
50
337.8914027
51
358.9967534
0
ARC
8
DEFAULT_255_1_388
10
23.6385322
20
45.4453295
40
0.7213271
50
326.9132501
51
338.3508308
0
ARC
8
DEFAULT_255_1_388
10
23.1901434
20
45.7327105
40
1.2538973
50
319.6471833
51
327.0959558
0
ARC
8
DEFAULT_255_1_388
10
22.7588092
20
46.088505
40
1.8129975
50
317.2588228
51
319.9045804
0
LINE
8
DEFAULT_255_1_388
10
19.9854946
20
52.9753553
11
19.9854946
21
52.8922274
0
LINE
8
DEFAULT_255_1_388
10
18.9274206
20
52.8804811
11
18.9274206
21
52.9753553
0
LINE
8
DEFAULT_255_1_388
10
19.8129138
20
52.8795775
11
19.8129138
21
52.9771625
0
LINE
8
DEFAULT_255_1_388
10
19.1000014
20
52.9889088
11
19.1000014
21
52.8922274
0
ARC
8
DEFAULT_255_1_388
10
19.0132684
20
52.8877726
40
0.9722364
50
350.4878118
51
0.2625322
0
ARC
8
DEFAULT_255_1_388
10
19.2712644
20
52.8433994
40
0.7104556
50
336.0277991
51
350.5787241
0
ARC
8
DEFAULT_255_1_388
10
19.4225751
20
52.7750243
40
0.544417
50
319.887443
51
336.1331163
0
ARC
8
DEFAULT_255_1_388
10
19.4903563
20
52.7207733
40
0.4576311
50
302.4806296
51
319.6144102
0
ARC
8
DEFAULT_255_1_388
10
19.4774184
20
52.7457067
40
0.4856183
50
275.8196423
51
302.1885521
0
ARC
8
DEFAULT_255_1_388
10
19.4587046
20
52.8742466
40
0.6154183
50
269.9169897
51
276.339506
0
ARC
8
DEFAULT_255_1_388
10
19.4536646
20
52.797068
40
0.5382553
50
252.5221437
51
270.441579
0
ARC
8
DEFAULT_255_1_388
10
19.4374897
20
52.7364046
40
0.4755426
50
237.5349961
51
252.1858334
0
ARC
8
DEFAULT_255_1_388
10
19.4475273
20
52.749212
40
0.4917393
50
209.0632754
51
237.3492577
0
ARC
8
DEFAULT_255_1_388
10
19.5454599
20
52.8107104
40
0.6072464
50
205.118533
51
209.6465345
0
ARC
8
DEFAULT_255_1_388
10
19.6350601
20
52.8487174
40
0.7045164
50
188.7216633
51
204.8239753
0
ARC
8
DEFAULT_255_1_388
10
19.8597376
20
52.8865387
40
0.9323368
50
180.3722704
51
188.9253909
0
ARC
8
DEFAULT_255_1_388
10
19.8566938
20
52.9798416
40
0.929284
50
169.5253055
51
180.2766048
0
ARC
8
DEFAULT_255_1_388
10
19.6426737
20
53.0192024
40
0.7116745
50
155.8314601
51
169.5088611
0
ARC
8
DEFAULT_255_1_388
10
19.49862
20
53.0860312
40
0.5528904
50
139.6259579
51
156.0379072
0
ARC
8
DEFAULT_255_1_388
10
19.4322733
20
53.1394143
40
0.4677708
50
122.6414784
51
139.3431662
0
ARC
8
DEFAULT_255_1_388
10
19.4435988
20
53.1187787
40
0.4912586
50
93.0224537
51
122.4556091
0
ARC
8
DEFAULT_255_1_388
10
19.4557509
20
53.0101776
40
0.6003837
50
89.9756766
51
93.6340839
0
ARC
8
DEFAULT_255_1_388
10
19.4601107
20
53.0550879
40
0.5554884
50
73.7463329
51
90.4234008
0
ARC
8
DEFAULT_255_1_388
10
19.479858
20
53.1315772
40
0.4765353
50
57.663051
51
73.4516911
0
ARC
8
DEFAULT_255_1_388
10
19.4789618
20
53.1340108
40
0.4749629
50
29.1441355
51
57.4146687
0
ARC
8
DEFAULT_255_1_388
10
19.3737429
20
53.0683046
40
0.5988917
50
24.0985653
51
29.732054
0
ARC
8
DEFAULT_255_1_388
10
19.2575061
20
53.0201154
40
0.7246823
50
8.6654943
51
23.8241215
0
ARC
8
DEFAULT_255_1_388
10
19.0061479
20
52.9791037
40
0.9793537
50
359.7807044
51
8.8218476
0
ARC
8
DEFAULT_255_1_388
10
18.8771184
20
52.9819731
40
0.9358078
50
359.7054632
51
8.0359751
0
ARC
8
DEFAULT_255_1_388
10
19.2146235
20
53.0311252
40
0.5947474
50
7.8926278
51
20.2962188
0
ARC
8
DEFAULT_255_1_388
10
19.3977085
20
53.0986367
40
0.3996117
50
20.3231056
51
36.4990255
0
ARC
8
DEFAULT_255_1_388
10
19.4748383
20
53.1580399
40
0.3022818
50
36.1436715
51
85.6627846
0
ARC
8
DEFAULT_255_1_388
10
19.4565638
20
53.0410881
40
0.4203853
50
84.3845912
51
90.076054
0
ARC
8
DEFAULT_255_1_388
10
19.4517993
20
53.1153416
40
0.346157
50
89.3037228
51
109.9046209
0
ARC
8
DEFAULT_255_1_388
10
19.4413826
20
53.1583379
40
0.3022217
50
110.8229774
51
143.917961
0
ARC
8
DEFAULT_255_1_388
10
19.5464185
20
53.0781455
40
0.434348
50
143.5289166
51
163.2980252
0
ARC
8
DEFAULT_255_1_388
10
19.7610472
20
53.0106685
40
0.659321
50
163.0418884
51
174.3139873
0
ARC
8
DEFAULT_255_1_388
10
20.0315437
20
52.9794378
40
0.9315905
50
174.050934
51
179.4174954
0
ARC
8
DEFAULT_255_1_388
10
19.9747381
20
52.8875382
40
0.8747493
50
179.6928582
51
188.7908948
0
ARC
8
DEFAULT_255_1_388
10
19.6751181
20
52.8396086
40
0.5713262
50
188.6328449
51
202.5630732
0
ARC
8
DEFAULT_255_1_388
10
19.5340018
20
52.7829142
40
0.4192612
50
202.8078931
51
216.1195888
0
ARC
8
DEFAULT_255_1_388
10
19.4429535
20
52.7096479
40
0.3025752
50
215.0755613
51
264.6379773
0
ARC
8
DEFAULT_255_1_388
10
19.4572372
20
52.8031376
40
0.3970284
50
263.8464302
51
270.0830805
0
ARC
8
DEFAULT_255_1_388
10
19.4618917
20
52.7740808
40
0.3679937
50
269.3649295
51
287.5149684
0
ARC
8
DEFAULT_255_1_388
10
19.4819358
20
52.7012714
40
0.2925408
50
288.0629019
51
323.8115617
0
ARC
8
DEFAULT_255_1_388
10
19.3839334
20
52.7743754
40
0.4148018
50
323.6546541
51
342.6591359
0
ARC
8
DEFAULT_255_1_388
10
19.1553992
20
52.848728
40
0.6551163
50
342.4092446
51
353.6451501
0
ARC
8
DEFAULT_255_1_388
10
18.8368785
20
52.8883565
40
0.9760748
50
353.4027553
51
359.4846611
0
LINE
8
DEFAULT_255_1_388
10
20.9974868
20
53.5924898
11
21.1718747
21
53.5924898
0
LINE
8
DEFAULT_255_1_388
10
21.1718747
20
53.5924898
11
21.1718747
21
52.697961
0
LINE
8
DEFAULT_255_1_388
10
20.7399709
20
52.2606358
11
20.6938891
21
52.2588287
0
LINE
8
DEFAULT_255_1_388
10
20.2195178
20
52.6961539
11
20.2195178
21
53.5924898
0
LINE
8
DEFAULT_255_1_388
10
20.2195178
20
53.5924898
11
20.391195
21
53.5924898
0
LINE
8
DEFAULT_255_1_388
10
20.391195
20
53.5924898
11
20.391195
21
52.7015753
0
LINE
8
DEFAULT_255_1_388
10
20.9974868
20
52.7006717
11
20.9974868
21
53.5924898
0
ARC
8
DEFAULT_255_1_388
10
20.6821546
20
52.695727
40
0.4897252
50
343.0897723
51
0.2613727
0
ARC
8
DEFAULT_255_1_388
10
20.7753517
20
52.669727
40
0.3930016
50
315.3344451
51
342.7642569
0
ARC
8
DEFAULT_255_1_388
10
20.7502012
20
52.6958085
40
0.4292244
50
284.6605441
51
315.2183439
0
ARC
8
DEFAULT_255_1_388
10
20.6989792
20
52.8697508
40
0.6104926
50
273.8500371
51
285.1796441
0
ARC
8
DEFAULT_255_1_388
10
20.6890857
20
52.9081762
40
0.6493653
50
257.6315393
51
270.4238259
0
ARC
8
DEFAULT_255_1_388
10
20.641294
20
52.7032915
40
0.4390079
50
230.6086859
51
257.9965362
0
ARC
8
DEFAULT_255_1_388
10
20.6266998
20
52.6803643
40
0.4120404
50
227.745033
51
230.1538266
0
ARC
8
DEFAULT_255_1_388
10
20.6113528
20
52.6619253
40
0.3880742
50
189.2524335
51
227.5915299
0
ARC
8
DEFAULT_255_1_388
10
20.7825399
20
52.6987735
40
0.5630282
50
180.2665782
51
190.1525221
0
ARC
8
DEFAULT_255_1_388
10
20.8075127
20
52.6984254
40
0.4163296
50
179.566507
51
191.9954402
0
ARC
8
DEFAULT_255_1_388
10
20.6693816
20
52.6676151
40
0.274815
50
191.6974619
51
215.1403758
0
ARC
8
DEFAULT_255_1_388
10
20.6426208
20
52.6516689
40
0.2437647
50
215.6958251
51
224.8509274
0
ARC
8
DEFAULT_255_1_388
10
20.6488684
20
52.6606016
40
0.2545012
50
225.2846515
51
255.0110023
0
ARC
8
DEFAULT_255_1_388
10
20.685313
20
52.7859017
40
0.384974
50
254.5945979
51
267.9129427
0
ARC
8
DEFAULT_255_1_388
10
20.6936823
20
52.9076444
40
0.506956
50
267.4687563
51
270.0233681
0
ARC
8
DEFAULT_255_1_388
10
20.6970819
20
52.8416288
40
0.440952
50
269.5851384
51
281.1845308
0
ARC
8
DEFAULT_255_1_388
10
20.7284423
20
52.6894469
40
0.2855802
50
280.9345159
51
300.9740496
0
ARC
8
DEFAULT_255_1_388
10
20.7523603
20
52.6454128
40
0.2355257
50
301.4982546
51
315.1468616
0
ARC
8
DEFAULT_255_1_388
10
20.7361099
20
52.6587488
40
0.2564594
50
315.5952932
51
345.6679188
0
ARC
8
DEFAULT_255_1_388
10
20.6101656
20
52.6938235
40
0.3871766
50
345.2525685
51
358.6303941
0
ARC
8
DEFAULT_255_1_388
10
20.4958047
20
52.7005695
40
0.5016822
50
358.1723541
51
0.0116795
0
LINE
8
DEFAULT_255_1_388
10
22.3546406
20
53.5924898
11
22.3546406
21
53.4497267
0
LINE
8
DEFAULT_255_1_388
10
22.3546406
20
53.4497267
11
21.9317724
21
53.4497267
0
LINE
8
DEFAULT_255_1_388
10
21.9317724
20
53.4497267
11
21.9317724
21
52.2769
0
LINE
8
DEFAULT_255_1_388
10
21.9317724
20
52.2769
11
21.7591916
21
52.2769
0
LINE
8
DEFAULT_255_1_388
10
21.7591916
20
52.2769
11
21.7591916
21
53.4497267
0
LINE
8
DEFAULT_255_1_388
10
21.7591916
20
53.4497267
11
21.337227
21
53.4497267
0
LINE
8
DEFAULT_255_1_388
10
21.337227
20
53.4497267
11
21.337227
21
53.5924898
0
LINE
8
DEFAULT_255_1_388
10
21.337227
20
53.5924898
11
22.3546406
21
53.5924898
0
LINE
8
DEFAULT_255_1_388
10
23.0558066
20
53.5988148
11
23.0558066
21
52.2769
0
LINE
8
DEFAULT_255_1_388
10
23.0558066
20
52.2769
11
22.8877436
21
52.2769
0
LINE
8
DEFAULT_255_1_388
10
22.8877436
20
52.2769
11
22.8877436
21
53.390995
0
LINE
8
DEFAULT_255_1_388
10
22.8877436
20
53.390995
11
22.5507141
21
53.2672066
0
LINE
8
DEFAULT_255_1_388
10
22.5507141
20
53.2672066
11
22.5507141
21
53.4190055
0
LINE
8
DEFAULT_255_1_388
10
22.5507141
20
53.4190055
11
23.0296032
21
53.5988148
0
LINE
8
DEFAULT_255_1_388
10
23.0296032
20
53.5988148
11
23.0558066
21
53.5988148
0
LINE
8
DEFAULT_255_1_388
10
24.0949057
20
53.5988148
11
24.0949057
21
52.2769
0
LINE
8
DEFAULT_255_1_388
10
24.0949057
20
52.2769
11
23.9268427
21
52.2769
0
LINE
8
DEFAULT_255_1_388
10
23.9268427
20
52.2769
11
23.9268427
21
53.390995
0
LINE
8
DEFAULT_255_1_388
10
23.9268427
20
53.390995
11
23.5898132
21
53.2672066
0
LINE
8
DEFAULT_255_1_388
10
23.5898132
20
53.2672066
11
23.5898132
21
53.4190055
0
LINE
8
DEFAULT_255_1_388
10
23.5898132
20
53.4190055
11
24.0687023
21
53.5988148
0
LINE
8
DEFAULT_255_1_388
10
24.0687023
20
53.5988148
11
24.0949057
21
53.5988148
0
LINE
8
DEFAULT_255_1_388
10
19.9763946
20
60.9128553
11
19.9763946
21
60.8297274
0
LINE
8
DEFAULT_255_1_388
10
18.9183206
20
60.8179811
11
18.9183206
21
60.9128553
0
LINE
8
DEFAULT_255_1_388
10
19.8038138
20
60.8170775
11
19.8038138
21
60.9146625
0
LINE
8
DEFAULT_255_1_388
10
19.0909014
20
60.9264088
11
19.0909014
21
60.8297274
0
ARC
8
DEFAULT_255_1_388
10
19.0041684
20
60.8252726
40
0.9722364
50
350.4878118
51
0.2625322
0
ARC
8
DEFAULT_255_1_388
10
19.2621644
20
60.7808994
40
0.7104556
50
336.0277991
51
350.5787241
0
ARC
8
DEFAULT_255_1_388
10
19.4134751
20
60.7125243
40
0.544417
50
319.887443
51
336.1331163
0
ARC
8
DEFAULT_255_1_388
10
19.4812563
20
60.6582733
40
0.4576311
50
302.4806296
51
319.6144102
0
ARC
8
DEFAULT_255_1_388
10
19.4683184
20
60.6832067
40
0.4856183
50
275.8196423
51
302.1885521
0
ARC
8
DEFAULT_255_1_388
10
19.4496046
20
60.8117466
40
0.6154183
50
269.9169897
51
276.339506
0
ARC
8
DEFAULT_255_1_388
10
19.4445646
20
60.734568
40
0.5382553
50
252.5221437
51
270.441579
0
ARC
8
DEFAULT_255_1_388
10
19.4283897
20
60.6739046
40
0.4755426
50
237.5349961
51
252.1858334
0
ARC
8
DEFAULT_255_1_388
10
19.4384273
20
60.686712
40
0.4917393
50
209.0632754
51
237.3492577
0
ARC
8
DEFAULT_255_1_388
10
19.5363599
20
60.7482104
40
0.6072464
50
205.118533
51
209.6465345
0
ARC
8
DEFAULT_255_1_388
10
19.6259601
20
60.7862174
40
0.7045164
50
188.7216633
51
204.8239753
0
ARC
8
DEFAULT_255_1_388
10
19.8506376
20
60.8240387
40
0.9323368
50
180.3722704
51
188.9253909
0
ARC
8
DEFAULT_255_1_388
10
19.8475938
20
60.9173416
40
0.929284
50
169.5253055
51
180.2766048
0
ARC
8
DEFAULT_255_1_388
10
19.6335737
20
60.9567024
40
0.7116745
50
155.8314601
51
169.5088611
0
ARC
8
DEFAULT_255_1_388
10
19.48952
20
61.0235312
40
0.5528904
50
139.6259579
51
156.0379072
0
ARC
8
DEFAULT_255_1_388
10
19.4231733
20
61.0769143
40
0.4677708
50
122.6414784
51
139.3431662
0
ARC
8
DEFAULT_255_1_388
10
19.4344988
20
61.0562787
40
0.4912586
50
93.0224537
51
122.4556091
0
ARC
8
DEFAULT_255_1_388
10
19.4466509
20
60.9476776
40
0.6003837
50
89.9756766
51
93.6340839
0
ARC
8
DEFAULT_255_1_388
10
19.4510107
20
60.9925879
40
0.5554884
50
73.7463329
51
90.4234008
0
ARC
8
DEFAULT_255_1_388
10
19.470758
20
61.0690772
40
0.4765353
50
57.663051
51
73.4516911
0
ARC
8
DEFAULT_255_1_388
10
19.4698618
20
61.0715108
40
0.4749629
50
29.1441355
51
57.4146687
0
ARC
8
DEFAULT_255_1_388
10
19.3646429
20
61.0058046
40
0.5988917
50
24.0985653
51
29.732054
0
ARC
8
DEFAULT_255_1_388
10
19.2484061
20
60.9576154
40
0.7246823
50
8.6654943
51
23.8241215
0
ARC
8
DEFAULT_255_1_388
10
18.9970479
20
60.9166037
40
0.9793537
50
359.7807044
51
8.8218476
0
ARC
8
DEFAULT_255_1_388
10
18.8680184
20
60.9194731
40
0.9358078
50
359.7054632
51
8.0359751
0
ARC
8
DEFAULT_255_1_388
10
19.2055235
20
60.9686252
40
0.5947474
50
7.8926278
51
20.2962188
0
ARC
8
DEFAULT_255_1_388
10
19.3886085
20
61.0361367
40
0.3996117
50
20.3231056
51
36.4990255
0
ARC
8
DEFAULT_255_1_388
10
19.4657383
20
61.0955399
40
0.3022818
50
36.1436715
51
85.6627846
0
ARC
8
DEFAULT_255_1_388
10
19.4474638
20
60.9785881
40
0.4203853
50
84.3845912
51
90.076054
0
ARC
8
DEFAULT_255_1_388
10
19.4426993
20
61.0528416
40
0.346157
50
89.3037228
51
109.9046209
0
ARC
8
DEFAULT_255_1_388
10
19.4322826
20
61.0958379
40
0.3022217
50
110.8229774
51
143.917961
0
ARC
8
DEFAULT_255_1_388
10
19.5373185
20
61.0156455
40
0.434348
50
143.5289166
51
163.2980252
0
ARC
8
DEFAULT_255_1_388
10
19.7519472
20
60.9481685
40
0.659321
50
163.0418884
51
174.3139873
0
ARC
8
DEFAULT_255_1_388
10
20.0224437
20
60.9169378
40
0.9315905
50
174.050934
51
179.4174954
0
ARC
8
DEFAULT_255_1_388
10
19.9656381
20
60.8250382
40
0.8747493
50
179.6928582
51
188.7908948
0
ARC
8
DEFAULT_255_1_388
10
19.6660181
20
60.7771086
40
0.5713262
50
188.6328449
51
202.5630732
0
ARC
8
DEFAULT_255_1_388
10
19.5249018
20
60.7204142
40
0.4192612
50
202.8078931
51
216.1195888
0
ARC
8
DEFAULT_255_1_388
10
19.4338535
20
60.6471479
40
0.3025752
50
215.0755613
51
264.6379773
0
ARC
8
DEFAULT_255_1_388
10
19.4481372
20
60.7406376
40
0.3970284
50
263.8464302
51
270.0830805
0
ARC
8
DEFAULT_255_1_388
10
19.4527917
20
60.7115808
40
0.3679937
50
269.3649295
51
287.5149684
0
ARC
8
DEFAULT_255_1_388
10
19.4728358
20
60.6387714
40
0.2925408
50
288.0629019
51
323.8115617
0
ARC
8
DEFAULT_255_1_388
10
19.3748334
20
60.7118754
40
0.4148018
50
323.6546541
51
342.6591359
0
ARC
8
DEFAULT_255_1_388
10
19.1462992
20
60.786228
40
0.6551163
50
342.4092446
51
353.6451501
0
ARC
8
DEFAULT_255_1_388
10
18.8277785
20
60.8258565
40
0.9760748
50
353.4027553
51
359.4846611
0
LINE
8
DEFAULT_255_1_388
10
20.9883868
20
61.5299898
11
21.1627747
21
61.5299898
0
LINE
8
DEFAULT_255_1_388
10
21.1627747
20
61.5299898
11
21.1627747
21
60.635461
0
LINE
8
DEFAULT_255_1_388
10
20.7308709
20
60.1981358
11
20.6847891
21
60.1963287
0
LINE
8
DEFAULT_255_1_388
10
20.2104178
20
60.6336539
11
20.2104178
21
61.5299898
0
LINE
8
DEFAULT_255_1_388
10
20.2104178
20
61.5299898
11
20.382095
21
61.5299898
0
LINE
8
DEFAULT_255_1_388
10
20.382095
20
61.5299898
11
20.382095
21
60.6390753
0
LINE
8
DEFAULT_255_1_388
10
20.9883868
20
60.6381717
11
20.9883868
21
61.5299898
0
ARC
8
DEFAULT_255_1_388
10
20.6730546
20
60.633227
40
0.4897252
50
343.0897723
51
0.2613727
0
ARC
8
DEFAULT_255_1_388
10
20.7662517
20
60.607227
40
0.3930016
50
315.3344451
51
342.7642569
0
ARC
8
DEFAULT_255_1_388
10
20.7411012
20
60.6333085
40
0.4292244
50
284.6605441
51
315.2183439
0
ARC
8
DEFAULT_255_1_388
10
20.6898792
20
60.8072508
40
0.6104926
50
273.8500371
51
285.1796441
0
ARC
8
DEFAULT_255_1_388
10
20.6799857
20
60.8456762
40
0.6493653
50
257.6315393
51
270.4238259
0
ARC
8
DEFAULT_255_1_388
10
20.632194
20
60.6407915
40
0.4390079
50
230.6086859
51
257.9965362
0
ARC
8
DEFAULT_255_1_388
10
20.6175998
20
60.6178643
40
0.4120404
50
227.745033
51
230.1538266
0
ARC
8
DEFAULT_255_1_388
10
20.6022528
20
60.5994253
40
0.3880742
50
189.2524335
51
227.5915299
0
ARC
8
DEFAULT_255_1_388
10
20.7734399
20
60.6362735
40
0.5630282
50
180.2665782
51
190.1525221
0
ARC
8
DEFAULT_255_1_388
10
20.7984127
20
60.6359254
40
0.4163296
50
179.566507
51
191.9954402
0
ARC
8
DEFAULT_255_1_388
10
20.6602816
20
60.6051151
40
0.274815
50
191.6974619
51
215.1403758
0
ARC
8
DEFAULT_255_1_388
10
20.6335208
20
60.5891689
40
0.2437647
50
215.6958251
51
224.8509274
0
ARC
8
DEFAULT_255_1_388
10
20.6397684
20
60.5981016
40
0.2545012
50
225.2846515
51
255.0110023
0
ARC
8
DEFAULT_255_1_388
10
20.676213
20
60.7234017
40
0.384974
50
254.5945979
51
267.9129427
0
ARC
8
DEFAULT_255_1_388
10
20.6845823
20
60.8451444
40
0.506956
50
267.4687563
51
270.0233681
0
ARC
8
DEFAULT_255_1_388
10
20.6879819
20
60.7791288
40
0.440952
50
269.5851384
51
281.1845308
0
ARC
8
DEFAULT_255_1_388
10
20.7193423
20
60.6269469
40
0.2855802
50
280.9345159
51
300.9740496
0
ARC
8
DEFAULT_255_1_388
10
20.7432603
20
60.5829128
40
0.2355257
50
301.4982546
51
315.1468616
0
ARC
8
DEFAULT_255_1_388
10
20.7270099
20
60.5962488
40
0.2564594
50
315.5952932
51
345.6679188
0
ARC
8
DEFAULT_255_1_388
10
20.6010656
20
60.6313235
40
0.3871766
50
345.2525685
51
358.6303941
0
ARC
8
DEFAULT_255_1_388
10
20.4867047
20
60.6380695
40
0.5016822
50
358.1723541
51
0.0116795
0
LINE
8
DEFAULT_255_1_388
10
22.3455406
20
61.5299898
11
22.3455406
21
61.3872267
0
LINE
8
DEFAULT_255_1_388
10
22.3455406
20
61.3872267
11
21.9226724
21
61.3872267
0
LINE
8
DEFAULT_255_1_388
10
21.9226724
20
61.3872267
11
21.9226724
21
60.2144
0
LINE
8
DEFAULT_255_1_388
10
21.9226724
20
60.2144
11
21.7500916
21
60.2144
0
LINE
8
DEFAULT_255_1_388
10
21.7500916
20
60.2144
11
21.7500916
21
61.3872267
0
LINE
8
DEFAULT_255_1_388
10
21.7500916
20
61.3872267
11
21.328127
21
61.3872267
0
LINE
8
DEFAULT_255_1_388
10
21.328127
20
61.3872267
11
21.328127
21
61.5299898
0
LINE
8
DEFAULT_255_1_388
10
21.328127
20
61.5299898
11
22.3455406
21
61.5299898
0
LINE
8
DEFAULT_255_1_388
10
23.0467066
20
61.5363148
11
23.0467066
21
60.2144
0
LINE
8
DEFAULT_255_1_388
10
23.0467066
20
60.2144
11
22.8786436
21
60.2144
0
LINE
8
DEFAULT_255_1_388
10
22.8786436
20
60.2144
11
22.8786436
21
61.328495
0
LINE
8
DEFAULT_255_1_388
10
22.8786436
20
61.328495
11
22.5416141
21
61.2047066
0
LINE
8
DEFAULT_255_1_388
10
22.5416141
20
61.2047066
11
22.5416141
21
61.3565055
0
LINE
8
DEFAULT_255_1_388
10
22.5416141
20
61.3565055
11
23.0205032
21
61.5363148
0
LINE
8
DEFAULT_255_1_388
10
23.0205032
20
61.5363148
11
23.0467066
21
61.5363148
0
LINE
8
DEFAULT_255_1_388
10
24.3613929
20
60.992369
11
24.3613929
21
60.7755135
0
LINE
8
DEFAULT_255_1_388
10
23.5310171
20
60.7529244
11
23.5310171
21
60.9761048
0
LINE
8
DEFAULT_255_1_388
10
24.1942334
20
60.7303353
11
24.1942334
21
61.0041153
0
LINE
8
DEFAULT_255_1_388
10
23.6981766
20
61.0167652
11
23.6981766
21
60.7493102
0
ARC
8
DEFAULT_255_1_388
10
22.9836263
20
60.7700118
40
1.3777776
50
353.8440855
51
0.2287917
0
ARC
8
DEFAULT_255_1_388
10
23.505528
20
60.7117414
40
0.852639
50
344.4934746
51
353.9763743
0
ARC
8
DEFAULT_255_1_388
10
23.8422087
20
60.6160191
40
0.5026273
50
329.2803599
51
344.7473406
0
ARC
8
DEFAULT_255_1_388
10
23.9537583
20
60.5548038
40
0.3754848
50
324.9361395
51
328.6153007
0
ARC
8
DEFAULT_255_1_388
10
23.9963233
20
60.5250586
40
0.3235566
50
280.5801797
51
324.9173226
0
ARC
8
DEFAULT_255_1_388
10
23.9511861
20
60.7130236
40
0.5167077
50
269.5979457
51
281.6732777
0
ARC
8
DEFAULT_255_1_388
10
23.9430765
20
60.6995113
40
0.5032026
50
256.6228565
51
270.5105488
0
ARC
8
DEFAULT_255_1_388
10
23.8978508
20
60.5253345
40
0.3233092
50
215.8618351
51
257.2787793
0
ARC
8
DEFAULT_255_1_388
10
24.0127215
20
60.6024106
40
0.4615831
50
197.9695203
51
215.2622745
0
ARC
8
DEFAULT_255_1_388
10
24.292289
20
60.6967641
40
0.7566307
50
187.8816486
51
198.2346584
0
ARC
8
DEFAULT_255_1_388
10
24.7376129
20
60.7610453
40
1.2065653
50
180.8977266
51
188.0054894
0
ARC
8
DEFAULT_255_1_388
10
25.0426342
20
60.77254
40
1.5117443
50
180.7434591
51
181.152202
0
ARC
8
DEFAULT_255_1_388
10
24.8751338
20
60.9815371
40
1.3441277
50
173.7674302
51
180.2315596
0
ARC
8
DEFAULT_255_1_388
10
24.3669207
20
61.0389779
40
0.8326847
50
164.3058537
51
173.9000553
0
ARC
8
DEFAULT_255_1_388
10
24.0393207
20
61.1333652
40
0.4917711
50
148.7922028
51
164.5682288
0
ARC
8
DEFAULT_255_1_388
10
23.9323945
20
61.1930457
40
0.3694204
50
144.5883979
51
148.1161588
0
ARC
8
DEFAULT_255_1_388
10
23.893669
20
61.2200667
40
0.322202
50
101.6440149
51
144.5142619
0
ARC
8
DEFAULT_255_1_388
10
23.9414882
20
61.0300337
40
0.5180451
50
89.528284
51
102.5820197
0
ARC
8
DEFAULT_255_1_388
10
23.9503874
20
61.0256376
40
0.5224441
50
77.0437914
51
90.508231
0
ARC
8
DEFAULT_255_1_388
10
23.9956128
20
61.2104272
40
0.3322297
50
48.2777708
51
77.4996087
0
ARC
8
DEFAULT_255_1_388
10
24.0037868
20
61.2249557
40
0.315966
50
36.3141586
51
47.6307332
0
ARC
8
DEFAULT_255_1_388
10
23.906059
20
61.1591159
40
0.4337313
50
18.2931065
51
35.6770203
0
ARC
8
DEFAULT_255_1_388
10
23.6199431
20
61.0609107
40
0.7362203
50
8.0246996
51
18.5605636
0
ARC
8
DEFAULT_255_1_388
10
23.1515786
20
60.9917432
40
1.2096583
50
1.127539
51
8.1718423
0
ARC
8
DEFAULT_255_1_388
10
22.786692
20
60.9774374
40
1.5747719
50
0.5432713
51
1.38669
0
ARC
8
DEFAULT_255_1_388
10
22.9924298
20
61.0081163
40
1.2018103
50
359.8092569
51
4.9408001
0
ARC
8
DEFAULT_255_1_388
10
23.466088
20
61.05039
40
0.7262727
50
4.8364937
51
12.2906017
0
ARC
8
DEFAULT_255_1_388
10
23.7760344
20
61.1194485
40
0.4087324
50
12.0806994
51
23.8171225
0
ARC
8
DEFAULT_255_1_388
10
23.908074
20
61.1753508
40
0.2653719
50
24.2874621
51
31.3934353
0
ARC
8
DEFAULT_255_1_388
10
23.9671176
20
61.2139822
40
0.1948607
50
30.7407708
51
82.4658033
0
ARC
8
DEFAULT_255_1_388
10
23.9468837
20
61.1146017
40
0.2961198
50
81.1057101
51
90.2187368
0
ARC
8
DEFAULT_255_1_388
10
23.9428649
20
61.1436421
40
0.2670929
50
89.380395
51
105.6763916
0
ARC
8
DEFAULT_255_1_388
10
23.9222371
20
61.218632
40
0.1893189
50
105.7980655
51
149.7387869
0
ARC
8
DEFAULT_255_1_388
10
24.0419511
20
61.1466719
40
0.3289892
50
149.4208441
51
163.628295
0
ARC
8
DEFAULT_255_1_388
10
24.2771741
20
61.0749345
40
0.5749004
50
163.3764549
51
172.141138
0
ARC
8
DEFAULT_255_1_388
10
24.6484462
20
61.0217582
40
0.9499585
50
172.0258462
51
178.0705453
0
ARC
8
DEFAULT_255_1_388
10
24.9906015
20
61.0055682
40
1.2924734
50
177.8639301
51
179.5036263
0
ARC
8
DEFAULT_255_1_388
10
24.8687034
20
60.7452151
40
1.170534
50
179.7995545
51
185.246089
0
ARC
8
DEFAULT_255_1_388
10
24.4138627
20
60.7021404
40
0.7136613
50
185.1411911
51
193.0082205
0
ARC
8
DEFAULT_255_1_388
10
24.1164887
20
60.6318441
40
0.4080987
50
192.7897338
51
205.2507384
0
ARC
8
DEFAULT_255_1_388
10
23.9987097
20
60.5792538
40
0.2791522
50
205.8001921
51
211.2545876
0
ARC
8
DEFAULT_255_1_388
10
23.9398636
20
60.5398132
40
0.2084074
50
210.3789935
51
238.4007996
0
ARC
8
DEFAULT_255_1_388
10
23.9376722
20
60.5450786
40
0.2117943
50
239.6521916
51
265.9793852
0
ARC
8
DEFAULT_255_1_388
10
23.9472571
20
60.6207358
40
0.2879689
50
265.1324455
51
270.0603288
0
ARC
8
DEFAULT_255_1_388
10
23.9504948
20
60.5842418
40
0.2514919
50
269.3314378
51
287.2180039
0
ARC
8
DEFAULT_255_1_388
10
23.9660031
20
60.5276291
40
0.1928357
50
287.7957942
51
329.0808983
0
ARC
8
DEFAULT_255_1_388
10
23.8582788
20
60.5948651
40
0.319808
50
328.6635261
51
343.3325043
0
ARC
8
DEFAULT_255_1_388
10
23.6138246
20
60.6710195
40
0.5758408
50
343.0498092
51
351.9392499
0
ARC
8
DEFAULT_255_1_388
10
23.2237568
20
60.7285205
40
0.9701202
50
351.8071632
51
357.7957897
0
ARC
8
DEFAULT_255_1_388
10
22.8603045
20
60.7473724
40
1.3340376
50
357.5870923
51
359.2682493
0
LINE
8
DEFAULT_255_1_388
10
21.0165946
20
68.8503553
11
21.0165946
21
68.7672274
0
LINE
8
DEFAULT_255_1_388
10
19.9585206
20
68.7554811
11
19.9585206
21
68.8503553
0
LINE
8
DEFAULT_255_1_388
10
20.8440138
20
68.7545775
11
20.8440138
21
68.8521625
0
LINE
8
DEFAULT_255_1_388
10
20.1311014
20
68.8639088
11
20.1311014
21
68.7672274
0
ARC
8
DEFAULT_255_1_388
10
20.0443684
20
68.7627726
40
0.9722364
50
350.4878118
51
0.2625322
0
ARC
8
DEFAULT_255_1_388
10
20.3023644
20
68.7183994
40
0.7104556
50
336.0277991
51
350.5787241
0
ARC
8
DEFAULT_255_1_388
10
20.4536751
20
68.6500243
40
0.544417
50
319.887443
51
336.1331163
0
ARC
8
DEFAULT_255_1_388
10
20.5214563
20
68.5957733
40
0.4576311
50
302.4806296
51
319.6144102
0
ARC
8
DEFAULT_255_1_388
10
20.5085184
20
68.6207067
40
0.4856183
50
275.8196423
51
302.1885521
0
ARC
8
DEFAULT_255_1_388
10
20.4898046
20
68.7492466
40
0.6154183
50
269.9169897
51
276.339506
0
ARC
8
DEFAULT_255_1_388
10
20.4847646
20
68.672068
40
0.5382553
50
252.5221437
51
270.441579
0
ARC
8
DEFAULT_255_1_388
10
20.4685897
20
68.6114046
40
0.4755426
50
237.5349961
51
252.1858334
0
ARC
8
DEFAULT_255_1_388
10
20.4786273
20
68.624212
40
0.4917393
50
209.0632754
51
237.3492577
0
ARC
8
DEFAULT_255_1_388
10
20.5765599
20
68.6857104
40
0.6072464
50
205.118533
51
209.6465345
0
ARC
8
DEFAULT_255_1_388
10
20.6661601
20
68.7237174
40
0.7045164
50
188.7216633
51
204.8239753
0
ARC
8
DEFAULT_255_1_388
10
20.8908376
20
68.7615387
40
0.9323368
50
180.3722704
51
188.9253909
0
ARC
8
DEFAULT_255_1_388
10
20.8877938
20
68.8548416
40
0.929284
50
169.5253055
51
180.2766048
0
ARC
8
DEFAULT_255_1_388
10
20.6737737
20
68.8942024
40
0.7116745
50
155.8314601
51
169.5088611
0
ARC
8
DEFAULT_255_1_388
10
20.52972
20
68.9610312
40
0.5528904
50
139.6259579
51
156.0379072
0
ARC
8
DEFAULT_255_1_388
10
20.4633733
20
69.0144143
40
0.4677708
50
122.6414784
51
139.3431662
0
ARC
8
DEFAULT_255_1_388
10
20.4746988
20
68.9937787
40
0.4912586
50
93.0224537
51
122.4556091
0
ARC
8
DEFAULT_255_1_388
10
20.4868509
20
68.8851776
40
0.6003837
50
89.9756766
51
93.6340839
0
ARC
8
DEFAULT_255_1_388
10
20.4912107
20
68.9300879
40
0.5554884
50
73.7463329
51
90.4234008
0
ARC
8
DEFAULT_255_1_388
10
20.510958
20
69.0065772
40
0.4765353
50
57.663051
51
73.4516911
0
ARC
8
DEFAULT_255_1_388
10
20.5100618
20
69.0090108
40
0.4749629
50
29.1441355
51
57.4146687
0
ARC
8
DEFAULT_255_1_388
10
20.4048429
20
68.9433046
40
0.5988917
50
24.0985653
51
29.732054
0
ARC
8
DEFAULT_255_1_388
10
20.2886061
20
68.8951154
40
0.7246823
50
8.6654943
51
23.8241215
0
ARC
8
DEFAULT_255_1_388
10
20.0372479
20
68.8541037
40
0.9793537
50
359.7807044
51
8.8218476
0
ARC
8
DEFAULT_255_1_388
10
19.9082184
20
68.8569731
40
0.9358078
50
359.7054632
51
8.0359751
0
ARC
8
DEFAULT_255_1_388
10
20.2457235
20
68.9061252
40
0.5947474
50
7.8926278
51
20.2962188
0
ARC
8
DEFAULT_255_1_388
10
20.4288085
20
68.9736367
40
0.3996117
50
20.3231056
51
36.4990255
0
ARC
8
DEFAULT_255_1_388
10
20.5059383
20
69.0330399
40
0.3022818
50
36.1436715
51
85.6627846
0
ARC
8
DEFAULT_255_1_388
10
20.4876638
20
68.9160881
40
0.4203853
50
84.3845912
51
90.076054
0
ARC
8
DEFAULT_255_1_388
10
20.4828993
20
68.9903416
40
0.346157
50
89.3037228
51
109.9046209
0
ARC
8
DEFAULT_255_1_388
10
20.4724826
20
69.0333379
40
0.3022217
50
110.8229774
51
143.917961
0
ARC
8
DEFAULT_255_1_388
10
20.5775185
20
68.9531455
40
0.434348
50
143.5289166
51
163.2980252
0
ARC
8
DEFAULT_255_1_388
10
20.7921472
20
68.8856685
40
0.659321
50
163.0418884
51
174.3139873
0
ARC
8
DEFAULT_255_1_388
10
21.0626437
20
68.8544378
40
0.9315905
50
174.050934
51
179.4174954
0
ARC
8
DEFAULT_255_1_388
10
21.0058381
20
68.7625382
40
0.8747493
50
179.6928582
51
188.7908948
0
ARC
8
DEFAULT_255_1_388
10
20.7062181
20
68.7146086
40
0.5713262
50
188.6328449
51
202.5630732
0
ARC
8
DEFAULT_255_1_388
10
20.5651018
20
68.6579142
40
0.4192612
50
202.8078931
51
216.1195888
0
ARC
8
DEFAULT_255_1_388
10
20.4740535
20
68.5846479
40
0.3025752
50
215.0755613
51
264.6379773
0
ARC
8
DEFAULT_255_1_388
10
20.4883372
20
68.6781376
40
0.3970284
50
263.8464302
51
270.0830805
0
ARC
8
DEFAULT_255_1_388
10
20.4929917
20
68.6490808
40
0.3679937
50
269.3649295
51
287.5149684
0
ARC
8
DEFAULT_255_1_388
10
20.5130358
20
68.5762714
40
0.2925408
50
288.0629019
51
323.8115617
0
ARC
8
DEFAULT_255_1_388
10
20.4150334
20
68.6493754
40
0.4148018
50
323.6546541
51
342.6591359
0
ARC
8
DEFAULT_255_1_388
10
20.1864992
20
68.723728
40
0.6551163
50
342.4092446
51
353.6451501
0
ARC
8
DEFAULT_255_1_388
10
19.8679785
20
68.7633565
40
0.9760748
50
353.4027553
51
359.4846611
0
LINE
8
DEFAULT_255_1_388
10
22.0285868
20
69.4674898
11
22.2029747
21
69.4674898
0
LINE
8
DEFAULT_255_1_388
10
22.2029747
20
69.4674898
11
22.2029747
21
68.572961
0
LINE
8
DEFAULT_255_1_388
10
21.7710709
20
68.1356358
11
21.7249891
21
68.1338287
0
LINE
8
DEFAULT_255_1_388
10
21.2506178
20
68.5711539
11
21.2506178
21
69.4674898
0
LINE
8
DEFAULT_255_1_388
10
21.2506178
20
69.4674898
11
21.422295
21
69.4674898
0
LINE
8
DEFAULT_255_1_388
10
21.422295
20
69.4674898
11
21.422295
21
68.5765753
0
LINE
8
DEFAULT_255_1_388
10
22.0285868
20
68.5756717
11
22.0285868
21
69.4674898
0
ARC
8
DEFAULT_255_1_388
10
21.7132546
20
68.570727
40
0.4897252
50
343.0897723
51
0.2613727
0
ARC
8
DEFAULT_255_1_388
10
21.8064517
20
68.544727
40
0.3930016
50
315.3344451
51
342.7642569
0
ARC
8
DEFAULT_255_1_388
10
21.7813012
20
68.5708085
40
0.4292244
50
284.6605441
51
315.2183439
0
ARC
8
DEFAULT_255_1_388
10
21.7300792
20
68.7447508
40
0.6104926
50
273.8500371
51
285.1796441
0
ARC
8
DEFAULT_255_1_388
10
21.7201857
20
68.7831762
40
0.6493653
50
257.6315393
51
270.4238259
0
ARC
8
DEFAULT_255_1_388
10
21.672394
20
68.5782915
40
0.4390079
50
230.6086859
51
257.9965362
0
ARC
8
DEFAULT_255_1_388
10
21.6577998
20
68.5553643
40
0.4120404
50
227.745033
51
230.1538266
0
ARC
8
DEFAULT_255_1_388
10
21.6424528
20
68.5369253
40
0.3880742
50
189.2524335
51
227.5915299
0
ARC
8
DEFAULT_255_1_388
10
21.8136399
20
68.5737735
40
0.5630282
50
180.2665782
51
190.1525221
0
ARC
8
DEFAULT_255_1_388
10
21.8386127
20
68.5734254
40
0.4163296
50
179.566507
51
191.9954402
0
ARC
8
DEFAULT_255_1_388
10
21.7004816
20
68.5426151
40
0.274815
50
191.6974619
51
215.1403758
0
ARC
8
DEFAULT_255_1_388
10
21.6737208
20
68.5266689
40
0.2437647
50
215.6958251
51
224.8509274
0
ARC
8
DEFAULT_255_1_388
10
21.6799684
20
68.5356016
40
0.2545012
50
225.2846515
51
255.0110023
0
ARC
8
DEFAULT_255_1_388
10
21.716413
20
68.6609017
40
0.384974
50
254.5945979
51
267.9129427
0
ARC
8
DEFAULT_255_1_388
10
21.7247823
20
68.7826444
40
0.506956
50
267.4687563
51
270.0233681
0
ARC
8
DEFAULT_255_1_388
10
21.7281819
20
68.7166288
40
0.440952
50
269.5851384
51
281.1845308
0
ARC
8
DEFAULT_255_1_388
10
21.7595423
20
68.5644469
40
0.2855802
50
280.9345159
51
300.9740496
0
ARC
8
DEFAULT_255_1_388
10
21.7834603
20
68.5204128
40
0.2355257
50
301.4982546
51
315.1468616
0
ARC
8
DEFAULT_255_1_388
10
21.7672099
20
68.5337488
40
0.2564594
50
315.5952932
51
345.6679188
0
ARC
8
DEFAULT_255_1_388
10
21.6412656
20
68.5688235
40
0.3871766
50
345.2525685
51
358.6303941
0
ARC
8
DEFAULT_255_1_388
10
21.5269047
20
68.5755695
40
0.5016822
50
358.1723541
51
0.0116795
0
LINE
8
DEFAULT_255_1_388
10
23.3857406
20
69.4674898
11
23.3857406
21
69.3247267
0
LINE
8
DEFAULT_255_1_388
10
23.3857406
20
69.3247267
11
22.9628724
21
69.3247267
0
LINE
8
DEFAULT_255_1_388
10
22.9628724
20
69.3247267
11
22.9628724
21
68.1519
0
LINE
8
DEFAULT_255_1_388
10
22.9628724
20
68.1519
11
22.7902916
21
68.1519
0
LINE
8
DEFAULT_255_1_388
10
22.7902916
20
68.1519
11
22.7902916
21
69.3247267
0
LINE
8
DEFAULT_255_1_388
10
22.7902916
20
69.3247267
11
22.368327
21
69.3247267
0
LINE
8
DEFAULT_255_1_388
10
22.368327
20
69.3247267
11
22.368327
21
69.4674898
0
LINE
8
DEFAULT_255_1_388
10
22.368327
20
69.4674898
11
23.3857406
21
69.4674898
0
LINE
8
DEFAULT_255_1_388
10
24.3462296
20
68.9416153
11
24.3462296
21
68.8928229
0
LINE
8
DEFAULT_255_1_388
10
23.7363236
20
68.1509964
11
23.7037953
21
68.1509964
0
LINE
8
DEFAULT_255_1_388
10
23.7037953
20
68.1509964
11
23.7037953
21
68.2919525
0
LINE
8
DEFAULT_255_1_388
10
23.7037953
20
68.2919525
11
23.7390343
21
68.2919525
0
LINE
8
DEFAULT_255_1_388
10
24.1790702
20
68.909087
11
24.1790702
21
68.9759508
0
ARC
8
DEFAULT_255_1_388
10
23.8647794
20
68.9929877
40
0.4089973
50
297.4036461
51
320.0168133
0
ARC
8
DEFAULT_255_1_388
10
23.8973974
20
68.9303072
40
0.3383378
50
270.2631886
51
297.3852322
0
ARC
8
DEFAULT_255_1_388
10
23.893565
20
68.9840343
40
0.3920983
50
269.9969069
51
270.7871389
0
ARC
8
DEFAULT_255_1_388
10
23.8906973
20
68.9822737
40
0.3903482
50
254.5997295
51
270.4178147
0
ARC
8
DEFAULT_255_1_388
10
23.8746505
20
68.9187693
40
0.3248657
50
236.4717231
51
254.3539376
0
ARC
8
DEFAULT_255_1_388
10
23.8922236
20
68.9423999
40
0.3542746
50
208.4727261
51
236.2134628
0
ARC
8
DEFAULT_255_1_388
10
23.9641
20
68.9863676
40
0.4384402
50
204.3450776
51
209.0455365
0
ARC
8
DEFAULT_255_1_388
10
24.0405376
20
69.01878
40
0.5214459
50
183.9375459
51
204.1275509
0
ARC
8
DEFAULT_255_1_388
10
24.1427682
20
69.0297863
40
0.6242037
50
179.9652726
51
184.3010611
0
ARC
8
DEFAULT_255_1_388
10
24.1157227
20
69.0335004
40
0.5971675
50
166.7585952
51
180.3200491
0
ARC
8
DEFAULT_255_1_388
10
24.0205035
20
69.0541979
40
0.4997418
50
154.6954866
51
166.5679151
0
ARC
8
DEFAULT_255_1_388
10
23.9245276
20
69.1025411
40
0.3923208
50
136.3325251
51
155.0871367
0
ARC
8
DEFAULT_255_1_388
10
23.8929195
20
69.1296271
40
0.3507618
50
121.2365985
51
135.9680081
0
ARC
8
DEFAULT_255_1_388
10
23.9087259
20
69.1003541
40
0.3839917
50
96.8454764
51
120.9881329
0
ARC
8
DEFAULT_255_1_388
10
23.9251066
20
68.9950942
40
0.4904679
50
89.887204
51
97.2797758
0
ARC
8
DEFAULT_255_1_388
10
23.9310038
20
69.0668652
40
0.418725
50
70.6505767
51
90.6748382
0
ARC
8
DEFAULT_255_1_388
10
23.9457735
20
69.1246091
40
0.3593866
50
36.7493297
51
69.8220487
0
ARC
8
DEFAULT_255_1_388
10
23.8334082
20
69.0370446
40
0.5018201
50
15.3958155
51
37.0841102
0
ARC
8
DEFAULT_255_1_388
10
23.5938367
20
68.9672111
40
0.7513436
50
3.9487796
51
15.6798517
0
ARC
8
DEFAULT_255_1_388
10
23.3237009
20
68.942881
40
1.0225293
50
359.9290791
51
4.266464
0
ARC
8
DEFAULT_255_1_388
10
22.8055926
20
68.8853372
40
1.5406551
50
352.8365702
51
0.2783851
0
ARC
8
DEFAULT_255_1_388
10
23.4004157
20
68.8080664
40
0.9408425
50
341.8359339
51
352.9884057
0
ARC
8
DEFAULT_255_1_388
10
23.7625144
20
68.6860144
40
0.5587481
50
322.8579243
51
342.1527461
0
ARC
8
DEFAULT_255_1_388
10
23.8596836
20
68.619735
40
0.4413099
50
319.3348471
51
322.100194
0
ARC
8
DEFAULT_255_1_388
10
23.8248768
20
68.6546814
40
0.4904992
50
285.954114
51
318.8878716
0
ARC
8
DEFAULT_255_1_388
10
23.7431205
20
68.9145865
40
0.7628991
50
272.9280841
51
286.4924389
0
ARC
8
DEFAULT_255_1_388
10
23.7217509
20
69.168024
40
1.017132
50
270.8209173
51
273.4010121
0
ARC
8
DEFAULT_255_1_388
10
23.7317532
20
68.9632073
40
0.6712943
50
270.6214576
51
281.4062333
0
ARC
8
DEFAULT_255_1_388
10
23.7801257
20
68.731925
40
0.4350167
50
281.1852583
51
299.0622058
0
ARC
8
DEFAULT_255_1_388
10
23.8221502
20
68.6508138
40
0.3437146
50
299.5068171
51
313.1200142
0
ARC
8
DEFAULT_255_1_388
10
23.8246239
20
68.6418959
40
0.3355418
50
313.8525725
51
338.5989631
0
ARC
8
DEFAULT_255_1_388
10
23.6419367
20
68.7169576
40
0.5330317
50
338.2523315
51
351.2431701
0
ARC
8
DEFAULT_255_1_388
10
23.3707118
20
68.7630494
40
0.8081235
50
350.940933
51
357.6690137
0
ARC
8
DEFAULT_255_1_388
10
23.9208998
20
68.9883048
40
0.2581236
50
269.9447107
51
306.8249644
0
ARC
8
DEFAULT_255_1_388
10
23.89423
20
69.035906
40
0.3122948
50
305.5071046
51
327.0773808
0
ARC
8
DEFAULT_255_1_388
10
23.9075352
20
69.0252445
40
0.2953369
50
327.4106457
51
336.8396801
0
ARC
8
DEFAULT_255_1_388
10
23.5595066
20
68.9795932
40
0.6195743
50
359.663158
51
10.1176387
0
ARC
8
DEFAULT_255_1_388
10
23.7567828
20
69.0160922
40
0.4189561
50
9.9431549
51
26.7699242
0
ARC
8
DEFAULT_255_1_388
10
23.8239814
20
69.0470796
40
0.3450125
50
27.2018067
51
34.6833639
0
ARC
8
DEFAULT_255_1_388
10
23.8790427
20
69.088456
40
0.2762035
50
34.124913
51
50.30709
0
ARC
8
DEFAULT_255_1_388
10
23.929291
20
69.1485741
40
0.1978518
50
50.3850304
51
90.6705051
0
ARC
8
DEFAULT_255_1_388
10
23.9240304
20
69.1143074
40
0.2321235
50
89.2729817
51
111.9140267
0
ARC
8
DEFAULT_255_1_388
10
23.9218391
20
69.1301308
40
0.2166604
50
112.9381864
51
142.5320936
0
ARC
8
DEFAULT_255_1_388
10
23.983288
20
69.0802392
40
0.2957902
50
142.1024021
51
166.3835244
0
ARC
8
DEFAULT_255_1_388
10
24.116185
20
69.0459213
40
0.4330361
50
166.1100968
51
178.6653563
0
ARC
8
DEFAULT_255_1_388
10
24.2343776
20
69.0393061
40
0.5513642
50
178.2641888
51
180.010994
0
ARC
8
DEFAULT_255_1_388
10
24.1438277
20
69.0361136
40
0.4608248
50
179.6162225
51
191.8786013
0
ARC
8
DEFAULT_255_1_388
10
24.0065587
20
69.005759
40
0.3202502
50
191.6192934
51
215.2970746
0
ARC
8
DEFAULT_255_1_388
10
23.9826243
20
68.9914963
40
0.2924827
50
215.7258926
51
216.5355437
0
ARC
8
DEFAULT_255_1_388
10
23.9237863
20
68.9441919
40
0.2170661
50
215.7486606
51
239.9728403
0
ARC
8
DEFAULT_255_1_388
10
23.9159028
20
68.9384838
40
0.208217
50
241.065081
51
269.280972
0
ARC
8
DEFAULT_255_1_388
10
23.9206187
20
68.9940327
40
0.2638514
50
268.4083352
51
270.0069622
0
LINE
8
DEFAULT_255_1_388
10
21.0165946
20
76.7878553
11
21.0165946
21
76.7047274
0
LINE
8
DEFAULT_255_1_388
10
19.9585206
20
76.6929811
11
19.9585206
21
76.7878553
0
LINE
8
DEFAULT_255_1_388
10
20.8440138
20
76.6920775
11
20.8440138
21
76.7896625
0
LINE
8
DEFAULT_255_1_388
10
20.1311014
20
76.8014088
11
20.1311014
21
76.7047274
0
ARC
8
DEFAULT_255_1_388
10
20.0443684
20
76.7002726
40
0.9722364
50
350.4878118
51
0.2625322
0
ARC
8
DEFAULT_255_1_388
10
20.3023644
20
76.6558994
40
0.7104556
50
336.0277991
51
350.5787241
0
ARC
8
DEFAULT_255_1_388
10
20.4536751
20
76.5875243
40
0.544417
50
319.887443
51
336.1331163
0
ARC
8
DEFAULT_255_1_388
10
20.5214563
20
76.5332733
40
0.4576311
50
302.4806296
51
319.6144102
0
ARC
8
DEFAULT_255_1_388
10
20.5085184
20
76.5582067
40
0.4856183
50
275.8196423
51
302.1885521
0
ARC
8
DEFAULT_255_1_388
10
20.4898046
20
76.6867466
40
0.6154183
50
269.9169897
51
276.339506
0
ARC
8
DEFAULT_255_1_388
10
20.4847646
20
76.609568
40
0.5382553
50
252.5221437
51
270.441579
0
ARC
8
DEFAULT_255_1_388
10
20.4685897
20
76.5489046
40
0.4755426
50
237.5349961
51
252.1858334
0
ARC
8
DEFAULT_255_1_388
10
20.4786273
20
76.561712
40
0.4917393
50
209.0632754
51
237.3492577
0
ARC
8
DEFAULT_255_1_388
10
20.5765599
20
76.6232104
40
0.6072464
50
205.118533
51
209.6465345
0
ARC
8
DEFAULT_255_1_388
10
20.6661601
20
76.6612174
40
0.7045164
50
188.7216633
51
204.8239753
0
ARC
8
DEFAULT_255_1_388
10
20.8908376
20
76.6990387
40
0.9323368
50
180.3722704
51
188.9253909
0
ARC
8
DEFAULT_255_1_388
10
20.8877938
20
76.7923416
40
0.929284
50
169.5253055
51
180.2766048
0
ARC
8
DEFAULT_255_1_388
10
20.6737737
20
76.8317024
40
0.7116745
50
155.8314601
51
169.5088611
0
ARC
8
DEFAULT_255_1_388
10
20.52972
20
76.8985312
40
0.5528904
50
139.6259579
51
156.0379072
0
ARC
8
DEFAULT_255_1_388
10
20.4633733
20
76.9519143
40
0.4677708
50
122.6414784
51
139.3431662
0
ARC
8
DEFAULT_255_1_388
10
20.4746988
20
76.9312787
40
0.4912586
50
93.0224537
51
122.4556091
0
ARC
8
DEFAULT_255_1_388
10
20.4868509
20
76.8226776
40
0.6003837
50
89.9756766
51
93.6340839
0
ARC
8
DEFAULT_255_1_388
10
20.4912107
20
76.8675879
40
0.5554884
50
73.7463329
51
90.4234008
0
ARC
8
DEFAULT_255_1_388
10
20.510958
20
76.9440772
40
0.4765353
50
57.663051
51
73.4516911
0
ARC
8
DEFAULT_255_1_388
10
20.5100618
20
76.9465108
40
0.4749629
50
29.1441355
51
57.4146687
0
ARC
8
DEFAULT_255_1_388
10
20.4048429
20
76.8808046
40
0.5988917
50
24.0985653
51
29.732054
0
ARC
8
DEFAULT_255_1_388
10
20.2886061
20
76.8326154
40
0.7246823
50
8.6654943
51
23.8241215
0
ARC
8
DEFAULT_255_1_388
10
20.0372479
20
76.7916037
40
0.9793537
50
359.7807044
51
8.8218476
0
ARC
8
DEFAULT_255_1_388
10
19.9082184
20
76.7944731
40
0.9358078
50
359.7054632
51
8.0359751
0
ARC
8
DEFAULT_255_1_388
10
20.2457235
20
76.8436252
40
0.5947474
50
7.8926278
51
20.2962188
0
ARC
8
DEFAULT_255_1_388
10
20.4288085
20
76.9111367
40
0.3996117
50
20.3231056
51
36.4990255
0
ARC
8
DEFAULT_255_1_388
10
20.5059383
20
76.9705399
40
0.3022818
50
36.1436715
51
85.6627846
0
ARC
8
DEFAULT_255_1_388
10
20.4876638
20
76.8535881
40
0.4203853
50
84.3845912
51
90.076054
0
ARC
8
DEFAULT_255_1_388
10
20.4828993
20
76.9278416
40
0.346157
50
89.3037228
51
109.9046209
0
ARC
8
DEFAULT_255_1_388
10
20.4724826
20
76.9708379
40
0.3022217
50
110.8229774
51
143.917961
0
ARC
8
DEFAULT_255_1_388
10
20.5775185
20
76.8906455
40
0.434348
50
143.5289166
51
163.2980252
0
ARC
8
DEFAULT_255_1_388
10
20.7921472
20
76.8231685
40
0.659321
50
163.0418884
51
174.3139873
0
ARC
8
DEFAULT_255_1_388
10
21.0626437
20
76.7919378
40
0.9315905
50
174.050934
51
179.4174954
0
ARC
8
DEFAULT_255_1_388
10
21.0058381
20
76.7000382
40
0.8747493
50
179.6928582
51
188.7908948
0
ARC
8
DEFAULT_255_1_388
10
20.7062181
20
76.6521086
40
0.5713262
50
188.6328449
51
202.5630732
0
ARC
8
DEFAULT_255_1_388
10
20.5651018
20
76.5954142
40
0.4192612
50
202.8078931
51
216.1195888
0
ARC
8
DEFAULT_255_1_388
10
20.4740535
20
76.5221479
40
0.3025752
50
215.0755613
51
264.6379773
0
ARC
8
DEFAULT_255_1_388
10
20.4883372
20
76.6156376
40
0.3970284
50
263.8464302
51
270.0830805
0
ARC
8
DEFAULT_255_1_388
10
20.4929917
20
76.5865808
40
0.3679937
50
269.3649295
51
287.5149684
0
ARC
8
DEFAULT_255_1_388
10
20.5130358
20
76.5137714
40
0.2925408
50
288.0629019
51
323.8115617
0
ARC
8
DEFAULT_255_1_388
10
20.4150334
20
76.5868754
40
0.4148018
50
323.6546541
51
342.6591359
0
ARC
8
DEFAULT_255_1_388
10
20.1864992
20
76.661228
40
0.6551163
50
342.4092446
51
353.6451501
0
ARC
8
DEFAULT_255_1_388
10
19.8679785
20
76.7008565
40
0.9760748
50
353.4027553
51
359.4846611
0
LINE
8
DEFAULT_255_1_388
10
22.0285868
20
77.4049898
11
22.2029747
21
77.4049898
0
LINE
8
DEFAULT_255_1_388
10
22.2029747
20
77.4049898
11
22.2029747
21
76.510461
0
LINE
8
DEFAULT_255_1_388
10
21.7710709
20
76.0731358
11
21.7249891
21
76.0713287
0
LINE
8
DEFAULT_255_1_388
10
21.2506178
20
76.5086539
11
21.2506178
21
77.4049898
0
LINE
8
DEFAULT_255_1_388
10
21.2506178
20
77.4049898
11
21.422295
21
77.4049898
0
LINE
8
DEFAULT_255_1_388
10
21.422295
20
77.4049898
11
21.422295
21
76.5140753
0
LINE
8
DEFAULT_255_1_388
10
22.0285868
20
76.5131717
11
22.0285868
21
77.4049898
0
ARC
8
DEFAULT_255_1_388
10
21.7132546
20
76.508227
40
0.4897252
50
343.0897723
51
0.2613727
0
ARC
8
DEFAULT_255_1_388
10
21.8064517
20
76.482227
40
0.3930016
50
315.3344451
51
342.7642569
0
ARC
8
DEFAULT_255_1_388
10
21.7813012
20
76.5083085
40
0.4292244
50
284.6605441
51
315.2183439
0
ARC
8
DEFAULT_255_1_388
10
21.7300792
20
76.6822508
40
0.6104926
50
273.8500371
51
285.1796441
0
ARC
8
DEFAULT_255_1_388
10
21.7201857
20
76.7206762
40
0.6493653
50
257.6315393
51
270.4238259
0
ARC
8
DEFAULT_255_1_388
10
21.672394
20
76.5157915
40
0.4390079
50
230.6086859
51
257.9965362
0
ARC
8
DEFAULT_255_1_388
10
21.6577998
20
76.4928643
40
0.4120404
50
227.745033
51
230.1538266
0
ARC
8
DEFAULT_255_1_388
10
21.6424528
20
76.4744253
40
0.3880742
50
189.2524335
51
227.5915299
0
ARC
8
DEFAULT_255_1_388
10
21.8136399
20
76.5112735
40
0.5630282
50
180.2665782
51
190.1525221
0
ARC
8
DEFAULT_255_1_388
10
21.8386127
20
76.5109254
40
0.4163296
50
179.566507
51
191.9954402
0
ARC
8
DEFAULT_255_1_388
10
21.7004816
20
76.4801151
40
0.274815
50
191.6974619
51
215.1403758
0
ARC
8
DEFAULT_255_1_388
10
21.6737208
20
76.4641689
40
0.2437647
50
215.6958251
51
224.8509274
0
ARC
8
DEFAULT_255_1_388
10
21.6799684
20
76.4731016
40
0.2545012
50
225.2846515
51
255.0110023
0
ARC
8
DEFAULT_255_1_388
10
21.716413
20
76.5984017
40
0.384974
50
254.5945979
51
267.9129427
0
ARC
8
DEFAULT_255_1_388
10
21.7247823
20
76.7201444
40
0.506956
50
267.4687563
51
270.0233681
0
ARC
8
DEFAULT_255_1_388
10
21.7281819
20
76.6541288
40
0.440952
50
269.5851384
51
281.1845308
0
ARC
8
DEFAULT_255_1_388
10
21.7595423
20
76.5019469
40
0.2855802
50
280.9345159
51
300.9740496
0
ARC
8
DEFAULT_255_1_388
10
21.7834603
20
76.4579128
40
0.2355257
50
301.4982546
51
315.1468616
0
ARC
8
DEFAULT_255_1_388
10
21.7672099
20
76.4712488
40
0.2564594
50
315.5952932
51
345.6679188
0
ARC
8
DEFAULT_255_1_388
10
21.6412656
20
76.5063235
40
0.3871766
50
345.2525685
51
358.6303941
0
ARC
8
DEFAULT_255_1_388
10
21.5269047
20
76.5130695
40
0.5016822
50
358.1723541
51
0.0116795
0
LINE
8
DEFAULT_255_1_388
10
23.3857406
20
77.4049898
11
23.3857406
21
77.2622267
0
LINE
8
DEFAULT_255_1_388
10
23.3857406
20
77.2622267
11
22.9628724
21
77.2622267
0
LINE
8
DEFAULT_255_1_388
10
22.9628724
20
77.2622267
11
22.9628724
21
76.0894
0
LINE
8
DEFAULT_255_1_388
10
22.9628724
20
76.0894
11
22.7902916
21
76.0894
0
LINE
8
DEFAULT_255_1_388
10
22.7902916
20
76.0894
11
22.7902916
21
77.2622267
0
LINE
8
DEFAULT_255_1_388
10
22.7902916
20
77.2622267
11
22.368327
21
77.2622267
0
LINE
8
DEFAULT_255_1_388
10
22.368327
20
77.2622267
11
22.368327
21
77.4049898
0
LINE
8
DEFAULT_255_1_388
10
22.368327
20
77.4049898
11
23.3857406
21
77.4049898
0
ARC
8
DEFAULT_255_1_388
10
24.0178899
20
77.058772
40
0.3175098
50
338.8762533
51
0.5167111
0
ARC
8
DEFAULT_255_1_388
10
24.0368493
20
77.05366
40
0.2979894
50
325.8415285
51
338.4793574
0
ARC
8
DEFAULT_255_1_388
10
23.9929127
20
77.0841242
40
0.351452
50
296.7587686
51
325.7536481
0
ARC
8
DEFAULT_255_1_388
10
23.9600755
20
77.1395363
40
0.4157374
50
296.0927901
51
297.3613472
0
ARC
8
DEFAULT_255_1_388
10
23.989495
20
76.4012593
40
0.395855
50
47.9007294
51
67.1948823
0
ARC
8
DEFAULT_255_1_388
10
24.0115592
20
76.4289599
40
0.360516
50
35.2363914
51
47.551141
0
ARC
8
DEFAULT_255_1_388
10
24.0409996
20
76.4486093
40
0.3251343
50
359.2759765
51
35.4014143
0
ARC
8
DEFAULT_255_1_388
10
23.9571922
20
76.4403787
40
0.4089365
50
343.1293083
51
0.5775513
0
ARC
8
DEFAULT_255_1_388
10
24.0387036
20
76.4179336
40
0.3244269
50
310.8496669
51
342.7449331
0
ARC
8
DEFAULT_255_1_388
10
23.991691
20
76.4715913
40
0.3957651
50
281.5472888
51
310.9170406
0
ARC
8
DEFAULT_255_1_388
10
23.9515785
20
76.6462814
40
0.5749654
50
269.619248
51
281.9789564
0
ARC
8
DEFAULT_255_1_388
10
23.9434563
20
76.6463776
40
0.5750649
50
257.4585678
51
270.4285689
0
ARC
8
DEFAULT_255_1_388
10
23.9006083
20
76.4659741
40
0.389671
50
228.7554326
51
257.8484789
0
ARC
8
DEFAULT_255_1_388
10
23.8657568
20
76.4240228
40
0.335154
50
184.0104975
51
228.5071184
0
ARC
8
DEFAULT_255_1_388
10
23.9965961
20
76.443943
40
0.4671891
50
179.9315832
51
185.3253753
0
ARC
8
DEFAULT_255_1_388
10
23.8642473
20
76.4481592
40
0.33486
50
145.6796023
51
180.6259786
0
ARC
8
DEFAULT_255_1_388
10
23.8826239
20
76.4353271
40
0.3572723
50
115.5537685
51
145.6415986
0
ARC
8
DEFAULT_255_1_388
10
23.9209283
20
76.3667087
40
0.4357296
50
113.243307
51
116.2057839
0
ARC
8
DEFAULT_255_1_388
10
23.9037935
20
77.0864379
40
0.3549126
50
222.9549744
51
244.1370481
0
ARC
8
DEFAULT_255_1_388
10
23.8900578
20
77.0710378
40
0.3343711
50
213.3436887
51
222.6274467
0
ARC
8
DEFAULT_255_1_388
10
23.8684647
20
77.0563653
40
0.3082678
50
180.431584
51
213.271499
0
ARC
8
DEFAULT_255_1_388
10
23.9319646
20
77.0616296
40
0.3718363
50
179.9991191
51
181.1690594
0
ARC
8
DEFAULT_255_1_388
10
23.9792102
20
77.0655072
40
0.4190996
50
164.6186169
51
180.529336
0
ARC
8
DEFAULT_255_1_388
10
23.8781751
20
77.092678
40
0.3144772
50
132.2455553
51
164.5090724
0
ARC
8
DEFAULT_255_1_388
10
23.910473
20
77.056107
40
0.3632644
50
100.7053914
51
132.1386381
0
ARC
8
DEFAULT_255_1_388
10
23.9447791
20
76.9011118
40
0.5219578
50
89.6730358
51
101.2451698
0
ARC
8
DEFAULT_255_1_388
10
23.9517782
20
76.9207648
40
0.5023124
50
76.287748
51
90.4586006
0
ARC
8
DEFAULT_255_1_388
10
23.9862284
20
77.0582671
40
0.3605639
50
47.8240511
51
76.4266241
0
ARC
8
DEFAULT_255_1_388
10
24.0112668
20
77.0875599
40
0.3220463
50
6.9168387
51
47.6262497
0
ARC
8
DEFAULT_255_1_388
10
23.8778121
20
77.0629004
40
0.4575765
50
359.8415968
51
7.9697453
0
ARC
8
DEFAULT_255_1_388
10
23.9162391
20
76.4508519
40
0.2827228
50
359.445363
51
16.9256873
0
ARC
8
DEFAULT_255_1_388
10
23.9689825
20
76.4653781
40
0.2280396
50
17.2920767
51
45.4630727
0
ARC
8
DEFAULT_255_1_388
10
23.962896
20
76.4601324
40
0.2360485
50
45.30305
51
83.1920945
0
ARC
8
DEFAULT_255_1_388
10
23.9467705
20
76.3699473
40
0.3275527
50
82.2612665
51
90.1434275
0
ARC
8
DEFAULT_255_1_388
10
23.9432981
20
76.3961869
40
0.3013237
50
89.4956434
51
104.8580688
0
ARC
8
DEFAULT_255_1_388
10
23.9234171
20
76.4715455
40
0.2233867
50
104.8856641
51
135.244616
0
ARC
8
DEFAULT_255_1_388
10
23.929016
20
76.4665352
40
0.2308906
50
135.3399546
51
172.1044062
0
ARC
8
DEFAULT_255_1_388
10
24.0197685
20
76.4491667
40
0.3232034
50
171.2645637
51
180.186429
0
ARC
8
DEFAULT_255_1_388
10
24.0007689
20
76.4455426
40
0.304213
50
179.5154935
51
193.6464289
0
ARC
8
DEFAULT_255_1_388
10
23.9089365
20
76.4221473
40
0.209456
50
193.3540274
51
225.8258581
0
ARC
8
DEFAULT_255_1_388
10
23.9135237
20
76.4301076
40
0.2183738
50
226.4180634
51
255.8552336
0
ARC
8
DEFAULT_255_1_388
10
23.9423704
20
76.5354521
40
0.3275812
50
255.4654104
51
268.7987425
0
ARC
8
DEFAULT_255_1_388
10
23.947688
20
76.6296545
40
0.4218877
50
268.3449238
51
270.0094605
0
ARC
8
DEFAULT_255_1_388
10
23.9503113
20
76.5528094
40
0.3450519
50
269.5759586
51
282.0820163
0
ARC
8
DEFAULT_255_1_388
10
23.975615
20
76.4409363
40
0.2303642
50
281.752014
51
306.6056188
0
ARC
8
DEFAULT_255_1_388
10
23.9866958
20
76.4227802
40
0.2091906
50
307.1346085
51
314.027845
0
ARC
8
DEFAULT_255_1_388
10
23.982647
20
76.4257459
40
0.2141385
50
314.2552483
51
350.1694025
0
ARC
8
DEFAULT_255_1_388
10
23.8868707
20
76.4465175
40
0.312082
50
349.4140529
51
0.2933014
0
ARC
8
DEFAULT_255_1_388
10
23.9453984
20
77.0268924
40
0.2588377
50
89.477747
51
105.729729
0
ARC
8
DEFAULT_255_1_388
10
23.9300904
20
77.0837367
40
0.1999733
50
105.9233417
51
135.1660906
0
ARC
8
DEFAULT_255_1_388
10
23.9323935
20
77.0821412
40
0.2027322
50
135.3052302
51
168.9883645
0
ARC
8
DEFAULT_255_1_388
10
24.0254951
20
77.0607996
40
0.2982129
50
168.3801673
51
180.3602268
0
ARC
8
DEFAULT_255_1_388
10
23.9998068
20
77.0565622
40
0.2725291
50
179.5033122
51
194.9125571
0
ARC
8
DEFAULT_255_1_388
10
23.9339475
20
77.0392427
40
0.204431
50
194.9720816
51
224.194444
0
ARC
8
DEFAULT_255_1_388
10
23.930784
20
77.0366635
40
0.2003651
50
224.2962453
51
262.015664
0
ARC
8
DEFAULT_255_1_388
10
23.9467844
20
77.1189315
40
0.2840925
50
261.1245923
51
270.1962896
0
ARC
8
DEFAULT_255_1_388
10
23.9501325
20
77.0978859
40
0.2630559
50
269.4827276
51
285.0987215
0
ARC
8
DEFAULT_255_1_388
10
23.9674762
20
77.0328175
40
0.1957162
50
285.1585357
51
315.9484501
0
ARC
8
DEFAULT_255_1_388
10
23.9574635
20
77.0420315
40
0.2093195
50
316.0413965
51
351.916092
0
ARC
8
DEFAULT_255_1_388
10
23.8750009
20
77.0579323
40
0.2932279
50
351.105835
51
0.1939062
0
ARC
8
DEFAULT_255_1_388
10
23.9045644
20
77.0613224
40
0.2636739
50
359.4789618
51
16.0678224
0
ARC
8
DEFAULT_255_1_388
10
23.9581115
20
77.0757721
40
0.2082215
50
16.3252067
51
44.7913869
0
ARC
8
DEFAULT_255_1_388
10
23.9561177
20
77.075832
40
0.2095992
50
44.3957814
51
88.2499162
0
ARC
8
DEFAULT_255_1_388
10
23.9478512
20
77.0070006
40
0.2787189
50
86.9833854
51
90.0192215
0
LINE
8
DEFAULT_255_1_388
10
21.7186903
20
85.3424898
11
21.7186903
21
84.1687596
0
LINE
8
DEFAULT_255_1_388
10
21.7186903
20
84.1687596
11
22.3421498
21
84.1687596
0
LINE
8
DEFAULT_255_1_388
10
22.3421498
20
84.1687596
11
22.3421498
21
84.0269
0
LINE
8
DEFAULT_255_1_388
10
22.3421498
20
84.0269
11
21.5443024
21
84.0269
0
LINE
8
DEFAULT_255_1_388
10
21.5443024
20
84.0269
11
21.5443024
21
85.3424898
0
LINE
8
DEFAULT_255_1_388
10
21.5443024
20
85.3424898
11
21.7186903
21
85.3424898
0
LINE
8
DEFAULT_255_1_388
10
23.3586598
20
84.1633382
11
23.3586598
21
84.0269
0
LINE
8
DEFAULT_255_1_388
10
23.3586598
20
84.0269
11
22.4966593
21
84.0269
0
LINE
8
DEFAULT_255_1_388
10
22.4966593
20
84.0269
11
22.4966593
21
84.1470741
0
LINE
8
DEFAULT_255_1_388
10
22.4966593
20
84.1470741
11
22.9520558
21
84.6530702
0
LINE
8
DEFAULT_255_1_388
10
22.6385189
20
84.9548607
11
22.4713595
21
84.9548607
0
LINE
8
DEFAULT_255_1_388
10
23.0505443
20
84.545546
11
22.6981542
21
84.1633382
0
LINE
8
DEFAULT_255_1_388
10
22.6981542
20
84.1633382
11
23.3586598
21
84.1633382
0
ARC
8
DEFAULT_255_1_388
10
21.4344618
20
85.9950983
40
2.0258655
50
318.5132526
51
320.7829045
0
ARC
8
DEFAULT_255_1_388
10
22.0292575
20
85.5109929
40
1.2589638
50
320.7372878
51
323.9739031
0
ARC
8
DEFAULT_255_1_388
10
22.4701506
20
85.1915554
40
0.7145141
50
323.8962701
51
328.64194
0
ARC
8
DEFAULT_255_1_388
10
22.7003764
20
85.0495545
40
0.4440242
50
328.8294576
51
331.7891185
0
ARC
8
DEFAULT_255_1_388
10
22.8126084
20
84.9916374
40
0.3177517
50
331.4254512
51
352.9365785
0
ARC
8
DEFAULT_255_1_388
10
22.8279084
20
84.988205
40
0.3021496
50
353.2257659
51
0.0166158
0
ARC
8
DEFAULT_255_1_388
10
22.8515845
20
84.9907894
40
0.2784847
50
359.486299
51
15.9343185
0
ARC
8
DEFAULT_255_1_388
10
22.9086111
20
85.0061269
40
0.2194403
50
16.1712913
51
43.5286088
0
ARC
8
DEFAULT_255_1_388
10
22.9173056
20
85.0148191
40
0.2071504
50
43.4417391
51
83.1661095
0
ARC
8
DEFAULT_255_1_388
10
22.9022217
20
84.9319316
40
0.2912888
50
82.160179
51
90.1505708
0
ARC
8
DEFAULT_255_1_388
10
22.8986699
20
84.8715279
40
0.3517025
50
89.5460741
51
102.5418361
0
ARC
8
DEFAULT_255_1_388
10
22.8713419
20
84.9874933
40
0.2325748
50
102.1738499
51
129.206123
0
ARC
8
DEFAULT_255_1_388
10
22.8624872
20
85.0014664
40
0.2161591
50
129.72865
51
135.753947
0
ARC
8
DEFAULT_255_1_388
10
22.8761354
20
84.9905728
40
0.2335433
50
136.1757367
51
166.3673339
0
ARC
8
DEFAULT_255_1_388
10
22.9894043
20
84.9602148
40
0.3507873
50
165.9090694
51
178.8684636
0
ARC
8
DEFAULT_255_1_388
10
23.0869814
20
84.9549263
40
0.4484624
50
178.4391136
51
180.0083808
0
ARC
8
DEFAULT_255_1_388
10
22.9290516
20
84.9593197
40
0.4577138
50
163.2878482
51
180.5581842
0
ARC
8
DEFAULT_255_1_388
10
22.8388557
20
84.9841393
40
0.3641968
50
133.4540601
51
162.947111
0
ARC
8
DEFAULT_255_1_388
10
22.8589438
20
84.9627789
40
0.3935189
50
100.7869829
51
133.4382499
0
ARC
8
DEFAULT_255_1_388
10
22.8980683
20
84.7885399
40
0.5720313
50
89.660664
51
101.3702276
0
ARC
8
DEFAULT_255_1_388
10
22.9055292
20
84.7954263
40
0.5651495
50
78.2172678
51
90.412935
0
ARC
8
DEFAULT_255_1_388
10
22.9454758
20
84.9781511
40
0.378122
50
55.9269121
51
78.4888449
0
ARC
8
DEFAULT_255_1_388
10
22.9675473
20
85.0162187
40
0.3342379
50
47.929771
51
55.4049217
0
ARC
8
DEFAULT_255_1_388
10
22.9790004
20
85.0278618
40
0.3179217
50
4.334829
51
48.0560205
0
ARC
8
DEFAULT_255_1_388
10
22.8557805
20
85.0087487
40
0.442341
50
359.9251713
51
5.5971671
0
ARC
8
DEFAULT_255_1_388
10
22.903996
20
85.0150728
40
0.3941854
50
337.8914027
51
358.9967534
0
ARC
8
DEFAULT_255_1_388
10
22.598753
20
85.1328295
40
0.7213271
50
326.9132501
51
338.3508308
0
ARC
8
DEFAULT_255_1_388
10
22.1503642
20
85.4202105
40
1.2538973
50
319.6471833
51
327.0959558
0
ARC
8
DEFAULT_255_1_388
10
21.71903
20
85.776005
40
1.8129975
50
317.2588228
51
319.9045804
0
LINE
8
DEFAULT_255_1_388
10
24.3607128
20
84.804869
11
24.3607128
21
84.5880135
0
LINE
8
DEFAULT_255_1_388
10
23.5303371
20
84.5654244
11
23.5303371
21
84.7886048
0
LINE
8
DEFAULT_255_1_388
10
24.1935534
20
84.5428353
11
24.1935534
21
84.8166153
0
LINE
8
DEFAULT_255_1_388
10
23.6974965
20
84.8292652
11
23.6974965
21
84.5618102
0
ARC
8
DEFAULT_255_1_388
10
22.9829462
20
84.5825118
40
1.3777776
50
353.8440855
51
0.2287917
0
ARC
8
DEFAULT_255_1_388
10
23.5048479
20
84.5242414
40
0.852639
50
344.4934746
51
353.9763743
0
ARC
8
DEFAULT_255_1_388
10
23.8415286
20
84.4285191
40
0.5026273
50
329.2803599
51
344.7473406
0
ARC
8
DEFAULT_255_1_388
10
23.9530782
20
84.3673038
40
0.3754848
50
324.9361395
51
328.6153007
0
ARC
8
DEFAULT_255_1_388
10
23.9956432
20
84.3375586
40
0.3235566
50
280.5801797
51
324.9173226
0
ARC
8
DEFAULT_255_1_388
10
23.9505061
20
84.5255236
40
0.5167077
50
269.5979457
51
281.6732777
0
ARC
8
DEFAULT_255_1_388
10
23.9423964
20
84.5120113
40
0.5032026
50
256.6228565
51
270.5105488
0
ARC
8
DEFAULT_255_1_388
10
23.8971707
20
84.3378345
40
0.3233092
50
215.8618351
51
257.2787793
0
ARC
8
DEFAULT_255_1_388
10
24.0120414
20
84.4149106
40
0.4615831
50
197.9695203
51
215.2622745
0
ARC
8
DEFAULT_255_1_388
10
24.291609
20
84.5092641
40
0.7566307
50
187.8816486
51
198.2346584
0
ARC
8
DEFAULT_255_1_388
10
24.7369328
20
84.5735453
40
1.2065653
50
180.8977266
51
188.0054894
0
ARC
8
DEFAULT_255_1_388
10
25.0419542
20
84.58504
40
1.5117443
50
180.7434591
51
181.152202
0
ARC
8
DEFAULT_255_1_388
10
24.8744537
20
84.7940371
40
1.3441277
50
173.7674302
51
180.2315596
0
ARC
8
DEFAULT_255_1_388
10
24.3662406
20
84.8514779
40
0.8326847
50
164.3058537
51
173.9000553
0
ARC
8
DEFAULT_255_1_388
10
24.0386406
20
84.9458652
40
0.4917711
50
148.7922028
51
164.5682288
0
ARC
8
DEFAULT_255_1_388
10
23.9317144
20
85.0055457
40
0.3694204
50
144.5883979
51
148.1161588
0
ARC
8
DEFAULT_255_1_388
10
23.8929889
20
85.0325667
40
0.322202
50
101.6440149
51
144.5142619
0
ARC
8
DEFAULT_255_1_388
10
23.9408081
20
84.8425337
40
0.5180451
50
89.528284
51
102.5820197
0
ARC
8
DEFAULT_255_1_388
10
23.9497073
20
84.8381376
40
0.5224441
50
77.0437914
51
90.508231
0
ARC
8
DEFAULT_255_1_388
10
23.9949327
20
85.0229272
40
0.3322297
50
48.2777708
51
77.4996087
0
ARC
8
DEFAULT_255_1_388
10
24.0031067
20
85.0374557
40
0.315966
50
36.3141586
51
47.6307332
0
ARC
8
DEFAULT_255_1_388
10
23.9053789
20
84.9716159
40
0.4337313
50
18.2931065
51
35.6770203
0
ARC
8
DEFAULT_255_1_388
10
23.619263
20
84.8734107
40
0.7362203
50
8.0246996
51
18.5605636
0
ARC
8
DEFAULT_255_1_388
10
23.1508985
20
84.8042432
40
1.2096583
50
1.127539
51
8.1718423
0
ARC
8
DEFAULT_255_1_388
10
22.7860119
20
84.7899374
40
1.5747719
50
0.5432713
51
1.38669
0
ARC
8
DEFAULT_255_1_388
10
22.9917498
20
84.8206163
40
1.2018103
50
359.8092569
51
4.9408001
0
ARC
8
DEFAULT_255_1_388
10
23.4654079
20
84.86289
40
0.7262727
50
4.8364937
51
12.2906017
0
ARC
8
DEFAULT_255_1_388
10
23.7753544
20
84.9319485
40
0.4087324
50
12.0806994
51
23.8171225
0
ARC
8
DEFAULT_255_1_388
10
23.907394
20
84.9878508
40
0.2653719
50
24.2874621
51
31.3934353
0
ARC
8
DEFAULT_255_1_388
10
23.9664375
20
85.0264822
40
0.1948607
50
30.7407708
51
82.4658033
0
ARC
8
DEFAULT_255_1_388
10
23.9462036
20
84.9271017
40
0.2961198
50
81.1057101
51
90.2187368
0
ARC
8
DEFAULT_255_1_388
10
23.9421848
20
84.9561421
40
0.2670929
50
89.380395
51
105.6763916
0
ARC
8
DEFAULT_255_1_388
10
23.921557
20
85.031132
40
0.1893189
50
105.7980655
51
149.7387869
0
ARC
8
DEFAULT_255_1_388
10
24.041271
20
84.9591719
40
0.3289892
50
149.4208441
51
163.628295
0
ARC
8
DEFAULT_255_1_388
10
24.276494
20
84.8874345
40
0.5749004
50
163.3764549
51
172.141138
0
ARC
8
DEFAULT_255_1_388
10
24.6477661
20
84.8342582
40
0.9499585
50
172.0258462
51
178.0705453
0
ARC
8
DEFAULT_255_1_388
10
24.9899214
20
84.8180682
40
1.2924734
50
177.8639301
51
179.5036263
0
ARC
8
DEFAULT_255_1_388
10
24.8680233
20
84.5577151
40
1.170534
50
179.7995545
51
185.246089
0
ARC
8
DEFAULT_255_1_388
10
24.4131826
20
84.5146404
40
0.7136613
50
185.1411911
51
193.0082205
0
ARC
8
DEFAULT_255_1_388
10
24.1158087
20
84.4443441
40
0.4080987
50
192.7897338
51
205.2507384
0
ARC
8
DEFAULT_255_1_388
10
23.9980297
20
84.3917538
40
0.2791522
50
205.8001921
51
211.2545876
0
ARC
8
DEFAULT_255_1_388
10
23.9391836
20
84.3523132
40
0.2084074
50
210.3789935
51
238.4007996
0
ARC
8
DEFAULT_255_1_388
10
23.9369922
20
84.3575786
40
0.2117943
50
239.6521916
51
265.9793852
0
ARC
8
DEFAULT_255_1_388
10
23.9465771
20
84.4332358
40
0.2879689
50
265.1324455
51
270.0603288
0
ARC
8
DEFAULT_255_1_388
10
23.9498148
20
84.3967418
40
0.2514919
50
269.3314378
51
287.2180039
0
ARC
8
DEFAULT_255_1_388
10
23.965323
20
84.3401291
40
0.1928357
50
287.7957942
51
329.0808983
0
ARC
8
DEFAULT_255_1_388
10
23.8575987
20
84.4073651
40
0.319808
50
328.6635261
51
343.3325043
0
ARC
8
DEFAULT_255_1_388
10
23.6131446
20
84.4835195
40
0.5758408
50
343.0498092
51
351.9392499
0
ARC
8
DEFAULT_255_1_388
10
23.2230767
20
84.5410205
40
0.9701202
50
351.8071632
51
357.7957897
0
ARC
8
DEFAULT_255_1_388
10
22.8596244
20
84.5598724
40
1.3340376
50
357.5870923
51
359.2682493
0
LINE
8
DEFAULT_255_1_388
10
21.7186903
20
93.2799898
11
21.7186903
21
92.1062596
0
LINE
8
DEFAULT_255_1_388
10
21.7186903
20
92.1062596
11
22.3421498
21
92.1062596
0
LINE
8
DEFAULT_255_1_388
10
22.3421498
20
92.1062596
11
22.3421498
21
91.9644
0
LINE
8
DEFAULT_255_1_388
10
22.3421498
20
91.9644
11
21.5443024
21
91.9644
0
LINE
8
DEFAULT_255_1_388
10
21.5443024
20
91.9644
11
21.5443024
21
93.2799898
0
LINE
8
DEFAULT_255_1_388
10
21.5443024
20
93.2799898
11
21.7186903
21
93.2799898
0
LINE
8
DEFAULT_255_1_388
10
23.3586598
20
92.1008382
11
23.3586598
21
91.9644
0
LINE
8
DEFAULT_255_1_388
10
23.3586598
20
91.9644
11
22.4966593
21
91.9644
0
LINE
8
DEFAULT_255_1_388
10
22.4966593
20
91.9644
11
22.4966593
21
92.0845741
0
LINE
8
DEFAULT_255_1_388
10
22.4966593
20
92.0845741
11
22.9520558
21
92.5905702
0
LINE
8
DEFAULT_255_1_388
10
22.6385189
20
92.8923607
11
22.4713595
21
92.8923607
0
LINE
8
DEFAULT_255_1_388
10
23.0505443
20
92.483046
11
22.6981542
21
92.1008382
0
LINE
8
DEFAULT_255_1_388
10
22.6981542
20
92.1008382
11
23.3586598
21
92.1008382
0
ARC
8
DEFAULT_255_1_388
10
21.4344618
20
93.9325983
40
2.0258655
50
318.5132526
51
320.7829045
0
ARC
8
DEFAULT_255_1_388
10
22.0292575
20
93.4484929
40
1.2589638
50
320.7372878
51
323.9739031
0
ARC
8
DEFAULT_255_1_388
10
22.4701506
20
93.1290554
40
0.7145141
50
323.8962701
51
328.64194
0
ARC
8
DEFAULT_255_1_388
10
22.7003764
20
92.9870545
40
0.4440242
50
328.8294576
51
331.7891185
0
ARC
8
DEFAULT_255_1_388
10
22.8126084
20
92.9291374
40
0.3177517
50
331.4254512
51
352.9365785
0
ARC
8
DEFAULT_255_1_388
10
22.8279084
20
92.925705
40
0.3021496
50
353.2257659
51
0.0166158
0
ARC
8
DEFAULT_255_1_388
10
22.8515845
20
92.9282894
40
0.2784847
50
359.486299
51
15.9343185
0
ARC
8
DEFAULT_255_1_388
10
22.9086111
20
92.9436269
40
0.2194403
50
16.1712913
51
43.5286088
0
ARC
8
DEFAULT_255_1_388
10
22.9173056
20
92.9523191
40
0.2071504
50
43.4417391
51
83.1661095
0
ARC
8
DEFAULT_255_1_388
10
22.9022217
20
92.8694316
40
0.2912888
50
82.160179
51
90.1505708
0
ARC
8
DEFAULT_255_1_388
10
22.8986699
20
92.8090279
40
0.3517025
50
89.5460741
51
102.5418361
0
ARC
8
DEFAULT_255_1_388
10
22.8713419
20
92.9249933
40
0.2325748
50
102.1738499
51
129.206123
0
ARC
8
DEFAULT_255_1_388
10
22.8624872
20
92.9389664
40
0.2161591
50
129.72865
51
135.753947
0
ARC
8
DEFAULT_255_1_388
10
22.8761354
20
92.9280728
40
0.2335433
50
136.1757367
51
166.3673339
0
ARC
8
DEFAULT_255_1_388
10
22.9894043
20
92.8977148
40
0.3507873
50
165.9090694
51
178.8684636
0
ARC
8
DEFAULT_255_1_388
10
23.0869814
20
92.8924263
40
0.4484624
50
178.4391136
51
180.0083808
0
ARC
8
DEFAULT_255_1_388
10
22.9290516
20
92.8968197
40
0.4577138
50
163.2878482
51
180.5581842
0
ARC
8
DEFAULT_255_1_388
10
22.8388557
20
92.9216393
40
0.3641968
50
133.4540601
51
162.947111
0
ARC
8
DEFAULT_255_1_388
10
22.8589438
20
92.9002789
40
0.3935189
50
100.7869829
51
133.4382499
0
ARC
8
DEFAULT_255_1_388
10
22.8980683
20
92.7260399
40
0.5720313
50
89.660664
51
101.3702276
0
ARC
8
DEFAULT_255_1_388
10
22.9055292
20
92.7329263
40
0.5651495
50
78.2172678
51
90.412935
0
ARC
8
DEFAULT_255_1_388
10
22.9454758
20
92.9156511
40
0.378122
50
55.9269121
51
78.4888449
0
ARC
8
DEFAULT_255_1_388
10
22.9675473
20
92.9537187
40
0.3342379
50
47.929771
51
55.4049217
0
ARC
8
DEFAULT_255_1_388
10
22.9790004
20
92.9653618
40
0.3179217
50
4.334829
51
48.0560205
0
ARC
8
DEFAULT_255_1_388
10
22.8557805
20
92.9462487
40
0.442341
50
359.9251713
51
5.5971671
0
ARC
8
DEFAULT_255_1_388
10
22.903996
20
92.9525728
40
0.3941854
50
337.8914027
51
358.9967534
0
ARC
8
DEFAULT_255_1_388
10
22.598753
20
93.0703295
40
0.7213271
50
326.9132501
51
338.3508308
0
ARC
8
DEFAULT_255_1_388
10
22.1503642
20
93.3577105
40
1.2538973
50
319.6471833
51
327.0959558
0
ARC
8
DEFAULT_255_1_388
10
21.71903
20
93.713505
40
1.8129975
50
317.2588228
51
319.9045804
0
LINE
8
DEFAULT_255_1_388
10
24.3607128
20
92.742369
11
24.3607128
21
92.5255135
0
LINE
8
DEFAULT_255_1_388
10
23.5303371
20
92.5029244
11
23.5303371
21
92.7261048
0
LINE
8
DEFAULT_255_1_388
10
24.1935534
20
92.4803353
11
24.1935534
21
92.7541153
0
LINE
8
DEFAULT_255_1_388
10
23.6974965
20
92.7667652
11
23.6974965
21
92.4993102
0
ARC
8
DEFAULT_255_1_388
10
22.9829462
20
92.5200118
40
1.3777776
50
353.8440855
51
0.2287917
0
ARC
8
DEFAULT_255_1_388
10
23.5048479
20
92.4617414
40
0.852639
50
344.4934746
51
353.9763743
0
ARC
8
DEFAULT_255_1_388
10
23.8415286
20
92.3660191
40
0.5026273
50
329.2803599
51
344.7473406
0
ARC
8
DEFAULT_255_1_388
10
23.9530782
20
92.3048038
40
0.3754848
50
324.9361395
51
328.6153007
0
ARC
8
DEFAULT_255_1_388
10
23.9956432
20
92.2750586
40
0.3235566
50
280.5801797
51
324.9173226
0
ARC
8
DEFAULT_255_1_388
10
23.9505061
20
92.4630236
40
0.5167077
50
269.5979457
51
281.6732777
0
ARC
8
DEFAULT_255_1_388
10
23.9423964
20
92.4495113
40
0.5032026
50
256.6228565
51
270.5105488
0
ARC
8
DEFAULT_255_1_388
10
23.8971707
20
92.2753345
40
0.3233092
50
215.8618351
51
257.2787793
0
ARC
8
DEFAULT_255_1_388
10
24.0120414
20
92.3524106
40
0.4615831
50
197.9695203
51
215.2622745
0
ARC
8
DEFAULT_255_1_388
10
24.291609
20
92.4467641
40
0.7566307
50
187.8816486
51
198.2346584
0
ARC
8
DEFAULT_255_1_388
10
24.7369328
20
92.5110453
40
1.2065653
50
180.8977266
51
188.0054894
0
ARC
8
DEFAULT_255_1_388
10
25.0419542
20
92.52254
40
1.5117443
50
180.7434591
51
181.152202
0
ARC
8
DEFAULT_255_1_388
10
24.8744537
20
92.7315371
40
1.3441277
50
173.7674302
51
180.2315596
0
ARC
8
DEFAULT_255_1_388
10
24.3662406
20
92.7889779
40
0.8326847
50
164.3058537
51
173.9000553
0
ARC
8
DEFAULT_255_1_388
10
24.0386406
20
92.8833652
40
0.4917711
50
148.7922028
51
164.5682288
0
ARC
8
DEFAULT_255_1_388
10
23.9317144
20
92.9430457
40
0.3694204
50
144.5883979
51
148.1161588
0
ARC
8
DEFAULT_255_1_388
10
23.8929889
20
92.9700667
40
0.322202
50
101.6440149
51
144.5142619
0
ARC
8
DEFAULT_255_1_388
10
23.9408081
20
92.7800337
40
0.5180451
50
89.528284
51
102.5820197
0
ARC
8
DEFAULT_255_1_388
10
23.9497073
20
92.7756376
40
0.5224441
50
77.0437914
51
90.508231
0
ARC
8
DEFAULT_255_1_388
10
23.9949327
20
92.9604272
40
0.3322297
50
48.2777708
51
77.4996087
0
ARC
8
DEFAULT_255_1_388
10
24.0031067
20
92.9749557
40
0.315966
50
36.3141586
51
47.6307332
0
ARC
8
DEFAULT_255_1_388
10
23.9053789
20
92.9091159
40
0.4337313
50
18.2931065
51
35.6770203
0
ARC
8
DEFAULT_255_1_388
10
23.619263
20
92.8109107
40
0.7362203
50
8.0246996
51
18.5605636
0
ARC
8
DEFAULT_255_1_388
10
23.1508985
20
92.7417432
40
1.2096583
50
1.127539
51
8.1718423
0
ARC
8
DEFAULT_255_1_388
10
22.7860119
20
92.7274374
40
1.5747719
50
0.5432713
51
1.38669
0
ARC
8
DEFAULT_255_1_388
10
22.9917498
20
92.7581163
40
1.2018103
50
359.8092569
51
4.9408001
0
ARC
8
DEFAULT_255_1_388
10
23.4654079
20
92.80039
40
0.7262727
50
4.8364937
51
12.2906017
0
ARC
8
DEFAULT_255_1_388
10
23.7753544
20
92.8694485
40
0.4087324
50
12.0806994
51
23.8171225
0
ARC
8
DEFAULT_255_1_388
10
23.907394
20
92.9253508
40
0.2653719
50
24.2874621
51
31.3934353
0
ARC
8
DEFAULT_255_1_388
10
23.9664375
20
92.9639822
40
0.1948607
50
30.7407708
51
82.4658033
0
ARC
8
DEFAULT_255_1_388
10
23.9462036
20
92.8646017
40
0.2961198
50
81.1057101
51
90.2187368
0
ARC
8
DEFAULT_255_1_388
10
23.9421848
20
92.8936421
40
0.2670929
50
89.380395
51
105.6763916
0
ARC
8
DEFAULT_255_1_388
10
23.921557
20
92.968632
40
0.1893189
50
105.7980655
51
149.7387869
0
ARC
8
DEFAULT_255_1_388
10
24.041271
20
92.8966719
40
0.3289892
50
149.4208441
51
163.628295
0
ARC
8
DEFAULT_255_1_388
10
24.276494
20
92.8249345
40
0.5749004
50
163.3764549
51
172.141138
0
ARC
8
DEFAULT_255_1_388
10
24.6477661
20
92.7717582
40
0.9499585
50
172.0258462
51
178.0705453
0
ARC
8
DEFAULT_255_1_388
10
24.9899214
20
92.7555682
40
1.2924734
50
177.8639301
51
179.5036263
0
ARC
8
DEFAULT_255_1_388
10
24.8680233
20
92.4952151
40
1.170534
50
179.7995545
51
185.246089
0
ARC
8
DEFAULT_255_1_388
10
24.4131826
20
92.4521404
40
0.7136613
50
185.1411911
51
193.0082205
0
ARC
8
DEFAULT_255_1_388
10
24.1158087
20
92.3818441
40
0.4080987
50
192.7897338
51
205.2507384
0
ARC
8
DEFAULT_255_1_388
10
23.9980297
20
92.3292538
40
0.2791522
50
205.8001921
51
211.2545876
0
ARC
8
DEFAULT_255_1_388
10
23.9391836
20
92.2898132
40
0.2084074
50
210.3789935
51
238.4007996
0
ARC
8
DEFAULT_255_1_388
10
23.9369922
20
92.2950786
40
0.2117943
50
239.6521916
51
265.9793852
0
ARC
8
DEFAULT_255_1_388
10
23.9465771
20
92.3707358
40
0.2879689
50
265.1324455
51
270.0603288
0
ARC
8
DEFAULT_255_1_388
10
23.9498148
20
92.3342418
40
0.2514919
50
269.3314378
51
287.2180039
0
ARC
8
DEFAULT_255_1_388
10
23.965323
20
92.2776291
40
0.1928357
50
287.7957942
51
329.0808983
0
ARC
8
DEFAULT_255_1_388
10
23.8575987
20
92.3448651
40
0.319808
50
328.6635261
51
343.3325043
0
ARC
8
DEFAULT_255_1_388
10
23.6131446
20
92.4210195
40
0.5758408
50
343.0498092
51
351.9392499
0
ARC
8
DEFAULT_255_1_388
10
23.2230767
20
92.4785205
40
0.9701202
50
351.8071632
51
357.7957897
0
ARC
8
DEFAULT_255_1_388
10
22.8596244
20
92.4973724
40
1.3340376
50
357.5870923
51
359.2682493
0
LINE
8
DEFAULT_255_1_388
10
21.0165946
20
100.6003553
11
21.0165946
21
100.5172274
0
LINE
8
DEFAULT_255_1_388
10
19.9585206
20
100.5054811
11
19.9585206
21
100.6003553
0
LINE
8
DEFAULT_255_1_388
10
20.8440138
20
100.5045775
11
20.8440138
21
100.6021625
0
LINE
8
DEFAULT_255_1_388
10
20.1311014
20
100.6139088
11
20.1311014
21
100.5172274
0
ARC
8
DEFAULT_255_1_388
10
20.0443684
20
100.5127726
40
0.9722364
50
350.4878118
51
0.2625322
0
ARC
8
DEFAULT_255_1_388
10
20.3023644
20
100.4683994
40
0.7104556
50
336.0277991
51
350.5787241
0
ARC
8
DEFAULT_255_1_388
10
20.4536751
20
100.4000243
40
0.544417
50
319.887443
51
336.1331163
0
ARC
8
DEFAULT_255_1_388
10
20.5214563
20
100.3457733
40
0.4576311
50
302.4806296
51
319.6144102
0
ARC
8
DEFAULT_255_1_388
10
20.5085184
20
100.3707067
40
0.4856183
50
275.8196423
51
302.1885521
0
ARC
8
DEFAULT_255_1_388
10
20.4898046
20
100.4992466
40
0.6154183
50
269.9169897
51
276.339506
0
ARC
8
DEFAULT_255_1_388
10
20.4847646
20
100.422068
40
0.5382553
50
252.5221437
51
270.441579
0
ARC
8
DEFAULT_255_1_388
10
20.4685897
20
100.3614046
40
0.4755426
50
237.5349961
51
252.1858334
0
ARC
8
DEFAULT_255_1_388
10
20.4786273
20
100.374212
40
0.4917393
50
209.0632754
51
237.3492577
0
ARC
8
DEFAULT_255_1_388
10
20.5765599
20
100.4357104
40
0.6072464
50
205.118533
51
209.6465345
0
ARC
8
DEFAULT_255_1_388
10
20.6661601
20
100.4737174
40
0.7045164
50
188.7216633
51
204.8239753
0
ARC
8
DEFAULT_255_1_388
10
20.8908376
20
100.5115387
40
0.9323368
50
180.3722704
51
188.9253909
0
ARC
8
DEFAULT_255_1_388
10
20.8877938
20
100.6048416
40
0.929284
50
169.5253055
51
180.2766048
0
ARC
8
DEFAULT_255_1_388
10
20.6737737
20
100.6442024
40
0.7116745
50
155.8314601
51
169.5088611
0
ARC
8
DEFAULT_255_1_388
10
20.52972
20
100.7110312
40
0.5528904
50
139.6259579
51
156.0379072
0
ARC
8
DEFAULT_255_1_388
10
20.4633733
20
100.7644143
40
0.4677708
50
122.6414784
51
139.3431662
0
ARC
8
DEFAULT_255_1_388
10
20.4746988
20
100.7437787
40
0.4912586
50
93.0224537
51
122.4556091
0
ARC
8
DEFAULT_255_1_388
10
20.4868509
20
100.6351776
40
0.6003837
50
89.9756766
51
93.6340839
0
ARC
8
DEFAULT_255_1_388
10
20.4912107
20
100.6800879
40
0.5554884
50
73.7463329
51
90.4234008
0
ARC
8
DEFAULT_255_1_388
10
20.510958
20
100.7565772
40
0.4765353
50
57.663051
51
73.4516911
0
ARC
8
DEFAULT_255_1_388
10
20.5100618
20
100.7590108
40
0.4749629
50
29.1441355
51
57.4146687
0
ARC
8
DEFAULT_255_1_388
10
20.4048429
20
100.6933046
40
0.5988917
50
24.0985653
51
29.732054
0
ARC
8
DEFAULT_255_1_388
10
20.2886061
20
100.6451154
40
0.7246823
50
8.6654943
51
23.8241215
0
ARC
8
DEFAULT_255_1_388
10
20.0372479
20
100.6041037
40
0.9793537
50
359.7807044
51
8.8218476
0
ARC
8
DEFAULT_255_1_388
10
19.9082184
20
100.6069731
40
0.9358078
50
359.7054632
51
8.0359751
0
ARC
8
DEFAULT_255_1_388
10
20.2457235
20
100.6561252
40
0.5947474
50
7.8926278
51
20.2962188
0
ARC
8
DEFAULT_255_1_388
10
20.4288085
20
100.7236367
40
0.3996117
50
20.3231056
51
36.4990255
0
ARC
8
DEFAULT_255_1_388
10
20.5059383
20
100.7830399
40
0.3022818
50
36.1436715
51
85.6627846
0
ARC
8
DEFAULT_255_1_388
10
20.4876638
20
100.6660881
40
0.4203853
50
84.3845912
51
90.076054
0
ARC
8
DEFAULT_255_1_388
10
20.4828993
20
100.7403416
40
0.346157
50
89.3037228
51
109.9046209
0
ARC
8
DEFAULT_255_1_388
10
20.4724826
20
100.7833379
40
0.3022217
50
110.8229774
51
143.917961
0
ARC
8
DEFAULT_255_1_388
10
20.5775185
20
100.7031455
40
0.434348
50
143.5289166
51
163.2980252
0
ARC
8
DEFAULT_255_1_388
10
20.7921472
20
100.6356685
40
0.659321
50
163.0418884
51
174.3139873
0
ARC
8
DEFAULT_255_1_388
10
21.0626437
20
100.6044378
40
0.9315905
50
174.050934
51
179.4174954
0
ARC
8
DEFAULT_255_1_388
10
21.0058381
20
100.5125382
40
0.8747493
50
179.6928582
51
188.7908948
0
ARC
8
DEFAULT_255_1_388
10
20.7062181
20
100.4646086
40
0.5713262
50
188.6328449
51
202.5630732
0
ARC
8
DEFAULT_255_1_388
10
20.5651018
20
100.4079142
40
0.4192612
50
202.8078931
51
216.1195888
0
ARC
8
DEFAULT_255_1_388
10
20.4740535
20
100.3346479
40
0.3025752
50
215.0755613
51
264.6379773
0
ARC
8
DEFAULT_255_1_388
10
20.4883372
20
100.4281376
40
0.3970284
50
263.8464302
51
270.0830805
0
ARC
8
DEFAULT_255_1_388
10
20.4929917
20
100.3990808
40
0.3679937
50
269.3649295
51
287.5149684
0
ARC
8
DEFAULT_255_1_388
10
20.5130358
20
100.3262714
40
0.2925408
50
288.0629019
51
323.8115617
0
ARC
8
DEFAULT_255_1_388
10
20.4150334
20
100.3993754
40
0.4148018
50
323.6546541
51
342.6591359
0
ARC
8
DEFAULT_255_1_388
10
20.1864992
20
100.473728
40
0.6551163
50
342.4092446
51
353.6451501
0
ARC
8
DEFAULT_255_1_388
10
19.8679785
20
100.5133565
40
0.9760748
50
353.4027553
51
359.4846611
0
LINE
8
DEFAULT_255_1_388
10
22.0285868
20
101.2174898
11
22.2029747
21
101.2174898
0
LINE
8
DEFAULT_255_1_388
10
22.2029747
20
101.2174898
11
22.2029747
21
100.322961
0
LINE
8
DEFAULT_255_1_388
10
21.7710709
20
99.8856358
11
21.7249891
21
99.8838287
0
LINE
8
DEFAULT_255_1_388
10
21.2506178
20
100.3211539
11
21.2506178
21
101.2174898
0
LINE
8
DEFAULT_255_1_388
10
21.2506178
20
101.2174898
11
21.422295
21
101.2174898
0
LINE
8
DEFAULT_255_1_388
10
21.422295
20
101.2174898
11
21.422295
21
100.3265753
0
LINE
8
DEFAULT_255_1_388
10
22.0285868
20
100.3256717
11
22.0285868
21
101.2174898
0
ARC
8
DEFAULT_255_1_388
10
21.7132546
20
100.320727
40
0.4897252
50
343.0897723
51
0.2613727
0
ARC
8
DEFAULT_255_1_388
10
21.8064517
20
100.294727
40
0.3930016
50
315.3344451
51
342.7642569
0
ARC
8
DEFAULT_255_1_388
10
21.7813012
20
100.3208085
40
0.4292244
50
284.6605441
51
315.2183439
0
ARC
8
DEFAULT_255_1_388
10
21.7300792
20
100.4947508
40
0.6104926
50
273.8500371
51
285.1796441
0
ARC
8
DEFAULT_255_1_388
10
21.7201857
20
100.5331762
40
0.6493653
50
257.6315393
51
270.4238259
0
ARC
8
DEFAULT_255_1_388
10
21.672394
20
100.3282915
40
0.4390079
50
230.6086859
51
257.9965362
0
ARC
8
DEFAULT_255_1_388
10
21.6577998
20
100.3053643
40
0.4120404
50
227.745033
51
230.1538266
0
ARC
8
DEFAULT_255_1_388
10
21.6424528
20
100.2869253
40
0.3880742
50
189.2524335
51
227.5915299
0
ARC
8
DEFAULT_255_1_388
10
21.8136399
20
100.3237735
40
0.5630282
50
180.2665782
51
190.1525221
0
ARC
8
DEFAULT_255_1_388
10
21.8386127
20
100.3234254
40
0.4163296
50
179.566507
51
191.9954402
0
ARC
8
DEFAULT_255_1_388
10
21.7004816
20
100.2926151
40
0.274815
50
191.6974619
51
215.1403758
0
ARC
8
DEFAULT_255_1_388
10
21.6737208
20
100.2766689
40
0.2437647
50
215.6958251
51
224.8509274
0
ARC
8
DEFAULT_255_1_388
10
21.6799684
20
100.2856016
40
0.2545012
50
225.2846515
51
255.0110023
0
ARC
8
DEFAULT_255_1_388
10
21.716413
20
100.4109017
40
0.384974
50
254.5945979
51
267.9129427
0
ARC
8
DEFAULT_255_1_388
10
21.7247823
20
100.5326444
40
0.506956
50
267.4687563
51
270.0233681
0
ARC
8
DEFAULT_255_1_388
10
21.7281819
20
100.4666288
40
0.440952
50
269.5851384
51
281.1845308
0
ARC
8
DEFAULT_255_1_388
10
21.7595423
20
100.3144469
40
0.2855802
50
280.9345159
51
300.9740496
0
ARC
8
DEFAULT_255_1_388
10
21.7834603
20
100.2704128
40
0.2355257
50
301.4982546
51
315.1468616
0
ARC
8
DEFAULT_255_1_388
10
21.7672099
20
100.2837488
40
0.2564594
50
315.5952932
51
345.6679188
0
ARC
8
DEFAULT_255_1_388
10
21.6412656
20
100.3188235
40
0.3871766
50
345.2525685
51
358.6303941
0
ARC
8
DEFAULT_255_1_388
10
21.5269047
20
100.3255695
40
0.5016822
50
358.1723541
51
0.0116795
0
LINE
8
DEFAULT_255_1_388
10
23.3857406
20
101.2174898
11
23.3857406
21
101.0747267
0
LINE
8
DEFAULT_255_1_388
10
23.3857406
20
101.0747267
11
22.9628724
21
101.0747267
0
LINE
8
DEFAULT_255_1_388
10
22.9628724
20
101.0747267
11
22.9628724
21
99.9019
0
LINE
8
DEFAULT_255_1_388
10
22.9628724
20
99.9019
11
22.7902916
21
99.9019
0
LINE
8
DEFAULT_255_1_388
10
22.7902916
20
99.9019
11
22.7902916
21
101.0747267
0
LINE
8
DEFAULT_255_1_388
10
22.7902916
20
101.0747267
11
22.368327
21
101.0747267
0
LINE
8
DEFAULT_255_1_388
10
22.368327
20
101.0747267
11
22.368327
21
101.2174898
0
LINE
8
DEFAULT_255_1_388
10
22.368327
20
101.2174898
11
23.3857406
21
101.2174898
0
LINE
8
DEFAULT_255_1_388
10
24.38689
20
101.2174898
11
24.38689
21
101.1235191
0
LINE
8
DEFAULT_255_1_388
10
24.38689
20
101.1235191
11
23.8420406
21
99.9019
0
LINE
8
DEFAULT_255_1_388
10
23.8420406
20
99.9019
11
23.6667491
21
99.9019
0
LINE
8
DEFAULT_255_1_388
10
23.6667491
20
99.9019
11
24.2097914
21
101.080148
0
LINE
8
DEFAULT_255_1_388
10
24.2097914
20
101.080148
11
23.4977826
21
101.080148
0
LINE
8
DEFAULT_255_1_388
10
23.4977826
20
101.080148
11
23.4977826
21
101.2174898
0
LINE
8
DEFAULT_255_1_388
10
23.4977826
20
101.2174898
11
24.38689
21
101.2174898
0
LINE
8
DEFAULT_255_1_388
10
21.0165946
20
108.5378553
11
21.0165946
21
108.4547274
0
LINE
8
DEFAULT_255_1_388
10
19.9585206
20
108.4429811
11
19.9585206
21
108.5378553
0
LINE
8
DEFAULT_255_1_388
10
20.8440138
20
108.4420775
11
20.8440138
21
108.5396625
0
LINE
8
DEFAULT_255_1_388
10
20.1311014
20
108.5514088
11
20.1311014
21
108.4547274
0
ARC
8
DEFAULT_255_1_388
10
20.0443684
20
108.4502726
40
0.9722364
50
350.4878118
51
0.2625322
0
ARC
8
DEFAULT_255_1_388
10
20.3023644
20
108.4058994
40
0.7104556
50
336.0277991
51
350.5787241
0
ARC
8
DEFAULT_255_1_388
10
20.4536751
20
108.3375243
40
0.544417
50
319.887443
51
336.1331163
0
ARC
8
DEFAULT_255_1_388
10
20.5214563
20
108.2832733
40
0.4576311
50
302.4806296
51
319.6144102
0
ARC
8
DEFAULT_255_1_388
10
20.5085184
20
108.3082067
40
0.4856183
50
275.8196423
51
302.1885521
0
ARC
8
DEFAULT_255_1_388
10
20.4898046
20
108.4367466
40
0.6154183
50
269.9169897
51
276.339506
0
ARC
8
DEFAULT_255_1_388
10
20.4847646
20
108.359568
40
0.5382553
50
252.5221437
51
270.441579
0
ARC
8
DEFAULT_255_1_388
10
20.4685897
20
108.2989046
40
0.4755426
50
237.5349961
51
252.1858334
0
ARC
8
DEFAULT_255_1_388
10
20.4786273
20
108.311712
40
0.4917393
50
209.0632754
51
237.3492577
0
ARC
8
DEFAULT_255_1_388
10
20.5765599
20
108.3732104
40
0.6072464
50
205.118533
51
209.6465345
0
ARC
8
DEFAULT_255_1_388
10
20.6661601
20
108.4112174
40
0.7045164
50
188.7216633
51
204.8239753
0
ARC
8
DEFAULT_255_1_388
10
20.8908376
20
108.4490387
40
0.9323368
50
180.3722704
51
188.9253909
0
ARC
8
DEFAULT_255_1_388
10
20.8877938
20
108.5423416
40
0.929284
50
169.5253055
51
180.2766048
0
ARC
8
DEFAULT_255_1_388
10
20.6737737
20
108.5817024
40
0.7116745
50
155.8314601
51
169.5088611
0
ARC
8
DEFAULT_255_1_388
10
20.52972
20
108.6485312
40
0.5528904
50
139.6259579
51
156.0379072
0
ARC
8
DEFAULT_255_1_388
10
20.4633733
20
108.7019143
40
0.4677708
50
122.6414784
51
139.3431662
0
ARC
8
DEFAULT_255_1_388
10
20.4746988
20
108.6812787
40
0.4912586
50
93.0224537
51
122.4556091
0
ARC
8
DEFAULT_255_1_388
10
20.4868509
20
108.5726776
40
0.6003837
50
89.9756766
51
93.6340839
0
ARC
8
DEFAULT_255_1_388
10
20.4912107
20
108.6175879
40
0.5554884
50
73.7463329
51
90.4234008
0
ARC
8
DEFAULT_255_1_388
10
20.510958
20
108.6940772
40
0.4765353
50
57.663051
51
73.4516911
0
ARC
8
DEFAULT_255_1_388
10
20.5100618
20
108.6965108
40
0.4749629
50
29.1441355
51
57.4146687
0
ARC
8
DEFAULT_255_1_388
10
20.4048429
20
108.6308046
40
0.5988917
50
24.0985653
51
29.732054
0
ARC
8
DEFAULT_255_1_388
10
20.2886061
20
108.5826154
40
0.7246823
50
8.6654943
51
23.8241215
0
ARC
8
DEFAULT_255_1_388
10
20.0372479
20
108.5416037
40
0.9793537
50
359.7807044
51
8.8218476
0
ARC
8
DEFAULT_255_1_388
10
19.9082184
20
108.5444731
40
0.9358078
50
359.7054632
51
8.0359751
0
ARC
8
DEFAULT_255_1_388
10
20.2457235
20
108.5936252
40
0.5947474
50
7.8926278
51
20.2962188
0
ARC
8
DEFAULT_255_1_388
10
20.4288085
20
108.6611367
40
0.3996117
50
20.3231056
51
36.4990255
0
ARC
8
DEFAULT_255_1_388
10
20.5059383
20
108.7205399
40
0.3022818
50
36.1436715
51
85.6627846
0
ARC
8
DEFAULT_255_1_388
10
20.4876638
20
108.6035881
40
0.4203853
50
84.3845912
51
90.076054
0
ARC
8
DEFAULT_255_1_388
10
20.4828993
20
108.6778416
40
0.346157
50
89.3037228
51
109.9046209
0
ARC
8
DEFAULT_255_1_388
10
20.4724826
20
108.7208379
40
0.3022217
50
110.8229774
51
143.917961
0
ARC
8
DEFAULT_255_1_388
10
20.5775185
20
108.6406455
40
0.434348
50
143.5289166
51
163.2980252
0
ARC
8
DEFAULT_255_1_388
10
20.7921472
20
108.5731685
40
0.659321
50
163.0418884
51
174.3139873
0
ARC
8
DEFAULT_255_1_388
10
21.0626437
20
108.5419378
40
0.9315905
50
174.050934
51
179.4174954
0
ARC
8
DEFAULT_255_1_388
10
21.0058381
20
108.4500382
40
0.8747493
50
179.6928582
51
188.7908948
0
ARC
8
DEFAULT_255_1_388
10
20.7062181
20
108.4021086
40
0.5713262
50
188.6328449
51
202.5630732
0
ARC
8
DEFAULT_255_1_388
10
20.5651018
20
108.3454142
40
0.4192612
50
202.8078931
51
216.1195888
0
ARC
8
DEFAULT_255_1_388
10
20.4740535
20
108.2721479
40
0.3025752
50
215.0755613
51
264.6379773
0
ARC
8
DEFAULT_255_1_388
10
20.4883372
20
108.3656376
40
0.3970284
50
263.8464302
51
270.0830805
0
ARC
8
DEFAULT_255_1_388
10
20.4929917
20
108.3365808
40
0.3679937
50
269.3649295
51
287.5149684
0
ARC
8
DEFAULT_255_1_388
10
20.5130358
20
108.2637714
40
0.2925408
50
288.0629019
51
323.8115617
0
ARC
8
DEFAULT_255_1_388
10
20.4150334
20
108.3368754
40
0.4148018
50
323.6546541
51
342.6591359
0
ARC
8
DEFAULT_255_1_388
10
20.1864992
20
108.411228
40
0.6551163
50
342.4092446
51
353.6451501
0
ARC
8
DEFAULT_255_1_388
10
19.8679785
20
108.4508565
40
0.9760748
50
353.4027553
51
359.4846611
0
LINE
8
DEFAULT_255_1_388
10
22.0285868
20
109.1549898
11
22.2029747
21
109.1549898
0
LINE
8
DEFAULT_255_1_388
10
22.2029747
20
109.1549898
11
22.2029747
21
108.260461
0
LINE
8
DEFAULT_255_1_388
10
21.7710709
20
107.8231358
11
21.7249891
21
107.8213287
0
LINE
8
DEFAULT_255_1_388
10
21.2506178
20
108.2586539
11
21.2506178
21
109.1549898
0
LINE
8
DEFAULT_255_1_388
10
21.2506178
20
109.1549898
11
21.422295
21
109.1549898
0
LINE
8
DEFAULT_255_1_388
10
21.422295
20
109.1549898
11
21.422295
21
108.2640753
0
LINE
8
DEFAULT_255_1_388
10
22.0285868
20
108.2631717
11
22.0285868
21
109.1549898
0
ARC
8
DEFAULT_255_1_388
10
21.7132546
20
108.258227
40
0.4897252
50
343.0897723
51
0.2613727
0
ARC
8
DEFAULT_255_1_388
10
21.8064517
20
108.232227
40
0.3930016
50
315.3344451
51
342.7642569
0
ARC
8
DEFAULT_255_1_388
10
21.7813012
20
108.2583085
40
0.4292244
50
284.6605441
51
315.2183439
0
ARC
8
DEFAULT_255_1_388
10
21.7300792
20
108.4322508
40
0.6104926
50
273.8500371
51
285.1796441
0
ARC
8
DEFAULT_255_1_388
10
21.7201857
20
108.4706762
40
0.6493653
50
257.6315393
51
270.4238259
0
ARC
8
DEFAULT_255_1_388
10
21.672394
20
108.2657915
40
0.4390079
50
230.6086859
51
257.9965362
0
ARC
8
DEFAULT_255_1_388
10
21.6577998
20
108.2428643
40
0.4120404
50
227.745033
51
230.1538266
0
ARC
8
DEFAULT_255_1_388
10
21.6424528
20
108.2244253
40
0.3880742
50
189.2524335
51
227.5915299
0
ARC
8
DEFAULT_255_1_388
10
21.8136399
20
108.2612735
40
0.5630282
50
180.2665782
51
190.1525221
0
ARC
8
DEFAULT_255_1_388
10
21.8386127
20
108.2609254
40
0.4163296
50
179.566507
51
191.9954402
0
ARC
8
DEFAULT_255_1_388
10
21.7004816
20
108.2301151
40
0.274815
50
191.6974619
51
215.1403758
0
ARC
8
DEFAULT_255_1_388
10
21.6737208
20
108.2141689
40
0.2437647
50
215.6958251
51
224.8509274
0
ARC
8
DEFAULT_255_1_388
10
21.6799684
20
108.2231016
40
0.2545012
50
225.2846515
51
255.0110023
0
ARC
8
DEFAULT_255_1_388
10
21.716413
20
108.3484017
40
0.384974
50
254.5945979
51
267.9129427
0
ARC
8
DEFAULT_255_1_388
10
21.7247823
20
108.4701444
40
0.506956
50
267.4687563
51
270.0233681
0
ARC
8
DEFAULT_255_1_388
10
21.7281819
20
108.4041288
40
0.440952
50
269.5851384
51
281.1845308
0
ARC
8
DEFAULT_255_1_388
10
21.7595423
20
108.2519469
40
0.2855802
50
280.9345159
51
300.9740496
0
ARC
8
DEFAULT_255_1_388
10
21.7834603
20
108.2079128
40
0.2355257
50
301.4982546
51
315.1468616
0
ARC
8
DEFAULT_255_1_388
10
21.7672099
20
108.2212488
40
0.2564594
50
315.5952932
51
345.6679188
0
ARC
8
DEFAULT_255_1_388
10
21.6412656
20
108.2563235
40
0.3871766
50
345.2525685
51
358.6303941
0
ARC
8
DEFAULT_255_1_388
10
21.5269047
20
108.2630695
40
0.5016822
50
358.1723541
51
0.0116795
0
LINE
8
DEFAULT_255_1_388
10
23.3857406
20
109.1549898
11
23.3857406
21
109.0122267
0
LINE
8
DEFAULT_255_1_388
10
23.3857406
20
109.0122267
11
22.9628724
21
109.0122267
0
LINE
8
DEFAULT_255_1_388
10
22.9628724
20
109.0122267
11
22.9628724
21
107.8394
0
LINE
8
DEFAULT_255_1_388
10
22.9628724
20
107.8394
11
22.7902916
21
107.8394
0
LINE
8
DEFAULT_255_1_388
10
22.7902916
20
107.8394
11
22.7902916
21
109.0122267
0
LINE
8
DEFAULT_255_1_388
10
22.7902916
20
109.0122267
11
22.368327
21
109.0122267
0
LINE
8
DEFAULT_255_1_388
10
22.368327
20
109.0122267
11
22.368327
21
109.1549898
0
LINE
8
DEFAULT_255_1_388
10
22.368327
20
109.1549898
11
23.3857406
21
109.1549898
0
LINE
8
DEFAULT_255_1_388
10
24.1637096
20
109.1558934
11
24.1935272
21
109.1558934
0
LINE
8
DEFAULT_255_1_388
10
24.1935272
20
109.1558934
11
24.1935272
21
109.0140338
0
LINE
8
DEFAULT_255_1_388
10
24.1935272
20
109.0140338
11
24.162806
21
109.0140338
0
LINE
8
DEFAULT_255_1_388
10
23.5474786
20
108.3399747
11
23.5474786
21
108.4041278
0
LINE
8
DEFAULT_255_1_388
10
23.7155416
20
108.3824422
11
23.7155416
21
108.3209999
0
ARC
8
DEFAULT_255_1_388
10
24.1686952
20
108.4517826
40
0.562282
50
90.6001079
51
104.5146616
0
ARC
8
DEFAULT_255_1_388
10
24.1249911
20
108.61431
40
0.3939917
50
104.2855758
51
133.8630124
0
ARC
8
DEFAULT_255_1_388
10
24.1434164
20
108.6021243
40
0.4155734
50
134.5304124
51
161.6210222
0
ARC
8
DEFAULT_255_1_388
10
24.3294096
20
108.5365421
40
0.6127682
50
161.2850533
51
174.2074364
0
ARC
8
DEFAULT_255_1_388
10
24.4883663
20
108.5146437
40
0.7731446
50
173.7817938
51
174.9251711
0
ARC
8
DEFAULT_255_1_388
10
23.9757856
20
108.359127
40
0.3412588
50
95.8332067
51
138.995412
0
ARC
8
DEFAULT_255_1_388
10
24.0009137
20
108.2152695
40
0.4870358
50
89.8755506
51
97.0540979
0
ARC
8
DEFAULT_255_1_388
10
24.0062526
20
108.3092841
40
0.3930432
50
71.6407016
51
90.6240821
0
ARC
8
DEFAULT_255_1_388
10
24.0231919
20
108.3716433
40
0.3285421
50
39.6368051
51
71.0190743
0
ARC
8
DEFAULT_255_1_388
10
23.9515827
20
108.3097586
40
0.4231706
50
10.6588054
51
39.9044509
0
ARC
8
DEFAULT_255_1_388
10
23.7774372
20
108.2719223
40
0.60133
50
359.6827842
51
11.1326896
0
ARC
8
DEFAULT_255_1_388
10
23.7729708
20
108.2639715
40
0.6058047
50
347.2485908
51
0.4371098
0
ARC
8
DEFAULT_255_1_388
10
23.9605494
20
108.2188379
40
0.4128987
50
318.1408565
51
347.6118497
0
ARC
8
DEFAULT_255_1_388
10
23.997109
20
108.1887903
40
0.3656244
50
275.6342406
51
317.824739
0
ARC
8
DEFAULT_255_1_388
10
23.9722611
20
108.3349827
40
0.513655
50
269.8872513
51
276.7916069
0
ARC
8
DEFAULT_255_1_388
10
23.9660804
20
108.2196181
40
0.398323
50
246.9139443
51
270.7436787
0
ARC
8
DEFAULT_255_1_388
10
23.9668
20
108.2036044
40
0.3839368
50
218.1665534
51
245.8780431
0
ARC
8
DEFAULT_255_1_388
10
24.0657372
20
108.2863903
40
0.5128958
50
191.4115343
51
218.6077624
0
ARC
8
DEFAULT_255_1_388
10
24.2837688
20
108.3352777
40
0.7363054
50
179.6344971
51
191.7836758
0
ARC
8
DEFAULT_255_1_388
10
24.9117563
20
108.4116495
40
1.3642984
50
171.4523743
51
180.3158856
0
ARC
8
DEFAULT_255_1_388
10
24.417329
20
108.4885895
40
0.8639311
50
157.9802296
51
171.6246761
0
ARC
8
DEFAULT_255_1_388
10
24.168264
20
108.5879038
40
0.5958004
50
141.4299236
51
157.8541251
0
ARC
8
DEFAULT_255_1_388
10
24.0960724
20
108.6389746
40
0.5075416
50
102.871586
51
140.8564533
0
ARC
8
DEFAULT_255_1_388
10
24.1689276
20
108.3644943
40
0.7914163
50
90.377773
51
103.5868422
0
ARC
8
DEFAULT_255_1_388
10
23.9733798
20
108.2964543
40
0.2667015
50
89.8751238
51
126.2072139
0
ARC
8
DEFAULT_255_1_388
10
23.9785269
20
108.2790847
40
0.2838229
50
124.9742447
51
144.8960197
0
ARC
8
DEFAULT_255_1_388
10
23.9587514
20
108.2951981
40
0.2583845
50
145.2974778
51
160.2660922
0
ARC
8
DEFAULT_255_1_388
10
24.3044002
20
108.3174151
40
0.5888695
50
179.6512124
51
190.285571
0
ARC
8
DEFAULT_255_1_388
10
24.1138482
20
108.2814968
40
0.3949683
50
190.0944895
51
207.5099647
0
ARC
8
DEFAULT_255_1_388
10
24.0502063
20
108.2512177
40
0.3245464
50
207.9585471
51
216.325377
0
ARC
8
DEFAULT_255_1_388
10
24.0119701
20
108.2197712
40
0.2751259
50
215.7661336
51
232.5457193
0
ARC
8
DEFAULT_255_1_388
10
23.9688816
20
108.1650273
40
0.2054668
50
232.8005815
51
270.6605497
0
ARC
8
DEFAULT_255_1_388
10
23.9740241
20
108.2059853
40
0.2464268
50
269.3550767
51
288.474612
0
ARC
8
DEFAULT_255_1_388
10
23.9844748
20
108.1666721
40
0.2058436
50
289.1831976
51
322.9685307
0
ARC
8
DEFAULT_255_1_388
10
23.9156849
20
108.2209279
40
0.2934408
50
322.6007085
51
346.5183319
0
ARC
8
DEFAULT_255_1_388
10
23.7854605
20
108.2541434
40
0.4278249
50
346.2584622
51
358.7739592
0
ARC
8
DEFAULT_255_1_388
10
23.6703181
20
108.2603829
40
0.5430876
50
358.3757628
51
0.0082477
0
ARC
8
DEFAULT_255_1_388
10
23.7559999
20
108.2634856
40
0.4574157
50
359.6211417
51
11.28403
0
ARC
8
DEFAULT_255_1_388
10
23.8996605
20
108.2934535
40
0.3106708
50
11.0483152
51
31.8145585
0
ARC
8
DEFAULT_255_1_388
10
23.9344311
20
108.3123045
40
0.2711963
50
32.3028554
51
38.0820598
0
ARC
8
DEFAULT_255_1_388
10
23.9817544
20
108.3551717
40
0.2075566
50
36.8249851
51
85.741667
0
ARC
8
DEFAULT_255_1_388
10
23.9741956
20
108.2988065
40
0.2643487
50
85.0150021
51
90.050843
0
LINE
8
DEFAULT_255_1_388
10
21.0165946
20
116.4753553
11
21.0165946
21
116.3922274
0
LINE
8
DEFAULT_255_1_388
10
19.9585206
20
116.3804811
11
19.9585206
21
116.4753553
0
LINE
8
DEFAULT_255_1_388
10
20.8440138
20
116.3795775
11
20.8440138
21
116.4771625
0
LINE
8
DEFAULT_255_1_388
10
20.1311014
20
116.4889088
11
20.1311014
21
116.3922274
0
ARC
8
DEFAULT_255_1_388
10
20.0443684
20
116.3877726
40
0.9722364
50
350.4878118
51
0.2625322
0
ARC
8
DEFAULT_255_1_388
10
20.3023644
20
116.3433994
40
0.7104556
50
336.0277991
51
350.5787241
0
ARC
8
DEFAULT_255_1_388
10
20.4536751
20
116.2750243
40
0.544417
50
319.887443
51
336.1331163
0
ARC
8
DEFAULT_255_1_388
10
20.5214563
20
116.2207733
40
0.4576311
50
302.4806296
51
319.6144102
0
ARC
8
DEFAULT_255_1_388
10
20.5085184
20
116.2457067
40
0.4856183
50
275.8196423
51
302.1885521
0
ARC
8
DEFAULT_255_1_388
10
20.4898046
20
116.3742466
40
0.6154183
50
269.9169897
51
276.339506
0
ARC
8
DEFAULT_255_1_388
10
20.4847646
20
116.297068
40
0.5382553
50
252.5221437
51
270.441579
0
ARC
8
DEFAULT_255_1_388
10
20.4685897
20
116.2364046
40
0.4755426
50
237.5349961
51
252.1858334
0
ARC
8
DEFAULT_255_1_388
10
20.4786273
20
116.249212
40
0.4917393
50
209.0632754
51
237.3492577
0
ARC
8
DEFAULT_255_1_388
10
20.5765599
20
116.3107104
40
0.6072464
50
205.118533
51
209.6465345
0
ARC
8
DEFAULT_255_1_388
10
20.6661601
20
116.3487174
40
0.7045164
50
188.7216633
51
204.8239753
0
ARC
8
DEFAULT_255_1_388
10
20.8908376
20
116.3865387
40
0.9323368
50
180.3722704
51
188.9253909
0
ARC
8
DEFAULT_255_1_388
10
20.8877938
20
116.4798416
40
0.929284
50
169.5253055
51
180.2766048
0
ARC
8
DEFAULT_255_1_388
10
20.6737737
20
116.5192024
40
0.7116745
50
155.8314601
51
169.5088611
0
ARC
8
DEFAULT_255_1_388
10
20.52972
20
116.5860312
40
0.5528904
50
139.6259579
51
156.0379072
0
ARC
8
DEFAULT_255_1_388
10
20.4633733
20
116.6394143
40
0.4677708
50
122.6414784
51
139.3431662
0
ARC
8
DEFAULT_255_1_388
10
20.4746988
20
116.6187787
40
0.4912586
50
93.0224537
51
122.4556091
0
ARC
8
DEFAULT_255_1_388
10
20.4868509
20
116.5101776
40
0.6003837
50
89.9756766
51
93.6340839
0
ARC
8
DEFAULT_255_1_388
10
20.4912107
20
116.5550879
40
0.5554884
50
73.7463329
51
90.4234008
0
ARC
8
DEFAULT_255_1_388
10
20.510958
20
116.6315772
40
0.4765353
50
57.663051
51
73.4516911
0
ARC
8
DEFAULT_255_1_388
10
20.5100618
20
116.6340108
40
0.4749629
50
29.1441355
51
57.4146687
0
ARC
8
DEFAULT_255_1_388
10
20.4048429
20
116.5683046
40
0.5988917
50
24.0985653
51
29.732054
0
ARC
8
DEFAULT_255_1_388
10
20.2886061
20
116.5201154
40
0.7246823
50
8.6654943
51
23.8241215
0
ARC
8
DEFAULT_255_1_388
10
20.0372479
20
116.4791037
40
0.9793537
50
359.7807044
51
8.8218476
0
ARC
8
DEFAULT_255_1_388
10
19.9082184
20
116.4819731
40
0.9358078
50
359.7054632
51
8.0359751
0
ARC
8
DEFAULT_255_1_388
10
20.2457235
20
116.5311252
40
0.5947474
50
7.8926278
51
20.2962188
0
ARC
8
DEFAULT_255_1_388
10
20.4288085
20
116.5986367
40
0.3996117
50
20.3231056
51
36.4990255
0
ARC
8
DEFAULT_255_1_388
10
20.5059383
20
116.6580399
40
0.3022818
50
36.1436715
51
85.6627846
0
ARC
8
DEFAULT_255_1_388
10
20.4876638
20
116.5410881
40
0.4203853
50
84.3845912
51
90.076054
0
ARC
8
DEFAULT_255_1_388
10
20.4828993
20
116.6153416
40
0.346157
50
89.3037228
51
109.9046209
0
ARC
8
DEFAULT_255_1_388
10
20.4724826
20
116.6583379
40
0.3022217
50
110.8229774
51
143.917961
0
ARC
8
DEFAULT_255_1_388
10
20.5775185
20
116.5781455
40
0.434348
50
143.5289166
51
163.2980252
0
ARC
8
DEFAULT_255_1_388
10
20.7921472
20
116.5106685
40
0.659321
50
163.0418884
51
174.3139873
0
ARC
8
DEFAULT_255_1_388
10
21.0626437
20
116.4794378
40
0.9315905
50
174.050934
51
179.4174954
0
ARC
8
DEFAULT_255_1_388
10
21.0058381
20
116.3875382
40
0.8747493
50
179.6928582
51
188.7908948
0
ARC
8
DEFAULT_255_1_388
10
20.7062181
20
116.3396086
40
0.5713262
50
188.6328449
51
202.5630732
0
ARC
8
DEFAULT_255_1_388
10
20.5651018
20
116.2829142
40
0.4192612
50
202.8078931
51
216.1195888
0
ARC
8
DEFAULT_255_1_388
10
20.4740535
20
116.2096479
40
0.3025752
50
215.0755613
51
264.6379773
0
ARC
8
DEFAULT_255_1_388
10
20.4883372
20
116.3031376
40
0.3970284
50
263.8464302
51
270.0830805
0
ARC
8
DEFAULT_255_1_388
10
20.4929917
20
116.2740808
40
0.3679937
50
269.3649295
51
287.5149684
0
ARC
8
DEFAULT_255_1_388
10
20.5130358
20
116.2012714
40
0.2925408
50
288.0629019
51
323.8115617
0
ARC
8
DEFAULT_255_1_388
10
20.4150334
20
116.2743754
40
0.4148018
50
323.6546541
51
342.6591359
0
ARC
8
DEFAULT_255_1_388
10
20.1864992
20
116.348728
40
0.6551163
50
342.4092446
51
353.6451501
0
ARC
8
DEFAULT_255_1_388
10
19.8679785
20
116.3883565
40
0.9760748
50
353.4027553
51
359.4846611
0
LINE
8
DEFAULT_255_1_388
10
22.0285868
20
117.0924898
11
22.2029747
21
117.0924898
0
LINE
8
DEFAULT_255_1_388
10
22.2029747
20
117.0924898
11
22.2029747
21
116.197961
0
LINE
8
DEFAULT_255_1_388
10
21.7710709
20
115.7606358
11
21.7249891
21
115.7588287
0
LINE
8
DEFAULT_255_1_388
10
21.2506178
20
116.1961539
11
21.2506178
21
117.0924898
0
LINE
8
DEFAULT_255_1_388
10
21.2506178
20
117.0924898
11
21.422295
21
117.0924898
0
LINE
8
DEFAULT_255_1_388
10
21.422295
20
117.0924898
11
21.422295
21
116.2015753
0
LINE
8
DEFAULT_255_1_388
10
22.0285868
20
116.2006717
11
22.0285868
21
117.0924898
0
ARC
8
DEFAULT_255_1_388
10
21.7132546
20
116.195727
40
0.4897252
50
343.0897723
51
0.2613727
0
ARC
8
DEFAULT_255_1_388
10
21.8064517
20
116.169727
40
0.3930016
50
315.3344451
51
342.7642569
0
ARC
8
DEFAULT_255_1_388
10
21.7813012
20
116.1958085
40
0.4292244
50
284.6605441
51
315.2183439
0
ARC
8
DEFAULT_255_1_388
10
21.7300792
20
116.3697508
40
0.6104926
50
273.8500371
51
285.1796441
0
ARC
8
DEFAULT_255_1_388
10
21.7201857
20
116.4081762
40
0.6493653
50
257.6315393
51
270.4238259
0
ARC
8
DEFAULT_255_1_388
10
21.672394
20
116.2032915
40
0.4390079
50
230.6086859
51
257.9965362
0
ARC
8
DEFAULT_255_1_388
10
21.6577998
20
116.1803643
40
0.4120404
50
227.745033
51
230.1538266
0
ARC
8
DEFAULT_255_1_388
10
21.6424528
20
116.1619253
40
0.3880742
50
189.2524335
51
227.5915299
0
ARC
8
DEFAULT_255_1_388
10
21.8136399
20
116.1987735
40
0.5630282
50
180.2665782
51
190.1525221
0
ARC
8
DEFAULT_255_1_388
10
21.8386127
20
116.1984254
40
0.4163296
50
179.566507
51
191.9954402
0
ARC
8
DEFAULT_255_1_388
10
21.7004816
20
116.1676151
40
0.274815
50
191.6974619
51
215.1403758
0
ARC
8
DEFAULT_255_1_388
10
21.6737208
20
116.1516689
40
0.2437647
50
215.6958251
51
224.8509274
0
ARC
8
DEFAULT_255_1_388
10
21.6799684
20
116.1606016
40
0.2545012
50
225.2846515
51
255.0110023
0
ARC
8
DEFAULT_255_1_388
10
21.716413
20
116.2859017
40
0.384974
50
254.5945979
51
267.9129427
0
ARC
8
DEFAULT_255_1_388
10
21.7247823
20
116.4076444
40
0.506956
50
267.4687563
51
270.0233681
0
ARC
8
DEFAULT_255_1_388
10
21.7281819
20
116.3416288
40
0.440952
50
269.5851384
51
281.1845308
0
ARC
8
DEFAULT_255_1_388
10
21.7595423
20
116.1894469
40
0.2855802
50
280.9345159
51
300.9740496
0
ARC
8
DEFAULT_255_1_388
10
21.7834603
20
116.1454128
40
0.2355257
50
301.4982546
51
315.1468616
0
ARC
8
DEFAULT_255_1_388
10
21.7672099
20
116.1587488
40
0.2564594
50
315.5952932
51
345.6679188
0
ARC
8
DEFAULT_255_1_388
10
21.6412656
20
116.1938235
40
0.3871766
50
345.2525685
51
358.6303941
0
ARC
8
DEFAULT_255_1_388
10
21.5269047
20
116.2005695
40
0.5016822
50
358.1723541
51
0.0116795
0
LINE
8
DEFAULT_255_1_388
10
23.3857406
20
117.0924898
11
23.3857406
21
116.9497267
0
LINE
8
DEFAULT_255_1_388
10
23.3857406
20
116.9497267
11
22.9628724
21
116.9497267
0
LINE
8
DEFAULT_255_1_388
10
22.9628724
20
116.9497267
11
22.9628724
21
115.7769
0
LINE
8
DEFAULT_255_1_388
10
22.9628724
20
115.7769
11
22.7902916
21
115.7769
0
LINE
8
DEFAULT_255_1_388
10
22.7902916
20
115.7769
11
22.7902916
21
116.9497267
0
LINE
8
DEFAULT_255_1_388
10
22.7902916
20
116.9497267
11
22.368327
21
116.9497267
0
LINE
8
DEFAULT_255_1_388
10
22.368327
20
116.9497267
11
22.368327
21
117.0924898
0
LINE
8
DEFAULT_255_1_388
10
22.368327
20
117.0924898
11
23.3857406
21
117.0924898
0
LINE
8
DEFAULT_255_1_388
10
23.7480699
20
116.4021666
11
23.6143424
21
116.4365021
0
LINE
8
DEFAULT_255_1_388
10
23.6143424
20
116.4365021
11
23.6812062
21
117.0924898
0
LINE
8
DEFAULT_255_1_388
10
23.6812062
20
117.0924898
11
24.3552652
21
117.0924898
0
LINE
8
DEFAULT_255_1_388
10
24.3552652
20
117.0924898
11
24.3552652
21
116.9379803
0
LINE
8
DEFAULT_255_1_388
10
24.3552652
20
116.9379803
11
23.8230658
21
116.9379803
0
LINE
8
DEFAULT_255_1_388
10
23.8230658
20
116.9379803
11
23.7833089
21
116.5792652
0
LINE
8
DEFAULT_255_1_388
10
23.567357
20
116.1229652
11
23.7254808
21
116.1229652
0
LINE
8
DEFAULT_255_1_388
10
23.7923446
20
116.4383092
11
23.7480699
21
116.4021666
0
ARC
8
DEFAULT_255_1_388
10
23.9919703
20
116.2215241
40
0.4141476
50
93.7181681
51
120.253934
0
ARC
8
DEFAULT_255_1_388
10
24.0025755
20
116.1306284
40
0.5055616
50
89.9660471
51
94.2495185
0
ARC
8
DEFAULT_255_1_388
10
24.0071577
20
116.1969154
40
0.4392953
50
73.8045384
51
90.5585736
0
ARC
8
DEFAULT_255_1_388
10
24.0335835
20
116.293452
40
0.3392225
50
41.3071072
51
73.543002
0
ARC
8
DEFAULT_255_1_388
10
23.9867655
20
116.2531461
40
0.4009977
50
13.5075837
51
41.2174839
0
ARC
8
DEFAULT_255_1_388
10
23.8020752
20
116.2047907
40
0.5918864
50
1.1330171
51
13.8830737
0
ARC
8
DEFAULT_255_1_388
10
23.6424398
20
116.1962522
40
0.7516787
50
359.9925091
51
1.5431298
0
ARC
8
DEFAULT_255_1_388
10
23.7869013
20
116.1916027
40
0.6072343
50
347.8572712
51
0.4294349
0
ARC
8
DEFAULT_255_1_388
10
23.9838148
20
116.1469898
40
0.4053482
50
323.6727442
51
348.1674594
0
ARC
8
DEFAULT_255_1_388
10
24.0169112
20
116.1268175
40
0.3667495
50
316.8171818
51
323.1486802
0
ARC
8
DEFAULT_255_1_388
10
24.0238236
20
116.1226612
40
0.358869
50
281.839603
51
316.5458142
0
ARC
8
DEFAULT_255_1_388
10
23.9815523
20
116.2976363
40
0.5388223
50
269.5770964
51
282.4214641
0
ARC
8
DEFAULT_255_1_388
10
23.9735444
20
116.273593
40
0.5147801
50
256.2425863
51
270.4486481
0
ARC
8
DEFAULT_255_1_388
10
23.9398972
20
116.1386124
40
0.3756708
50
228.9024379
51
256.33135
0
ARC
8
DEFAULT_255_1_388
10
23.9315952
20
116.1255054
40
0.360344
50
193.7536029
51
228.5272638
0
ARC
8
DEFAULT_255_1_388
10
24.0708517
20
116.1663463
40
0.5053599
50
184.9244437
51
194.4976052
0
ARC
8
DEFAULT_255_1_388
10
24.0925158
20
116.1703722
40
0.3700839
50
187.3596909
51
198.6733728
0
ARC
8
DEFAULT_255_1_388
10
23.9744402
20
116.1294373
40
0.2451195
50
198.4453795
51
217.7945479
0
ARC
8
DEFAULT_255_1_388
10
23.9411574
20
116.1058563
40
0.2043754
50
218.2887146
51
228.5613203
0
ARC
8
DEFAULT_255_1_388
10
23.9521581
20
116.1206902
40
0.2227819
50
228.9652423
51
258.1237049
0
ARC
8
DEFAULT_255_1_388
10
23.9753018
20
116.2197964
40
0.3245374
50
257.7260585
51
270.4013717
0
ARC
8
DEFAULT_255_1_388
10
23.9803516
20
116.1697255
40
0.2744726
50
269.4204315
51
286.420998
0
ARC
8
DEFAULT_255_1_388
10
23.9970572
20
116.1090705
40
0.2115721
50
286.7250065
51
320.6004665
0
ARC
8
DEFAULT_255_1_388
10
23.9539488
20
116.1440527
40
0.2670878
50
320.6712228
51
344.5440474
0
ARC
8
DEFAULT_255_1_388
10
23.8238202
20
116.1822394
40
0.4026927
50
344.241448
51
356.735803
0
ARC
8
DEFAULT_255_1_388
10
23.6834509
20
116.1938656
40
0.5435085
50
356.3547471
51
0.0507222
0
ARC
8
DEFAULT_255_1_388
10
23.8336774
20
116.1973812
40
0.3932934
50
359.5579289
51
12.9534322
0
ARC
8
DEFAULT_255_1_388
10
23.9523614
20
116.2261586
40
0.2711827
50
12.6489751
51
41.608121
0
ARC
8
DEFAULT_255_1_388
10
23.9782774
20
116.2481946
40
0.2371737
50
41.7851122
51
85.9892156
0
ARC
8
DEFAULT_255_1_388
10
23.9644084
20
116.1566738
40
0.3295244
50
84.6965848
51
90.0672125
0
ARC
8
DEFAULT_255_1_388
10
23.9617651
20
116.0815118
40
0.4046926
50
89.6804991
51
99.161352
0
ARC
8
DEFAULT_255_1_388
10
23.9386661
20
116.2195848
40
0.2647044
50
98.9836248
51
113.8905702
0
ARC
8
DEFAULT_255_1_388
10
23.9128335
20
116.2805118
40
0.1985386
50
114.195234
51
127.3641866
0
LINE
8
DEFAULT_255_1_388
10
20.8842946
20
124.4128553
11
20.8842946
21
124.3297274
0
LINE
8
DEFAULT_255_1_388
10
19.8262206
20
124.3179811
11
19.8262206
21
124.4128553
0
LINE
8
DEFAULT_255_1_388
10
20.7117138
20
124.3170775
11
20.7117138
21
124.4146625
0
LINE
8
DEFAULT_255_1_388
10
19.9988014
20
124.4264088
11
19.9988014
21
124.3297274
0
ARC
8
DEFAULT_255_1_388
10
19.9120684
20
124.3252726
40
0.9722364
50
350.4878118
51
0.2625322
0
ARC
8
DEFAULT_255_1_388
10
20.1700644
20
124.2808994
40
0.7104556
50
336.0277991
51
350.5787241
0
ARC
8
DEFAULT_255_1_388
10
20.3213751
20
124.2125243
40
0.544417
50
319.887443
51
336.1331163
0
ARC
8
DEFAULT_255_1_388
10
20.3891563
20
124.1582733
40
0.4576311
50
302.4806296
51
319.6144102
0
ARC
8
DEFAULT_255_1_388
10
20.3762184
20
124.1832067
40
0.4856183
50
275.8196423
51
302.1885521
0
ARC
8
DEFAULT_255_1_388
10
20.3575046
20
124.3117466
40
0.6154183
50
269.9169897
51
276.339506
0
ARC
8
DEFAULT_255_1_388
10
20.3524646
20
124.234568
40
0.5382553
50
252.5221437
51
270.441579
0
ARC
8
DEFAULT_255_1_388
10
20.3362897
20
124.1739046
40
0.4755426
50
237.5349961
51
252.1858334
0
ARC
8
DEFAULT_255_1_388
10
20.3463273
20
124.186712
40
0.4917393
50
209.0632754
51
237.3492577
0
ARC
8
DEFAULT_255_1_388
10
20.4442599
20
124.2482104
40
0.6072464
50
205.118533
51
209.6465345
0
ARC
8
DEFAULT_255_1_388
10
20.5338601
20
124.2862174
40
0.7045164
50
188.7216633
51
204.8239753
0
ARC
8
DEFAULT_255_1_388
10
20.7585376
20
124.3240387
40
0.9323368
50
180.3722704
51
188.9253909
0
ARC
8
DEFAULT_255_1_388
10
20.7554938
20
124.4173416
40
0.929284
50
169.5253055
51
180.2766048
0
ARC
8
DEFAULT_255_1_388
10
20.5414737
20
124.4567024
40
0.7116745
50
155.8314601
51
169.5088611
0
ARC
8
DEFAULT_255_1_388
10
20.39742
20
124.5235312
40
0.5528904
50
139.6259579
51
156.0379072
0
ARC
8
DEFAULT_255_1_388
10
20.3310733
20
124.5769143
40
0.4677708
50
122.6414784
51
139.3431662
0
ARC
8
DEFAULT_255_1_388
10
20.3423988
20
124.5562787
40
0.4912586
50
93.0224537
51
122.4556091
0
ARC
8
DEFAULT_255_1_388
10
20.3545509
20
124.4476776
40
0.6003837
50
89.9756766
51
93.6340839
0
ARC
8
DEFAULT_255_1_388
10
20.3589107
20
124.4925879
40
0.5554884
50
73.7463329
51
90.4234008
0
ARC
8
DEFAULT_255_1_388
10
20.378658
20
124.5690772
40
0.4765353
50
57.663051
51
73.4516911
0
ARC
8
DEFAULT_255_1_388
10
20.3777618
20
124.5715108
40
0.4749629
50
29.1441355
51
57.4146687
0
ARC
8
DEFAULT_255_1_388
10
20.2725429
20
124.5058046
40
0.5988917
50
24.0985653
51
29.732054
0
ARC
8
DEFAULT_255_1_388
10
20.1563061
20
124.4576154
40
0.7246823
50
8.6654943
51
23.8241215
0
ARC
8
DEFAULT_255_1_388
10
19.9049479
20
124.4166037
40
0.9793537
50
359.7807044
51
8.8218476
0
ARC
8
DEFAULT_255_1_388
10
19.7759184
20
124.4194731
40
0.9358078
50
359.7054632
51
8.0359751
0
ARC
8
DEFAULT_255_1_388
10
20.1134235
20
124.4686252
40
0.5947474
50
7.8926278
51
20.2962188
0
ARC
8
DEFAULT_255_1_388
10
20.2965085
20
124.5361367
40
0.3996117
50
20.3231056
51
36.4990255
0
ARC
8
DEFAULT_255_1_388
10
20.3736383
20
124.5955399
40
0.3022818
50
36.1436715
51
85.6627846
0
ARC
8
DEFAULT_255_1_388
10
20.3553638
20
124.4785881
40
0.4203853
50
84.3845912
51
90.076054
0
ARC
8
DEFAULT_255_1_388
10
20.3505993
20
124.5528416
40
0.346157
50
89.3037228
51
109.9046209
0
ARC
8
DEFAULT_255_1_388
10
20.3401826
20
124.5958379
40
0.3022217
50
110.8229774
51
143.917961
0
ARC
8
DEFAULT_255_1_388
10
20.4452185
20
124.5156455
40
0.434348
50
143.5289166
51
163.2980252
0
ARC
8
DEFAULT_255_1_388
10
20.6598472
20
124.4481685
40
0.659321
50
163.0418884
51
174.3139873
0
ARC
8
DEFAULT_255_1_388
10
20.9303437
20
124.4169378
40
0.9315905
50
174.050934
51
179.4174954
0
ARC
8
DEFAULT_255_1_388
10
20.8735381
20
124.3250382
40
0.8747493
50
179.6928582
51
188.7908948
0
ARC
8
DEFAULT_255_1_388
10
20.5739181
20
124.2771086
40
0.5713262
50
188.6328449
51
202.5630732
0
ARC
8
DEFAULT_255_1_388
10
20.4328018
20
124.2204142
40
0.4192612
50
202.8078931
51
216.1195888
0
ARC
8
DEFAULT_255_1_388
10
20.3417535
20
124.1471479
40
0.3025752
50
215.0755613
51
264.6379773
0
ARC
8
DEFAULT_255_1_388
10
20.3560372
20
124.2406376
40
0.3970284
50
263.8464302
51
270.0830805
0
ARC
8
DEFAULT_255_1_388
10
20.3606917
20
124.2115808
40
0.3679937
50
269.3649295
51
287.5149684
0
ARC
8
DEFAULT_255_1_388
10
20.3807358
20
124.1387714
40
0.2925408
50
288.0629019
51
323.8115617
0
ARC
8
DEFAULT_255_1_388
10
20.2827334
20
124.2118754
40
0.4148018
50
323.6546541
51
342.6591359
0
ARC
8
DEFAULT_255_1_388
10
20.0541992
20
124.286228
40
0.6551163
50
342.4092446
51
353.6451501
0
ARC
8
DEFAULT_255_1_388
10
19.7356785
20
124.3258565
40
0.9760748
50
353.4027553
51
359.4846611
0
LINE
8
DEFAULT_255_1_388
10
21.8962868
20
125.0299898
11
22.0706747
21
125.0299898
0
LINE
8
DEFAULT_255_1_388
10
22.0706747
20
125.0299898
11
22.0706747
21
124.135461
0
LINE
8
DEFAULT_255_1_388
10
21.6387709
20
123.6981358
11
21.5926891
21
123.6963287
0
LINE
8
DEFAULT_255_1_388
10
21.1183178
20
124.1336539
11
21.1183178
21
125.0299898
0
LINE
8
DEFAULT_255_1_388
10
21.1183178
20
125.0299898
11
21.289995
21
125.0299898
0
LINE
8
DEFAULT_255_1_388
10
21.289995
20
125.0299898
11
21.289995
21
124.1390753
0
LINE
8
DEFAULT_255_1_388
10
21.8962868
20
124.1381717
11
21.8962868
21
125.0299898
0
ARC
8
DEFAULT_255_1_388
10
21.5809546
20
124.133227
40
0.4897252
50
343.0897723
51
0.2613727
0
ARC
8
DEFAULT_255_1_388
10
21.6741517
20
124.107227
40
0.3930016
50
315.3344451
51
342.7642569
0
ARC
8
DEFAULT_255_1_388
10
21.6490012
20
124.1333085
40
0.4292244
50
284.6605441
51
315.2183439
0
ARC
8
DEFAULT_255_1_388
10
21.5977792
20
124.3072508
40
0.6104926
50
273.8500371
51
285.1796441
0
ARC
8
DEFAULT_255_1_388
10
21.5878857
20
124.3456762
40
0.6493653
50
257.6315393
51
270.4238259
0
ARC
8
DEFAULT_255_1_388
10
21.540094
20
124.1407915
40
0.4390079
50
230.6086859
51
257.9965362
0
ARC
8
DEFAULT_255_1_388
10
21.5254998
20
124.1178643
40
0.4120404
50
227.745033
51
230.1538266
0
ARC
8
DEFAULT_255_1_388
10
21.5101528
20
124.0994253
40
0.3880742
50
189.2524335
51
227.5915299
0
ARC
8
DEFAULT_255_1_388
10
21.6813399
20
124.1362735
40
0.5630282
50
180.2665782
51
190.1525221
0
ARC
8
DEFAULT_255_1_388
10
21.7063127
20
124.1359254
40
0.4163296
50
179.566507
51
191.9954402
0
ARC
8
DEFAULT_255_1_388
10
21.5681816
20
124.1051151
40
0.274815
50
191.6974619
51
215.1403758
0
ARC
8
DEFAULT_255_1_388
10
21.5414208
20
124.0891689
40
0.2437647
50
215.6958251
51
224.8509274
0
ARC
8
DEFAULT_255_1_388
10
21.5476684
20
124.0981016
40
0.2545012
50
225.2846515
51
255.0110023
0
ARC
8
DEFAULT_255_1_388
10
21.584113
20
124.2234017
40
0.384974
50
254.5945979
51
267.9129427
0
ARC
8
DEFAULT_255_1_388
10
21.5924823
20
124.3451444
40
0.506956
50
267.4687563
51
270.0233681
0
ARC
8
DEFAULT_255_1_388
10
21.5958819
20
124.2791288
40
0.440952
50
269.5851384
51
281.1845308
0
ARC
8
DEFAULT_255_1_388
10
21.6272423
20
124.1269469
40
0.2855802
50
280.9345159
51
300.9740496
0
ARC
8
DEFAULT_255_1_388
10
21.6511603
20
124.0829128
40
0.2355257
50
301.4982546
51
315.1468616
0
ARC
8
DEFAULT_255_1_388
10
21.6349099
20
124.0962488
40
0.2564594
50
315.5952932
51
345.6679188
0
ARC
8
DEFAULT_255_1_388
10
21.5089656
20
124.1313235
40
0.3871766
50
345.2525685
51
358.6303941
0
ARC
8
DEFAULT_255_1_388
10
21.3946047
20
124.1380695
40
0.5016822
50
358.1723541
51
0.0116795
0
LINE
8
DEFAULT_255_1_388
10
23.2534406
20
125.0299898
11
23.2534406
21
124.8872267
0
LINE
8
DEFAULT_255_1_388
10
23.2534406
20
124.8872267
11
22.8305724
21
124.8872267
0
LINE
8
DEFAULT_255_1_388
10
22.8305724
20
124.8872267
11
22.8305724
21
123.7144
0
LINE
8
DEFAULT_255_1_388
10
22.8305724
20
123.7144
11
22.6579916
21
123.7144
0
LINE
8
DEFAULT_255_1_388
10
22.6579916
20
123.7144
11
22.6579916
21
124.8872267
0
LINE
8
DEFAULT_255_1_388
10
22.6579916
20
124.8872267
11
22.236027
21
124.8872267
0
LINE
8
DEFAULT_255_1_388
10
22.236027
20
124.8872267
11
22.236027
21
125.0299898
0
LINE
8
DEFAULT_255_1_388
10
22.236027
20
125.0299898
11
23.2534406
21
125.0299898
0
LINE
8
DEFAULT_255_1_388
10
24.1109232
20
125.0299898
11
24.1109232
21
124.156243
0
LINE
8
DEFAULT_255_1_388
10
24.1109232
20
124.156243
11
24.2934433
21
124.156243
0
LINE
8
DEFAULT_255_1_388
10
24.2934433
20
124.156243
11
24.2934433
21
124.0198048
0
LINE
8
DEFAULT_255_1_388
10
24.2934433
20
124.0198048
11
24.1109232
21
124.0198048
0
LINE
8
DEFAULT_255_1_388
10
24.1109232
20
124.0198048
11
24.1109232
21
123.7144
0
LINE
8
DEFAULT_255_1_388
10
24.1109232
20
123.7144
11
23.9428603
21
123.7144
0
LINE
8
DEFAULT_255_1_388
10
23.9428603
20
123.7144
11
23.9428603
21
124.0198048
0
LINE
8
DEFAULT_255_1_388
10
23.9428603
20
124.0198048
11
23.343797
21
124.0198048
0
LINE
8
DEFAULT_255_1_388
10
23.343797
20
124.0198048
11
23.343797
21
124.1182933
0
LINE
8
DEFAULT_255_1_388
10
23.343797
20
124.1182933
11
23.932921
21
125.0299898
0
LINE
8
DEFAULT_255_1_388
10
23.932921
20
125.0299898
11
24.1109232
21
125.0299898
0
LINE
8
DEFAULT_255_1_388
10
23.9229818
20
124.7652455
11
23.5335456
21
124.156243
0
LINE
8
DEFAULT_255_1_388
10
23.5335456
20
124.156243
11
23.9428603
21
124.156243
0
LINE
8
DEFAULT_255_1_388
10
23.9428603
20
124.156243
11
23.9428603
21
124.801388
0
LINE
8
DEFAULT_255_1_388
10
23.9428603
20
124.801388
11
23.9229818
21
124.7652455
0
LINE
8
DEFAULT_255_1_388
10
21.0165946
20
132.3503553
11
21.0165946
21
132.2672274
0
LINE
8
DEFAULT_255_1_388
10
19.9585206
20
132.2554811
11
19.9585206
21
132.3503553
0
LINE
8
DEFAULT_255_1_388
10
20.8440138
20
132.2545775
11
20.8440138
21
132.3521625
0
LINE
8
DEFAULT_255_1_388
10
20.1311014
20
132.3639088
11
20.1311014
21
132.2672274
0
ARC
8
DEFAULT_255_1_388
10
20.0443684
20
132.2627726
40
0.9722364
50
350.4878118
51
0.2625322
0
ARC
8
DEFAULT_255_1_388
10
20.3023644
20
132.2183994
40
0.7104556
50
336.0277991
51
350.5787241
0
ARC
8
DEFAULT_255_1_388
10
20.4536751
20
132.1500243
40
0.544417
50
319.887443
51
336.1331163
0
ARC
8
DEFAULT_255_1_388
10
20.5214563
20
132.0957733
40
0.4576311
50
302.4806296
51
319.6144102
0
ARC
8
DEFAULT_255_1_388
10
20.5085184
20
132.1207067
40
0.4856183
50
275.8196423
51
302.1885521
0
ARC
8
DEFAULT_255_1_388
10
20.4898046
20
132.2492466
40
0.6154183
50
269.9169897
51
276.339506
0
ARC
8
DEFAULT_255_1_388
10
20.4847646
20
132.172068
40
0.5382553
50
252.5221437
51
270.441579
0
ARC
8
DEFAULT_255_1_388
10
20.4685897
20
132.1114046
40
0.4755426
50
237.5349961
51
252.1858334
0
ARC
8
DEFAULT_255_1_388
10
20.4786273
20
132.124212
40
0.4917393
50
209.0632754
51
237.3492577
0
ARC
8
DEFAULT_255_1_388
10
20.5765599
20
132.1857104
40
0.6072464
50
205.118533
51
209.6465345
0
ARC
8
DEFAULT_255_1_388
10
20.6661601
20
132.2237174
40
0.7045164
50
188.7216633
51
204.8239753
0
ARC
8
DEFAULT_255_1_388
10
20.8908376
20
132.2615387
40
0.9323368
50
180.3722704
51
188.9253909
0
ARC
8
DEFAULT_255_1_388
10
20.8877938
20
132.3548416
40
0.929284
50
169.5253055
51
180.2766048
0
ARC
8
DEFAULT_255_1_388
10
20.6737737
20
132.3942024
40
0.7116745
50
155.8314601
51
169.5088611
0
ARC
8
DEFAULT_255_1_388
10
20.52972
20
132.4610312
40
0.5528904
50
139.6259579
51
156.0379072
0
ARC
8
DEFAULT_255_1_388
10
20.4633733
20
132.5144143
40
0.4677708
50
122.6414784
51
139.3431662
0
ARC
8
DEFAULT_255_1_388
10
20.4746988
20
132.4937787
40
0.4912586
50
93.0224537
51
122.4556091
0
ARC
8
DEFAULT_255_1_388
10
20.4868509
20
132.3851776
40
0.6003837
50
89.9756766
51
93.6340839
0
ARC
8
DEFAULT_255_1_388
10
20.4912107
20
132.4300879
40
0.5554884
50
73.7463329
51
90.4234008
0
ARC
8
DEFAULT_255_1_388
10
20.510958
20
132.5065772
40
0.4765353
50
57.663051
51
73.4516911
0
ARC
8
DEFAULT_255_1_388
10
20.5100618
20
132.5090108
40
0.4749629
50
29.1441355
51
57.4146687
0
ARC
8
DEFAULT_255_1_388
10
20.4048429
20
132.4433046
40
0.5988917
50
24.0985653
51
29.732054
0
ARC
8
DEFAULT_255_1_388
10
20.2886061
20
132.3951154
40
0.7246823
50
8.6654943
51
23.8241215
0
ARC
8
DEFAULT_255_1_388
10
20.0372479
20
132.3541037
40
0.9793537
50
359.7807044
51
8.8218476
0
ARC
8
DEFAULT_255_1_388
10
19.9082184
20
132.3569731
40
0.9358078
50
359.7054632
51
8.0359751
0
ARC
8
DEFAULT_255_1_388
10
20.2457235
20
132.4061252
40
0.5947474
50
7.8926278
51
20.2962188
0
ARC
8
DEFAULT_255_1_388
10
20.4288085
20
132.4736367
40
0.3996117
50
20.3231056
51
36.4990255
0
ARC
8
DEFAULT_255_1_388
10
20.5059383
20
132.5330399
40
0.3022818
50
36.1436715
51
85.6627846
0
ARC
8
DEFAULT_255_1_388
10
20.4876638
20
132.4160881
40
0.4203853
50
84.3845912
51
90.076054
0
ARC
8
DEFAULT_255_1_388
10
20.4828993
20
132.4903416
40
0.346157
50
89.3037228
51
109.9046209
0
ARC
8
DEFAULT_255_1_388
10
20.4724826
20
132.5333379
40
0.3022217
50
110.8229774
51
143.917961
0
ARC
8
DEFAULT_255_1_388
10
20.5775185
20
132.4531455
40
0.434348
50
143.5289166
51
163.2980252
0
ARC
8
DEFAULT_255_1_388
10
20.7921472
20
132.3856685
40
0.659321
50
163.0418884
51
174.3139873
0
ARC
8
DEFAULT_255_1_388
10
21.0626437
20
132.3544378
40
0.9315905
50
174.050934
51
179.4174954
0
ARC
8
DEFAULT_255_1_388
10
21.0058381
20
132.2625382
40
0.8747493
50
179.6928582
51
188.7908948
0
ARC
8
DEFAULT_255_1_388
10
20.7062181
20
132.2146086
40
0.5713262
50
188.6328449
51
202.5630732
0
ARC
8
DEFAULT_255_1_388
10
20.5651018
20
132.1579142
40
0.4192612
50
202.8078931
51
216.1195888
0
ARC
8
DEFAULT_255_1_388
10
20.4740535
20
132.0846479
40
0.3025752
50
215.0755613
51
264.6379773
0
ARC
8
DEFAULT_255_1_388
10
20.4883372
20
132.1781376
40
0.3970284
50
263.8464302
51
270.0830805
0
ARC
8
DEFAULT_255_1_388
10
20.4929917
20
132.1490808
40
0.3679937
50
269.3649295
51
287.5149684
0
ARC
8
DEFAULT_255_1_388
10
20.5130358
20
132.0762714
40
0.2925408
50
288.0629019
51
323.8115617
0
ARC
8
DEFAULT_255_1_388
10
20.4150334
20
132.1493754
40
0.4148018
50
323.6546541
51
342.6591359
0
ARC
8
DEFAULT_255_1_388
10
20.1864992
20
132.223728
40
0.6551163
50
342.4092446
51
353.6451501
0
ARC
8
DEFAULT_255_1_388
10
19.8679785
20
132.2633565
40
0.9760748
50
353.4027553
51
359.4846611
0
LINE
8
DEFAULT_255_1_388
10
22.0285868
20
132.9674898
11
22.2029747
21
132.9674898
0
LINE
8
DEFAULT_255_1_388
10
22.2029747
20
132.9674898
11
22.2029747
21
132.072961
0
LINE
8
DEFAULT_255_1_388
10
21.7710709
20
131.6356358
11
21.7249891
21
131.6338287
0
LINE
8
DEFAULT_255_1_388
10
21.2506178
20
132.0711539
11
21.2506178
21
132.9674898
0
LINE
8
DEFAULT_255_1_388
10
21.2506178
20
132.9674898
11
21.422295
21
132.9674898
0
LINE
8
DEFAULT_255_1_388
10
21.422295
20
132.9674898
11
21.422295
21
132.0765753
0
LINE
8
DEFAULT_255_1_388
10
22.0285868
20
132.0756717
11
22.0285868
21
132.9674898
0
ARC
8
DEFAULT_255_1_388
10
21.7132546
20
132.070727
40
0.4897252
50
343.0897723
51
0.2613727
0
ARC
8
DEFAULT_255_1_388
10
21.8064517
20
132.044727
40
0.3930016
50
315.3344451
51
342.7642569
0
ARC
8
DEFAULT_255_1_388
10
21.7813012
20
132.0708085
40
0.4292244
50
284.6605441
51
315.2183439
0
ARC
8
DEFAULT_255_1_388
10
21.7300792
20
132.2447508
40
0.6104926
50
273.8500371
51
285.1796441
0
ARC
8
DEFAULT_255_1_388
10
21.7201857
20
132.2831762
40
0.6493653
50
257.6315393
51
270.4238259
0
ARC
8
DEFAULT_255_1_388
10
21.672394
20
132.0782915
40
0.4390079
50
230.6086859
51
257.9965362
0
ARC
8
DEFAULT_255_1_388
10
21.6577998
20
132.0553643
40
0.4120404
50
227.745033
51
230.1538266
0
ARC
8
DEFAULT_255_1_388
10
21.6424528
20
132.0369253
40
0.3880742
50
189.2524335
51
227.5915299
0
ARC
8
DEFAULT_255_1_388
10
21.8136399
20
132.0737735
40
0.5630282
50
180.2665782
51
190.1525221
0
ARC
8
DEFAULT_255_1_388
10
21.8386127
20
132.0734254
40
0.4163296
50
179.566507
51
191.9954402
0
ARC
8
DEFAULT_255_1_388
10
21.7004816
20
132.0426151
40
0.274815
50
191.6974619
51
215.1403758
0
ARC
8
DEFAULT_255_1_388
10
21.6737208
20
132.0266689
40
0.2437647
50
215.6958251
51
224.8509274
0
ARC
8
DEFAULT_255_1_388
10
21.6799684
20
132.0356016
40
0.2545012
50
225.2846515
51
255.0110023
0
ARC
8
DEFAULT_255_1_388
10
21.716413
20
132.1609017
40
0.384974
50
254.5945979
51
267.9129427
0
ARC
8
DEFAULT_255_1_388
10
21.7247823
20
132.2826444
40
0.506956
50
267.4687563
51
270.0233681
0
ARC
8
DEFAULT_255_1_388
10
21.7281819
20
132.2166288
40
0.440952
50
269.5851384
51
281.1845308
0
ARC
8
DEFAULT_255_1_388
10
21.7595423
20
132.0644469
40
0.2855802
50
280.9345159
51
300.9740496
0
ARC
8
DEFAULT_255_1_388
10
21.7834603
20
132.0204128
40
0.2355257
50
301.4982546
51
315.1468616
0
ARC
8
DEFAULT_255_1_388
10
21.7672099
20
132.0337488
40
0.2564594
50
315.5952932
51
345.6679188
0
ARC
8
DEFAULT_255_1_388
10
21.6412656
20
132.0688235
40
0.3871766
50
345.2525685
51
358.6303941
0
ARC
8
DEFAULT_255_1_388
10
21.5269047
20
132.0755695
40
0.5016822
50
358.1723541
51
0.0116795
0
LINE
8
DEFAULT_255_1_388
10
23.3857406
20
132.9674898
11
23.3857406
21
132.8247267
0
LINE
8
DEFAULT_255_1_388
10
23.3857406
20
132.8247267
11
22.9628724
21
132.8247267
0
LINE
8
DEFAULT_255_1_388
10
22.9628724
20
132.8247267
11
22.9628724
21
131.6519
0
LINE
8
DEFAULT_255_1_388
10
22.9628724
20
131.6519
11
22.7902916
21
131.6519
0
LINE
8
DEFAULT_255_1_388
10
22.7902916
20
131.6519
11
22.7902916
21
132.8247267
0
LINE
8
DEFAULT_255_1_388
10
22.7902916
20
132.8247267
11
22.368327
21
132.8247267
0
LINE
8
DEFAULT_255_1_388
10
22.368327
20
132.8247267
11
22.368327
21
132.9674898
0
LINE
8
DEFAULT_255_1_388
10
22.368327
20
132.9674898
11
23.3857406
21
132.9674898
0
LINE
8
DEFAULT_255_1_388
10
23.7805982
20
132.2545775
11
23.7805982
21
132.3910157
0
LINE
8
DEFAULT_255_1_388
10
23.7805982
20
132.3910157
11
23.9061937
21
132.3910157
0
LINE
8
DEFAULT_255_1_388
10
23.6920489
20
132.6223282
11
23.5248895
21
132.6223282
0
LINE
8
DEFAULT_255_1_388
10
23.5131432
20
131.9988688
11
23.6812062
21
131.9988688
0
LINE
8
DEFAULT_255_1_388
10
23.9061937
20
132.2545775
11
23.7805982
21
132.2545775
0
ARC
8
DEFAULT_255_1_388
10
23.9029164
20
132.7726922
40
0.3816905
50
270.491971
51
281.8953028
0
ARC
8
DEFAULT_255_1_388
10
23.930059
20
132.6487199
40
0.2547877
50
281.6690378
51
301.2943765
0
ARC
8
DEFAULT_255_1_388
10
23.9492042
20
132.6136926
40
0.2149197
50
301.7834992
51
311.754567
0
ARC
8
DEFAULT_255_1_388
10
23.9595083
20
132.602265
40
0.1995326
50
311.7325027
51
354.2803031
0
ARC
8
DEFAULT_255_1_388
10
23.8777499
20
132.616328
40
0.2823461
50
353.0941646
51
0.1174696
0
ARC
8
DEFAULT_255_1_388
10
23.8259057
20
132.6216874
40
0.3342238
50
359.1804452
51
15.0452323
0
ARC
8
DEFAULT_255_1_388
10
23.9773115
20
132.6658546
40
0.1765747
50
13.957816
51
77.6713812
0
ARC
8
DEFAULT_255_1_388
10
23.9338351
20
132.5100464
40
0.3381982
50
76.111571
51
90.7028736
0
ARC
8
DEFAULT_255_1_388
10
23.9271763
20
132.540825
40
0.3074046
50
89.5321574
51
103.5319393
0
ARC
8
DEFAULT_255_1_388
10
23.9046147
20
132.6307443
40
0.2147041
50
103.2930114
51
133.5619756
0
ARC
8
DEFAULT_255_1_388
10
23.8996088
20
132.6374351
40
0.2064084
50
133.8349761
51
173.5343225
0
ARC
8
DEFAULT_255_1_388
10
23.9809746
20
132.6230144
40
0.2889266
50
172.5097183
51
180.1360699
0
ARC
8
DEFAULT_255_1_388
10
23.873951
20
132.626888
40
0.3490913
50
155.3483706
51
180.7484035
0
ARC
8
DEFAULT_255_1_388
10
23.8684486
20
132.6236519
40
0.3454798
50
131.5745177
51
154.4799474
0
ARC
8
DEFAULT_255_1_388
10
23.9036768
20
132.5880422
40
0.3955058
50
96.9874487
51
131.9690874
0
ARC
8
DEFAULT_255_1_388
10
23.9283661
20
132.4479407
40
0.537622
50
89.8592909
51
97.7827481
0
ARC
8
DEFAULT_255_1_388
10
23.933777
20
132.418436
40
0.5671399
50
78.3654493
51
90.4132586
0
ARC
8
DEFAULT_255_1_388
10
23.9740411
20
132.6050918
40
0.3762034
50
56.6229818
51
78.6387103
0
ARC
8
DEFAULT_255_1_388
10
23.998224
20
132.6473846
40
0.3275964
50
47.0254604
51
56.085558
0
ARC
8
DEFAULT_255_1_388
10
24.0004491
20
132.6518189
40
0.3228382
50
10.9207523
51
46.777927
0
ARC
8
DEFAULT_255_1_388
10
23.8470085
20
132.6163401
40
0.4802559
50
359.6364235
51
11.6087615
0
ARC
8
DEFAULT_255_1_388
10
24.0534251
20
132.6146404
40
0.273833
50
332.3549969
51
359.7179765
0
ARC
8
DEFAULT_255_1_388
10
23.9802651
20
132.6493285
40
0.3547505
50
325.2332381
51
332.8746682
0
ARC
8
DEFAULT_255_1_388
10
23.9974234
20
132.6373763
40
0.3338396
50
292.9803892
51
325.2391113
0
ARC
8
DEFAULT_255_1_388
10
23.966343
20
132.6978679
40
0.4016959
50
292.542178
51
293.6931461
0
ARC
8
DEFAULT_255_1_388
10
24.0107002
20
131.9713036
40
0.372079
50
57.643292
51
72.8626085
0
ARC
8
DEFAULT_255_1_388
10
24.0505836
20
132.0359273
40
0.2961455
50
36.7246661
51
57.4701329
0
ARC
8
DEFAULT_255_1_388
10
24.0492993
20
132.037347
40
0.2963321
50
8.054535
51
36.3561529
0
ARC
8
DEFAULT_255_1_388
10
23.9522666
20
132.0199073
40
0.3948682
50
359.8316595
51
8.5873361
0
ARC
8
DEFAULT_255_1_388
10
23.910014
20
132.014497
40
0.4371398
50
343.9831631
51
0.557075
0
ARC
8
DEFAULT_255_1_388
10
24.009719
20
131.9871963
40
0.3337749
50
311.6358204
51
343.7652116
0
ARC
8
DEFAULT_255_1_388
10
23.9671443
20
132.0351955
40
0.3979351
50
279.7829743
51
311.625622
0
ARC
8
DEFAULT_255_1_388
10
23.9332579
20
132.1968642
40
0.5630417
50
269.7285092
51
280.3857694
0
ARC
8
DEFAULT_255_1_388
10
23.9262891
20
132.1922241
40
0.5584119
50
256.6827433
51
270.4412869
0
ARC
8
DEFAULT_255_1_388
10
23.8881878
20
132.0364698
40
0.3980715
50
229.4223821
51
256.8554507
0
ARC
8
DEFAULT_255_1_388
10
23.8415431
20
131.9839683
40
0.3278564
50
181.8183354
51
229.6455015
0
ARC
8
DEFAULT_255_1_388
10
23.9585041
20
131.9986825
40
0.4453611
50
179.9760419
51
183.2330638
0
ARC
8
DEFAULT_255_1_388
10
23.9391593
20
131.9963781
40
0.2579652
50
179.4467996
51
196.2871626
0
ARC
8
DEFAULT_255_1_388
10
23.8843047
20
131.9813709
40
0.2011057
50
196.5661293
51
227.7059371
0
ARC
8
DEFAULT_255_1_388
10
23.9027654
20
132.0020155
40
0.2287994
50
227.7653015
51
257.8763321
0
ARC
8
DEFAULT_255_1_388
10
23.9280737
20
132.1080961
40
0.3378385
50
257.4583525
51
270.4267406
0
ARC
8
DEFAULT_255_1_388
10
23.9331987
20
132.140723
40
0.3704652
50
269.5965319
51
280.8788143
0
ARC
8
DEFAULT_255_1_388
10
23.9590215
20
132.0117529
40
0.2389415
50
280.6347277
51
299.8594068
0
ARC
8
DEFAULT_255_1_388
10
23.9804985
20
131.9709736
40
0.19289
50
300.3575552
51
314.5515667
0
ARC
8
DEFAULT_255_1_388
10
23.971166
20
131.9778025
40
0.204312
50
315.0730962
51
345.0429362
0
ARC
8
DEFAULT_255_1_388
10
23.8673168
20
132.0080539
40
0.31246
50
344.598526
51
357.9270698
0
ARC
8
DEFAULT_255_1_388
10
23.7663472
20
132.0149705
40
0.4136265
50
357.4755098
51
0.0224936
0
ARC
8
DEFAULT_255_1_388
10
23.881635
20
132.0177099
40
0.2983498
50
359.5051035
51
13.4236939
0
ARC
8
DEFAULT_255_1_388
10
23.979144
20
132.0426637
40
0.1977186
50
12.9497905
51
48.7550905
0
ARC
8
DEFAULT_255_1_388
10
23.9586362
20
132.0146373
40
0.2323321
50
49.509109
51
72.1832965
0
ARC
8
DEFAULT_255_1_388
10
23.918383
20
131.8951632
40
0.358397
50
71.9008458
51
84.3555134
0
ARC
8
DEFAULT_255_1_388
10
23.9002225
20
131.7419712
40
0.512641
50
84.019632
51
89.3326067
0
LINE
8
DEFAULT_255_1_388
10
21.0165946
20
140.2878553
11
21.0165946
21
140.2047274
0
LINE
8
DEFAULT_255_1_388
10
19.9585206
20
140.1929811
11
19.9585206
21
140.2878553
0
LINE
8
DEFAULT_255_1_388
10
20.8440138
20
140.1920775
11
20.8440138
21
140.2896625
0
LINE
8
DEFAULT_255_1_388
10
20.1311014
20
140.3014088
11
20.1311014
21
140.2047274
0
ARC
8
DEFAULT_255_1_388
10
20.0443684
20
140.2002726
40
0.9722364
50
350.4878118
51
0.2625322
0
ARC
8
DEFAULT_255_1_388
10
20.3023644
20
140.1558994
40
0.7104556
50
336.0277991
51
350.5787241
0
ARC
8
DEFAULT_255_1_388
10
20.4536751
20
140.0875243
40
0.544417
50
319.887443
51
336.1331163
0
ARC
8
DEFAULT_255_1_388
10
20.5214563
20
140.0332733
40
0.4576311
50
302.4806296
51
319.6144102
0
ARC
8
DEFAULT_255_1_388
10
20.5085184
20
140.0582067
40
0.4856183
50
275.8196423
51
302.1885521
0
ARC
8
DEFAULT_255_1_388
10
20.4898046
20
140.1867466
40
0.6154183
50
269.9169897
51
276.339506
0
ARC
8
DEFAULT_255_1_388
10
20.4847646
20
140.109568
40
0.5382553
50
252.5221437
51
270.441579
0
ARC
8
DEFAULT_255_1_388
10
20.4685897
20
140.0489046
40
0.4755426
50
237.5349961
51
252.1858334
0
ARC
8
DEFAULT_255_1_388
10
20.4786273
20
140.061712
40
0.4917393
50
209.0632754
51
237.3492577
0
ARC
8
DEFAULT_255_1_388
10
20.5765599
20
140.1232104
40
0.6072464
50
205.118533
51
209.6465345
0
ARC
8
DEFAULT_255_1_388
10
20.6661601
20
140.1612174
40
0.7045164
50
188.7216633
51
204.8239753
0
ARC
8
DEFAULT_255_1_388
10
20.8908376
20
140.1990387
40
0.9323368
50
180.3722704
51
188.9253909
0
ARC
8
DEFAULT_255_1_388
10
20.8877938
20
140.2923416
40
0.929284
50
169.5253055
51
180.2766048
0
ARC
8
DEFAULT_255_1_388
10
20.6737737
20
140.3317024
40
0.7116745
50
155.8314601
51
169.5088611
0
ARC
8
DEFAULT_255_1_388
10
20.52972
20
140.3985312
40
0.5528904
50
139.6259579
51
156.0379072
0
ARC
8
DEFAULT_255_1_388
10
20.4633733
20
140.4519143
40
0.4677708
50
122.6414784
51
139.3431662
0
ARC
8
DEFAULT_255_1_388
10
20.4746988
20
140.4312787
40
0.4912586
50
93.0224537
51
122.4556091
0
ARC
8
DEFAULT_255_1_388
10
20.4868509
20
140.3226776
40
0.6003837
50
89.9756766
51
93.6340839
0
ARC
8
DEFAULT_255_1_388
10
20.4912107
20
140.3675879
40
0.5554884
50
73.7463329
51
90.4234008
0
ARC
8
DEFAULT_255_1_388
10
20.510958
20
140.4440772
40
0.4765353
50
57.663051
51
73.4516911
0
ARC
8
DEFAULT_255_1_388
10
20.5100618
20
140.4465108
40
0.4749629
50
29.1441355
51
57.4146687
0
ARC
8
DEFAULT_255_1_388
10
20.4048429
20
140.3808046
40
0.5988917
50
24.0985653
51
29.732054
0
ARC
8
DEFAULT_255_1_388
10
20.2886061
20
140.3326154
40
0.7246823
50
8.6654943
51
23.8241215
0
ARC
8
DEFAULT_255_1_388
10
20.0372479
20
140.2916037
40
0.9793537
50
359.7807044
51
8.8218476
0
ARC
8
DEFAULT_255_1_388
10
19.9082184
20
140.2944731
40
0.9358078
50
359.7054632
51
8.0359751
0
ARC
8
DEFAULT_255_1_388
10
20.2457235
20
140.3436252
40
0.5947474
50
7.8926278
51
20.2962188
0
ARC
8
DEFAULT_255_1_388
10
20.4288085
20
140.4111367
40
0.3996117
50
20.3231056
51
36.4990255
0
ARC
8
DEFAULT_255_1_388
10
20.5059383
20
140.4705399
40
0.3022818
50
36.1436715
51
85.6627846
0
ARC
8
DEFAULT_255_1_388
10
20.4876638
20
140.3535881
40
0.4203853
50
84.3845912
51
90.076054
0
ARC
8
DEFAULT_255_1_388
10
20.4828993
20
140.4278416
40
0.346157
50
89.3037228
51
109.9046209
0
ARC
8
DEFAULT_255_1_388
10
20.4724826
20
140.4708379
40
0.3022217
50
110.8229774
51
143.917961
0
ARC
8
DEFAULT_255_1_388
10
20.5775185
20
140.3906455
40
0.434348
50
143.5289166
51
163.2980252
0
ARC
8
DEFAULT_255_1_388
10
20.7921472
20
140.3231685
40
0.659321
50
163.0418884
51
174.3139873
0
ARC
8
DEFAULT_255_1_388
10
21.0626437
20
140.2919378
40
0.9315905
50
174.050934
51
179.4174954
0
ARC
8
DEFAULT_255_1_388
10
21.0058381
20
140.2000382
40
0.8747493
50
179.6928582
51
188.7908948
0
ARC
8
DEFAULT_255_1_388
10
20.7062181
20
140.1521086
40
0.5713262
50
188.6328449
51
202.5630732
0
ARC
8
DEFAULT_255_1_388
10
20.5651018
20
140.0954142
40
0.4192612
50
202.8078931
51
216.1195888
0
ARC
8
DEFAULT_255_1_388
10
20.4740535
20
140.0221479
40
0.3025752
50
215.0755613
51
264.6379773
0
ARC
8
DEFAULT_255_1_388
10
20.4883372
20
140.1156376
40
0.3970284
50
263.8464302
51
270.0830805
0
ARC
8
DEFAULT_255_1_388
10
20.4929917
20
140.0865808
40
0.3679937
50
269.3649295
51
287.5149684
0
ARC
8
DEFAULT_255_1_388
10
20.5130358
20
140.0137714
40
0.2925408
50
288.0629019
51
323.8115617
0
ARC
8
DEFAULT_255_1_388
10
20.4150334
20
140.0868754
40
0.4148018
50
323.6546541
51
342.6591359
0
ARC
8
DEFAULT_255_1_388
10
20.1864992
20
140.161228
40
0.6551163
50
342.4092446
51
353.6451501
0
ARC
8
DEFAULT_255_1_388
10
19.8679785
20
140.2008565
40
0.9760748
50
353.4027553
51
359.4846611
0
LINE
8
DEFAULT_255_1_388
10
22.0285868
20
140.9049898
11
22.2029747
21
140.9049898
0
LINE
8
DEFAULT_255_1_388
10
22.2029747
20
140.9049898
11
22.2029747
21
140.010461
0
LINE
8
DEFAULT_255_1_388
10
21.7710709
20
139.5731358
11
21.7249891
21
139.5713287
0
LINE
8
DEFAULT_255_1_388
10
21.2506178
20
140.0086539
11
21.2506178
21
140.9049898
0
LINE
8
DEFAULT_255_1_388
10
21.2506178
20
140.9049898
11
21.422295
21
140.9049898
0
LINE
8
DEFAULT_255_1_388
10
21.422295
20
140.9049898
11
21.422295
21
140.0140753
0
LINE
8
DEFAULT_255_1_388
10
22.0285868
20
140.0131717
11
22.0285868
21
140.9049898
0
ARC
8
DEFAULT_255_1_388
10
21.7132546
20
140.008227
40
0.4897252
50
343.0897723
51
0.2613727
0
ARC
8
DEFAULT_255_1_388
10
21.8064517
20
139.982227
40
0.3930016
50
315.3344451
51
342.7642569
0
ARC
8
DEFAULT_255_1_388
10
21.7813012
20
140.0083085
40
0.4292244
50
284.6605441
51
315.2183439
0
ARC
8
DEFAULT_255_1_388
10
21.7300792
20
140.1822508
40
0.6104926
50
273.8500371
51
285.1796441
0
ARC
8
DEFAULT_255_1_388
10
21.7201857
20
140.2206762
40
0.6493653
50
257.6315393
51
270.4238259
0
ARC
8
DEFAULT_255_1_388
10
21.672394
20
140.0157915
40
0.4390079
50
230.6086859
51
257.9965362
0
ARC
8
DEFAULT_255_1_388
10
21.6577998
20
139.9928643
40
0.4120404
50
227.745033
51
230.1538266
0
ARC
8
DEFAULT_255_1_388
10
21.6424528
20
139.9744253
40
0.3880742
50
189.2524335
51
227.5915299
0
ARC
8
DEFAULT_255_1_388
10
21.8136399
20
140.0112735
40
0.5630282
50
180.2665782
51
190.1525221
0
ARC
8
DEFAULT_255_1_388
10
21.8386127
20
140.0109254
40
0.4163296
50
179.566507
51
191.9954402
0
ARC
8
DEFAULT_255_1_388
10
21.7004816
20
139.9801151
40
0.274815
50
191.6974619
51
215.1403758
0
ARC
8
DEFAULT_255_1_388
10
21.6737208
20
139.9641689
40
0.2437647
50
215.6958251
51
224.8509274
0
ARC
8
DEFAULT_255_1_388
10
21.6799684
20
139.9731016
40
0.2545012
50
225.2846515
51
255.0110023
0
ARC
8
DEFAULT_255_1_388
10
21.716413
20
140.0984017
40
0.384974
50
254.5945979
51
267.9129427
0
ARC
8
DEFAULT_255_1_388
10
21.7247823
20
140.2201444
40
0.506956
50
267.4687563
51
270.0233681
0
ARC
8
DEFAULT_255_1_388
10
21.7281819
20
140.1541288
40
0.440952
50
269.5851384
51
281.1845308
0
ARC
8
DEFAULT_255_1_388
10
21.7595423
20
140.0019469
40
0.2855802
50
280.9345159
51
300.9740496
0
ARC
8
DEFAULT_255_1_388
10
21.7834603
20
139.9579128
40
0.2355257
50
301.4982546
51
315.1468616
0
ARC
8
DEFAULT_255_1_388
10
21.7672099
20
139.9712488
40
0.2564594
50
315.5952932
51
345.6679188
0
ARC
8
DEFAULT_255_1_388
10
21.6412656
20
140.0063235
40
0.3871766
50
345.2525685
51
358.6303941
0
ARC
8
DEFAULT_255_1_388
10
21.5269047
20
140.0130695
40
0.5016822
50
358.1723541
51
0.0116795
0
LINE
8
DEFAULT_255_1_388
10
23.3857406
20
140.9049898
11
23.3857406
21
140.7622267
0
LINE
8
DEFAULT_255_1_388
10
23.3857406
20
140.7622267
11
22.9628724
21
140.7622267
0
LINE
8
DEFAULT_255_1_388
10
22.9628724
20
140.7622267
11
22.9628724
21
139.5894
0
LINE
8
DEFAULT_255_1_388
10
22.9628724
20
139.5894
11
22.7902916
21
139.5894
0
LINE
8
DEFAULT_255_1_388
10
22.7902916
20
139.5894
11
22.7902916
21
140.7622267
0
LINE
8
DEFAULT_255_1_388
10
22.7902916
20
140.7622267
11
22.368327
21
140.7622267
0
LINE
8
DEFAULT_255_1_388
10
22.368327
20
140.7622267
11
22.368327
21
140.9049898
0
LINE
8
DEFAULT_255_1_388
10
22.368327
20
140.9049898
11
23.3857406
21
140.9049898
0
LINE
8
DEFAULT_255_1_388
10
24.3995399
20
139.7258382
11
24.3995399
21
139.5894
0
LINE
8
DEFAULT_255_1_388
10
24.3995399
20
139.5894
11
23.5375394
21
139.5894
0
LINE
8
DEFAULT_255_1_388
10
23.5375394
20
139.5894
11
23.5375394
21
139.7095741
0
LINE
8
DEFAULT_255_1_388
10
23.5375394
20
139.7095741
11
23.9929359
21
140.2155702
0
LINE
8
DEFAULT_255_1_388
10
23.679399
20
140.5173607
11
23.5122396
21
140.5173607
0
LINE
8
DEFAULT_255_1_388
10
24.0914244
20
140.108046
11
23.7390343
21
139.7258382
0
LINE
8
DEFAULT_255_1_388
10
23.7390343
20
139.7258382
11
24.3995399
21
139.7258382
0
ARC
8
DEFAULT_255_1_388
10
22.4753418
20
141.5575983
40
2.0258655
50
318.5132526
51
320.7829045
0
ARC
8
DEFAULT_255_1_388
10
23.0701375
20
141.0734929
40
1.2589638
50
320.7372878
51
323.9739031
0
ARC
8
DEFAULT_255_1_388
10
23.5110307
20
140.7540554
40
0.7145141
50
323.8962701
51
328.64194
0
ARC
8
DEFAULT_255_1_388
10
23.7412565
20
140.6120545
40
0.4440242
50
328.8294576
51
331.7891185
0
ARC
8
DEFAULT_255_1_388
10
23.8534885
20
140.5541374
40
0.3177517
50
331.4254512
51
352.9365785
0
ARC
8
DEFAULT_255_1_388
10
23.8687885
20
140.550705
40
0.3021496
50
353.2257659
51
0.0166158
0
ARC
8
DEFAULT_255_1_388
10
23.8924645
20
140.5532894
40
0.2784847
50
359.486299
51
15.9343185
0
ARC
8
DEFAULT_255_1_388
10
23.9494912
20
140.5686269
40
0.2194403
50
16.1712913
51
43.5286088
0
ARC
8
DEFAULT_255_1_388
10
23.9581857
20
140.5773191
40
0.2071504
50
43.4417391
51
83.1661095
0
ARC
8
DEFAULT_255_1_388
10
23.9431018
20
140.4944316
40
0.2912888
50
82.160179
51
90.1505708
0
ARC
8
DEFAULT_255_1_388
10
23.9395499
20
140.4340279
40
0.3517025
50
89.5460741
51
102.5418361
0
ARC
8
DEFAULT_255_1_388
10
23.9122219
20
140.5499933
40
0.2325748
50
102.1738499
51
129.206123
0
ARC
8
DEFAULT_255_1_388
10
23.9033673
20
140.5639664
40
0.2161591
50
129.72865
51
135.753947
0
ARC
8
DEFAULT_255_1_388
10
23.9170155
20
140.5530728
40
0.2335433
50
136.1757367
51
166.3673339
0
ARC
8
DEFAULT_255_1_388
10
24.0302843
20
140.5227148
40
0.3507873
50
165.9090694
51
178.8684636
0
ARC
8
DEFAULT_255_1_388
10
24.1278615
20
140.5174263
40
0.4484624
50
178.4391136
51
180.0083808
0
ARC
8
DEFAULT_255_1_388
10
23.9699316
20
140.5218197
40
0.4577138
50
163.2878482
51
180.5581842
0
ARC
8
DEFAULT_255_1_388
10
23.8797357
20
140.5466393
40
0.3641968
50
133.4540601
51
162.947111
0
ARC
8
DEFAULT_255_1_388
10
23.8998239
20
140.5252789
40
0.3935189
50
100.7869829
51
133.4382499
0
ARC
8
DEFAULT_255_1_388
10
23.9389484
20
140.3510399
40
0.5720313
50
89.660664
51
101.3702276
0
ARC
8
DEFAULT_255_1_388
10
23.9464093
20
140.3579263
40
0.5651495
50
78.2172678
51
90.412935
0
ARC
8
DEFAULT_255_1_388
10
23.9863559
20
140.5406511
40
0.378122
50
55.9269121
51
78.4888449
0
ARC
8
DEFAULT_255_1_388
10
24.0084274
20
140.5787187
40
0.3342379
50
47.929771
51
55.4049217
0
ARC
8
DEFAULT_255_1_388
10
24.0198804
20
140.5903618
40
0.3179217
50
4.334829
51
48.0560205
0
ARC
8
DEFAULT_255_1_388
10
23.8966606
20
140.5712487
40
0.442341
50
359.9251713
51
5.5971671
0
ARC
8
DEFAULT_255_1_388
10
23.9448761
20
140.5775728
40
0.3941854
50
337.8914027
51
358.9967534
0
ARC
8
DEFAULT_255_1_388
10
23.6396331
20
140.6953295
40
0.7213271
50
326.9132501
51
338.3508308
0
ARC
8
DEFAULT_255_1_388
10
23.1912443
20
140.9827105
40
1.2538973
50
319.6471833
51
327.0959558
0
ARC
8
DEFAULT_255_1_388
10
22.7599101
20
141.338505
40
1.8129975
50
317.2588228
51
319.9045804
0
LINE
8
DEFAULT_255_1_388
10
21.0244946
20
148.2253553
11
21.0244946
21
148.1422274
0
LINE
8
DEFAULT_255_1_388
10
19.9664206
20
148.1304811
11
19.9664206
21
148.2253553
0
LINE
8
DEFAULT_255_1_388
10
20.8519138
20
148.1295775
11
20.8519138
21
148.2271625
0
LINE
8
DEFAULT_255_1_388
10
20.1390014
20
148.2389088
11
20.1390014
21
148.1422274
0
ARC
8
DEFAULT_255_1_388
10
20.0522684
20
148.1377726
40
0.9722364
50
350.4878118
51
0.2625322
0
ARC
8
DEFAULT_255_1_388
10
20.3102644
20
148.0933994
40
0.7104556
50
336.0277991
51
350.5787241
0
ARC
8
DEFAULT_255_1_388
10
20.4615751
20
148.0250243
40
0.544417
50
319.887443
51
336.1331163
0
ARC
8
DEFAULT_255_1_388
10
20.5293563
20
147.9707733
40
0.4576311
50
302.4806296
51
319.6144102
0
ARC
8
DEFAULT_255_1_388
10
20.5164184
20
147.9957067
40
0.4856183
50
275.8196423
51
302.1885521
0
ARC
8
DEFAULT_255_1_388
10
20.4977046
20
148.1242466
40
0.6154183
50
269.9169897
51
276.339506
0
ARC
8
DEFAULT_255_1_388
10
20.4926646
20
148.047068
40
0.5382553
50
252.5221437
51
270.441579
0
ARC
8
DEFAULT_255_1_388
10
20.4764897
20
147.9864046
40
0.4755426
50
237.5349961
51
252.1858334
0
ARC
8
DEFAULT_255_1_388
10
20.4865273
20
147.999212
40
0.4917393
50
209.0632754
51
237.3492577
0
ARC
8
DEFAULT_255_1_388
10
20.5844599
20
148.0607104
40
0.6072464
50
205.118533
51
209.6465345
0
ARC
8
DEFAULT_255_1_388
10
20.6740601
20
148.0987174
40
0.7045164
50
188.7216633
51
204.8239753
0
ARC
8
DEFAULT_255_1_388
10
20.8987376
20
148.1365387
40
0.9323368
50
180.3722704
51
188.9253909
0
ARC
8
DEFAULT_255_1_388
10
20.8956938
20
148.2298416
40
0.929284
50
169.5253055
51
180.2766048
0
ARC
8
DEFAULT_255_1_388
10
20.6816737
20
148.2692024
40
0.7116745
50
155.8314601
51
169.5088611
0
ARC
8
DEFAULT_255_1_388
10
20.53762
20
148.3360312
40
0.5528904
50
139.6259579
51
156.0379072
0
ARC
8
DEFAULT_255_1_388
10
20.4712733
20
148.3894143
40
0.4677708
50
122.6414784
51
139.3431662
0
ARC
8
DEFAULT_255_1_388
10
20.4825988
20
148.3687787
40
0.4912586
50
93.0224537
51
122.4556091
0
ARC
8
DEFAULT_255_1_388
10
20.4947509
20
148.2601776
40
0.6003837
50
89.9756766
51
93.6340839
0
ARC
8
DEFAULT_255_1_388
10
20.4991107
20
148.3050879
40
0.5554884
50
73.7463329
51
90.4234008
0
ARC
8
DEFAULT_255_1_388
10
20.518858
20
148.3815772
40
0.4765353
50
57.663051
51
73.4516911
0
ARC
8
DEFAULT_255_1_388
10
20.5179618
20
148.3840108
40
0.4749629
50
29.1441355
51
57.4146687
0
ARC
8
DEFAULT_255_1_388
10
20.4127429
20
148.3183046
40
0.5988917
50
24.0985653
51
29.732054
0
ARC
8
DEFAULT_255_1_388
10
20.2965061
20
148.2701154
40
0.7246823
50
8.6654943
51
23.8241215
0
ARC
8
DEFAULT_255_1_388
10
20.0451479
20
148.2291037
40
0.9793537
50
359.7807044
51
8.8218476
0
ARC
8
DEFAULT_255_1_388
10
19.9161184
20
148.2319731
40
0.9358078
50
359.7054632
51
8.0359751
0
ARC
8
DEFAULT_255_1_388
10
20.2536235
20
148.2811252
40
0.5947474
50
7.8926278
51
20.2962188
0
ARC
8
DEFAULT_255_1_388
10
20.4367085
20
148.3486367
40
0.3996117
50
20.3231056
51
36.4990255
0
ARC
8
DEFAULT_255_1_388
10
20.5138383
20
148.4080399
40
0.3022818
50
36.1436715
51
85.6627846
0
ARC
8
DEFAULT_255_1_388
10
20.4955638
20
148.2910881
40
0.4203853
50
84.3845912
51
90.076054
0
ARC
8
DEFAULT_255_1_388
10
20.4907993
20
148.3653416
40
0.346157
50
89.3037228
51
109.9046209
0
ARC
8
DEFAULT_255_1_388
10
20.4803826
20
148.4083379
40
0.3022217
50
110.8229774
51
143.917961
0
ARC
8
DEFAULT_255_1_388
10
20.5854185
20
148.3281455
40
0.434348
50
143.5289166
51
163.2980252
0
ARC
8
DEFAULT_255_1_388
10
20.8000472
20
148.2606685
40
0.659321
50
163.0418884
51
174.3139873
0
ARC
8
DEFAULT_255_1_388
10
21.0705437
20
148.2294378
40
0.9315905
50
174.050934
51
179.4174954
0
ARC
8
DEFAULT_255_1_388
10
21.0137381
20
148.1375382
40
0.8747493
50
179.6928582
51
188.7908948
0
ARC
8
DEFAULT_255_1_388
10
20.7141181
20
148.0896086
40
0.5713262
50
188.6328449
51
202.5630732
0
ARC
8
DEFAULT_255_1_388
10
20.5730018
20
148.0329142
40
0.4192612
50
202.8078931
51
216.1195888
0
ARC
8
DEFAULT_255_1_388
10
20.4819535
20
147.9596479
40
0.3025752
50
215.0755613
51
264.6379773
0
ARC
8
DEFAULT_255_1_388
10
20.4962372
20
148.0531376
40
0.3970284
50
263.8464302
51
270.0830805
0
ARC
8
DEFAULT_255_1_388
10
20.5008917
20
148.0240808
40
0.3679937
50
269.3649295
51
287.5149684
0
ARC
8
DEFAULT_255_1_388
10
20.5209358
20
147.9512714
40
0.2925408
50
288.0629019
51
323.8115617
0
ARC
8
DEFAULT_255_1_388
10
20.4229334
20
148.0243754
40
0.4148018
50
323.6546541
51
342.6591359
0
ARC
8
DEFAULT_255_1_388
10
20.1943992
20
148.098728
40
0.6551163
50
342.4092446
51
353.6451501
0
ARC
8
DEFAULT_255_1_388
10
19.8758785
20
148.1383565
40
0.9760748
50
353.4027553
51
359.4846611
0
LINE
8
DEFAULT_255_1_388
10
22.0364868
20
148.8424898
11
22.2108747
21
148.8424898
0
LINE
8
DEFAULT_255_1_388
10
22.2108747
20
148.8424898
11
22.2108747
21
147.947961
0
LINE
8
DEFAULT_255_1_388
10
21.7789709
20
147.5106358
11
21.7328891
21
147.5088287
0
LINE
8
DEFAULT_255_1_388
10
21.2585178
20
147.9461539
11
21.2585178
21
148.8424898
0
LINE
8
DEFAULT_255_1_388
10
21.2585178
20
148.8424898
11
21.430195
21
148.8424898
0
LINE
8
DEFAULT_255_1_388
10
21.430195
20
148.8424898
11
21.430195
21
147.9515753
0
LINE
8
DEFAULT_255_1_388
10
22.0364868
20
147.9506717
11
22.0364868
21
148.8424898
0
ARC
8
DEFAULT_255_1_388
10
21.7211546
20
147.945727
40
0.4897252
50
343.0897723
51
0.2613727
0
ARC
8
DEFAULT_255_1_388
10
21.8143517
20
147.919727
40
0.3930016
50
315.3344451
51
342.7642569
0
ARC
8
DEFAULT_255_1_388
10
21.7892012
20
147.9458085
40
0.4292244
50
284.6605441
51
315.2183439
0
ARC
8
DEFAULT_255_1_388
10
21.7379792
20
148.1197508
40
0.6104926
50
273.8500371
51
285.1796441
0
ARC
8
DEFAULT_255_1_388
10
21.7280857
20
148.1581762
40
0.6493653
50
257.6315393
51
270.4238259
0
ARC
8
DEFAULT_255_1_388
10
21.680294
20
147.9532915
40
0.4390079
50
230.6086859
51
257.9965362
0
ARC
8
DEFAULT_255_1_388
10
21.6656998
20
147.9303643
40
0.4120404
50
227.745033
51
230.1538266
0
ARC
8
DEFAULT_255_1_388
10
21.6503528
20
147.9119253
40
0.3880742
50
189.2524335
51
227.5915299
0
ARC
8
DEFAULT_255_1_388
10
21.8215399
20
147.9487735
40
0.5630282
50
180.2665782
51
190.1525221
0
ARC
8
DEFAULT_255_1_388
10
21.8465127
20
147.9484254
40
0.4163296
50
179.566507
51
191.9954402
0
ARC
8
DEFAULT_255_1_388
10
21.7083816
20
147.9176151
40
0.274815
50
191.6974619
51
215.1403758
0
ARC
8
DEFAULT_255_1_388
10
21.6816208
20
147.9016689
40
0.2437647
50
215.6958251
51
224.8509274
0
ARC
8
DEFAULT_255_1_388
10
21.6878684
20
147.9106016
40
0.2545012
50
225.2846515
51
255.0110023
0
ARC
8
DEFAULT_255_1_388
10
21.724313
20
148.0359017
40
0.384974
50
254.5945979
51
267.9129427
0
ARC
8
DEFAULT_255_1_388
10
21.7326823
20
148.1576444
40
0.506956
50
267.4687563
51
270.0233681
0
ARC
8
DEFAULT_255_1_388
10
21.7360819
20
148.0916288
40
0.440952
50
269.5851384
51
281.1845308
0
ARC
8
DEFAULT_255_1_388
10
21.7674423
20
147.9394469
40
0.2855802
50
280.9345159
51
300.9740496
0
ARC
8
DEFAULT_255_1_388
10
21.7913603
20
147.8954128
40
0.2355257
50
301.4982546
51
315.1468616
0
ARC
8
DEFAULT_255_1_388
10
21.7751099
20
147.9087488
40
0.2564594
50
315.5952932
51
345.6679188
0
ARC
8
DEFAULT_255_1_388
10
21.6491656
20
147.9438235
40
0.3871766
50
345.2525685
51
358.6303941
0
ARC
8
DEFAULT_255_1_388
10
21.5348047
20
147.9505695
40
0.5016822
50
358.1723541
51
0.0116795
0
LINE
8
DEFAULT_255_1_388
10
23.3936406
20
148.8424898
11
23.3936406
21
148.6997267
0
LINE
8
DEFAULT_255_1_388
10
23.3936406
20
148.6997267
11
22.9707724
21
148.6997267
0
LINE
8
DEFAULT_255_1_388
10
22.9707724
20
148.6997267
11
22.9707724
21
147.5269
0
LINE
8
DEFAULT_255_1_388
10
22.9707724
20
147.5269
11
22.7981916
21
147.5269
0
LINE
8
DEFAULT_255_1_388
10
22.7981916
20
147.5269
11
22.7981916
21
148.6997267
0
LINE
8
DEFAULT_255_1_388
10
22.7981916
20
148.6997267
11
22.376227
21
148.6997267
0
LINE
8
DEFAULT_255_1_388
10
22.376227
20
148.6997267
11
22.376227
21
148.8424898
0
LINE
8
DEFAULT_255_1_388
10
22.376227
20
148.8424898
11
23.3936406
21
148.8424898
0
LINE
8
DEFAULT_255_1_388
10
24.0948066
20
148.8488148
11
24.0948066
21
147.5269
0
LINE
8
DEFAULT_255_1_388
10
24.0948066
20
147.5269
11
23.9267436
21
147.5269
0
LINE
8
DEFAULT_255_1_388
10
23.9267436
20
147.5269
11
23.9267436
21
148.640995
0
LINE
8
DEFAULT_255_1_388
10
23.9267436
20
148.640995
11
23.5897141
21
148.5172066
0
LINE
8
DEFAULT_255_1_388
10
23.5897141
20
148.5172066
11
23.5897141
21
148.6690055
0
LINE
8
DEFAULT_255_1_388
10
23.5897141
20
148.6690055
11
24.0686032
21
148.8488148
0
LINE
8
DEFAULT_255_1_388
10
24.0686032
20
148.8488148
11
24.0948066
21
148.8488148
0
LINE
8
DEFAULT_255_1_388
10
21.0165946
20
156.1628553
11
21.0165946
21
156.0797274
0
LINE
8
DEFAULT_255_1_388
10
19.9585206
20
156.0679811
11
19.9585206
21
156.1628553
0
LINE
8
DEFAULT_255_1_388
10
20.8440138
20
156.0670775
11
20.8440138
21
156.1646625
0
LINE
8
DEFAULT_255_1_388
10
20.1311014
20
156.1764088
11
20.1311014
21
156.0797274
0
ARC
8
DEFAULT_255_1_388
10
20.0443684
20
156.0752726
40
0.9722364
50
350.4878118
51
0.2625322
0
ARC
8
DEFAULT_255_1_388
10
20.3023644
20
156.0308994
40
0.7104556
50
336.0277991
51
350.5787241
0
ARC
8
DEFAULT_255_1_388
10
20.4536751
20
155.9625243
40
0.544417
50
319.887443
51
336.1331163
0
ARC
8
DEFAULT_255_1_388
10
20.5214563
20
155.9082733
40
0.4576311
50
302.4806296
51
319.6144102
0
ARC
8
DEFAULT_255_1_388
10
20.5085184
20
155.9332067
40
0.4856183
50
275.8196423
51
302.1885521
0
ARC
8
DEFAULT_255_1_388
10
20.4898046
20
156.0617466
40
0.6154183
50
269.9169897
51
276.339506
0
ARC
8
DEFAULT_255_1_388
10
20.4847646
20
155.984568
40
0.5382553
50
252.5221437
51
270.441579
0
ARC
8
DEFAULT_255_1_388
10
20.4685897
20
155.9239046
40
0.4755426
50
237.5349961
51
252.1858334
0
ARC
8
DEFAULT_255_1_388
10
20.4786273
20
155.936712
40
0.4917393
50
209.0632754
51
237.3492577
0
ARC
8
DEFAULT_255_1_388
10
20.5765599
20
155.9982104
40
0.6072464
50
205.118533
51
209.6465345
0
ARC
8
DEFAULT_255_1_388
10
20.6661601
20
156.0362174
40
0.7045164
50
188.7216633
51
204.8239753
0
ARC
8
DEFAULT_255_1_388
10
20.8908376
20
156.0740387
40
0.9323368
50
180.3722704
51
188.9253909
0
ARC
8
DEFAULT_255_1_388
10
20.8877938
20
156.1673416
40
0.929284
50
169.5253055
51
180.2766048
0
ARC
8
DEFAULT_255_1_388
10
20.6737737
20
156.2067024
40
0.7116745
50
155.8314601
51
169.5088611
0
ARC
8
DEFAULT_255_1_388
10
20.52972
20
156.2735312
40
0.5528904
50
139.6259579
51
156.0379072
0
ARC
8
DEFAULT_255_1_388
10
20.4633733
20
156.3269143
40
0.4677708
50
122.6414784
51
139.3431662
0
ARC
8
DEFAULT_255_1_388
10
20.4746988
20
156.3062787
40
0.4912586
50
93.0224537
51
122.4556091
0
ARC
8
DEFAULT_255_1_388
10
20.4868509
20
156.1976776
40
0.6003837
50
89.9756766
51
93.6340839
0
ARC
8
DEFAULT_255_1_388
10
20.4912107
20
156.2425879
40
0.5554884
50
73.7463329
51
90.4234008
0
ARC
8
DEFAULT_255_1_388
10
20.510958
20
156.3190772
40
0.4765353
50
57.663051
51
73.4516911
0
ARC
8
DEFAULT_255_1_388
10
20.5100618
20
156.3215108
40
0.4749629
50
29.1441355
51
57.4146687
0
ARC
8
DEFAULT_255_1_388
10
20.4048429
20
156.2558046
40
0.5988917
50
24.0985653
51
29.732054
0
ARC
8
DEFAULT_255_1_388
10
20.2886061
20
156.2076154
40
0.7246823
50
8.6654943
51
23.8241215
0
ARC
8
DEFAULT_255_1_388
10
20.0372479
20
156.1666037
40
0.9793537
50
359.7807044
51
8.8218476
0
ARC
8
DEFAULT_255_1_388
10
19.9082184
20
156.1694731
40
0.9358078
50
359.7054632
51
8.0359751
0
ARC
8
DEFAULT_255_1_388
10
20.2457235
20
156.2186252
40
0.5947474
50
7.8926278
51
20.2962188
0
ARC
8
DEFAULT_255_1_388
10
20.4288085
20
156.2861367
40
0.3996117
50
20.3231056
51
36.4990255
0
ARC
8
DEFAULT_255_1_388
10
20.5059383
20
156.3455399
40
0.3022818
50
36.1436715
51
85.6627846
0
ARC
8
DEFAULT_255_1_388
10
20.4876638
20
156.2285881
40
0.4203853
50
84.3845912
51
90.076054
0
ARC
8
DEFAULT_255_1_388
10
20.4828993
20
156.3028416
40
0.346157
50
89.3037228
51
109.9046209
0
ARC
8
DEFAULT_255_1_388
10
20.4724826
20
156.3458379
40
0.3022217
50
110.8229774
51
143.917961
0
ARC
8
DEFAULT_255_1_388
10
20.5775185
20
156.2656455
40
0.434348
50
143.5289166
51
163.2980252
0
ARC
8
DEFAULT_255_1_388
10
20.7921472
20
156.1981685
40
0.659321
50
163.0418884
51
174.3139873
0
ARC
8
DEFAULT_255_1_388
10
21.0626437
20
156.1669378
40
0.9315905
50
174.050934
51
179.4174954
0
ARC
8
DEFAULT_255_1_388
10
21.0058381
20
156.0750382
40
0.8747493
50
179.6928582
51
188.7908948
0
ARC
8
DEFAULT_255_1_388
10
20.7062181
20
156.0271086
40
0.5713262
50
188.6328449
51
202.5630732
0
ARC
8
DEFAULT_255_1_388
10
20.5651018
20
155.9704142
40
0.4192612
50
202.8078931
51
216.1195888
0
ARC
8
DEFAULT_255_1_388
10
20.4740535
20
155.8971479
40
0.3025752
50
215.0755613
51
264.6379773
0
ARC
8
DEFAULT_255_1_388
10
20.4883372
20
155.9906376
40
0.3970284
50
263.8464302
51
270.0830805
0
ARC
8
DEFAULT_255_1_388
10
20.4929917
20
155.9615808
40
0.3679937
50
269.3649295
51
287.5149684
0
ARC
8
DEFAULT_255_1_388
10
20.5130358
20
155.8887714
40
0.2925408
50
288.0629019
51
323.8115617
0
ARC
8
DEFAULT_255_1_388
10
20.4150334
20
155.9618754
40
0.4148018
50
323.6546541
51
342.6591359
0
ARC
8
DEFAULT_255_1_388
10
20.1864992
20
156.036228
40
0.6551163
50
342.4092446
51
353.6451501
0
ARC
8
DEFAULT_255_1_388
10
19.8679785
20
156.0758565
40
0.9760748
50
353.4027553
51
359.4846611
0
LINE
8
DEFAULT_255_1_388
10
22.0285868
20
156.7799898
11
22.2029747
21
156.7799898
0
LINE
8
DEFAULT_255_1_388
10
22.2029747
20
156.7799898
11
22.2029747
21
155.885461
0
LINE
8
DEFAULT_255_1_388
10
21.7710709
20
155.4481358
11
21.7249891
21
155.4463287
0
LINE
8
DEFAULT_255_1_388
10
21.2506178
20
155.8836539
11
21.2506178
21
156.7799898
0
LINE
8
DEFAULT_255_1_388
10
21.2506178
20
156.7799898
11
21.422295
21
156.7799898
0
LINE
8
DEFAULT_255_1_388
10
21.422295
20
156.7799898
11
21.422295
21
155.8890753
0
LINE
8
DEFAULT_255_1_388
10
22.0285868
20
155.8881717
11
22.0285868
21
156.7799898
0
ARC
8
DEFAULT_255_1_388
10
21.7132546
20
155.883227
40
0.4897252
50
343.0897723
51
0.2613727
0
ARC
8
DEFAULT_255_1_388
10
21.8064517
20
155.857227
40
0.3930016
50
315.3344451
51
342.7642569
0
ARC
8
DEFAULT_255_1_388
10
21.7813012
20
155.8833085
40
0.4292244
50
284.6605441
51
315.2183439
0
ARC
8
DEFAULT_255_1_388
10
21.7300792
20
156.0572508
40
0.6104926
50
273.8500371
51
285.1796441
0
ARC
8
DEFAULT_255_1_388
10
21.7201857
20
156.0956762
40
0.6493653
50
257.6315393
51
270.4238259
0
ARC
8
DEFAULT_255_1_388
10
21.672394
20
155.8907915
40
0.4390079
50
230.6086859
51
257.9965362
0
ARC
8
DEFAULT_255_1_388
10
21.6577998
20
155.8678643
40
0.4120404
50
227.745033
51
230.1538266
0
ARC
8
DEFAULT_255_1_388
10
21.6424528
20
155.8494253
40
0.3880742
50
189.2524335
51
227.5915299
0
ARC
8
DEFAULT_255_1_388
10
21.8136399
20
155.8862735
40
0.5630282
50
180.2665782
51
190.1525221
0
ARC
8
DEFAULT_255_1_388
10
21.8386127
20
155.8859254
40
0.4163296
50
179.566507
51
191.9954402
0
ARC
8
DEFAULT_255_1_388
10
21.7004816
20
155.8551151
40
0.274815
50
191.6974619
51
215.1403758
0
ARC
8
DEFAULT_255_1_388
10
21.6737208
20
155.8391689
40
0.2437647
50
215.6958251
51
224.8509274
0
ARC
8
DEFAULT_255_1_388
10
21.6799684
20
155.8481016
40
0.2545012
50
225.2846515
51
255.0110023
0
ARC
8
DEFAULT_255_1_388
10
21.716413
20
155.9734017
40
0.384974
50
254.5945979
51
267.9129427
0
ARC
8
DEFAULT_255_1_388
10
21.7247823
20
156.0951444
40
0.506956
50
267.4687563
51
270.0233681
0
ARC
8
DEFAULT_255_1_388
10
21.7281819
20
156.0291288
40
0.440952
50
269.5851384
51
281.1845308
0
ARC
8
DEFAULT_255_1_388
10
21.7595423
20
155.8769469
40
0.2855802
50
280.9345159
51
300.9740496
0
ARC
8
DEFAULT_255_1_388
10
21.7834603
20
155.8329128
40
0.2355257
50
301.4982546
51
315.1468616
0
ARC
8
DEFAULT_255_1_388
10
21.7672099
20
155.8462488
40
0.2564594
50
315.5952932
51
345.6679188
0
ARC
8
DEFAULT_255_1_388
10
21.6412656
20
155.8813235
40
0.3871766
50
345.2525685
51
358.6303941
0
ARC
8
DEFAULT_255_1_388
10
21.5269047
20
155.8880695
40
0.5016822
50
358.1723541
51
0.0116795
0
LINE
8
DEFAULT_255_1_388
10
23.3857406
20
156.7799898
11
23.3857406
21
156.6372267
0
LINE
8
DEFAULT_255_1_388
10
23.3857406
20
156.6372267
11
22.9628724
21
156.6372267
0
LINE
8
DEFAULT_255_1_388
10
22.9628724
20
156.6372267
11
22.9628724
21
155.4644
0
LINE
8
DEFAULT_255_1_388
10
22.9628724
20
155.4644
11
22.7902916
21
155.4644
0
LINE
8
DEFAULT_255_1_388
10
22.7902916
20
155.4644
11
22.7902916
21
156.6372267
0
LINE
8
DEFAULT_255_1_388
10
22.7902916
20
156.6372267
11
22.368327
21
156.6372267
0
LINE
8
DEFAULT_255_1_388
10
22.368327
20
156.6372267
11
22.368327
21
156.7799898
0
LINE
8
DEFAULT_255_1_388
10
22.368327
20
156.7799898
11
23.3857406
21
156.7799898
0
LINE
8
DEFAULT_255_1_388
10
24.3624938
20
156.242369
11
24.3624938
21
156.0255135
0
LINE
8
DEFAULT_255_1_388
10
23.532118
20
156.0029244
11
23.532118
21
156.2261048
0
LINE
8
DEFAULT_255_1_388
10
24.1953343
20
155.9803353
11
24.1953343
21
156.2541153
0
LINE
8
DEFAULT_255_1_388
10
23.6992774
20
156.2667652
11
23.6992774
21
155.9993102
0
ARC
8
DEFAULT_255_1_388
10
22.9847271
20
156.0200118
40
1.3777776
50
353.8440855
51
0.2287917
0
ARC
8
DEFAULT_255_1_388
10
23.5066289
20
155.9617414
40
0.852639
50
344.4934746
51
353.9763743
0
ARC
8
DEFAULT_255_1_388
10
23.8433096
20
155.8660191
40
0.5026273
50
329.2803599
51
344.7473406
0
ARC
8
DEFAULT_255_1_388
10
23.9548592
20
155.8048038
40
0.3754848
50
324.9361395
51
328.6153007
0
ARC
8
DEFAULT_255_1_388
10
23.9974242
20
155.7750586
40
0.3235566
50
280.5801797
51
324.9173226
0
ARC
8
DEFAULT_255_1_388
10
23.952287
20
155.9630236
40
0.5167077
50
269.5979457
51
281.6732777
0
ARC
8
DEFAULT_255_1_388
10
23.9441774
20
155.9495113
40
0.5032026
50
256.6228565
51
270.5105488
0
ARC
8
DEFAULT_255_1_388
10
23.8989516
20
155.7753345
40
0.3233092
50
215.8618351
51
257.2787793
0
ARC
8
DEFAULT_255_1_388
10
24.0138223
20
155.8524106
40
0.4615831
50
197.9695203
51
215.2622745
0
ARC
8
DEFAULT_255_1_388
10
24.2933899
20
155.9467641
40
0.7566307
50
187.8816486
51
198.2346584
0
ARC
8
DEFAULT_255_1_388
10
24.7387137
20
156.0110453
40
1.2065653
50
180.8977266
51
188.0054894
0
ARC
8
DEFAULT_255_1_388
10
25.0437351
20
156.02254
40
1.5117443
50
180.7434591
51
181.152202
0
ARC
8
DEFAULT_255_1_388
10
24.8762347
20
156.2315371
40
1.3441277
50
173.7674302
51
180.2315596
0
ARC
8
DEFAULT_255_1_388
10
24.3680216
20
156.2889779
40
0.8326847
50
164.3058537
51
173.9000553
0
ARC
8
DEFAULT_255_1_388
10
24.0404216
20
156.3833652
40
0.4917711
50
148.7922028
51
164.5682288
0
ARC
8
DEFAULT_255_1_388
10
23.9334953
20
156.4430457
40
0.3694204
50
144.5883979
51
148.1161588
0
ARC
8
DEFAULT_255_1_388
10
23.8947699
20
156.4700667
40
0.322202
50
101.6440149
51
144.5142619
0
ARC
8
DEFAULT_255_1_388
10
23.9425891
20
156.2800337
40
0.5180451
50
89.528284
51
102.5820197
0
ARC
8
DEFAULT_255_1_388
10
23.9514883
20
156.2756376
40
0.5224441
50
77.0437914
51
90.508231
0
ARC
8
DEFAULT_255_1_388
10
23.9967136
20
156.4604272
40
0.3322297
50
48.2777708
51
77.4996087
0
ARC
8
DEFAULT_255_1_388
10
24.0048876
20
156.4749557
40
0.315966
50
36.3141586
51
47.6307332
0
ARC
8
DEFAULT_255_1_388
10
23.9071599
20
156.4091159
40
0.4337313
50
18.2931065
51
35.6770203
0
ARC
8
DEFAULT_255_1_388
10
23.6210439
20
156.3109107
40
0.7362203
50
8.0246996
51
18.5605636
0
ARC
8
DEFAULT_255_1_388
10
23.1526795
20
156.2417432
40
1.2096583
50
1.127539
51
8.1718423
0
ARC
8
DEFAULT_255_1_388
10
22.7877928
20
156.2274374
40
1.5747719
50
0.5432713
51
1.38669
0
ARC
8
DEFAULT_255_1_388
10
22.9935307
20
156.2581163
40
1.2018103
50
359.8092569
51
4.9408001
0
ARC
8
DEFAULT_255_1_388
10
23.4671888
20
156.30039
40
0.7262727
50
4.8364937
51
12.2906017
0
ARC
8
DEFAULT_255_1_388
10
23.7771353
20
156.3694485
40
0.4087324
50
12.0806994
51
23.8171225
0
ARC
8
DEFAULT_255_1_388
10
23.9091749
20
156.4253508
40
0.2653719
50
24.2874621
51
31.3934353
0
ARC
8
DEFAULT_255_1_388
10
23.9682185
20
156.4639822
40
0.1948607
50
30.7407708
51
82.4658033
0
ARC
8
DEFAULT_255_1_388
10
23.9479846
20
156.3646017
40
0.2961198
50
81.1057101
51
90.2187368
0
ARC
8
DEFAULT_255_1_388
10
23.9439658
20
156.3936421
40
0.2670929
50
89.380395
51
105.6763916
0
ARC
8
DEFAULT_255_1_388
10
23.923338
20
156.468632
40
0.1893189
50
105.7980655
51
149.7387869
0
ARC
8
DEFAULT_255_1_388
10
24.043052
20
156.3966719
40
0.3289892
50
149.4208441
51
163.628295
0
ARC
8
DEFAULT_255_1_388
10
24.278275
20
156.3249345
40
0.5749004
50
163.3764549
51
172.141138
0
ARC
8
DEFAULT_255_1_388
10
24.6495471
20
156.2717582
40
0.9499585
50
172.0258462
51
178.0705453
0
ARC
8
DEFAULT_255_1_388
10
24.9917024
20
156.2555682
40
1.2924734
50
177.8639301
51
179.5036263
0
ARC
8
DEFAULT_255_1_388
10
24.8698042
20
155.9952151
40
1.170534
50
179.7995545
51
185.246089
0
ARC
8
DEFAULT_255_1_388
10
24.4149636
20
155.9521404
40
0.7136613
50
185.1411911
51
193.0082205
0
ARC
8
DEFAULT_255_1_388
10
24.1175896
20
155.8818441
40
0.4080987
50
192.7897338
51
205.2507384
0
ARC
8
DEFAULT_255_1_388
10
23.9998106
20
155.8292538
40
0.2791522
50
205.8001921
51
211.2545876
0
ARC
8
DEFAULT_255_1_388
10
23.9409645
20
155.7898132
40
0.2084074
50
210.3789935
51
238.4007996
0
ARC
8
DEFAULT_255_1_388
10
23.9387731
20
155.7950786
40
0.2117943
50
239.6521916
51
265.9793852
0
ARC
8
DEFAULT_255_1_388
10
23.948358
20
155.8707358
40
0.2879689
50
265.1324455
51
270.0603288
0
ARC
8
DEFAULT_255_1_388
10
23.9515957
20
155.8342418
40
0.2514919
50
269.3314378
51
287.2180039
0
ARC
8
DEFAULT_255_1_388
10
23.9671039
20
155.7776291
40
0.1928357
50
287.7957942
51
329.0808983
0
ARC
8
DEFAULT_255_1_388
10
23.8593797
20
155.8448651
40
0.319808
50
328.6635261
51
343.3325043
0
ARC
8
DEFAULT_255_1_388
10
23.6149255
20
155.9210195
40
0.5758408
50
343.0498092
51
351.9392499
0
ARC
8
DEFAULT_255_1_388
10
23.2248577
20
155.9785205
40
0.9701202
50
351.8071632
51
357.7957897
0
ARC
8
DEFAULT_255_1_388
10
22.8614054
20
155.9973724
40
1.3340376
50
357.5870923
51
359.2682493
0
ENDSEC
0
EOF