0
SECTION
2
HEADER
9
$MEASUREMENT
70
1
0
ENDSEC
0
SECTION
2
TABLES
0
TABLE
2
LTYPE
0
LTYPE
72
65
70
64
2
CONTINUOUS
3
______
73
0
40
0
0
ENDTAB
0
TABLE
2
LAYER
0
LAYER
2
DEFAULT_255_2_778
70
0
62
255
6
CONTINUOUS
0
ENDTAB
0
ENDSEC
0
SECTION
2
ENTITIES
0
ARC
8
DEFAULT_255_2_778
10
16.0289901
20
28.0378979
40
1.9996558
50
180.0040951
51
219.9986359
0
LINE
8
DEFAULT_255_2_778
10
14.0293343
20
28.037755
11
14.0293343
21
28.0381804
0
ARC
8
DEFAULT_255_2_778
10
5.3194382
20
48.2090974
40
2.0002039
50
179.9976223
51
219.992922
0
LINE
8
DEFAULT_255_2_778
10
28.9145343
20
131.1795804
11
28.8888343
21
131.1539804
0
LINE
8
DEFAULT_255_2_778
10
28.8888343
20
131.1539804
11
28.8888343
21
138.3381804
0
LINE
8
DEFAULT_255_2_778
10
28.8888343
20
138.3381804
11
28.9780343
21
143.4467804
0
LINE
8
DEFAULT_255_2_778
10
28.9780343
20
143.4467804
11
30.8888343
21
145.3575804
0
LINE
8
DEFAULT_255_2_778
10
30.8888343
20
145.3575804
11
56.4388343
21
145.3575804
0
LINE
8
DEFAULT_255_2_778
10
56.4388343
20
145.3575804
11
56.4388343
21
143.7610804
0
LINE
8
DEFAULT_255_2_778
10
56.4388343
20
143.7610804
11
54.5851343
21
141.9073804
0
LINE
8
DEFAULT_255_2_778
10
54.5851343
20
141.9073804
11
54.5851343
21
141.6573804
0
LINE
8
DEFAULT_255_2_778
10
54.5851343
20
141.6573804
11
48.9887343
21
141.6573804
0
LINE
8
DEFAULT_255_2_778
10
48.9887343
20
141.6573804
11
48.9887343
21
141.9073804
0
LINE
8
DEFAULT_255_2_778
10
48.9887343
20
141.9073804
11
54.5851343
21
141.9073804
0
LINE
8
DEFAULT_255_2_778
10
54.5851343
20
141.9073804
11
54.7619343
21
141.7306804
0
LINE
8
DEFAULT_255_2_778
10
54.7619343
20
141.7306804
11
56.6155343
21
143.5843804
0
LINE
8
DEFAULT_255_2_778
10
56.6155343
20
143.5843804
11
56.4388343
21
143.7610804
0
LINE
8
DEFAULT_255_2_778
10
56.4388343
20
143.7610804
11
56.6888343
21
143.7610804
0
LINE
8
DEFAULT_255_2_778
10
56.6888343
20
143.7610804
11
56.6888343
21
145.1075804
0
LINE
8
DEFAULT_255_2_778
10
56.6888343
20
145.1075804
11
30.9925343
21
145.1075804
0
LINE
8
DEFAULT_255_2_778
10
30.9925343
20
145.1075804
11
29.2264343
21
143.3414804
0
LINE
8
DEFAULT_255_2_778
10
29.2264343
20
143.3414804
11
29.0142343
21
131.1798804
0
LINE
8
DEFAULT_255_2_778
10
29.0142343
20
131.1798804
11
31.2867343
21
131.1798804
0
LINE
8
DEFAULT_255_2_778
10
28.8888343
20
0.4076804
11
56.6888343
21
0.4076804
0
LINE
8
DEFAULT_255_2_778
10
56.6888343
20
0.4076804
11
56.6888343
21
1.7541804
0
LINE
8
DEFAULT_255_2_778
10
56.6888343
20
1.7541804
11
56.4388343
21
1.7541804
0
LINE
8
DEFAULT_255_2_778
10
56.4388343
20
1.7541804
11
54.5851343
21
3.6075804
0
LINE
8
DEFAULT_255_2_778
10
54.5851343
20
3.6075804
11
48.9887343
21
3.6075804
0
LINE
8
DEFAULT_255_2_778
10
48.9887343
20
3.6075804
11
48.9887343
21
3.8575804
0
LINE
8
DEFAULT_255_2_778
10
48.9887343
20
3.8575804
11
54.5851343
21
3.8575804
0
LINE
8
DEFAULT_255_2_778
10
54.5851343
20
3.8575804
11
54.5851343
21
3.6075804
0
LINE
8
DEFAULT_255_2_778
10
54.5851343
20
3.6075804
11
54.7619343
21
3.7842804
0
LINE
8
DEFAULT_255_2_778
10
54.7619343
20
3.7842804
11
56.6155343
21
1.9306804
0
LINE
8
DEFAULT_255_2_778
10
56.6155343
20
1.9306804
11
56.4388343
21
1.7538804
0
LINE
8
DEFAULT_255_2_778
10
56.4388343
20
1.7538804
11
56.4388343
21
0.1573804
0
LINE
8
DEFAULT_255_2_778
10
56.4388343
20
0.1573804
11
28.8888343
21
0.1573804
0
LINE
8
DEFAULT_255_2_778
10
28.8888343
20
0.1573804
11
28.8888343
21
9.6009804
0
LINE
8
DEFAULT_255_2_778
10
28.8888343
20
9.6009804
11
14.4971343
21
26.7525804
0
LINE
8
DEFAULT_255_2_778
10
14.0293343
20
28.0381804
11
14.0293343
21
34.7172804
0
LINE
8
DEFAULT_255_2_778
10
14.0293343
20
34.7172804
11
3.7870343
21
46.9235804
0
LINE
8
DEFAULT_255_2_778
10
3.3192343
20
48.2091804
11
3.3192343
21
77.7760804
0
LINE
8
DEFAULT_255_2_778
10
3.3192343
20
77.7760804
11
5.4158343
21
77.8126804
0
LINE
8
DEFAULT_255_2_778
10
5.4158343
20
77.8126804
11
5.4158343
21
110.7381804
0
LINE
8
DEFAULT_255_2_778
10
56.6888343
20
10.7708804
11
56.6888343
21
10.7708804
0
LINE
8
DEFAULT_255_2_778
10
56.6888343
20
10.7708804
11
56.6888343
21
10.7708804
0
LINE
8
DEFAULT_255_2_778
10
56.6888343
20
10.7708804
11
56.6888343
21
7.7612804
0
LINE
8
DEFAULT_255_2_778
10
56.6888343
20
7.7612804
11
56.4388343
21
7.7612804
0
LINE
8
DEFAULT_255_2_778
10
56.4388343
20
7.7612804
11
56.6155343
21
7.5845804
0
LINE
8
DEFAULT_255_2_778
10
56.6155343
20
7.5845804
11
54.7619343
21
5.7311804
0
LINE
8
DEFAULT_255_2_778
10
54.7619343
20
5.7311804
11
54.5851343
21
5.9078804
0
LINE
8
DEFAULT_255_2_778
10
54.5851343
20
5.9078804
11
48.9887343
21
5.9078804
0
LINE
8
DEFAULT_255_2_778
10
48.9887343
20
5.9078804
11
48.9887343
21
5.6575804
0
LINE
8
DEFAULT_255_2_778
10
48.9887343
20
5.6575804
11
54.5851343
21
5.6575804
0
LINE
8
DEFAULT_255_2_778
10
54.5851343
20
5.6575804
11
54.5851343
21
5.9075804
0
LINE
8
DEFAULT_255_2_778
10
54.5851343
20
5.9075804
11
56.4388343
21
7.7612804
0
LINE
8
DEFAULT_255_2_778
10
56.4388343
20
7.7612804
11
56.4388343
21
11.0209804
0
LINE
8
DEFAULT_255_2_778
10
56.4388343
20
11.0209804
11
118.6759343
21
11.0209804
0
LINE
8
DEFAULT_255_2_778
10
118.6759343
20
11.0209804
11
118.6759343
21
19.7124804
0
ARC
8
DEFAULT_255_2_778
10
132.1754886
20
11.0206248
40
0.2499847
50
269.9964679
51
0.0264344
0
LINE
8
DEFAULT_255_2_778
10
1.6887732
20
142.7379402
11
28.1889732
21
142.7379402
0
LINE
8
DEFAULT_255_2_778
10
28.1889732
20
142.7379402
11
28.1889732
21
110.7379402
0
LINE
8
DEFAULT_255_2_778
10
28.1889732
20
110.7379402
11
0.1888732
21
110.7379402
0
LINE
8
DEFAULT_255_2_778
10
0.1888732
20
110.7379402
11
0.1888732
21
141.2380402
0
LINE
8
DEFAULT_255_2_778
10
0.1888732
20
141.2380402
11
1.6887732
21
142.7379402
0
LINE
8
DEFAULT_255_2_778
10
1.6887732
20
142.7379402
11
1.6887732
21
110.7379402
0
LINE
8
DEFAULT_255_2_778
10
56.6887732
20
134.7446402
11
56.6887732
21
134.7446402
0
LINE
8
DEFAULT_255_2_778
10
56.6887732
20
134.7446402
11
56.6887732
21
134.7446402
0
LINE
8
DEFAULT_255_2_778
10
56.6887732
20
134.7446402
11
56.6887732
21
137.7542402
0
LINE
8
DEFAULT_255_2_778
10
56.6887732
20
137.7542402
11
56.4387732
21
137.7542402
0
LINE
8
DEFAULT_255_2_778
10
56.4387732
20
137.7542402
11
54.5850732
21
139.6079402
0
LINE
8
DEFAULT_255_2_778
10
54.5850732
20
139.6079402
11
48.9885732
21
139.6079402
0
LINE
8
DEFAULT_255_2_778
10
48.9885732
20
139.6079402
11
48.9885732
21
139.8579402
0
LINE
8
DEFAULT_255_2_778
10
48.9885732
20
139.8579402
11
54.5850732
21
139.8579402
0
LINE
8
DEFAULT_255_2_778
10
54.5850732
20
139.8579402
11
54.5850732
21
139.6079402
0
LINE
8
DEFAULT_255_2_778
10
54.5850732
20
139.6079402
11
54.7618732
21
139.7846402
0
LINE
8
DEFAULT_255_2_778
10
54.7618732
20
139.7846402
11
56.6154732
21
137.9310402
0
LINE
8
DEFAULT_255_2_778
10
56.6154732
20
137.9310402
11
56.4387732
21
137.7542402
0
LINE
8
DEFAULT_255_2_778
10
56.4387732
20
137.7542402
11
56.4387732
21
134.4945402
0
LINE
8
DEFAULT_255_2_778
10
56.4387732
20
134.4945402
11
118.6758732
21
134.4945402
0
LINE
8
DEFAULT_255_2_778
10
118.6758732
20
134.4945402
11
118.6758732
21
125.8030402
0
LINE
8
DEFAULT_255_2_778
10
118.6758732
20
125.8030402
11
119.3053732
21
126.3393402
0
LINE
8
DEFAULT_255_2_778
10
119.3053732
20
126.3393402
11
119.3323732
21
126.4509402
0
LINE
8
DEFAULT_255_2_778
10
119.3323732
20
126.4509402
11
119.7119732
21
126.5999402
0
LINE
8
DEFAULT_255_2_778
10
119.7119732
20
126.5999402
11
127.7659732
21
126.5999402
0
LINE
8
DEFAULT_255_2_778
10
127.7659732
20
126.5999402
11
128.1455732
21
126.4509402
0
LINE
8
DEFAULT_255_2_778
10
128.1455732
20
126.4509402
11
119.3325732
21
126.4509402
0
LINE
8
DEFAULT_255_2_778
10
128.2934732
20
134.7575402
11
132.1886732
21
134.7575402
0
LINE
8
DEFAULT_255_2_778
10
132.1886732
20
134.7575402
11
132.1754732
21
134.7443402
0
LINE
8
DEFAULT_255_2_778
10
132.1754732
20
134.7443402
11
132.1754732
21
10.7706402
0
LINE
8
DEFAULT_255_2_778
10
132.4254732
20
11.0207402
11
132.4254732
21
134.4943402
0
LINE
8
DEFAULT_255_2_778
10
132.4254732
20
134.4943402
11
132.4387732
21
134.5075402
0
LINE
8
DEFAULT_255_2_778
10
132.4387732
20
134.5075402
11
132.4387732
21
11.0074402
0
LINE
8
DEFAULT_255_2_778
10
132.4387732
20
11.0074402
11
132.4254732
21
11.0207402
0
LINE
8
DEFAULT_255_2_778
10
132.4254732
20
11.0207402
11
128.8014732
21
11.0207402
0
LINE
8
DEFAULT_255_2_778
10
128.8014732
20
11.0207402
11
128.8014732
21
19.7122402
0
LINE
8
DEFAULT_255_2_778
10
128.8014732
20
19.7122402
11
118.6758732
21
19.7122402
0
LINE
8
DEFAULT_255_2_778
10
118.6758732
20
19.7122402
11
119.3053732
21
19.1759402
0
LINE
8
DEFAULT_255_2_778
10
119.3053732
20
19.1759402
11
119.3323732
21
19.0643402
0
ARC
8
DEFAULT_255_2_778
10
119.0309311
20
134.5223788
40
0.2747371
50
358.5663442
51
0.0026158
0
ARC
8
DEFAULT_255_2_778
10
119.0226606
20
134.522202
40
0.2830077
50
0.0383221
51
8.3305013
0
ARC
8
DEFAULT_255_2_778
10
119.0300434
20
134.5236739
40
0.2754898
50
8.2500801
51
17.9781545
0
ARC
8
DEFAULT_255_2_778
10
119.0295476
20
134.522103
40
0.2764496
50
18.2561157
51
27.5354784
0
ARC
8
DEFAULT_255_2_778
10
132.1754977
20
134.4886204
40
0.2499846
50
359.9735656
51
90.0035321
0
ARC
8
DEFAULT_255_2_778
10
128.4676797
20
134.5078994
40
0.2978258
50
152.6766316
51
161.2961918
0
ARC
8
DEFAULT_255_2_778
10
128.4476216
20
134.5183738
40
0.2754904
50
162.0218557
51
171.7499114
0
ARC
8
DEFAULT_255_2_778
10
128.4615179
20
134.5166378
40
0.2894921
50
171.8045481
51
180.098685
0
ARC
8
DEFAULT_255_2_778
10
128.4889893
20
134.5161523
40
0.3169629
50
180.0023703
51
181.0751251
0
LINE
8
DEFAULT_255_2_778
10
119.7117822
20
126.600505
11
120.0641822
21
126.669305
0
LINE
8
DEFAULT_255_2_778
10
120.0641822
20
126.669305
11
120.0641822
21
134.466005
0
LINE
8
DEFAULT_255_2_778
10
120.0641822
20
134.466005
11
119.3055822
21
134.515505
0
LINE
8
DEFAULT_255_2_778
10
119.2746822
20
134.649905
11
119.2516822
21
134.685705
0
LINE
8
DEFAULT_255_2_778
10
119.2516822
20
134.685705
11
119.2386822
21
134.701005
0
LINE
8
DEFAULT_255_2_778
10
119.2386822
20
134.701005
11
119.2251822
21
134.714505
0
LINE
8
DEFAULT_255_2_778
10
119.2251822
20
134.714505
11
119.2116822
21
134.726105
0
LINE
8
DEFAULT_255_2_778
10
119.2116822
20
134.726105
11
119.1987822
21
134.735705
0
LINE
8
DEFAULT_255_2_778
10
119.1987822
20
134.735705
11
119.1873822
21
134.743105
0
LINE
8
DEFAULT_255_2_778
10
119.1873822
20
134.743105
11
119.1828822
21
134.746005
0
LINE
8
DEFAULT_255_2_778
10
119.1828822
20
134.746005
11
119.1793822
21
134.748105
0
LINE
8
DEFAULT_255_2_778
10
119.1793822
20
134.748105
11
119.1770822
21
134.749705
0
LINE
8
DEFAULT_255_2_778
10
119.1770822
20
134.749705
11
119.1759822
21
134.750705
0
LINE
8
DEFAULT_255_2_778
10
119.1759822
20
134.750705
11
119.1762822
21
134.751505
0
LINE
8
DEFAULT_255_2_778
10
119.1762822
20
134.751505
11
119.1775822
21
134.751805
0
LINE
8
DEFAULT_255_2_778
10
119.1775822
20
134.751805
11
118.5917822
21
134.743905
0
LINE
8
DEFAULT_255_2_778
10
118.5917822
20
134.743905
11
56.6887822
21
134.743905
0
LINE
8
DEFAULT_255_2_778
10
56.6887822
20
134.743905
11
56.4387822
21
134.493805
0
LINE
8
DEFAULT_255_2_778
10
28.9149822
20
121.096405
11
31.2863822
21
121.096405
0
LINE
8
DEFAULT_255_2_778
10
28.1886822
20
121.138205
11
28.8887822
21
121.138205
0
LINE
8
DEFAULT_255_2_778
10
118.6758822
20
125.797005
11
128.8014822
21
125.797005
0
LINE
8
DEFAULT_255_2_778
10
128.8014822
20
125.797005
11
128.8014822
21
134.488505
0
LINE
8
DEFAULT_255_2_778
10
128.8014822
20
134.488505
11
132.4254822
21
134.488505
0
LINE
8
DEFAULT_255_2_778
10
132.1754822
20
134.738605
11
128.8861822
21
134.738605
0
LINE
8
DEFAULT_255_2_778
10
128.8861822
20
134.738605
11
128.3003822
21
134.746505
0
LINE
8
DEFAULT_255_2_778
10
128.3003822
20
134.746505
11
128.3016822
21
134.746205
0
LINE
8
DEFAULT_255_2_778
10
128.3016822
20
134.746205
11
128.3019822
21
134.745405
0
LINE
8
DEFAULT_255_2_778
10
128.3019822
20
134.745405
11
128.3008822
21
134.744405
0
LINE
8
DEFAULT_255_2_778
10
128.3008822
20
134.744405
11
128.2985822
21
134.742805
0
LINE
8
DEFAULT_255_2_778
10
128.2985822
20
134.742805
11
128.2950822
21
134.740705
0
LINE
8
DEFAULT_255_2_778
10
128.2950822
20
134.740705
11
128.2905822
21
134.737805
0
LINE
8
DEFAULT_255_2_778
10
128.2905822
20
134.737805
11
128.2791822
21
134.730405
0
LINE
8
DEFAULT_255_2_778
10
128.2791822
20
134.730405
11
128.2662822
21
134.720805
0
LINE
8
DEFAULT_255_2_778
10
128.2662822
20
134.720805
11
128.2524822
21
134.709205
0
LINE
8
DEFAULT_255_2_778
10
128.2524822
20
134.709205
11
128.2389822
21
134.695705
0
LINE
8
DEFAULT_255_2_778
10
128.2389822
20
134.695705
11
128.2260822
21
134.680405
0
LINE
8
DEFAULT_255_2_778
10
128.2260822
20
134.680405
11
128.2030822
21
134.644605
0
LINE
8
DEFAULT_255_2_778
10
128.1720822
20
134.510205
11
127.4134822
21
134.460805
0
LINE
8
DEFAULT_255_2_778
10
127.4134822
20
134.460805
11
127.4134822
21
126.664005
0
LINE
8
DEFAULT_255_2_778
10
127.4134822
20
126.664005
11
127.7656822
21
126.595205
0
ARC
8
DEFAULT_255_2_778
10
53.9917671
20
24.2577216
40
2.5044525
50
269.9995019
51
314.995563
0
ARC
8
DEFAULT_255_2_778
10
53.9918564
20
24.2572967
40
2.504089
50
315.0009929
51
0.0062323
0
ARC
8
DEFAULT_255_2_778
10
36.991473
20
121.2578797
40
2.5040894
50
89.9937696
51
134.9990016
0
ARC
8
DEFAULT_255_2_778
10
36.991898
20
121.2577908
40
2.5044527
50
135.0044388
51
180.0004975
0
ARC
8
DEFAULT_255_2_778
10
36.9919559
20
24.2574713
40
2.5045105
50
179.9977632
51
224.9950124
0
ARC
8
DEFAULT_255_2_778
10
36.9916476
20
24.2577796
40
2.5045105
50
225.0049876
51
270.0022368
0
ARC
8
DEFAULT_255_2_778
10
48.9879159
20
140.7601211
40
0.8975486
50
89.9342819
51
137.0459168
0
ARC
8
DEFAULT_255_2_778
10
48.9857801
20
140.7588779
40
0.8968357
50
136.8948098
51
180.0772283
0
ARC
8
DEFAULT_255_2_778
10
48.9864156
20
140.7565779
40
0.8974709
50
179.9303335
51
226.789914
0
ARC
8
DEFAULT_255_2_778
10
48.9877196
20
140.7545758
40
0.8969075
50
226.6416298
51
270.0782994
0
ARC
8
DEFAULT_255_2_778
10
48.9882246
20
140.7617842
40
1.1458851
50
89.9639634
51
126.8405746
0
ARC
8
DEFAULT_255_2_778
10
48.9886511
20
140.7574604
40
1.1496034
50
126.7283755
51
175.6275333
0
ARC
8
DEFAULT_255_2_778
10
49.0062708
20
140.7567564
40
1.1672256
50
175.6590175
51
179.9601077
0
ARC
8
DEFAULT_255_2_778
10
48.984951
20
140.7568275
40
1.1459059
50
179.9629184
51
216.8366544
0
ARC
8
DEFAULT_255_2_778
10
48.9892147
20
140.7572415
40
1.1495687
50
216.7257632
51
265.6200651
0
ARC
8
DEFAULT_255_2_778
10
48.989938
20
140.7747812
40
1.1671126
50
265.6504214
51
269.9512698
0
ARC
8
DEFAULT_255_2_778
10
38.3866934
20
128.5920696
40
4.8281848
50
57.7510505
51
70.2193892
0
ARC
8
DEFAULT_255_2_778
10
38.408518
20
128.6309435
40
4.7836627
50
39.8835508
51
57.7236798
0
ARC
8
DEFAULT_255_2_778
10
38.3753537
20
128.6015819
40
4.827939
50
1.0203756
51
39.8985596
0
ARC
8
DEFAULT_255_2_778
10
38.4242781
20
128.6076925
40
4.7789165
50
0.0000187
51
0.9575712
0
ARC
8
DEFAULT_255_2_778
10
38.4252361
20
128.6077084
40
4.7779586
50
354.4943184
51
359.9998286
0
ARC
8
DEFAULT_255_2_778
10
38.4146987
20
128.6087344
40
4.788546
50
351.051786
51
354.4941955
0
ARC
8
DEFAULT_255_2_778
10
38.3887773
20
128.6129932
40
4.8148141
50
346.3195754
51
351.049702
0
ARC
8
DEFAULT_255_2_778
10
38.3388078
20
128.6252097
40
4.8662552
50
342.0522296
51
346.3189656
0
ARC
8
DEFAULT_255_2_778
10
38.2991386
20
128.637664
40
4.9078318
50
341.2657301
51
342.0566169
0
ARC
8
DEFAULT_255_2_778
10
38.3745108
20
128.6091124
40
4.8272836
50
328.6427986
51
341.2993304
0
ARC
8
DEFAULT_255_2_778
10
38.412454
20
128.5887911
40
4.7843086
50
310.5141659
51
328.6141589
0
ARC
8
DEFAULT_255_2_778
10
38.3830115
20
128.6209067
40
4.8278515
50
272.0899324
51
310.5322062
0
ARC
8
DEFAULT_255_2_778
10
38.3900224
20
128.5712258
40
4.7779506
50
270.0000897
51
272.0276418
0
ARC
8
DEFAULT_255_2_778
10
38.3900728
20
128.5722878
40
4.7790125
50
264.6176634
51
269.9994848
0
ARC
8
DEFAULT_255_2_778
10
38.3916533
20
128.5884757
40
4.7952773
50
260.3964183
51
264.6170052
0
ARC
8
DEFAULT_255_2_778
10
38.397107
20
128.6202964
40
4.8275619
50
256.3736508
51
260.3956048
0
ARC
8
DEFAULT_255_2_778
10
38.4089567
20
128.6689692
40
4.8776564
50
252.5905806
51
256.3730704
0
ARC
8
DEFAULT_255_2_778
10
38.4157238
20
128.6918353
40
4.9014998
50
252.3421983
51
252.5950736
0
ARC
8
DEFAULT_255_2_778
10
38.3903612
20
128.6213794
40
4.8266708
50
239.6044101
51
252.3753914
0
ARC
8
DEFAULT_255_2_778
10
38.3713658
20
128.5841083
40
4.784912
50
221.1933159
51
239.5747921
0
ARC
8
DEFAULT_255_2_778
10
38.4024618
20
128.6136229
40
4.8277503
50
183.3609054
51
221.2138437
0
ARC
8
DEFAULT_255_2_778
10
38.3519823
20
128.6055309
40
4.776886
50
180.0000673
51
183.2995092
0
ARC
8
DEFAULT_255_2_778
10
38.3555129
20
128.6054471
40
4.7804166
50
174.3942317
51
179.9990629
0
ARC
8
DEFAULT_255_2_778
10
38.3791398
20
128.6030555
40
4.8041641
50
169.7105901
51
174.39337
0
ARC
8
DEFAULT_255_2_778
10
38.4178396
20
128.5960722
40
4.843489
50
166.1721059
51
169.7110827
0
ARC
8
DEFAULT_255_2_778
10
38.461569
20
128.5853739
40
4.8885081
50
163.4146107
51
166.172848
0
ARC
8
DEFAULT_255_2_778
10
38.4031929
20
128.6060246
40
4.8266671
50
150.5698182
51
163.4517481
0
ARC
8
DEFAULT_255_2_778
10
38.3666231
20
128.6237303
40
4.7861172
50
131.8773905
51
150.5393128
0
ARC
8
DEFAULT_255_2_778
10
38.3956893
20
128.5943793
40
4.8273745
50
94.1742435
51
131.9017103
0
ARC
8
DEFAULT_255_2_778
10
38.3867837
20
128.6448262
40
4.7764159
50
89.9999787
51
94.1117466
0
ARC
8
DEFAULT_255_2_778
10
38.3866704
20
128.6381087
40
4.7831334
50
84.5034261
51
89.9986213
0
ARC
8
DEFAULT_255_2_778
10
38.3837759
20
128.6090448
40
4.8123409
50
79.6558979
51
84.5022681
0
ARC
8
DEFAULT_255_2_778
10
38.3790212
20
128.5813823
40
4.8404076
50
78.9649894
51
79.6593263
0
ARC
8
DEFAULT_255_2_778
10
38.3746641
20
128.5597666
40
4.8624579
50
76.1707379
51
78.9633504
0
ARC
8
DEFAULT_255_2_778
10
38.3663977
20
128.525751
40
4.8974634
50
74.4944469
51
76.1719549
0
ARC
8
DEFAULT_255_2_778
10
39.5828361
20
128.6075176
40
0.3279907
50
179.9909961
51
209.9502086
0
ARC
8
DEFAULT_255_2_778
10
39.5828361
20
128.6076206
40
0.3279907
50
150.0497914
51
180.0090039
0
ARC
8
DEFAULT_255_2_778
10
39.3505976
20
129.1621308
40
0.1502979
50
329.6857686
51
0.0087978
0
ARC
8
DEFAULT_255_2_778
10
39.3505194
20
129.1622018
40
0.1503763
50
0.0131913
51
30.0788781
0
ARC
8
DEFAULT_255_2_778
10
39.3501337
20
129.1623187
40
0.1506516
50
29.9668834
51
90.0481299
0
ARC
8
DEFAULT_255_2_778
10
39.3498666
20
129.214338
40
0.0986323
50
89.9183642
51
90.2447185
0
ARC
8
DEFAULT_255_2_778
10
38.9859242
20
129.6410348
40
0.3280658
50
210.0469587
51
269.9513059
0
ARC
8
DEFAULT_255_2_778
10
38.3891228
20
128.6074448
40
1.1666493
50
82.789969
51
90.0013471
0
ARC
8
DEFAULT_255_2_778
10
38.3890679
20
128.6074448
40
1.1666493
50
89.9986529
51
97.210031
0
ARC
8
DEFAULT_255_2_778
10
37.7922665
20
129.6410348
40
0.3280658
50
270.0486941
51
329.9530413
0
ARC
8
DEFAULT_255_2_778
10
37.4283241
20
129.214338
40
0.098632
50
89.7552815
51
90.0816358
0
ARC
8
DEFAULT_255_2_778
10
37.428057
20
129.1623187
40
0.1506515
50
89.9518701
51
150.0331166
0
ARC
8
DEFAULT_255_2_778
10
37.4276713
20
129.1622018
40
0.1503762
50
149.9211219
51
179.9868087
0
ARC
8
DEFAULT_255_2_778
10
37.427593
20
129.1621311
40
0.1502979
50
179.9852353
51
210.3143644
0
ARC
8
DEFAULT_255_2_778
10
37.1962809
20
128.6074186
40
0.3271395
50
359.9891444
51
30.016337
0
ARC
8
DEFAULT_255_2_778
10
37.3599554
20
128.6072662
40
0.163465
50
359.9049296
51
0.0316901
0
ARC
8
DEFAULT_255_2_778
10
37.1958725
20
128.6073289
40
0.3275478
50
330.0028495
51
359.9415902
0
ARC
8
DEFAULT_255_2_778
10
37.4279082
20
128.0525217
40
0.1506132
50
149.7181301
51
180.0012945
0
ARC
8
DEFAULT_255_2_778
10
37.427987
20
128.0525213
40
0.1506919
50
180.028901
51
210.0466384
0
ARC
8
DEFAULT_255_2_778
10
37.428057
20
128.0523195
40
0.1506516
50
209.9668834
51
270.0481299
0
ARC
8
DEFAULT_255_2_778
10
37.4283241
20
128.0003002
40
0.0986323
50
269.9183642
51
270.2447185
0
ARC
8
DEFAULT_255_2_778
10
37.7922665
20
127.5736034
40
0.3280658
50
30.0469587
51
89.9513059
0
ARC
8
DEFAULT_255_2_778
10
38.3890679
20
128.6071934
40
1.1666493
50
262.789969
51
270.0013471
0
ARC
8
DEFAULT_255_2_778
10
38.3891228
20
128.6071934
40
1.1666493
50
269.9986529
51
277.210031
0
ARC
8
DEFAULT_255_2_778
10
38.9859242
20
127.5736034
40
0.3280658
50
90.0486941
51
149.9530413
0
ARC
8
DEFAULT_255_2_778
10
39.3498666
20
128.0003002
40
0.098632
50
269.7552815
51
270.0816358
0
ARC
8
DEFAULT_255_2_778
10
39.3501337
20
128.0523195
40
0.1506515
50
269.9518701
51
330.0331166
0
ARC
8
DEFAULT_255_2_778
10
39.3502037
20
128.0525213
40
0.1506919
50
329.9533616
51
359.971099
0
ARC
8
DEFAULT_255_2_778
10
39.3502823
20
128.052522
40
0.1506133
50
0.0046733
51
30.2817273
0
ARC
8
DEFAULT_255_2_778
10
38.4279306
20
128.6115456
40
4.536887
50
165.7153765
51
180.0502186
0
ARC
8
DEFAULT_255_2_778
10
38.365334
20
128.6244836
40
4.4730344
50
143.5059338
51
165.6781401
0
ARC
8
DEFAULT_255_2_778
10
38.3803517
20
128.6164605
40
4.4898799
50
109.2699259
51
143.5376025
0
ARC
8
DEFAULT_255_2_778
10
38.3792028
20
128.6059751
40
4.499401
50
93.5904955
51
109.212051
0
ARC
8
DEFAULT_255_2_778
10
38.3888895
20
128.4967391
40
4.6090302
50
89.9955762
51
93.6256355
0
ARC
8
DEFAULT_255_2_778
10
38.3932218
20
128.5688838
40
4.536887
50
75.7153765
51
90.0502186
0
ARC
8
DEFAULT_255_2_778
10
38.4061599
20
128.6314805
40
4.4730344
50
53.5059338
51
75.6781401
0
ARC
8
DEFAULT_255_2_778
10
38.3981367
20
128.6164628
40
4.4898799
50
19.2699259
51
53.5376025
0
ARC
8
DEFAULT_255_2_778
10
38.3876513
20
128.6176116
40
4.499401
50
3.5904955
51
19.212051
0
ARC
8
DEFAULT_255_2_778
10
38.2784153
20
128.607925
40
4.6090302
50
359.9955762
51
3.6256355
0
ARC
8
DEFAULT_255_2_778
10
38.3505601
20
128.6035926
40
4.536887
50
345.7153765
51
0.0502186
0
ARC
8
DEFAULT_255_2_778
10
38.4131567
20
128.5906546
40
4.4730344
50
323.5059338
51
345.6781401
0
ARC
8
DEFAULT_255_2_778
10
38.398139
20
128.5986777
40
4.4898799
50
289.2699259
51
323.5376025
0
ARC
8
DEFAULT_255_2_778
10
38.3992879
20
128.6091631
40
4.499401
50
273.5904955
51
289.212051
0
ARC
8
DEFAULT_255_2_778
10
38.3896012
20
128.7183991
40
4.6090302
50
269.9955762
51
273.6256355
0
ARC
8
DEFAULT_255_2_778
10
38.3852689
20
128.6462544
40
4.536887
50
255.7153765
51
270.0502186
0
ARC
8
DEFAULT_255_2_778
10
38.3723308
20
128.5836577
40
4.4730344
50
233.5059338
51
255.6781401
0
ARC
8
DEFAULT_255_2_778
10
38.380354
20
128.5986754
40
4.4898799
50
199.2699259
51
233.5376025
0
ARC
8
DEFAULT_255_2_778
10
38.3908394
20
128.5975266
40
4.499401
50
183.5904955
51
199.212051
0
ARC
8
DEFAULT_255_2_778
10
38.5000754
20
128.6072132
40
4.6090302
50
179.9955762
51
183.6256355
0
ARC
8
DEFAULT_255_2_778
10
38.3899092
20
128.6108125
40
3.6257653
50
163.4620366
51
180.0512542
0
ARC
8
DEFAULT_255_2_778
10
38.3923526
20
128.6039036
40
3.630079
50
127.729827
51
163.3684774
0
ARC
8
DEFAULT_255_2_778
10
38.3838156
20
128.6223819
40
3.6102433
50
102.6820957
51
127.8021274
0
ARC
8
DEFAULT_255_2_778
10
38.3870364
20
128.595185
40
3.6374848
50
89.9652051
51
102.6375399
0
ARC
8
DEFAULT_255_2_778
10
38.3924846
20
128.6071846
40
3.625486
50
73.4613953
51
90.0511918
0
ARC
8
DEFAULT_255_2_778
10
38.3854715
20
128.6044704
40
3.6300891
50
37.6590823
51
73.3674786
0
ARC
8
DEFAULT_255_2_778
10
38.4040053
20
128.6130296
40
3.6101902
50
12.657732
51
37.7312524
0
ARC
8
DEFAULT_255_2_778
10
38.3766725
20
128.6097727
40
3.6375735
50
359.9652903
51
12.6134459
0
ARC
8
DEFAULT_255_2_778
10
38.3887424
20
128.6043312
40
3.6255043
50
343.4614603
51
0.0511704
0
ARC
8
DEFAULT_255_2_778
10
38.3860046
20
128.6113487
40
3.6301316
50
307.6598001
51
343.3675833
0
ARC
8
DEFAULT_255_2_778
10
38.3946567
20
128.5926907
40
3.6100775
50
282.6583529
51
307.7320143
0
ARC
8
DEFAULT_255_2_778
10
38.3914465
20
128.6198407
40
3.6372723
50
269.9653258
51
282.6139713
0
ARC
8
DEFAULT_255_2_778
10
38.3860032
20
128.6083513
40
3.6257836
50
253.4621016
51
270.0512328
0
ARC
8
DEFAULT_255_2_778
10
38.3928879
20
128.610768
40
3.6300651
50
217.8006782
51
253.3687897
0
ARC
8
DEFAULT_255_2_778
10
38.3744098
20
128.6022279
40
3.6102332
50
192.7070411
51
217.8733266
0
ARC
8
DEFAULT_255_2_778
10
38.4012466
20
128.6053561
40
3.6371019
50
179.9651383
51
192.6621188
0
ARC
8
DEFAULT_255_2_778
10
38.4051629
20
128.6111447
40
3.1533198
50
162.2992495
51
180.0686019
0
ARC
8
DEFAULT_255_2_778
10
38.3832645
20
128.6132725
40
3.1318146
50
106.5403048
51
162.2145268
0
ARC
8
DEFAULT_255_2_778
10
38.3858366
20
128.5878488
40
3.1569221
50
89.9381342
51
106.4536936
0
ARC
8
DEFAULT_255_2_778
10
38.3930162
20
128.5916022
40
3.1531691
50
72.2982855
51
90.0685193
0
ARC
8
DEFAULT_255_2_778
10
38.3950424
20
128.6132484
40
3.1319352
50
16.5408967
51
72.2131913
0
ARC
8
DEFAULT_255_2_778
10
38.3699201
20
128.6107698
40
3.156727
50
359.9382763
51
16.4542051
0
ARC
8
DEFAULT_255_2_778
10
38.3732052
20
128.6035933
40
3.1534424
50
342.2990585
51
0.0686033
0
ARC
8
DEFAULT_255_2_778
10
38.3951113
20
128.6014619
40
3.1319287
50
286.5411861
51
342.2143569
0
ARC
8
DEFAULT_255_2_778
10
38.3926481
20
128.6265662
40
3.156699
50
269.938239
51
286.4543173
0
ARC
8
DEFAULT_255_2_778
10
38.3855169
20
128.6236832
40
3.1538163
50
252.4756836
51
270.0677346
0
ARC
8
DEFAULT_255_2_778
10
38.3833717
20
128.6013191
40
3.1318479
50
196.8643675
51
252.3899125
0
ARC
8
DEFAULT_255_2_778
10
38.408048
20
128.6038637
40
3.1562048
50
179.9363649
51
196.7786168
0
ARC
8
DEFAULT_255_2_778
10
38.404597
20
128.6110464
40
3.0152539
50
162.1238259
51
180.0698758
0
ARC
8
DEFAULT_255_2_778
10
38.3833558
20
128.6133172
40
2.9943443
50
105.6411039
51
162.0404171
0
ARC
8
DEFAULT_255_2_778
10
38.3864304
20
128.5856869
40
3.0217837
50
89.9428337
51
105.5559944
0
ARC
8
DEFAULT_255_2_778
10
38.3931275
20
128.5919438
40
3.0155276
50
72.1246433
51
90.0699612
0
ARC
8
DEFAULT_255_2_778
10
38.3955044
20
128.6134461
40
2.9943368
50
15.6413945
51
72.0416389
0
ARC
8
DEFAULT_255_2_778
10
38.3678737
20
128.6103833
40
3.0217733
50
359.9428473
51
15.5560638
0
ARC
8
DEFAULT_255_2_778
10
38.3741357
20
128.603687
40
3.0155119
50
342.124547
51
0.0699611
0
ARC
8
DEFAULT_255_2_778
10
38.3956261
20
128.6013288
40
2.9943383
50
285.6401747
51
342.0412717
0
ARC
8
DEFAULT_255_2_778
10
38.3924632
20
128.6292268
40
3.0220593
50
269.9427837
51
285.5553241
0
ARC
8
DEFAULT_255_2_778
10
38.3857681
20
128.6224051
40
3.0152382
50
252.1237296
51
270.0698757
0
ARC
8
DEFAULT_255_2_778
10
38.383516
20
128.6011758
40
2.9943458
50
195.6398842
51
252.0400499
0
ARC
8
DEFAULT_255_2_778
10
38.4114136
20
128.6043505
40
3.0220698
50
179.9427701
51
195.5552547
0
ARC
8
DEFAULT_255_2_778
10
38.4005473
20
128.6110555
40
2.7937043
50
161.0619939
51
180.0756044
0
ARC
8
DEFAULT_255_2_778
10
38.3832339
20
128.6129067
40
2.7767301
50
103.2218591
51
160.9821805
0
ARC
8
DEFAULT_255_2_778
10
38.3872766
20
128.5791772
40
2.8104927
50
89.9557873
51
103.1448164
0
ARC
8
DEFAULT_255_2_778
10
38.3931541
20
128.5948996
40
2.794772
50
71.0656408
51
90.0760328
0
ARC
8
DEFAULT_255_2_778
10
38.3954348
20
128.6132344
40
2.7766919
50
13.2937407
51
70.9873931
0
ARC
8
DEFAULT_255_2_778
10
38.3619364
20
128.6092576
40
2.8102097
50
359.9553804
51
13.2156019
0
ARC
8
DEFAULT_255_2_778
10
38.3776691
20
128.6033638
40
2.7944787
50
341.0645901
51
0.0759708
0
ARC
8
DEFAULT_255_2_778
10
38.3957166
20
128.6012186
40
2.7767143
50
283.2921745
51
340.9856146
0
ARC
8
DEFAULT_255_2_778
10
38.3916358
20
128.6349906
40
2.8105224
50
269.9553457
51
283.2148451
0
ARC
8
DEFAULT_255_2_778
10
38.3857423
20
128.6189732
40
2.7945066
50
251.0647363
51
270.0759226
0
ARC
8
DEFAULT_255_2_778
10
38.3835711
20
128.6008952
40
2.7767049
50
193.2934942
51
250.986067
0
ARC
8
DEFAULT_255_2_778
10
38.4170689
20
128.6048815
40
2.8102245
50
179.9553979
51
193.2155491
0
ARC
8
DEFAULT_255_2_778
10
38.3878972
20
128.6074564
40
1.3863533
50
286.8279741
51
358.2295107
0
ARC
8
DEFAULT_255_2_778
10
38.3768446
20
128.6074498
40
1.3974005
50
358.2437813
51
0.0007908
0
ARC
8
DEFAULT_255_2_778
10
38.3878896
20
128.6074878
40
1.3863558
50
359.9992254
51
71.4007366
0
ARC
8
DEFAULT_255_2_778
10
38.3848181
20
128.5972131
40
1.3970737
50
71.4157487
51
73.1730738
0
ARC
8
DEFAULT_255_2_778
10
38.3906247
20
128.6074891
40
1.3863843
50
106.8332527
51
178.2298532
0
ARC
8
DEFAULT_255_2_778
10
38.401646
20
128.6074884
40
1.3974005
50
178.2437813
51
180.0007908
0
ARC
8
DEFAULT_255_2_778
10
38.3906396
20
128.6074467
40
1.3863943
50
179.9990728
51
251.3955312
0
ARC
8
DEFAULT_255_2_778
10
38.3935076
20
128.6172891
40
1.3966375
50
251.4128419
51
253.1704474
0
ARC
8
DEFAULT_255_2_778
10
39.6142297
20
133.0286992
40
0.2249318
50
58.4434989
51
74.2341171
0
ARC
8
DEFAULT_255_2_778
10
42.1874893
20
133.4373925
40
0.0904083
50
74.634432
51
89.3940773
0
ARC
8
DEFAULT_255_2_778
10
42.0675526
20
131.6903109
40
1.8414574
50
86.2357907
51
88.831668
0
ARC
8
DEFAULT_255_2_778
10
41.9665444
20
127.8380255
40
5.6950457
50
88.6059098
51
90.049288
0
ARC
8
DEFAULT_255_2_778
10
41.9535304
20
127.5643749
40
5.9686997
50
89.9221018
51
91.4504812
0
ARC
8
DEFAULT_255_2_778
10
41.8304379
20
132.1454415
40
1.3860035
50
91.157276
51
94.2372948
0
ARC
8
DEFAULT_255_2_778
10
41.7261283
20
133.492258
40
0.0354494
50
86.9253112
51
114.2910902
0
ARC
8
DEFAULT_255_2_778
10
41.7289172
20
133.5672564
40
0.0460867
50
247.8558473
51
272.7381127
0
ARC
8
DEFAULT_255_2_778
10
41.8424901
20
135.1009257
40
1.5836245
50
265.9672399
51
268.7156462
0
ARC
8
DEFAULT_255_2_778
10
41.9674836
20
139.5548367
40
6.0392705
50
268.4772252
51
269.944611
0
ARC
8
DEFAULT_255_2_778
10
122.7783402
20
129.7026252
40
0.1512079
50
149.8073037
51
179.9922701
0
ARC
8
DEFAULT_255_2_778
10
122.7776548
20
129.7026111
40
0.1505224
50
179.9869883
51
210.0355201
0
ARC
8
DEFAULT_255_2_778
10
122.7779502
20
129.7026809
40
0.150813
50
210.0023215
51
270.0502605
0
ARC
8
DEFAULT_255_2_778
10
122.7782233
20
129.650822
40
0.0989541
50
269.9184809
51
270.2443711
0
ARC
8
DEFAULT_255_2_778
10
123.1420896
20
129.2238436
40
0.3280257
50
30.0429044
51
89.9378686
0
ARC
8
DEFAULT_255_2_778
10
123.7391004
20
130.2515025
40
1.1608345
50
262.7420929
51
269.0506414
0
ARC
8
DEFAULT_255_2_778
10
123.739021
20
130.2503012
40
1.1596321
50
269.0535786
51
269.9993489
0
ARC
8
DEFAULT_255_2_778
10
123.7390581
20
130.245854
40
1.1551849
50
269.9975078
51
277.2752056
0
ARC
8
DEFAULT_255_2_778
10
124.3357242
20
129.2238034
40
0.3280658
50
90.0486941
51
149.9530413
0
ARC
8
DEFAULT_255_2_778
10
124.6996666
20
129.6505002
40
0.098632
50
269.7552815
51
270.0816358
0
ARC
8
DEFAULT_255_2_778
10
124.6999337
20
129.7025195
40
0.1506515
50
269.9518701
51
330.0331166
0
ARC
8
DEFAULT_255_2_778
10
124.7000037
20
129.7027213
40
0.1506919
50
329.9533616
51
359.971099
0
ARC
8
DEFAULT_255_2_778
10
124.7000809
20
129.7027217
40
0.1506147
50
359.9918717
51
30.2815832
0
ARC
8
DEFAULT_255_2_778
10
124.932626
20
130.2575147
40
0.3279805
50
180.0558519
51
209.9506508
0
ARC
8
DEFAULT_255_2_778
10
124.7681103
20
130.2574662
40
0.163465
50
179.9683099
51
180.0950704
0
ARC
8
DEFAULT_255_2_778
10
124.9322151
20
130.2576332
40
0.3275698
50
150.0301001
51
180.0134051
0
ARC
8
DEFAULT_255_2_778
10
124.700396
20
130.8123312
40
0.1502996
50
329.6859335
51
0.0215973
0
ARC
8
DEFAULT_255_2_778
10
124.7003194
20
130.8124018
40
0.1503763
50
0.0131913
51
30.0788781
0
ARC
8
DEFAULT_255_2_778
10
124.6999337
20
130.8125187
40
0.1506516
50
29.9668834
51
90.0481299
0
ARC
8
DEFAULT_255_2_778
10
124.6996666
20
130.864538
40
0.0986323
50
89.9183642
51
90.2447185
0
ARC
8
DEFAULT_255_2_778
10
124.3357242
20
131.2912348
40
0.3280658
50
210.0469587
51
269.9513059
0
ARC
8
DEFAULT_255_2_778
10
123.7386801
20
130.2726898
40
1.1517557
50
82.6840582
51
89.0426494
0
ARC
8
DEFAULT_255_2_778
10
123.7387938
20
130.2764352
40
1.1480088
50
89.0451986
51
90.0005454
0
ARC
8
DEFAULT_255_2_778
10
123.7387377
20
130.2783459
40
1.1460982
50
89.9977446
51
97.3334605
0
ARC
8
DEFAULT_255_2_778
10
123.1420898
20
131.2911942
40
0.3280254
50
270.0621011
51
329.9571425
0
ARC
8
DEFAULT_255_2_778
10
122.7782233
20
130.8642162
40
0.0989538
50
89.7556289
51
90.0815191
0
ARC
8
DEFAULT_255_2_778
10
122.7779502
20
130.8123573
40
0.1508129
50
89.9497395
51
149.9976785
0
ARC
8
DEFAULT_255_2_778
10
122.7773368
20
130.8125122
40
0.1502045
50
149.9318602
51
180.0265506
0
ARC
8
DEFAULT_255_2_778
10
122.7780233
20
130.8124274
40
0.1508909
50
179.9965826
51
210.2251085
0
ARC
8
DEFAULT_255_2_778
10
122.5456755
20
130.2576332
40
0.3275698
50
359.9865949
51
29.9698999
0
ARC
8
DEFAULT_255_2_778
10
122.7097804
20
130.2574662
40
0.163465
50
359.9049296
51
0.0316901
0
ARC
8
DEFAULT_255_2_778
10
122.5452647
20
130.2575147
40
0.3279806
50
330.0493492
51
359.9441481
0
ARC
8
DEFAULT_255_2_778
10
123.7545122
20
130.2610399
40
3.1531691
50
162.2982855
51
180.0685193
0
ARC
8
DEFAULT_255_2_778
10
123.7328661
20
130.2630662
40
3.1319352
50
106.5408967
51
162.2131913
0
ARC
8
DEFAULT_255_2_778
10
123.7353447
20
130.2379439
40
3.156727
50
89.9382763
51
106.4542051
0
ARC
8
DEFAULT_255_2_778
10
123.7425211
20
130.2412289
40
3.1534424
50
72.2990585
51
90.0686033
0
ARC
8
DEFAULT_255_2_778
10
123.7446526
20
130.263135
40
3.1319287
50
16.5411861
51
72.2143569
0
ARC
8
DEFAULT_255_2_778
10
123.7195482
20
130.2606718
40
3.156699
50
359.938239
51
16.4543173
0
ARC
8
DEFAULT_255_2_778
10
123.7230945
20
130.2534983
40
3.1531531
50
342.2981925
51
0.0685192
0
ARC
8
DEFAULT_255_2_778
10
123.7447304
20
130.2514892
40
3.1319342
50
286.5397367
51
342.2128552
0
ARC
8
DEFAULT_255_2_778
10
123.7421502
20
130.276875
40
3.1570078
50
269.9382058
51
286.4534686
0
ARC
8
DEFAULT_255_2_778
10
123.7349745
20
130.273036
40
3.1531691
50
252.2982855
51
270.0685193
0
ARC
8
DEFAULT_255_2_778
10
123.7329483
20
130.2513898
40
3.1319352
50
196.5408967
51
252.2131913
0
ARC
8
DEFAULT_255_2_778
10
123.7580706
20
130.2538684
40
3.156727
50
179.9382763
51
196.4542051
0
ARC
8
DEFAULT_255_2_778
10
123.754197
20
130.2609464
40
3.0152539
50
162.1238259
51
180.0698758
0
ARC
8
DEFAULT_255_2_778
10
123.7329558
20
130.2632172
40
2.9943443
50
105.6411039
51
162.0404171
0
ARC
8
DEFAULT_255_2_778
10
123.7360304
20
130.2355869
40
3.0217837
50
89.9428337
51
105.5559944
0
ARC
8
DEFAULT_255_2_778
10
123.7427226
20
130.2421174
40
3.0152539
50
72.1238259
51
90.0698758
0
ARC
8
DEFAULT_255_2_778
10
123.7449934
20
130.2633587
40
2.9943443
50
15.6411039
51
72.0404171
0
ARC
8
DEFAULT_255_2_778
10
123.7173631
20
130.2602841
40
3.0217837
50
359.9428337
51
15.5559944
0
ARC
8
DEFAULT_255_2_778
10
123.7238937
20
130.2535918
40
3.0152539
50
342.1238259
51
0.0698758
0
ARC
8
DEFAULT_255_2_778
10
123.7451349
20
130.251321
40
2.9943443
50
285.6411039
51
342.0404171
0
ARC
8
DEFAULT_255_2_778
10
123.7420603
20
130.2789513
40
3.0217837
50
269.9428337
51
285.5559944
0
ARC
8
DEFAULT_255_2_778
10
123.7353681
20
130.2724207
40
3.0152539
50
252.1238259
51
270.0698758
0
ARC
8
DEFAULT_255_2_778
10
123.7330972
20
130.2511795
40
2.9943443
50
195.6411039
51
252.0404171
0
ARC
8
DEFAULT_255_2_778
10
123.7607276
20
130.2542541
40
3.0217837
50
179.9428337
51
195.5559944
0
ARC
8
DEFAULT_255_2_778
10
123.7504144
20
130.2609611
40
2.7939715
50
161.0629078
51
180.0757115
0
ARC
8
DEFAULT_255_2_778
10
123.7328425
20
130.2629218
40
2.7767171
50
103.2221056
51
160.9835063
0
ARC
8
DEFAULT_255_2_778
10
123.7368783
20
130.2291773
40
2.8104927
50
89.9558222
51
103.1448522
0
ARC
8
DEFAULT_255_2_778
10
123.7427507
20
130.2451928
40
2.7944787
50
71.0645901
51
90.0759708
0
ARC
8
DEFAULT_255_2_778
10
123.7448958
20
130.2632404
40
2.7767143
50
13.2921745
51
70.9856146
0
ARC
8
DEFAULT_255_2_778
10
123.7111238
20
130.2591595
40
2.8105224
50
359.9553457
51
13.2148451
0
ARC
8
DEFAULT_255_2_778
10
123.7271412
20
130.2532661
40
2.7945066
50
341.0647363
51
0.0759226
0
ARC
8
DEFAULT_255_2_778
10
123.7452192
20
130.2510948
40
2.7767049
50
283.2934942
51
340.986067
0
ARC
8
DEFAULT_255_2_778
10
123.741233
20
130.2845927
40
2.8102245
50
269.9553979
51
283.2155491
0
ARC
8
DEFAULT_255_2_778
10
123.7353423
20
130.2688732
40
2.7945066
50
251.0647363
51
270.0759226
0
ARC
8
DEFAULT_255_2_778
10
123.7331711
20
130.2507952
40
2.7767049
50
193.2934942
51
250.986067
0
ARC
8
DEFAULT_255_2_778
10
123.7666689
20
130.2547815
40
2.8102245
50
179.9553979
51
193.2155491
0
ARC
8
DEFAULT_255_2_778
10
123.7374944
20
130.2570508
40
1.3862531
50
286.8293469
51
358.2337488
0
ARC
8
DEFAULT_255_2_778
10
123.7263448
20
130.2571498
40
1.3974005
50
358.2437814
51
0.0007908
0
ARC
8
DEFAULT_255_2_778
10
123.7373018
20
130.2571515
40
1.3864436
50
0.0007261
51
71.3937754
0
ARC
8
DEFAULT_255_2_778
10
123.7339355
20
130.2461134
40
1.3979789
50
71.407362
51
73.1636284
0
ARC
8
DEFAULT_255_2_778
10
123.7402852
20
130.257035
40
1.3865494
50
106.8338009
51
178.2239744
0
ARC
8
DEFAULT_255_2_778
10
123.7506999
20
130.2571884
40
1.3969544
50
178.2435014
51
180.0007904
0
ARC
8
DEFAULT_255_2_778
10
123.7401011
20
130.2571504
40
1.3863558
50
179.9992254
51
251.4007366
0
ARC
8
DEFAULT_255_2_778
10
123.7431726
20
130.2674251
40
1.3970737
50
251.4157487
51
253.1730738
0
ARC
8
DEFAULT_255_2_778
10
126.4392742
20
125.7517752
40
1.0950732
50
122.0573034
51
129.1939601
0
ARC
8
DEFAULT_255_2_778
10
126.4431649
20
125.7594912
40
1.0852709
50
50.7960888
51
58.0015898
0
ARC
8
DEFAULT_255_2_778
10
120.1411633
20
126.1628363
40
0.5120649
50
92.1797618
51
98.7297215
0
ARC
8
DEFAULT_255_2_778
10
120.2774995
20
123.6781078
40
3.0004713
50
90.4837815
51
92.9766725
0
ARC
8
DEFAULT_255_2_778
10
120.3046832
20
122.0355033
40
4.6432659
50
89.9955312
51
90.6480629
0
ARC
8
DEFAULT_255_2_778
10
127.1782689
20
122.8301331
40
3.848642
50
87.8119478
51
90.1015838
0
ARC
8
DEFAULT_255_2_778
10
127.2943234
20
125.6735625
40
1.0028823
50
83.7609913
51
88.2352609
0
ARC
8
DEFAULT_255_2_778
10
127.3842071
20
126.517826
40
0.1538697
50
79.1977486
51
82.8672611
0
ARC
8
DEFAULT_255_2_778
10
127.6539318
20
134.4809222
40
0.2350576
50
93.7775897
51
116.0119324
0
ARC
8
DEFAULT_255_2_778
10
127.6559997
20
134.4766551
40
0.2397993
50
116.0088416
51
137.9817007
0
ARC
8
DEFAULT_255_2_778
10
127.6634156
20
134.4701508
40
0.2496626
50
138.0119122
51
159.3812103
0
ARC
8
DEFAULT_255_2_778
10
127.6714885
20
134.4666703
40
0.2584443
50
159.2892738
51
179.9748011
0
ARC
8
DEFAULT_255_2_778
10
127.6896814
20
134.4668518
40
0.2766374
50
180.0140657
51
180.1828304
0
ARC
8
DEFAULT_255_2_778
10
119.801803
20
134.4659635
40
0.2616423
50
0.0012342
51
2.5662701
0
ARC
8
DEFAULT_255_2_778
10
119.8020266
20
134.4661546
40
0.2614106
50
2.5266144
51
20.5857969
0
ARC
8
DEFAULT_255_2_778
10
119.8159203
20
134.471881
40
0.2463911
50
20.475192
51
42.1316258
0
ARC
8
DEFAULT_255_2_778
10
119.8209754
20
134.4772981
40
0.239009
50
41.9815198
51
64.0279379
0
ARC
8
DEFAULT_255_2_778
10
119.8236637
20
134.4850759
40
0.2308416
50
63.7823586
51
86.4280962
0
ARC
8
DEFAULT_255_2_778
10
129.2908515
20
134.5217456
40
0.488083
50
166.7072204
51
171.8938313
0
ARC
8
DEFAULT_255_2_778
10
129.4678467
20
134.4945775
40
0.6671433
50
171.7273065
51
176.8801762
0
ARC
8
DEFAULT_255_2_778
10
129.5568649
20
134.4890148
40
0.7563327
50
176.8264195
51
179.662567
0
ARC
8
DEFAULT_255_2_778
10
118.0038602
20
134.4932298
40
0.6707852
50
0.0204382
51
8.3437894
0
ARC
8
DEFAULT_255_2_778
10
118.1014344
20
134.5060813
40
0.5723808
50
8.4883107
51
12.9106464
0
LINE
8
DEFAULT_255_2_778
10
28.1887453
20
131.1533691
11
28.8888453
21
131.1536691
0
LINE
8
DEFAULT_255_2_778
10
28.1887453
20
141.0760691
11
28.9367453
21
141.0890691
0
LINE
8
DEFAULT_255_2_778
10
28.1887453
20
141.3258691
11
28.9412453
21
141.3390691
0
LINE
8
DEFAULT_255_2_778
10
30.8888453
20
145.3575691
11
30.9922453
21
145.1075691
0
LINE
8
DEFAULT_255_2_778
10
28.9780453
20
143.4467691
11
29.2261453
21
143.3414691
0
LINE
8
DEFAULT_255_2_778
10
28.9145453
20
131.1795691
11
29.0139453
21
131.1798691
0
LINE
8
DEFAULT_255_2_778
10
28.1887453
20
131.1380691
11
28.8888453
21
131.1380691
0
LINE
8
DEFAULT_255_2_778
10
28.8888453
20
131.1380691
11
31.2864453
21
131.1798691
0
LINE
8
DEFAULT_255_2_778
10
31.2864453
20
131.1798691
11
31.2864453
21
121.0960691
0
LINE
8
DEFAULT_255_2_778
10
31.2864453
20
121.0960691
11
28.8888453
21
121.1378691
0
LINE
8
DEFAULT_255_2_778
10
28.8888453
20
121.1378691
11
28.8888453
21
131.1380691
0
LINE
8
DEFAULT_255_2_778
10
28.1887453
20
121.1225691
11
28.8888453
21
121.1222691
0
LINE
8
DEFAULT_255_2_778
10
28.8888453
20
121.1222691
11
28.9150453
21
121.0960691
0
LINE
8
DEFAULT_255_2_778
10
28.9150453
20
121.0960691
11
28.9150453
21
110.7418691
0
LINE
8
DEFAULT_255_2_778
10
28.9150453
20
110.7418691
11
28.8888453
21
110.7680691
0
LINE
8
DEFAULT_255_2_778
10
28.8888453
20
110.7680691
11
28.8888453
21
121.1222691
0
LINE
8
DEFAULT_255_2_778
10
37.9489453
20
143.8576691
11
32.3890453
21
143.8576691
0
LINE
8
DEFAULT_255_2_778
10
32.3890453
20
143.8576691
11
32.3890453
21
144.4047691
0
LINE
8
DEFAULT_255_2_778
10
32.3890453
20
144.4047691
11
46.6476453
21
144.4047691
0
LINE
8
DEFAULT_255_2_778
10
46.6476453
20
144.4047691
11
46.6476453
21
137.1604691
0
LINE
8
DEFAULT_255_2_778
10
46.6476453
20
137.1604691
11
45.2268453
21
137.1604691
0
LINE
8
DEFAULT_255_2_778
10
45.2268453
20
137.1604691
11
45.2268453
21
135.7791691
0
LINE
8
DEFAULT_255_2_778
10
45.2268453
20
135.7791691
11
43.4565453
21
135.7817691
0
LINE
8
DEFAULT_255_2_778
10
43.4565453
20
135.7817691
11
43.4565453
21
133.1332691
0
LINE
8
DEFAULT_255_2_778
10
43.4565453
20
133.1332691
11
40.0206453
21
133.1353691
0
LINE
8
DEFAULT_255_2_778
10
39.6756453
20
133.2449691
11
39.6756453
21
135.7875691
0
LINE
8
DEFAULT_255_2_778
10
39.6756453
20
135.7875691
11
33.5878453
21
135.7968691
0
LINE
8
DEFAULT_255_2_778
10
33.5878453
20
135.7968691
11
33.5878453
21
137.1604691
0
LINE
8
DEFAULT_255_2_778
10
33.5878453
20
137.1604691
11
33.3891453
21
137.1604691
0
LINE
8
DEFAULT_255_2_778
10
33.3891453
20
137.1604691
11
33.3891453
21
137.7076691
0
LINE
8
DEFAULT_255_2_778
10
33.3891453
20
137.7076691
11
35.8492453
21
137.7076691
0
LINE
8
DEFAULT_255_2_778
10
39.4803453
20
128.1289691
11
39.2986453
21
128.4437691
0
LINE
8
DEFAULT_255_2_778
10
39.2986453
20
128.7713691
11
39.4803453
21
129.0862691
0
LINE
8
DEFAULT_255_2_778
10
39.3494453
20
129.3129691
11
38.9856453
21
129.3129691
0
LINE
8
DEFAULT_255_2_778
10
38.7019453
20
129.4767691
11
38.5355453
21
129.7648691
0
LINE
8
DEFAULT_255_2_778
10
38.2426453
20
129.7648691
11
38.0762453
21
129.4767691
0
LINE
8
DEFAULT_255_2_778
10
37.7925453
20
129.3129691
11
37.4287453
21
129.3129691
0
LINE
8
DEFAULT_255_2_778
10
37.2978453
20
129.0862691
11
37.4795453
21
128.7710691
0
LINE
8
DEFAULT_255_2_778
10
37.4795453
20
128.4435691
11
37.2978453
21
128.1284691
0
LINE
8
DEFAULT_255_2_778
10
37.4287453
20
127.9016691
11
37.7925453
21
127.9016691
0
LINE
8
DEFAULT_255_2_778
10
38.0762453
20
127.7378691
11
38.2426453
21
127.4497691
0
LINE
8
DEFAULT_255_2_778
10
38.5355453
20
127.4497691
11
38.7019453
21
127.7378691
0
LINE
8
DEFAULT_255_2_778
10
38.9856453
20
127.9016691
11
39.3494453
21
127.9016691
0
LINE
8
DEFAULT_255_2_778
10
39.4803453
20
128.1284691
11
39.4803453
21
128.1289691
0
LINE
8
DEFAULT_255_2_778
10
33.8910453
20
128.6075691
11
33.8910453
21
128.6075691
0
LINE
8
DEFAULT_255_2_778
10
34.7641453
20
128.6075691
11
34.7641453
21
128.6075691
0
LINE
8
DEFAULT_255_2_778
10
37.9891453
20
129.3785691
11
37.9891453
21
130.7274691
0
LINE
8
DEFAULT_255_2_778
10
37.9891453
20
130.7274691
11
38.7892453
21
130.7274691
0
LINE
8
DEFAULT_255_2_778
10
38.7892453
20
130.7274691
11
38.7892453
21
129.3785691
0
LINE
8
DEFAULT_255_2_778
10
38.7892453
20
127.8363691
11
38.7892453
21
126.4874691
0
LINE
8
DEFAULT_255_2_778
10
38.7892453
20
126.4874691
11
37.9891453
21
126.4874691
0
LINE
8
DEFAULT_255_2_778
10
37.9891453
20
126.4874691
11
37.9891453
21
127.8363691
0
LINE
8
DEFAULT_255_2_778
10
35.2518453
20
128.6073691
11
35.2518453
21
128.6073691
0
LINE
8
DEFAULT_255_2_778
10
35.3893453
20
128.6073691
11
35.3893453
21
128.6073691
0
LINE
8
DEFAULT_255_2_778
10
35.6068453
20
128.6070691
11
35.6068453
21
128.6073691
0
LINE
8
DEFAULT_255_2_778
10
40.0799453
20
133.7574691
11
43.0527453
21
133.7574691
0
LINE
8
DEFAULT_255_2_778
10
40.0201453
20
133.1353691
11
39.8857453
21
133.1769691
0
LINE
8
DEFAULT_255_2_778
10
39.8857453
20
133.1769691
11
39.7489453
21
133.2092691
0
LINE
8
DEFAULT_255_2_778
10
39.7489453
20
133.2092691
11
39.7319453
21
133.2203691
0
LINE
8
DEFAULT_255_2_778
10
40.0793453
20
133.5338691
11
41.9616453
21
133.5327691
0
LINE
8
DEFAULT_255_2_778
10
43.0522453
20
133.4449691
11
42.3299453
21
133.4454691
0
LINE
8
DEFAULT_255_2_778
10
42.3299453
20
133.4454691
11
42.2114453
21
133.5245691
0
LINE
8
DEFAULT_255_2_778
10
41.9616453
20
133.5155691
11
41.9616453
21
133.5155691
0
LINE
8
DEFAULT_255_2_778
10
122.7786453
20
129.5518691
11
123.1424453
21
129.5518691
0
LINE
8
DEFAULT_255_2_778
10
123.4260453
20
129.3880691
11
123.5924453
21
129.0999691
0
LINE
8
DEFAULT_255_2_778
10
123.8853453
20
129.0999691
11
124.0517453
21
129.3880691
0
LINE
8
DEFAULT_255_2_778
10
124.3354453
20
129.5518691
11
124.6992453
21
129.5518691
0
LINE
8
DEFAULT_255_2_778
10
124.8301453
20
129.7786691
11
124.6484453
21
130.0937691
0
LINE
8
DEFAULT_255_2_778
10
124.6484453
20
130.4212691
11
124.8301453
21
130.7364691
0
LINE
8
DEFAULT_255_2_778
10
124.6992453
20
130.9631691
11
124.3354453
21
130.9631691
0
LINE
8
DEFAULT_255_2_778
10
124.0517453
20
131.1269691
11
123.8853453
21
131.4150691
0
LINE
8
DEFAULT_255_2_778
10
123.5924453
20
131.4150691
11
123.4260453
21
131.1269691
0
LINE
8
DEFAULT_255_2_778
10
123.1424453
20
130.9631691
11
122.7786453
21
130.9631691
0
LINE
8
DEFAULT_255_2_778
10
122.6476453
20
130.7364691
11
122.8294453
21
130.4212691
0
LINE
8
DEFAULT_255_2_778
10
122.8294453
20
130.0937691
11
122.6476453
21
129.7786691
0
LINE
8
DEFAULT_255_2_778
10
123.3387453
20
131.0285691
11
123.3387453
21
132.3773691
0
LINE
8
DEFAULT_255_2_778
10
123.3387453
20
132.3773691
11
124.1388453
21
132.3773691
0
LINE
8
DEFAULT_255_2_778
10
124.1388453
20
132.3773691
11
124.1388453
21
131.0285691
0
LINE
8
DEFAULT_255_2_778
10
124.1388453
20
129.4862691
11
124.1388453
21
128.1374691
0
LINE
8
DEFAULT_255_2_778
10
124.1388453
20
128.1374691
11
123.3387453
21
128.1374691
0
LINE
8
DEFAULT_255_2_778
10
123.3387453
20
128.1374691
11
123.3387453
21
129.4862691
0
LINE
8
DEFAULT_255_2_778
10
120.6013453
20
130.2572691
11
120.6013453
21
130.2572691
0
LINE
8
DEFAULT_255_2_778
10
120.7389453
20
130.2572691
11
120.7389453
21
130.2572691
0
LINE
8
DEFAULT_255_2_778
10
120.9564453
20
130.2569691
11
120.9564453
21
130.2572691
0
LINE
8
DEFAULT_255_2_778
10
128.2999453
20
134.7519691
11
128.2761453
21
134.7562691
0
LINE
8
DEFAULT_255_2_778
10
128.2761453
20
134.7562691
11
128.2930453
21
134.7572691
0
LINE
8
DEFAULT_255_2_778
10
128.1718453
20
134.5151691
11
128.1718453
21
134.5059691
0
LINE
8
DEFAULT_255_2_778
10
128.1718453
20
134.5059691
11
128.1718453
21
134.5016691
0
LINE
8
DEFAULT_255_2_778
10
119.3049453
20
134.5016691
11
119.3049453
21
134.5059691
0
LINE
8
DEFAULT_255_2_778
10
119.3049453
20
134.5059691
11
119.3049453
21
134.5151691
0
LINE
8
DEFAULT_255_2_778
10
119.1837453
20
134.7572691
11
119.2006453
21
134.7562691
0
LINE
8
DEFAULT_255_2_778
10
119.2006453
20
134.7562691
11
119.1768453
21
134.7519691
0
LINE
8
DEFAULT_255_2_778
10
128.1716453
20
126.3390691
11
128.8010453
21
125.8027691
0
LINE
8
DEFAULT_255_2_778
10
127.1714453
20
134.7093691
11
119.8396453
21
134.7152691
0
LINE
8
DEFAULT_255_2_778
10
119.8396453
20
134.7152691
11
119.1966453
21
134.7570691
0
LINE
8
DEFAULT_255_2_778
10
127.6384453
20
134.7152691
11
127.1717453
21
134.7091691
0
LINE
8
DEFAULT_255_2_778
10
127.1717453
20
134.7091691
11
127.1717453
21
126.6784691
0
LINE
8
DEFAULT_255_2_778
10
127.1717453
20
126.6784691
11
120.3052453
21
126.6784691
0
LINE
8
DEFAULT_255_2_778
10
120.3052453
20
126.6784691
11
120.3052453
21
134.7093691
0
LINE
8
DEFAULT_255_2_778
10
128.2803453
20
134.7572691
11
127.6384453
21
134.7154691
0
LINE
8
DEFAULT_255_2_778
10
127.4130453
20
134.4659691
11
127.1714453
21
134.4596691
0
LINE
8
DEFAULT_255_2_778
10
127.1714453
20
134.4596691
11
120.3050453
21
134.4596691
0
LINE
8
DEFAULT_255_2_778
10
120.3050453
20
134.4596691
11
120.0634453
21
134.4659691
0
LINE
8
DEFAULT_255_2_778
10
128.8854453
20
134.7443691
11
128.8695453
21
134.7390691
0
LINE
8
DEFAULT_255_2_778
10
128.8695453
20
134.7390691
11
128.8542453
21
134.7250691
0
LINE
8
DEFAULT_255_2_778
10
128.8542453
20
134.7250691
11
128.8396453
21
134.7022691
0
LINE
8
DEFAULT_255_2_778
10
128.8396453
20
134.7022691
11
128.8267453
21
134.6715691
0
LINE
8
DEFAULT_255_2_778
10
128.8267453
20
134.6715691
11
128.8158453
21
134.6339691
0
LINE
8
DEFAULT_255_2_778
10
128.8005453
20
134.4934691
11
128.1710453
21
134.5019691
0
LINE
8
DEFAULT_255_2_778
10
128.1710453
20
134.5019691
11
128.1710453
21
126.3393691
0
LINE
8
DEFAULT_255_2_778
10
128.1710453
20
126.3393691
11
128.1440453
21
126.4509691
0
LINE
8
DEFAULT_255_2_778
10
119.3040453
20
126.3393691
11
119.3040453
21
134.5019691
0
LINE
8
DEFAULT_255_2_778
10
119.3040453
20
134.5019691
11
118.6746453
21
134.4934691
0
LINE
8
DEFAULT_255_2_778
10
118.6593453
20
134.6339691
11
118.6484453
21
134.6715691
0
LINE
8
DEFAULT_255_2_778
10
118.6484453
20
134.6715691
11
118.6355453
21
134.7022691
0
LINE
8
DEFAULT_255_2_778
10
118.6355453
20
134.7022691
11
118.6212453
21
134.7250691
0
LINE
8
DEFAULT_255_2_778
10
118.6212453
20
134.7250691
11
118.6055453
21
134.7390691
0
LINE
8
DEFAULT_255_2_778
10
118.6055453
20
134.7390691
11
118.5897453
21
134.7443691
0
ARC
8
DEFAULT_255_2_778
10
41.2390725
20
138.2575331
40
0.2499847
50
359.9964679
51
90.0264344
0
ARC
8
DEFAULT_255_2_778
10
37.7390204
20
138.2575543
40
0.2499634
50
89.9915849
51
180.0083989
0
ARC
8
DEFAULT_255_2_778
10
43.565223
20
143.0540099
40
0.058576
50
65.9902764
51
92.8565958
0
ARC
8
DEFAULT_255_2_778
10
43.4225896
20
141.431204
40
1.6871041
50
85.2497221
51
87.6728323
0
ARC
8
DEFAULT_255_2_778
10
43.2017193
20
136.6266553
40
6.4967093
50
87.447089
51
88.2910944
0
ARC
8
DEFAULT_255_2_778
10
42.9108381
20
126.9945348
40
16.1332207
50
88.2786416
51
88.8752207
0
ARC
8
DEFAULT_255_2_778
10
42.5720036
20
110.1774567
40
32.9537107
50
88.8601765
51
89.2594624
0
ARC
8
DEFAULT_255_2_778
10
42.2859211
20
88.4515069
40
54.6815436
50
89.2539483
51
89.5767292
0
ARC
8
DEFAULT_255_2_778
10
42.1360903
20
69.2482795
40
73.8853542
50
89.5705528
51
89.794768
0
ARC
8
DEFAULT_255_2_778
10
42.0913746
20
57.407225
40
85.7264927
50
89.79323
51
90.0015489
0
ARC
8
DEFAULT_255_2_778
10
42.0827802
20
141.8557243
40
1.4936244
50
179.9235338
51
209.8146024
0
ARC
8
DEFAULT_255_2_778
10
42.0897345
20
141.8585741
40
1.5010754
50
209.7770009
51
262.1106683
0
ARC
8
DEFAULT_255_2_778
10
42.089008
20
141.8713926
40
1.513675
50
262.2045077
51
270.0018606
0
ARC
8
DEFAULT_255_2_778
10
42.0910538
20
141.8513048
40
1.4935884
50
269.9234061
51
299.815246
0
ARC
8
DEFAULT_255_2_778
10
42.0881409
20
141.8583252
40
1.5011282
50
299.7784797
51
352.1127483
0
ARC
8
DEFAULT_255_2_778
10
42.0750518
20
141.8576678
40
1.5140054
50
352.2053622
51
0.0018878
0
ARC
8
DEFAULT_255_2_778
10
43.7901938
20
143.357281
40
0.2499633
50
269.9915849
51
0.0084151
0
ARC
8
DEFAULT_255_2_778
10
40.2902057
20
143.3575661
40
0.2500485
50
179.9881815
51
269.9888819
0
LINE
8
DEFAULT_255_2_778
10
41.2389571
20
138.5075177
11
37.7390571
21
138.5075177
0
LINE
8
DEFAULT_255_2_778
10
43.5890571
20
141.8577177
11
43.5890571
21
143.1075177
0
LINE
8
DEFAULT_255_2_778
10
42.0890571
20
143.1337177
11
40.5891571
21
143.1075177
0
LINE
8
DEFAULT_255_2_778
10
40.5891571
20
143.1075177
11
40.5891571
21
143.1075177
0
LINE
8
DEFAULT_255_2_778
10
40.5891571
20
143.1075177
11
40.5891571
21
141.8577177
0
LINE
8
DEFAULT_255_2_778
10
43.5890571
20
141.8577177
11
43.5890571
21
141.8577177
0
LINE
8
DEFAULT_255_2_778
10
44.0401571
20
143.3573177
11
44.0401571
21
143.4502177
0
LINE
8
DEFAULT_255_2_778
10
40.0401571
20
143.4515177
11
40.0401571
21
143.3576177
0
LINE
8
DEFAULT_255_2_778
10
43.7901571
20
143.2004177
11
40.2901571
21
143.2015177
0
LINE
8
DEFAULT_255_2_778
10
40.2901571
20
143.2015177
11
40.2901571
21
143.1075177
0
LINE
8
DEFAULT_255_2_778
10
40.2901571
20
143.1075177
11
40.5891571
21
143.1075177
0
LINE
8
DEFAULT_255_2_778
10
40.5891571
20
143.1075177
11
40.5891571
21
141.8577177
0
LINE
8
DEFAULT_255_2_778
10
40.5891571
20
141.8577177
11
43.5892571
21
141.8577177
0
LINE
8
DEFAULT_255_2_778
10
43.5892571
20
141.8577177
11
43.5892571
21
143.1075177
0
LINE
8
DEFAULT_255_2_778
10
43.5892571
20
143.1075177
11
43.7903571
21
143.1075177
0
LINE
8
DEFAULT_255_2_778
10
43.7903571
20
143.1075177
11
43.7901571
21
143.2004177
0
ARC
8
DEFAULT_255_2_778
10
32.3879305
20
142.8608656
40
0.9965914
50
89.9367547
51
131.6498689
0
ARC
8
DEFAULT_255_2_778
10
32.3867075
20
142.8584958
40
0.9975524
50
131.5069227
51
178.268572
0
ARC
8
DEFAULT_255_2_778
10
32.4075246
20
142.857379
40
1.0183939
50
178.2411582
51
180.0012753
0
ARC
8
DEFAULT_255_2_778
10
32.3871923
20
142.8640597
40
1.5407977
50
89.9316411
51
119.2109548
0
ARC
8
DEFAULT_255_2_778
10
32.3904427
20
142.8565203
40
1.5489649
50
119.1797943
51
171.8998281
0
ARC
8
DEFAULT_255_2_778
10
32.4028279
20
142.857454
40
1.5610974
50
171.9978079
51
179.9962445
0
ARC
8
DEFAULT_255_2_778
10
45.9885527
20
140.680124
40
2.7525677
50
270.012028
51
277.9116092
0
ARC
8
DEFAULT_255_2_778
10
38.3844839
20
142.9597929
40
0.8277637
50
89.9621611
51
115.0401245
0
ARC
8
DEFAULT_255_2_778
10
33.8860965
20
139.7608197
40
1.8259846
50
114.9678571
51
142.1672953
0
ARC
8
DEFAULT_255_2_778
10
33.8900959
20
139.7570471
40
1.8314574
50
142.1508246
51
179.958038
0
ARC
8
DEFAULT_255_2_778
10
33.8856937
20
139.7585633
40
1.8270547
50
180.0054819
51
189.2674775
0
ARC
8
DEFAULT_255_2_778
10
33.9003961
20
139.7607142
40
1.8419117
50
189.2598609
51
189.9219821
0
ARC
8
DEFAULT_255_2_778
10
33.9043317
20
139.7614514
40
1.8459155
50
189.923474
51
192.5084512
0
ARC
8
DEFAULT_255_2_778
10
33.8850229
20
139.7554409
40
1.8257641
50
192.4555452
51
223.5407989
0
ARC
8
DEFAULT_255_2_778
10
33.8883919
20
139.7564424
40
1.8288969
50
223.4908336
51
265.4999731
0
ARC
8
DEFAULT_255_2_778
10
33.8888136
20
139.7707707
40
1.8432143
50
265.5218497
51
270.0036349
0
ARC
8
DEFAULT_255_2_778
10
45.9902429
20
139.7350782
40
1.4775225
50
269.9452335
51
270.0182606
0
ARC
8
DEFAULT_255_2_778
10
45.9907047
20
140.6457267
40
2.3881711
50
270.0002171
51
279.0761245
0
ARC
8
DEFAULT_255_2_778
10
38.3851508
20
142.9570708
40
1.0003855
50
90.0068838
51
114.996148
0
ARC
8
DEFAULT_255_2_778
10
33.8874419
20
139.7604934
40
1.4965509
50
114.9975339
51
146.7795049
0
ARC
8
DEFAULT_255_2_778
10
33.8906821
20
139.7572463
40
1.5010408
50
146.7435761
51
179.967501
0
ARC
8
DEFAULT_255_2_778
10
33.8890589
20
139.7582722
40
1.4994174
50
180.0066673
51
189.9247014
0
ARC
8
DEFAULT_255_2_778
10
33.9038203
20
139.7606085
40
1.5143607
50
189.9155141
51
192.495525
0
ARC
8
DEFAULT_255_2_778
10
33.8872638
20
139.7561695
40
1.497236
50
192.4667638
51
229.4864297
0
ARC
8
DEFAULT_255_2_778
10
33.8891268
20
139.7555287
40
1.4979601
50
229.4163333
51
269.0044704
0
ARC
8
DEFAULT_255_2_778
10
33.8899996
20
139.774073
40
1.5165169
50
268.9836715
51
269.9596113
0
ARC
8
DEFAULT_255_2_778
10
33.8865551
20
139.7615784
40
1.9953636
50
114.988829
51
140.4830929
0
ARC
8
DEFAULT_255_2_778
10
33.8919713
20
139.7568535
40
2.0025483
50
140.4774111
51
179.9579843
0
ARC
8
DEFAULT_255_2_778
10
33.8867871
20
139.7584816
40
1.9973637
50
180.0045773
51
188.6666958
0
ARC
8
DEFAULT_255_2_778
10
33.9005357
20
139.7603515
40
2.0112371
50
188.6603386
51
189.9052943
0
ARC
8
DEFAULT_255_2_778
10
33.9076804
20
139.7616468
40
2.0184981
50
189.9066284
51
192.5002193
0
ARC
8
DEFAULT_255_2_778
10
33.8852877
20
139.7552853
40
1.9952596
50
192.461052
51
221.4480622
0
ARC
8
DEFAULT_255_2_778
10
33.8897603
20
139.7574478
40
2.000044
50
221.4096831
51
264.4813077
0
ARC
8
DEFAULT_255_2_778
10
33.8898146
20
139.7699188
40
2.0124626
50
264.5139151
51
269.9748306
0
ARC
8
DEFAULT_255_2_778
10
33.3819943
20
139.7048967
40
1.9930654
50
179.9264162
51
204.3092455
0
ARC
8
DEFAULT_255_2_778
10
33.3905735
20
139.7098074
40
2.0029057
50
204.3362385
51
260.1969791
0
ARC
8
DEFAULT_255_2_778
10
33.388214
20
139.7205618
40
2.0131055
50
260.315269
51
270.0175488
0
ARC
8
DEFAULT_255_2_778
10
33.3837226
20
139.7051787
40
2.541993
50
179.9486616
51
200.7975586
0
ARC
8
DEFAULT_255_2_778
10
33.3921617
20
139.7115517
40
2.5521469
50
200.8640395
51
259.2529424
0
ARC
8
DEFAULT_255_2_778
10
33.3885642
20
139.7222019
40
2.5619455
50
259.3764021
51
270.0059573
0
ARC
8
DEFAULT_255_2_778
10
32.3891298
20
142.8567357
40
1.2981207
50
90.0176199
51
134.9868461
0
ARC
8
DEFAULT_255_2_778
10
32.3876694
20
142.858078
40
1.2961389
50
134.9831342
51
180.0230579
0
ARC
8
DEFAULT_255_2_778
10
33.3889096
20
139.7075618
40
2.297379
50
180.0026294
51
224.9969395
0
ARC
8
DEFAULT_255_2_778
10
33.3888082
20
139.7079088
40
2.2975527
50
225.0048463
51
269.9955699
0
ARC
8
DEFAULT_255_2_778
10
45.9884305
20
140.655889
40
2.8981327
50
270.0079092
51
277.5462214
0
ARC
8
DEFAULT_255_2_778
10
45.81857
20
143.7877323
40
0.1702606
50
0.0417596
51
44.9199371
0
ARC
8
DEFAULT_255_2_778
10
45.8187968
20
143.787473
40
0.1702834
50
45.0355908
51
89.9213522
0
ARC
8
DEFAULT_255_2_778
10
35.7141853
20
136.1618684
40
1.752884
50
175.045453
51
178.73205
0
ARC
8
DEFAULT_255_2_778
10
34.1300559
20
136.3073388
40
0.1623129
50
161.9268424
51
177.9104563
0
ARC
8
DEFAULT_255_2_778
10
33.9787926
20
136.3565548
40
0.0032473
50
107.2318334
51
159.4751815
0
ARC
8
DEFAULT_255_2_778
10
38.3850051
20
142.9575182
40
0.4998382
50
89.9741501
51
114.99162
0
LINE
8
DEFAULT_255_2_778
10
37.7391306
20
138.5075564
11
37.7410306
21
138.5059564
0
LINE
8
DEFAULT_255_2_778
10
37.7410306
20
138.5059564
11
37.7471306
21
138.5043564
0
LINE
8
DEFAULT_255_2_778
10
37.7471306
20
138.5043564
11
37.7574306
21
138.5027564
0
LINE
8
DEFAULT_255_2_778
10
37.7574306
20
138.5027564
11
37.7719306
21
138.5012564
0
LINE
8
DEFAULT_255_2_778
10
37.7719306
20
138.5012564
11
37.7907306
21
138.4996564
0
LINE
8
DEFAULT_255_2_778
10
37.7907306
20
138.4996564
11
37.8135306
21
138.4982564
0
LINE
8
DEFAULT_255_2_778
10
37.8135306
20
138.4982564
11
37.8711306
21
138.4953564
0
LINE
8
DEFAULT_255_2_778
10
37.8711306
20
138.4953564
11
37.9444306
21
138.4927564
0
LINE
8
DEFAULT_255_2_778
10
37.9444306
20
138.4927564
11
38.0325306
21
138.4900564
0
LINE
8
DEFAULT_255_2_778
10
38.0325306
20
138.4900564
11
38.1347306
21
138.4877564
0
LINE
8
DEFAULT_255_2_778
10
38.1347306
20
138.4877564
11
38.2500306
21
138.4855564
0
LINE
8
DEFAULT_255_2_778
10
38.2500306
20
138.4855564
11
38.3773306
21
138.4834564
0
LINE
8
DEFAULT_255_2_778
10
38.3773306
20
138.4834564
11
38.5154306
21
138.4816564
0
LINE
8
DEFAULT_255_2_778
10
38.5154306
20
138.4816564
11
38.8184306
21
138.4787564
0
LINE
8
DEFAULT_255_2_778
10
38.8184306
20
138.4787564
11
39.1472306
21
138.4768564
0
LINE
8
DEFAULT_255_2_778
10
39.1472306
20
138.4768564
11
39.4893306
21
138.4763564
0
LINE
8
DEFAULT_255_2_778
10
39.4893306
20
138.4763564
11
39.8312306
21
138.4768564
0
LINE
8
DEFAULT_255_2_778
10
39.8312306
20
138.4768564
11
40.1601306
21
138.4787564
0
LINE
8
DEFAULT_255_2_778
10
40.1601306
20
138.4787564
11
40.4630306
21
138.4816564
0
LINE
8
DEFAULT_255_2_778
10
40.4630306
20
138.4816564
11
40.6011306
21
138.4834564
0
LINE
8
DEFAULT_255_2_778
10
40.6011306
20
138.4834564
11
40.7284306
21
138.4855564
0
LINE
8
DEFAULT_255_2_778
10
40.7284306
20
138.4855564
11
40.8437306
21
138.4877564
0
LINE
8
DEFAULT_255_2_778
10
40.8437306
20
138.4877564
11
40.9459306
21
138.4900564
0
LINE
8
DEFAULT_255_2_778
10
40.9459306
20
138.4900564
11
41.0340306
21
138.4927564
0
LINE
8
DEFAULT_255_2_778
10
41.0340306
20
138.4927564
11
41.1073306
21
138.4953564
0
LINE
8
DEFAULT_255_2_778
10
41.1073306
20
138.4953564
11
41.1649306
21
138.4982564
0
LINE
8
DEFAULT_255_2_778
10
41.1649306
20
138.4982564
11
41.1877306
21
138.4996564
0
LINE
8
DEFAULT_255_2_778
10
41.1877306
20
138.4996564
11
41.2065306
21
138.5012564
0
LINE
8
DEFAULT_255_2_778
10
41.2065306
20
138.5012564
11
41.2210306
21
138.5027564
0
LINE
8
DEFAULT_255_2_778
10
41.2210306
20
138.5027564
11
41.2314306
21
138.5043564
0
LINE
8
DEFAULT_255_2_778
10
41.2314306
20
138.5043564
11
41.2374306
21
138.5059564
0
LINE
8
DEFAULT_255_2_778
10
41.2374306
20
138.5059564
11
41.2393306
21
138.5075564
0
LINE
8
DEFAULT_255_2_778
10
31.3891306
20
142.8573564
11
30.8420306
21
142.8573564
0
LINE
8
DEFAULT_255_2_778
10
30.8420306
20
142.8573564
11
30.8420306
21
139.7071564
0
LINE
8
DEFAULT_255_2_778
10
30.8420306
20
139.7071564
11
31.3891306
21
139.7071564
0
LINE
8
DEFAULT_255_2_778
10
31.3891306
20
139.7071564
11
31.3891306
21
142.8575564
0
LINE
8
DEFAULT_255_2_778
10
46.3672306
20
137.7574564
11
43.3890306
21
137.7574564
0
LINE
8
DEFAULT_255_2_778
10
45.9891306
20
137.9275564
11
43.3890306
21
137.9275564
0
LINE
8
DEFAULT_255_2_778
10
43.3890306
20
136.1858564
11
43.3890306
21
138.2575564
0
LINE
8
DEFAULT_255_2_778
10
43.3890306
20
138.2575564
11
35.8489306
21
138.2575564
0
LINE
8
DEFAULT_255_2_778
10
35.8489306
20
138.2575564
11
35.8489306
21
136.1972564
0
LINE
8
DEFAULT_255_2_778
10
43.3890306
20
137.2573564
11
35.8489306
21
137.2573564
0
LINE
8
DEFAULT_255_2_778
10
43.0522306
20
134.2572564
11
40.0794306
21
134.2572564
0
LINE
8
DEFAULT_255_2_778
10
43.0522306
20
135.2571564
11
40.0794306
21
135.2571564
0
LINE
8
DEFAULT_255_2_778
10
43.3888306
20
136.3760564
11
44.6003306
21
136.3760564
0
LINE
8
DEFAULT_255_2_778
10
44.6003306
20
136.3760564
11
44.6003306
21
137.7069564
0
LINE
8
DEFAULT_255_2_778
10
44.6003306
20
137.7069564
11
43.3888306
21
137.7069564
0
LINE
8
DEFAULT_255_2_778
10
43.3888306
20
137.4780564
11
44.6003306
21
137.4783564
0
LINE
8
DEFAULT_255_2_778
10
45.4888306
20
143.4568564
11
45.9888306
21
143.4568564
0
LINE
8
DEFAULT_255_2_778
10
45.9888306
20
143.4568564
11
45.9888306
21
143.7875564
0
LINE
8
DEFAULT_255_2_778
10
45.9888306
20
143.7875564
11
38.3850306
21
143.7875564
0
LINE
8
DEFAULT_255_2_778
10
38.0341306
20
143.7097564
11
33.1153306
21
141.4161564
0
LINE
8
DEFAULT_255_2_778
10
33.8889306
20
137.9275564
11
35.8489306
21
137.9275564
0
LINE
8
DEFAULT_255_2_778
10
35.8489306
20
138.2575564
11
35.3489306
21
138.2575564
0
LINE
8
DEFAULT_255_2_778
10
43.8888306
20
138.2575564
11
43.3888306
21
138.2575564
0
LINE
8
DEFAULT_255_2_778
10
44.9776306
20
136.0284564
11
44.9776306
21
136.0284564
0
LINE
8
DEFAULT_255_2_778
10
33.8371306
20
136.0458564
11
33.8371306
21
136.0458564
0
LINE
8
DEFAULT_255_2_778
10
45.8581306
20
143.9497564
11
46.1926306
21
143.9497564
0
LINE
8
DEFAULT_255_2_778
10
46.6476306
20
144.4048564
11
46.3976306
21
144.1548564
0
LINE
8
DEFAULT_255_2_778
10
46.3976306
20
144.1548564
11
32.3887306
21
144.1548564
0
LINE
8
DEFAULT_255_2_778
10
31.0915306
20
142.8575564
11
31.0915306
21
139.7074564
0
LINE
8
DEFAULT_255_2_778
10
33.3886306
20
137.4103564
11
33.8376306
21
137.4103564
0
LINE
8
DEFAULT_255_2_778
10
33.8376306
20
137.4103564
11
34.1000306
21
137.4759564
0
LINE
8
DEFAULT_255_2_778
10
45.9722306
20
143.8576564
11
46.0999306
21
143.8576564
0
LINE
8
DEFAULT_255_2_778
10
43.0522306
20
136.1863564
11
44.7913306
21
136.1837564
0
LINE
8
DEFAULT_255_2_778
10
39.6753306
20
135.7876564
11
39.9243306
21
136.0363564
0
LINE
8
DEFAULT_255_2_778
10
39.9243306
20
136.0363564
11
33.8365306
21
136.0456564
0
LINE
8
DEFAULT_255_2_778
10
33.8365306
20
136.0456564
11
33.5875306
21
135.7968564
0
LINE
8
DEFAULT_255_2_778
10
44.7913306
20
137.4410564
11
46.3669306
21
137.4410564
0
LINE
8
DEFAULT_255_2_778
10
34.1003306
20
136.3750564
11
35.8487306
21
136.3752564
0
LINE
8
DEFAULT_255_2_778
10
44.6003306
20
136.5480564
11
44.7913306
21
136.5543564
0
LINE
8
DEFAULT_255_2_778
10
45.9888306
20
137.7577564
11
45.9888306
21
138.2577564
0
LINE
8
DEFAULT_255_2_778
10
45.9888306
20
138.2577564
11
43.8888306
21
138.2577564
0
LINE
8
DEFAULT_255_2_778
10
43.8888306
20
138.2577564
11
43.8888306
21
137.7577564
0
LINE
8
DEFAULT_255_2_778
10
45.8190306
20
143.9577564
11
38.3850306
21
143.9577564
0
LINE
8
DEFAULT_255_2_778
10
38.3850306
20
143.9577564
11
38.3850306
21
143.4576564
0
LINE
8
DEFAULT_255_2_778
10
38.3850306
20
143.4576564
11
45.4888306
21
143.4576564
0
LINE
8
DEFAULT_255_2_778
10
45.4888306
20
143.4576564
11
45.4888306
21
143.9577564
0
LINE
8
DEFAULT_255_2_778
10
45.2266306
20
137.1605564
11
44.9779306
21
137.4092564
0
LINE
8
DEFAULT_255_2_778
10
44.9779306
20
137.4092564
11
44.9779306
21
136.0281564
0
LINE
8
DEFAULT_255_2_778
10
44.9779306
20
136.0281564
11
45.2266306
21
135.7791564
0
LINE
8
DEFAULT_255_2_778
10
35.3486306
20
137.7577564
11
35.3486306
21
138.2577564
0
LINE
8
DEFAULT_255_2_778
10
35.3486306
20
138.2577564
11
33.8886306
21
138.2577564
0
LINE
8
DEFAULT_255_2_778
10
33.8886306
20
138.2577564
11
33.8886306
21
137.7577564
0
LINE
8
DEFAULT_255_2_778
10
33.8886306
20
137.7577564
11
35.8487306
21
137.7577564
0
LINE
8
DEFAULT_255_2_778
10
33.9778306
20
136.3596564
11
34.1003306
21
136.3750564
0
LINE
8
DEFAULT_255_2_778
10
34.1003306
20
136.3750564
11
34.1003306
21
137.4759564
0
LINE
8
DEFAULT_255_2_778
10
34.1003306
20
137.4759564
11
35.8487306
21
137.4764564
0
LINE
8
DEFAULT_255_2_778
10
39.7489306
20
133.2092564
11
39.9243306
21
133.3846564
0
LINE
8
DEFAULT_255_2_778
10
39.9243306
20
133.3846564
11
39.9243306
21
136.0363564
0
LINE
8
DEFAULT_255_2_778
10
39.9243306
20
136.0363564
11
40.0794306
21
136.1911564
0
LINE
8
DEFAULT_255_2_778
10
40.0794306
20
136.1911564
11
40.0794306
21
133.4468564
0
LINE
8
DEFAULT_255_2_778
10
40.0794306
20
133.4468564
11
39.9254306
21
133.3854564
0
LINE
8
DEFAULT_255_2_778
10
39.9254306
20
133.3854564
11
43.2059306
21
133.3833564
0
LINE
8
DEFAULT_255_2_778
10
43.2059306
20
133.3833564
11
43.0522306
21
133.4450564
0
LINE
8
DEFAULT_255_2_778
10
43.0522306
20
133.4450564
11
43.0522306
21
136.1863564
0
LINE
8
DEFAULT_255_2_778
10
43.0522306
20
136.1863564
11
43.2073306
21
136.0310564
0
LINE
8
DEFAULT_255_2_778
10
43.2073306
20
136.0310564
11
43.2073306
21
133.3825564
0
LINE
8
DEFAULT_255_2_778
10
43.2073306
20
133.3825564
11
43.4562306
21
133.1333564
0
LINE
8
DEFAULT_255_2_778
10
43.4562306
20
135.7818564
11
43.2073306
21
136.0313564
0
LINE
8
DEFAULT_255_2_778
10
43.2073306
20
136.0313564
11
44.9776306
21
136.0286564
0
LINE
8
DEFAULT_255_2_778
10
44.9776306
20
136.0286564
11
44.7913306
21
136.1839564
0
LINE
8
DEFAULT_255_2_778
10
44.7913306
20
136.1839564
11
44.7913306
21
137.4412564
0
LINE
8
DEFAULT_255_2_778
10
44.7913306
20
137.4412564
11
44.9757306
21
137.4105564
0
LINE
8
DEFAULT_255_2_778
10
44.9757306
20
137.4105564
11
46.3976306
21
137.4105564
0
LINE
8
DEFAULT_255_2_778
10
46.3976306
20
137.4105564
11
46.3669306
21
137.4412564
0
LINE
8
DEFAULT_255_2_778
10
46.3669306
20
137.4412564
11
46.3669306
21
144.1241564
0
LINE
8
DEFAULT_255_2_778
10
46.3669306
20
144.1241564
11
46.3976306
21
144.1548564
0
LINE
8
DEFAULT_255_2_778
10
46.3976306
20
144.1548564
11
46.3976306
21
137.4103564
0
LINE
8
DEFAULT_255_2_778
10
46.3976306
20
137.4103564
11
46.6476306
21
137.1602564
0
LINE
8
DEFAULT_255_2_778
10
46.1926306
20
138.5374564
11
46.1926306
21
143.9497564
0
LINE
8
DEFAULT_255_2_778
10
46.1926306
20
143.9497564
11
46.1005306
21
143.8576564
0
LINE
8
DEFAULT_255_2_778
10
46.1005306
20
143.8576564
11
46.1005306
21
138.5377564
0
LINE
8
DEFAULT_255_2_778
10
46.1005306
20
138.5377564
11
46.3672306
21
138.5377564
0
LINE
8
DEFAULT_255_2_778
10
40.0796306
20
136.1911564
11
33.9609306
21
136.2003564
0
LINE
8
DEFAULT_255_2_778
10
33.9609306
20
136.2003564
11
33.8373306
21
136.0458564
0
LINE
8
DEFAULT_255_2_778
10
33.8373306
20
136.0458564
11
33.8373306
21
137.4097564
0
LINE
8
DEFAULT_255_2_778
10
33.8373306
20
137.4097564
11
33.5878306
21
137.1602564
0
LINE
8
DEFAULT_255_2_778
10
38.1738306
20
143.4105564
11
37.9624306
21
143.8637564
0
LINE
8
DEFAULT_255_2_778
10
37.9624306
20
143.8637564
11
33.0436306
21
141.5701564
0
LINE
8
DEFAULT_255_2_778
10
33.0436306
20
141.5701564
11
33.2550306
21
141.1168564
0
LINE
8
DEFAULT_255_2_778
10
33.2550306
20
141.1168564
11
38.1738306
21
143.4105564
0
ARC
8
DEFAULT_255_2_778
10
49.0713169
20
140.857971
40
1.0001933
50
252.8109359
51
265.2926144
0
ARC
8
DEFAULT_255_2_778
10
49.0728738
20
140.858289
40
1.001319
50
193.552038
51
222.5431812
0
ARC
8
DEFAULT_255_2_778
10
50.8895867
20
140.8575583
40
2.0006527
50
156.3520559
51
180.0001953
0
ARC
8
DEFAULT_255_2_778
10
45.9886159
20
140.6577017
40
2.4003182
50
347.6997669
51
359.9964136
0
ARC
8
DEFAULT_255_2_778
10
45.9893499
20
140.657402
40
2.8993842
50
344.4666982
51
0.0029544
0
ARC
8
DEFAULT_255_2_778
10
50.8854177
20
140.8577558
40
2.4967837
50
165.176196
51
180.0046893
0
ARC
8
DEFAULT_255_2_778
10
50.8883066
20
140.8574176
40
2.1697726
50
158.4912154
51
179.9964657
0
ARC
8
DEFAULT_255_2_778
10
45.9831513
20
140.657802
40
2.7353827
50
344.7356833
51
359.9947539
0
LINE
8
DEFAULT_255_2_778
10
48.388634
20
140.8575515
11
48.888734
21
140.8575515
0
LINE
8
DEFAULT_255_2_778
10
48.888734
20
140.8575515
11
48.888734
21
140.6575515
0
LINE
8
DEFAULT_255_2_778
10
48.888734
20
140.6575515
11
48.388634
21
140.6575515
0
LINE
8
DEFAULT_255_2_778
10
48.388634
20
140.6575515
11
48.388634
21
140.8575515
0
LINE
8
DEFAULT_255_2_778
10
48.718534
20
140.8575515
11
48.718534
21
140.6575515
0
ARC
8
DEFAULT_255_2_778
10
41.5678787
20
16.9454224
40
4.5362411
50
269.9500121
51
284.2856438
0
ARC
8
DEFAULT_255_2_778
10
41.5805942
20
16.8836633
40
4.4732552
50
284.3230075
51
306.4937599
0
ARC
8
DEFAULT_255_2_778
10
41.5725511
20
16.8987818
40
4.4901935
50
306.4615345
51
340.72752
0
ARC
8
DEFAULT_255_2_778
10
41.5627306
20
16.8973659
40
4.4989987
50
340.7858212
51
356.4088588
0
ARC
8
DEFAULT_255_2_778
10
41.4538903
20
16.9070208
40
4.6082307
50
356.373814
51
0.0045036
0
ARC
8
DEFAULT_255_2_778
10
41.5252358
20
16.9113595
40
4.536887
50
359.9497814
51
14.2846235
0
ARC
8
DEFAULT_255_2_778
10
41.5878324
20
16.9242975
40
4.4730344
50
14.3218599
51
36.4940662
0
ARC
8
DEFAULT_255_2_778
10
41.5728147
20
16.9162744
40
4.4898799
50
36.4623975
51
70.7300741
0
ARC
8
DEFAULT_255_2_778
10
41.5739636
20
16.905789
40
4.499401
50
70.787949
51
86.4095045
0
ARC
8
DEFAULT_255_2_778
10
41.5642769
20
16.796553
40
4.6090302
50
86.3743645
51
90.0044238
0
ARC
8
DEFAULT_255_2_778
10
41.5599446
20
16.8686977
40
4.536887
50
89.9497814
51
104.2846235
0
ARC
8
DEFAULT_255_2_778
10
41.5470065
20
16.9312944
40
4.4730344
50
104.3218599
51
126.4940662
0
ARC
8
DEFAULT_255_2_778
10
41.5550297
20
16.9162767
40
4.4898799
50
126.4623975
51
160.7300741
0
ARC
8
DEFAULT_255_2_778
10
41.5655151
20
16.9174255
40
4.499401
50
160.787949
51
176.4095045
0
ARC
8
DEFAULT_255_2_778
10
41.6747511
20
16.9077389
40
4.6090302
50
176.3743645
51
180.0044238
0
ARC
8
DEFAULT_255_2_778
10
41.6026063
20
16.9034065
40
4.536887
50
179.9497814
51
194.2846235
0
ARC
8
DEFAULT_255_2_778
10
41.5400097
20
16.8904685
40
4.4730344
50
194.3218599
51
216.4940662
0
ARC
8
DEFAULT_255_2_778
10
41.5550274
20
16.8984916
40
4.4898799
50
216.4623975
51
250.7300741
0
ARC
8
DEFAULT_255_2_778
10
41.5538785
20
16.908977
40
4.499401
50
250.787949
51
266.4095045
0
ARC
8
DEFAULT_255_2_778
10
41.5635652
20
17.018213
40
4.6090302
50
266.3743645
51
270.0044238
0
LINE
8
DEFAULT_255_2_778
10
41.563921
20
12.409183
11
41.563921
21
12.409183
0
ARC
8
DEFAULT_255_2_778
10
41.5671861
20
16.9078377
40
3.625486
50
269.9488082
51
286.5386047
0
ARC
8
DEFAULT_255_2_778
10
41.560173
20
16.9105519
40
3.6300891
50
286.6325214
51
322.3409177
0
ARC
8
DEFAULT_255_2_778
10
41.5787068
20
16.9019927
40
3.6101902
50
322.2687476
51
347.342268
0
ARC
8
DEFAULT_255_2_778
10
41.551374
20
16.9052495
40
3.6375735
50
347.3865541
51
0.0347097
0
ARC
8
DEFAULT_255_2_778
10
41.5634439
20
16.9106911
40
3.6255043
50
359.9488296
51
16.5385397
0
ARC
8
DEFAULT_255_2_778
10
41.560706
20
16.9036736
40
3.6301316
50
16.6324167
51
52.3401999
0
ARC
8
DEFAULT_255_2_778
10
41.5693582
20
16.9223316
40
3.6100775
50
52.2679857
51
77.3416471
0
ARC
8
DEFAULT_255_2_778
10
41.566148
20
16.8951816
40
3.6372723
50
77.3860287
51
90.0346742
0
ARC
8
DEFAULT_255_2_778
10
41.5607047
20
16.906671
40
3.6257836
50
89.9487672
51
106.5378984
0
ARC
8
DEFAULT_255_2_778
10
41.5675894
20
16.9042542
40
3.6300651
50
106.6312103
51
142.1993218
0
ARC
8
DEFAULT_255_2_778
10
41.5491112
20
16.9127943
40
3.6102332
50
142.1266734
51
167.2929589
0
ARC
8
DEFAULT_255_2_778
10
41.575948
20
16.9096662
40
3.6371019
50
167.3378812
51
180.0348617
0
ARC
8
DEFAULT_255_2_778
10
41.5646106
20
16.9042097
40
3.6257653
50
179.9487458
51
196.5379634
0
ARC
8
DEFAULT_255_2_778
10
41.567054
20
16.9111187
40
3.630079
50
196.6315226
51
232.270173
0
ARC
8
DEFAULT_255_2_778
10
41.5585171
20
16.8926404
40
3.6102433
50
232.1978726
51
257.3179043
0
ARC
8
DEFAULT_255_2_778
10
41.5617378
20
16.9198372
40
3.6374848
50
257.3624601
51
270.0347949
0
LINE
8
DEFAULT_255_2_778
10
41.5639468
20
13.2823532
11
41.5639468
21
13.2823532
0
ARC
8
DEFAULT_255_2_778
10
41.567651
20
16.9233123
40
3.1535931
50
269.9313141
51
287.6999775
0
ARC
8
DEFAULT_255_2_778
10
41.569884
20
16.9011539
40
3.1318081
50
287.7843077
51
343.4594057
0
ARC
8
DEFAULT_255_2_778
10
41.5444783
20
16.9037107
40
3.156894
50
343.5461943
51
0.0619031
0
ARC
8
DEFAULT_255_2_778
10
41.5482196
20
16.9108923
40
3.1531531
50
359.9314808
51
17.7018075
0
ARC
8
DEFAULT_255_2_778
10
41.5698556
20
16.9129013
40
3.1319342
50
17.7871448
51
73.4602633
0
ARC
8
DEFAULT_255_2_778
10
41.5672753
20
16.8875155
40
3.1570078
50
73.5465314
51
90.0617942
0
ARC
8
DEFAULT_255_2_778
10
41.5600996
20
16.8913546
40
3.1531691
50
89.9314807
51
107.7017145
0
ARC
8
DEFAULT_255_2_778
10
41.5580734
20
16.9130007
40
3.1319352
50
107.7868087
51
163.4591033
0
ARC
8
DEFAULT_255_2_778
10
41.5831957
20
16.9105221
40
3.156727
50
163.5457949
51
180.0617237
0
ARC
8
DEFAULT_255_2_778
10
41.5803009
20
16.903393
40
3.1538327
50
179.9322654
51
197.5242225
0
ARC
8
DEFAULT_255_2_778
10
41.5579275
20
16.9012315
40
3.1318502
50
197.6097609
51
253.1344702
0
ARC
8
DEFAULT_255_2_778
10
41.5603694
20
16.9256458
40
3.1559264
50
253.2206394
51
270.0635612
0
LINE
8
DEFAULT_255_2_778
10
41.5638705
20
13.7697215
11
41.5638705
21
13.7697215
0
ARC
8
DEFAULT_255_2_778
10
41.5675698
20
16.9228591
40
3.0152539
50
269.9301242
51
287.8761741
0
ARC
8
DEFAULT_255_2_778
10
41.5698406
20
16.9016179
40
2.9943443
50
287.9595829
51
344.3588961
0
ARC
8
DEFAULT_255_2_778
10
41.5422103
20
16.9046925
40
3.0217837
50
344.4440056
51
0.0571663
0
ARC
8
DEFAULT_255_2_778
10
41.5487409
20
16.9113848
40
3.0152539
50
359.9301242
51
17.8761741
0
ARC
8
DEFAULT_255_2_778
10
41.5699821
20
16.9136556
40
2.9943443
50
17.9595829
51
74.3588961
0
ARC
8
DEFAULT_255_2_778
10
41.5669075
20
16.8860253
40
3.0217837
50
74.4440056
51
90.0571663
0
ARC
8
DEFAULT_255_2_778
10
41.5602152
20
16.8925558
40
3.0152539
50
89.9301242
51
107.8761741
0
ARC
8
DEFAULT_255_2_778
10
41.5579444
20
16.913797
40
2.9943443
50
107.9595829
51
164.3588961
0
ARC
8
DEFAULT_255_2_778
10
41.5855747
20
16.9107224
40
3.0217837
50
164.4440056
51
180.0571663
0
ARC
8
DEFAULT_255_2_778
10
41.5790442
20
16.9040302
40
3.0152539
50
179.9301242
51
197.8761741
0
ARC
8
DEFAULT_255_2_778
10
41.557803
20
16.9017594
40
2.9943443
50
197.9595829
51
254.3588961
0
ARC
8
DEFAULT_255_2_778
10
41.5608776
20
16.9293897
40
3.0217837
50
254.4440056
51
270.0571663
0
LINE
8
DEFAULT_255_2_778
10
41.5638925
20
13.9076075
11
41.5638925
21
13.9076075
0
ARC
8
DEFAULT_255_2_778
10
41.5675594
20
16.9192859
40
2.7941659
50
269.9245027
51
288.9364264
0
ARC
8
DEFAULT_255_2_778
10
41.5695687
20
16.9017315
40
2.7769122
50
289.0147533
51
346.774348
0
ARC
8
DEFAULT_255_2_778
10
41.5363865
20
16.9055563
40
2.810092
50
346.8532203
51
0.0441653
0
ARC
8
DEFAULT_255_2_778
10
41.5519735
20
16.9114254
40
2.7945066
50
359.9240774
51
18.9352637
0
ARC
8
DEFAULT_255_2_778
10
41.5700515
20
16.9135967
40
2.7767049
50
19.013933
51
76.7065058
0
ARC
8
DEFAULT_255_2_778
10
41.5660652
20
16.8800988
40
2.8102245
50
76.7844509
51
90.0446021
0
ARC
8
DEFAULT_255_2_778
10
41.5601746
20
16.8958183
40
2.7945066
50
89.9240774
51
108.9352637
0
ARC
8
DEFAULT_255_2_778
10
41.5580033
20
16.9138963
40
2.7767049
50
109.013933
51
166.7065058
0
ARC
8
DEFAULT_255_2_778
10
41.5915012
20
16.90991
40
2.8102245
50
166.7844509
51
180.0446021
0
ARC
8
DEFAULT_255_2_778
10
41.5757817
20
16.9040194
40
2.7945066
50
179.9240774
51
198.9352637
0
ARC
8
DEFAULT_255_2_778
10
41.5577037
20
16.9018481
40
2.7767049
50
199.013933
51
256.7065058
0
ARC
8
DEFAULT_255_2_778
10
41.56169
20
16.935346
40
2.8102245
50
256.7844509
51
270.0446021
0
LINE
8
DEFAULT_255_2_778
10
41.5638776
20
14.1251224
11
41.5638776
21
14.1251224
0
LINE
8
DEFAULT_255_2_778
10
41.1638477
20
15.5804897
11
41.1638477
21
16.1363897
0
LINE
8
DEFAULT_255_2_778
10
41.9636477
20
15.5804897
11
41.9636477
21
16.1363897
0
LINE
8
DEFAULT_255_2_778
10
41.9636477
20
18.2345897
11
41.9636477
21
17.6785897
0
LINE
8
DEFAULT_255_2_778
10
41.1638477
20
18.2345897
11
41.1638477
21
17.6785897
0
LINE
8
DEFAULT_255_2_778
10
41.9639477
20
18.2345897
11
41.9639477
21
19.0274897
0
LINE
8
DEFAULT_255_2_778
10
41.9639477
20
19.0274897
11
41.1638477
21
19.0274897
0
LINE
8
DEFAULT_255_2_778
10
41.1638477
20
19.0274897
11
41.1638477
21
18.2345897
0
ARC
8
DEFAULT_255_2_778
10
41.5652803
20
16.9075931
40
1.3863533
50
181.7704893
51
253.1720259
0
ARC
8
DEFAULT_255_2_778
10
41.5763329
20
16.9075866
40
1.3974005
50
179.9992092
51
181.7562187
0
ARC
8
DEFAULT_255_2_778
10
41.5654601
20
16.9074941
40
1.3865279
50
108.604376
51
179.9953823
0
ARC
8
DEFAULT_255_2_778
10
41.5688435
20
16.8965454
40
1.397984
50
106.8363724
51
108.5926388
0
ARC
8
DEFAULT_255_2_778
10
41.5623813
20
16.9074876
40
1.3862531
50
286.8293469
51
358.2337488
0
ARC
8
DEFAULT_255_2_778
10
41.5512317
20
16.9075866
40
1.3974005
50
358.2437814
51
0.0007908
0
ARC
8
DEFAULT_255_2_778
10
41.5621887
20
16.9075883
40
1.3864436
50
0.0007261
51
71.3937754
0
ARC
8
DEFAULT_255_2_778
10
41.5588224
20
16.8965502
40
1.3979789
50
71.407362
51
73.1636284
0
LINE
8
DEFAULT_255_2_778
10
41.1639322
20
15.5806059
11
41.1639322
21
14.7876059
0
LINE
8
DEFAULT_255_2_778
10
41.1639322
20
14.7876059
11
41.9640322
21
14.7876059
0
LINE
8
DEFAULT_255_2_778
10
41.9640322
20
14.7876059
11
41.9640322
21
15.5806059
0
ARC
8
DEFAULT_255_2_778
10
40.9686712
20
15.875559
40
0.325888
50
29.9000298
51
53.2007542
0
ARC
8
DEFAULT_255_2_778
10
41.5642265
20
16.9203352
40
1.1795757
50
262.8585472
51
269.0662562
0
ARC
8
DEFAULT_255_2_778
10
41.5641582
20
16.9182744
40
1.1775142
50
269.0679442
51
269.9993505
0
ARC
8
DEFAULT_255_2_778
10
41.5642038
20
16.9146184
40
1.1738581
50
269.9971244
51
277.1584387
0
ARC
8
DEFAULT_255_2_778
10
42.1639097
20
15.8719623
40
0.3315971
50
127.0794936
51
149.9502086
0
ARC
8
DEFAULT_255_2_778
10
42.1609824
20
15.8735113
40
0.3285993
50
90.069743
51
126.8351231
0
ARC
8
DEFAULT_255_2_778
10
42.5252197
20
16.3481487
40
0.1460407
50
269.6715063
51
269.9999243
0
ARC
8
DEFAULT_255_2_778
10
42.5251883
20
16.3525552
40
0.1504472
50
270.0118927
51
330.0785707
0
ARC
8
DEFAULT_255_2_778
10
42.5254564
20
16.3528776
40
0.1503762
50
329.9211219
51
359.9868087
0
ARC
8
DEFAULT_255_2_778
10
42.5184781
20
16.3529317
40
0.1573546
50
359.9677025
51
0.0968925
0
ARC
8
DEFAULT_255_2_778
10
42.5255349
20
16.3529488
40
0.1502977
50
0.0949447
51
30.3142423
0
ARC
8
DEFAULT_255_2_778
10
42.7577731
20
16.9076588
40
0.3279907
50
179.9909961
51
209.9502086
0
ARC
8
DEFAULT_255_2_778
10
42.7577731
20
16.9077619
40
0.3279907
50
150.0497914
51
180.0090039
0
ARC
8
DEFAULT_255_2_778
10
42.5251166
20
17.4622852
40
0.150716
50
329.7288255
51
359.8954895
0
ARC
8
DEFAULT_255_2_778
10
42.5254445
20
17.4623396
40
0.1503883
50
359.8745685
51
30.0777359
0
ARC
8
DEFAULT_255_2_778
10
42.5250708
20
17.4624599
40
0.1506516
50
29.9668834
51
90.0481299
0
ARC
8
DEFAULT_255_2_778
10
42.5248037
20
17.5144792
40
0.0986323
50
89.9183642
51
90.2447185
0
ARC
8
DEFAULT_255_2_778
10
42.1609824
20
17.9417094
40
0.3285993
50
233.1648769
51
269.930257
0
ARC
8
DEFAULT_255_2_778
10
42.1585685
20
17.9386996
40
0.3247432
50
209.8407374
51
233.1873805
0
ARC
8
DEFAULT_255_2_778
10
41.5638274
20
16.913777
40
1.1608345
50
82.7420929
51
89.0506414
0
ARC
8
DEFAULT_255_2_778
10
41.5639067
20
16.9149782
40
1.1596321
50
89.0535786
51
89.9993489
0
ARC
8
DEFAULT_255_2_778
10
41.5638696
20
16.9194255
40
1.1551849
50
89.9975078
51
97.2752056
0
ARC
8
DEFAULT_255_2_778
10
40.966321
20
17.9419121
40
0.3290982
50
306.8921874
51
329.9491912
0
ARC
8
DEFAULT_255_2_778
10
40.9675254
20
17.9412807
40
0.3278708
50
270.0379992
51
306.7901062
0
LINE
8
DEFAULT_255_2_778
10
40.9677428
20
17.61341
11
40.9672824
21
17.6134103
0
ARC
8
DEFAULT_255_2_778
10
40.6030626
20
17.515468
40
0.0979432
50
89.7544074
51
90.0819277
0
ARC
8
DEFAULT_255_2_778
10
40.6029782
20
17.4622671
40
0.1511443
50
90.0211085
51
149.9250567
0
ARC
8
DEFAULT_255_2_778
10
40.6031273
20
17.462573
40
0.1511203
50
150.0537579
51
179.9768019
0
ARC
8
DEFAULT_255_2_778
10
40.6030491
20
17.4625445
40
0.1510419
50
179.9932778
51
210.1811506
0
ARC
8
DEFAULT_255_2_778
10
40.3700917
20
16.9080619
40
0.3279907
50
359.9909961
51
29.9502086
0
ARC
8
DEFAULT_255_2_778
10
40.3700917
20
16.9079588
40
0.3279907
50
330.0497914
51
0.0090039
0
ARC
8
DEFAULT_255_2_778
10
40.603048
20
16.3531764
40
0.1510408
50
149.818716
51
180.034116
0
ARC
8
DEFAULT_255_2_778
10
40.6031273
20
16.3531477
40
0.1511202
50
180.0231981
51
209.9462421
0
ARC
8
DEFAULT_255_2_778
10
40.6029782
20
16.3534536
40
0.1511443
50
210.0749433
51
269.9788915
0
ARC
8
DEFAULT_255_2_778
10
40.6030626
20
16.3002526
40
0.0979434
50
269.9180723
51
270.2455926
0
LINE
8
DEFAULT_255_2_778
10
40.9672824
20
16.2023103
11
40.9677428
21
16.2023107
0
ARC
8
DEFAULT_255_2_778
10
40.9675254
20
15.87444
40
0.3278707
50
53.2098938
51
89.9620008
0
LINE
8
DEFAULT_255_2_778
10
41.2511824
20
16.0380103
11
41.4175824
21
15.7499103
0
LINE
8
DEFAULT_255_2_778
10
41.7104824
20
15.7499103
11
41.8768824
21
16.0380103
0
LINE
8
DEFAULT_255_2_778
10
42.1605824
20
16.2021103
11
42.5243824
21
16.2021103
0
LINE
8
DEFAULT_255_2_778
10
42.6552824
20
16.4288103
11
42.4735824
21
16.7439103
0
LINE
8
DEFAULT_255_2_778
10
42.4735824
20
17.0715103
11
42.6552824
21
17.3863103
0
LINE
8
DEFAULT_255_2_778
10
42.5243824
20
17.6131103
11
42.1605824
21
17.6131103
0
LINE
8
DEFAULT_255_2_778
10
41.8768824
20
17.7771103
11
41.7104824
21
18.0653103
0
LINE
8
DEFAULT_255_2_778
10
41.4175824
20
18.0653103
11
41.2511824
21
17.7771103
0
LINE
8
DEFAULT_255_2_778
10
40.9672824
20
17.6134103
11
40.6034824
21
17.6134103
0
LINE
8
DEFAULT_255_2_778
10
40.4724824
20
17.3866103
11
40.6542824
21
17.0718103
0
LINE
8
DEFAULT_255_2_778
10
40.6542824
20
16.7442103
11
40.4724824
21
16.4291103
0
LINE
8
DEFAULT_255_2_778
10
40.6034824
20
16.2023103
11
40.9672824
21
16.2023103
0
LINE
8
DEFAULT_255_2_778
10
41.1638824
20
16.1370103
11
41.1638824
21
16.1365103
0
LINE
8
DEFAULT_255_2_778
10
127.1720175
20
10.8002712
11
127.6377175
21
10.7999712
0
LINE
8
DEFAULT_255_2_778
10
128.2772175
20
10.7579712
11
127.6374175
21
10.7994712
0
ARC
8
DEFAULT_255_2_778
10
127.6909473
20
11.0536297
40
0.2782812
50
180.8869534
51
200.2697118
0
ARC
8
DEFAULT_255_2_778
10
127.6606251
20
11.0435801
40
0.2463575
50
200.5203253
51
222.1920692
0
ARC
8
DEFAULT_255_2_778
10
127.6575987
20
11.0400272
40
0.2417298
50
222.049917
51
243.8596673
0
ARC
8
DEFAULT_255_2_778
10
127.6545087
20
11.0359375
40
0.2366992
50
244.0949752
51
265.9762195
0
LINE
8
DEFAULT_255_2_778
10
120.3054995
20
10.805622
11
127.1716995
21
10.800322
0
LINE
8
DEFAULT_255_2_778
10
127.1719995
20
18.836222
11
127.1719995
21
10.800322
0
LINE
8
DEFAULT_255_2_778
10
120.3054883
20
11.0555909
11
120.3054883
21
10.8052909
0
LINE
8
DEFAULT_255_2_778
10
119.2000883
20
10.7581909
11
120.2178883
21
10.8055909
0
LINE
8
DEFAULT_255_2_778
10
120.2178883
20
10.8055909
11
120.3052883
21
10.8055909
0
ARC
8
DEFAULT_255_2_778
10
119.8231585
20
11.0356325
40
0.2363234
50
273.7800934
51
295.8874858
0
ARC
8
DEFAULT_255_2_778
10
119.8198394
20
11.0400284
40
0.24173
50
296.1403327
51
317.950083
0
ARC
8
DEFAULT_255_2_778
10
119.816813
20
11.0435812
40
0.2463574
50
317.8079308
51
339.4796747
0
ARC
8
DEFAULT_255_2_778
10
119.7864907
20
11.0536309
40
0.2782812
50
339.7302882
51
359.1130466
0
LINE
8
DEFAULT_255_2_778
10
120.0647386
20
11.0493232
11
120.3054386
21
11.0556232
0
LINE
8
DEFAULT_255_2_778
10
120.2893386
20
18.8362232
11
120.3054386
21
11.0556232
0
LINE
8
DEFAULT_255_2_778
10
127.4127386
20
11.0493232
11
127.1719386
21
11.0556232
0
LINE
8
DEFAULT_255_2_778
10
127.1719386
20
11.0556232
11
120.3057386
21
11.0556232
0
LINE
8
DEFAULT_255_2_778
10
120.0639386
20
18.8460232
11
120.0647386
21
11.0493232
0
LINE
8
DEFAULT_255_2_778
10
119.3053386
20
11.0133232
11
119.4265386
21
11.0077232
0
LINE
8
DEFAULT_255_2_778
10
119.4265386
20
11.0077232
11
120.0647386
21
11.0493232
0
LINE
8
DEFAULT_255_2_778
10
127.4135386
20
18.8460232
11
127.4127386
21
11.0493232
0
LINE
8
DEFAULT_255_2_778
10
128.1720386
20
11.0156232
11
128.0508386
21
11.0077232
0
LINE
8
DEFAULT_255_2_778
10
128.0508386
20
11.0077232
11
127.4127386
21
11.0493232
0
ARC
8
DEFAULT_255_2_778
10
127.3351664
20
19.3596106
40
0.5194834
50
272.1954313
51
278.6749506
0
ARC
8
DEFAULT_255_2_778
10
127.1991772
20
21.8388841
40
3.0024254
50
270.486699
51
272.9762067
0
ARC
8
DEFAULT_255_2_778
10
127.1722717
20
23.4603289
40
4.6240589
50
269.9956343
51
270.6494063
0
ARC
8
DEFAULT_255_2_778
10
120.1420417
20
19.3533191
40
0.5132296
50
261.2445665
51
267.6845601
0
ARC
8
DEFAULT_255_2_778
10
120.2813537
20
21.8632184
40
3.0269442
50
266.9691229
51
270.0399418
0
ARC
8
DEFAULT_255_2_778
10
120.2893174
20
22.4054865
40
3.5692164
50
269.9060341
51
270.0000322
0
LINE
8
DEFAULT_255_2_778
10
120.2893194
20
18.8362701
11
127.1717194
21
18.8362701
0
LINE
8
DEFAULT_255_2_778
10
127.7635194
20
18.9145701
11
128.1453194
21
19.0642701
0
LINE
8
DEFAULT_255_2_778
10
128.1721194
20
19.1759701
11
128.1451194
21
19.0642701
0
LINE
8
DEFAULT_255_2_778
10
119.7138843
20
18.9145971
11
119.3320843
21
19.0642971
0
LINE
8
DEFAULT_255_2_778
10
119.3320843
20
19.0642971
11
128.1450843
21
19.0642971
0
LINE
8
DEFAULT_255_2_778
10
119.7138843
20
18.9145971
11
127.7632843
21
18.9145971
0
LINE
8
DEFAULT_255_2_778
10
127.4132843
20
18.8460971
11
127.7632843
21
18.9145971
0
LINE
8
DEFAULT_255_2_778
10
120.0638843
20
18.8460971
11
119.7138843
21
18.9145971
0
LINE
8
DEFAULT_255_2_778
10
128.1720843
20
11.0156971
11
128.1720843
21
19.1759971
0
LINE
8
DEFAULT_255_2_778
10
128.8014843
20
19.7122971
11
128.1720843
21
19.1759971
0
LINE
8
DEFAULT_255_2_778
10
128.1721
20
11.0156869
11
128.1721
21
11.0132869
0
ARC
8
DEFAULT_255_2_778
10
128.3929628
20
10.9465654
40
0.1822546
50
267.4880333
51
269.5871301
0
ARC
8
DEFAULT_255_2_778
10
128.3945304
20
10.962448
40
0.1981926
50
244.8017147
51
267.2365292
0
ARC
8
DEFAULT_255_2_778
10
128.4043395
20
10.9832177
40
0.221162
50
221.8314681
51
244.7931944
0
ARC
8
DEFAULT_255_2_778
10
128.4309578
20
11.0071622
40
0.2569652
50
200.6799785
51
221.8511902
0
ARC
8
DEFAULT_255_2_778
10
128.4570842
20
11.0175094
40
0.2850626
50
180.8027798
51
200.7712351
0
ARC
8
DEFAULT_255_2_778
10
129.4733315
20
11.0217264
40
0.671782
50
180.0265156
51
188.3374946
0
LINE
8
DEFAULT_255_2_778
10
128.8864495
20
10.7709155
11
128.8705495
21
10.7762155
0
LINE
8
DEFAULT_255_2_778
10
128.8705495
20
10.7762155
11
128.8552495
21
10.7902155
0
LINE
8
DEFAULT_255_2_778
10
128.8552495
20
10.7902155
11
128.8406495
21
10.8129155
0
LINE
8
DEFAULT_255_2_778
10
128.8406495
20
10.8129155
11
128.8277495
21
10.8434155
0
LINE
8
DEFAULT_255_2_778
10
128.8277495
20
10.8434155
11
128.8168495
21
10.8809155
0
LINE
8
DEFAULT_255_2_778
10
128.8168495
20
10.8809155
11
128.8086495
21
10.9243155
0
LINE
8
DEFAULT_255_2_778
10
128.8015495
20
11.0214155
11
128.1720495
21
11.0130155
0
LINE
8
DEFAULT_255_2_778
10
119.3053495
20
19.1759155
11
119.3053495
21
11.0132155
0
LINE
8
DEFAULT_255_2_778
10
119.3054
20
11.0133
11
119.3054
21
11.0133
0
ARC
8
DEFAULT_255_2_778
10
118.0086176
20
11.0203771
40
0.6671433
50
351.7273065
51
356.8801762
0
ARC
8
DEFAULT_255_2_778
10
117.9195994
20
11.0259398
40
0.7563327
50
356.8264195
51
359.662567
0
ARC
8
DEFAULT_255_2_778
10
119.0828937
20
10.963023
40
0.198759
50
270.8433031
51
295.1356163
0
ARC
8
DEFAULT_255_2_778
10
119.0718841
20
10.9845756
40
0.2229486
50
295.3443692
51
318.1352868
0
ARC
8
DEFAULT_255_2_778
10
119.0458782
20
11.007616
40
0.2576924
50
318.1790856
51
339.289863
0
ARC
8
DEFAULT_255_2_778
10
119.0203809
20
11.0175804
40
0.2850662
50
339.2288273
51
359.1970347
0
LINE
8
DEFAULT_255_2_778
10
118.606919
20
10.7761855
11
118.591019
21
10.7708855
0
LINE
8
DEFAULT_255_2_778
10
118.591019
20
10.7708855
11
118.622519
21
10.7901855
0
LINE
8
DEFAULT_255_2_778
10
118.622519
20
10.7901855
11
118.636819
21
10.8129855
0
LINE
8
DEFAULT_255_2_778
10
118.636819
20
10.8129855
11
118.649719
21
10.8433855
0
LINE
8
DEFAULT_255_2_778
10
118.649719
20
10.8433855
11
118.660619
21
10.8809855
0
LINE
8
DEFAULT_255_2_778
10
118.660619
20
10.8809855
11
118.668819
21
10.9243855
0
LINE
8
DEFAULT_255_2_778
10
118.675919
20
11.0214855
11
119.305419
21
11.0129855
0
ARC
8
DEFAULT_255_2_778
10
123.7424462
20
15.2734537
40
3.1534264
50
269.9313968
51
287.7010344
0
ARC
8
DEFAULT_255_2_778
10
123.7445605
20
15.2515578
40
3.1319278
50
287.7859792
51
343.4599739
0
ARC
8
DEFAULT_255_2_778
10
123.7191926
20
15.2541226
40
3.1569797
50
343.5464193
51
0.0618316
0
ARC
8
DEFAULT_255_2_778
10
123.7230196
20
15.2613003
40
3.1531531
50
359.9314808
51
17.7018075
0
ARC
8
DEFAULT_255_2_778
10
123.7446556
20
15.2633094
40
3.1319342
50
17.7871448
51
73.4602633
0
ARC
8
DEFAULT_255_2_778
10
123.7420753
20
15.2379236
40
3.1570078
50
73.5465314
51
90.0617942
0
ARC
8
DEFAULT_255_2_778
10
123.7348996
20
15.2417626
40
3.1531691
50
89.9314807
51
107.7017145
0
ARC
8
DEFAULT_255_2_778
10
123.7328734
20
15.2634088
40
3.1319352
50
107.7868087
51
163.4591033
0
ARC
8
DEFAULT_255_2_778
10
123.7579957
20
15.2609302
40
3.156727
50
163.5457949
51
180.0617237
0
ARC
8
DEFAULT_255_2_778
10
123.7547106
20
15.2537537
40
3.1534424
50
179.9313967
51
197.7009415
0
ARC
8
DEFAULT_255_2_778
10
123.7328045
20
15.2516223
40
3.1319287
50
197.7856431
51
253.4588139
0
ARC
8
DEFAULT_255_2_778
10
123.7352678
20
15.2767267
40
3.156699
50
253.5456827
51
270.061761
0
LINE
8
DEFAULT_255_2_778
10
123.7386705
20
12.1200295
11
123.7386705
21
12.1200295
0
ARC
8
DEFAULT_255_2_778
10
123.7426698
20
15.2728591
40
3.0152539
50
269.9301242
51
287.8761741
0
ARC
8
DEFAULT_255_2_778
10
123.7449406
20
15.2516179
40
2.9943443
50
287.9595829
51
344.3588961
0
ARC
8
DEFAULT_255_2_778
10
123.7173103
20
15.2546925
40
3.0217837
50
344.4440056
51
0.0571663
0
ARC
8
DEFAULT_255_2_778
10
123.7238409
20
15.2613848
40
3.0152539
50
359.9301242
51
17.8761741
0
ARC
8
DEFAULT_255_2_778
10
123.7450821
20
15.2636556
40
2.9943443
50
17.9595829
51
74.3588961
0
ARC
8
DEFAULT_255_2_778
10
123.7420075
20
15.2360253
40
3.0217837
50
74.4440056
51
90.0571663
0
ARC
8
DEFAULT_255_2_778
10
123.7353152
20
15.2425558
40
3.0152539
50
89.9301242
51
107.8761741
0
ARC
8
DEFAULT_255_2_778
10
123.7330444
20
15.263797
40
2.9943443
50
107.9595829
51
164.3588961
0
ARC
8
DEFAULT_255_2_778
10
123.7606747
20
15.2607224
40
3.0217837
50
164.4440056
51
180.0571663
0
ARC
8
DEFAULT_255_2_778
10
123.7541442
20
15.2540302
40
3.0152539
50
179.9301242
51
197.8761741
0
ARC
8
DEFAULT_255_2_778
10
123.732903
20
15.2517594
40
2.9943443
50
197.9595829
51
254.3588961
0
ARC
8
DEFAULT_255_2_778
10
123.7359776
20
15.2793897
40
3.0217837
50
254.4440056
51
270.0571663
0
LINE
8
DEFAULT_255_2_778
10
123.7389925
20
12.2576075
11
123.7389925
21
12.2576075
0
ARC
8
DEFAULT_255_2_778
10
123.7426463
20
15.2693821
40
2.7942622
50
269.9246082
51
288.936098
0
ARC
8
DEFAULT_255_2_778
10
123.7446798
20
15.2518373
40
2.7770096
50
289.0138846
51
346.7725787
0
ARC
8
DEFAULT_255_2_778
10
123.7117564
20
15.2555597
40
2.809914
50
346.8523001
51
0.0440977
0
ARC
8
DEFAULT_255_2_778
10
123.7273371
20
15.261422
40
2.7943349
50
359.9241426
51
18.936546
0
ARC
8
DEFAULT_255_2_778
10
123.7451401
20
15.2634652
40
2.776835
50
19.0158772
51
76.7069497
0
ARC
8
DEFAULT_255_2_778
10
123.7411545
20
15.2300268
40
2.8102964
50
76.7846224
51
90.0445474
0
ARC
8
DEFAULT_255_2_778
10
123.7352665
20
15.2458183
40
2.7945066
50
89.9240774
51
108.9352637
0
ARC
8
DEFAULT_255_2_778
10
123.7330953
20
15.2638963
40
2.7767049
50
109.013933
51
166.7065058
0
ARC
8
DEFAULT_255_2_778
10
123.7665931
20
15.25991
40
2.8102245
50
166.7844509
51
180.0446021
0
ARC
8
DEFAULT_255_2_778
10
123.7508737
20
15.2540194
40
2.7945066
50
179.9240774
51
198.9352637
0
ARC
8
DEFAULT_255_2_778
10
123.7327956
20
15.2518481
40
2.7767049
50
199.013933
51
256.7065058
0
ARC
8
DEFAULT_255_2_778
10
123.7367819
20
15.285346
40
2.8102245
50
256.7844509
51
270.0446021
0
LINE
8
DEFAULT_255_2_778
10
123.7389695
20
12.4751224
11
123.7389695
21
12.4751224
0
LINE
8
DEFAULT_255_2_778
10
123.3389437
20
13.9305978
11
123.3389437
21
14.4864978
0
LINE
8
DEFAULT_255_2_778
10
124.1387437
20
13.9305978
11
124.1387437
21
14.4864978
0
LINE
8
DEFAULT_255_2_778
10
124.1387437
20
16.5845978
11
124.1387437
21
16.0286978
0
LINE
8
DEFAULT_255_2_778
10
123.3389437
20
16.5845978
11
123.3389437
21
16.0286978
0
LINE
8
DEFAULT_255_2_778
10
124.1390437
20
16.5845978
11
124.1390437
21
17.3775978
0
LINE
8
DEFAULT_255_2_778
10
124.1390437
20
17.3775978
11
123.3389437
21
17.3775978
0
LINE
8
DEFAULT_255_2_778
10
123.3389437
20
17.3775978
11
123.3389437
21
16.5845978
0
ARC
8
DEFAULT_255_2_778
10
123.7403763
20
15.2575851
40
1.3863533
50
181.7704893
51
253.1720259
0
ARC
8
DEFAULT_255_2_778
10
123.7514289
20
15.2575785
40
1.3974005
50
179.9992092
51
181.7562187
0
ARC
8
DEFAULT_255_2_778
10
123.7404804
20
15.2575471
40
1.3864522
50
108.6021275
51
179.9979034
0
ARC
8
DEFAULT_255_2_778
10
123.7432158
20
15.2481125
40
1.3962667
50
106.8266717
51
108.5850146
0
ARC
8
DEFAULT_255_2_778
10
123.7374773
20
15.2574795
40
1.3862531
50
286.8293469
51
358.2337488
0
ARC
8
DEFAULT_255_2_778
10
123.7263276
20
15.2575785
40
1.3974005
50
358.2437814
51
0.0007908
0
ARC
8
DEFAULT_255_2_778
10
123.7373603
20
15.2576412
40
1.3863679
50
359.9982052
51
71.3960238
0
ARC
8
DEFAULT_255_2_778
10
123.734642
20
15.2481173
40
1.3962616
50
71.4149862
51
73.1733291
0
LINE
8
DEFAULT_255_2_778
10
123.3390282
20
13.9305978
11
123.3390282
21
13.1375978
0
LINE
8
DEFAULT_255_2_778
10
123.3390282
20
13.1375978
11
124.1391282
21
13.1375978
0
LINE
8
DEFAULT_255_2_778
10
124.1391282
20
13.1375978
11
124.1391282
21
13.9305978
0
ARC
8
DEFAULT_255_2_778
10
124.3355294
20
16.2910887
40
0.3277443
50
233.1734846
51
270.0265768
0
ARC
8
DEFAULT_255_2_778
10
124.7003187
20
15.8173062
40
0.1460407
50
90.0000757
51
90.3284937
0
ARC
8
DEFAULT_255_2_778
10
124.700278
20
15.812784
40
0.1505629
50
29.9908082
51
89.984601
0
ARC
8
DEFAULT_255_2_778
10
124.7001379
20
15.8125648
40
0.1507939
50
0.1587748
51
30.0363092
0
ARC
8
DEFAULT_255_2_778
10
124.6919785
20
15.8125369
40
0.1589532
50
359.9035968
51
0.1606724
0
ARC
8
DEFAULT_255_2_778
10
124.7006226
20
15.8125091
40
0.150309
50
329.6869439
51
359.9086785
0
ARC
8
DEFAULT_255_2_778
10
124.932366
20
15.2577814
40
0.3275597
50
150.0033791
51
180.0064523
0
ARC
8
DEFAULT_255_2_778
10
124.932366
20
15.2577076
40
0.3275597
50
179.9935477
51
209.9966209
0
ARC
8
DEFAULT_255_2_778
10
124.7003178
20
14.7028971
40
0.1506139
50
0.1083774
51
30.2817338
0
ARC
8
DEFAULT_255_2_778
10
124.687786
20
14.702911
40
0.1631456
50
359.9682748
51
0.0951757
0
ARC
8
DEFAULT_255_2_778
10
124.7002397
20
14.7028967
40
0.1506919
50
329.9533616
51
359.971099
0
ARC
8
DEFAULT_255_2_778
10
124.7000486
20
14.7029051
40
0.1508616
50
269.9972141
51
329.9869465
0
ARC
8
DEFAULT_255_2_778
10
124.6999014
20
14.6500568
40
0.0980134
50
269.7544659
51
270.0817523
0
LINE
8
DEFAULT_255_2_778
10
124.3356814
20
14.5520445
11
124.3352209
21
14.5520448
0
ARC
8
DEFAULT_255_2_778
10
124.3353649
20
14.224395
40
0.3276498
50
90.0251683
51
126.8029402
0
ARC
8
DEFAULT_255_2_778
10
124.3337872
20
14.2260764
40
0.3253586
50
126.7578595
51
150.0835766
0
ARC
8
DEFAULT_255_2_778
10
123.7387388
20
15.2500308
40
1.1591865
50
270.5589478
51
277.2626775
0
ARC
8
DEFAULT_255_2_778
10
123.7387355
20
15.2540585
40
1.1632139
50
270.0010287
51
270.5571756
0
ARC
8
DEFAULT_255_2_778
10
123.7386966
20
15.2464685
40
1.155624
50
262.7261782
51
270.002966
0
ARC
8
DEFAULT_255_2_778
10
123.1384522
20
14.2217872
40
0.3322866
50
30.0824694
51
52.8802587
0
ARC
8
DEFAULT_255_2_778
10
123.1421286
20
14.2241859
40
0.3281586
50
53.1393425
51
89.955863
0
ARC
8
DEFAULT_255_2_778
10
122.7781599
20
14.6510459
40
0.0987023
50
269.9185384
51
270.2446605
0
ARC
8
DEFAULT_255_2_778
10
122.7779559
20
14.703277
40
0.1509336
50
210.028797
51
270.0241798
0
ARC
8
DEFAULT_255_2_778
10
122.7779196
20
14.7030994
40
0.1508135
50
179.9788559
51
209.977245
0
ARC
8
DEFAULT_255_2_778
10
122.7318982
20
14.7032274
40
0.1047921
50
179.8812933
51
180.0395688
0
ARC
8
DEFAULT_255_2_778
10
122.7782474
20
14.7031836
40
0.1511412
50
149.8290003
51
179.9010854
0
ARC
8
DEFAULT_255_2_778
10
122.5452008
20
15.2579901
40
0.3279805
50
330.0493492
51
359.9441481
0
ARC
8
DEFAULT_255_2_778
10
122.7097164
20
15.2579416
40
0.163465
50
359.9049296
51
0.0316901
0
ARC
8
DEFAULT_255_2_778
10
122.5456116
20
15.2581086
40
0.3275698
50
359.9865949
51
29.9698999
0
ARC
8
DEFAULT_255_2_778
10
122.7782474
20
15.8128054
40
0.1511412
50
180.0989146
51
210.1709997
0
ARC
8
DEFAULT_255_2_778
10
122.7779203
20
15.8128892
40
0.1508143
50
150.0227322
51
180.1309445
0
ARC
8
DEFAULT_255_2_778
10
122.7779559
20
15.8127119
40
0.1509337
50
89.9758202
51
149.971203
0
ARC
8
DEFAULT_255_2_778
10
122.7781599
20
15.8649431
40
0.0987025
50
89.7553395
51
90.0814616
0
ARC
8
DEFAULT_255_2_778
10
123.1419078
20
16.2924639
40
0.3288197
50
270.0825189
51
306.8223699
0
ARC
8
DEFAULT_255_2_778
10
123.1434403
20
16.2897917
40
0.3257625
50
306.8882792
51
330.1489552
0
ARC
8
DEFAULT_255_2_778
10
123.7390364
20
15.2643111
40
1.1608345
50
90.9493586
51
97.2579071
0
ARC
8
DEFAULT_255_2_778
10
123.7389571
20
15.2655124
40
1.1596321
50
90.0006511
51
90.9464214
0
ARC
8
DEFAULT_255_2_778
10
123.7389941
20
15.2699596
40
1.1551849
50
82.7247944
51
90.0024922
0
ARC
8
DEFAULT_255_2_778
10
124.3356055
20
16.291526
40
0.3277397
50
210.0023562
51
233.1562538
0
LINE
8
DEFAULT_255_2_778
10
124.3356814
20
15.9633445
11
124.6994814
21
15.9633445
0
LINE
8
DEFAULT_255_2_778
10
124.8303814
20
15.7366445
11
124.6486814
21
15.4215445
0
LINE
8
DEFAULT_255_2_778
10
124.6486814
20
15.0939445
11
124.8303814
21
14.7788445
0
LINE
8
DEFAULT_255_2_778
10
124.6994814
20
14.5520445
11
124.3356814
21
14.5520445
0
LINE
8
DEFAULT_255_2_778
10
124.0517814
20
14.3883445
11
123.8852814
21
14.1001445
0
LINE
8
DEFAULT_255_2_778
10
123.5923814
20
14.1001445
11
123.4259814
21
14.3883445
0
LINE
8
DEFAULT_255_2_778
10
123.1423814
20
14.5523445
11
122.7785814
21
14.5523445
0
LINE
8
DEFAULT_255_2_778
10
122.6475814
20
14.7791445
11
122.8293814
21
15.0942445
0
LINE
8
DEFAULT_255_2_778
10
122.8293814
20
15.4217445
11
122.6475814
21
15.7368445
0
LINE
8
DEFAULT_255_2_778
10
122.7785814
20
15.9636445
11
123.1423814
21
15.9636445
0
LINE
8
DEFAULT_255_2_778
10
123.4259814
20
16.1276445
11
123.5923814
21
16.4158445
0
LINE
8
DEFAULT_255_2_778
10
123.8852814
20
16.4158445
11
124.0517814
21
16.1276445
0
LINE
8
DEFAULT_255_2_778
10
124.1390814
20
16.0292445
11
124.1390814
21
16.0287445
0
LINE
8
DEFAULT_255_2_778
10
24.7981226
20
130.6235108
11
23.0571226
21
130.6243108
0
LINE
8
DEFAULT_255_2_778
10
23.0571226
20
130.6243108
11
23.0571226
21
121.6523108
0
LINE
8
DEFAULT_255_2_778
10
23.0571226
20
121.6523108
11
24.7959226
21
121.6732108
0
LINE
8
DEFAULT_255_2_778
10
24.7959226
20
121.6732108
11
24.7959226
21
130.6198108
0
ARC
8
DEFAULT_255_2_778
10
25.084095
20
121.4347375
40
0.5050402
50
0.004419
51
0.301691
0
ARC
8
DEFAULT_255_2_778
10
25.0916598
20
121.4349646
40
0.4974754
50
315.016335
51
359.9783277
0
ARC
8
DEFAULT_255_2_778
10
25.0917041
20
121.4352072
40
0.4976155
50
269.986194
51
314.9929728
0
ARC
8
DEFAULT_255_2_778
10
25.0915411
20
121.4271376
40
0.4895459
50
269.741
51
270.005038
0
ARC
8
DEFAULT_255_2_778
10
22.835817
20
121.4262974
40
0.4887057
50
269.9949412
51
270.259235
0
ARC
8
DEFAULT_255_2_778
10
22.8357287
20
121.4351504
40
0.4975587
50
225.0043241
51
270.0052082
0
ARC
8
DEFAULT_255_2_778
10
22.8357818
20
121.4350973
40
0.4975586
50
179.9947918
51
224.9956759
0
ARC
8
DEFAULT_255_2_778
10
22.8269288
20
121.4351856
40
0.4887057
50
179.740765
51
180.0050588
0
ARC
8
DEFAULT_255_2_778
10
25.0915411
20
130.4490559
40
0.4895458
50
89.994962
51
90.259
0
ARC
8
DEFAULT_255_2_778
10
25.0917041
20
130.4409864
40
0.4976155
50
45.0070272
51
90.013806
0
ARC
8
DEFAULT_255_2_778
10
25.0916598
20
130.4412289
40
0.4974753
50
0.0216723
51
44.983665
0
ARC
8
DEFAULT_255_2_778
10
25.084095
20
130.4414561
40
0.5050401
50
359.698309
51
359.995581
0
ARC
8
DEFAULT_255_2_778
10
22.8269288
20
130.4410079
40
0.4887057
50
179.9949412
51
180.259235
0
ARC
8
DEFAULT_255_2_778
10
22.8357818
20
130.4410963
40
0.4975587
50
135.0043241
51
180.0052082
0
ARC
8
DEFAULT_255_2_778
10
22.8357287
20
130.4410432
40
0.4975586
50
89.9947918
51
134.9956759
0
ARC
8
DEFAULT_255_2_778
10
22.835817
20
130.4498961
40
0.4887057
50
89.740765
51
90.0050588
0
ARC
8
DEFAULT_255_2_778
10
25.0160987
20
130.3722424
40
0.4901633
50
89.9962326
51
90.3472241
0
ARC
8
DEFAULT_255_2_778
10
25.0161611
20
130.3651791
40
0.4972267
50
45.0530117
51
90.0034849
0
ARC
8
DEFAULT_255_2_778
10
25.0161631
20
130.3649769
40
0.4973686
50
359.9995585
51
45.0696286
0
ARC
8
DEFAULT_255_2_778
10
25.0244976
20
130.3649211
40
0.4890342
50
359.7862557
51
0.0060857
0
ARC
8
DEFAULT_255_2_778
10
22.9157062
20
130.3607626
40
0.4985783
50
121.6040456
51
180.0650287
0
ARC
8
DEFAULT_255_2_778
10
22.9176305
20
130.360837
40
0.4995262
50
93.6800982
51
121.796501
0
ARC
8
DEFAULT_255_2_778
10
22.9163312
20
130.3687589
40
0.4915378
50
90.0003453
51
93.588224
0
ARC
8
DEFAULT_255_2_778
10
25.0160987
20
121.5039511
40
0.4901633
50
269.6527759
51
270.0037674
0
ARC
8
DEFAULT_255_2_778
10
25.0161611
20
121.5110144
40
0.4972267
50
269.9965151
51
314.9469883
0
ARC
8
DEFAULT_255_2_778
10
25.0161631
20
121.5112166
40
0.4973686
50
314.9303714
51
0.0004415
0
ARC
8
DEFAULT_255_2_778
10
25.0244976
20
121.5112724
40
0.4890342
50
359.9939143
51
0.2137443
0
ARC
8
DEFAULT_255_2_778
10
22.9161289
20
121.5086351
40
0.4927384
50
266.2839143
51
269.999918
0
ARC
8
DEFAULT_255_2_778
10
22.9170903
20
121.5146244
40
0.4987775
50
238.1826294
51
266.2182932
0
ARC
8
DEFAULT_255_2_778
10
22.9154062
20
121.5154309
40
0.4985783
50
179.9349713
51
238.3959544
0
LINE
8
DEFAULT_255_2_778
10
22.3387282
20
130.4387968
11
22.4173282
21
130.3601968
0
LINE
8
DEFAULT_255_2_778
10
22.4173282
20
130.3601968
11
22.4173282
21
121.5159968
0
LINE
8
DEFAULT_255_2_778
10
22.4173282
20
121.5159968
11
22.3387282
21
121.4373968
0
LINE
8
DEFAULT_255_2_778
10
22.3387282
20
121.4373968
11
22.3387282
21
130.4387968
0
LINE
8
DEFAULT_255_2_778
10
25.5135282
20
121.5130968
11
25.5889282
21
121.4370968
0
LINE
8
DEFAULT_255_2_778
10
25.5889282
20
121.4370968
11
25.5889282
21
130.4387968
0
LINE
8
DEFAULT_255_2_778
10
25.5889282
20
130.4387968
11
25.5129282
21
130.3630968
0
LINE
8
DEFAULT_255_2_778
10
25.5129282
20
130.3630968
11
25.5129282
21
121.5132968
0
LINE
8
DEFAULT_255_2_778
10
25.0893282
20
130.9380968
11
22.8380282
21
130.9380968
0
LINE
8
DEFAULT_255_2_778
10
22.8380282
20
130.9380968
11
22.9161282
21
130.8599968
0
LINE
8
DEFAULT_255_2_778
10
22.9161282
20
130.8599968
11
25.0129282
21
130.8618968
0
LINE
8
DEFAULT_255_2_778
10
25.0129282
20
130.8618968
11
25.0893282
21
130.9380968
0
LINE
8
DEFAULT_255_2_778
10
22.9161282
20
121.0161968
11
25.0129282
21
121.0142968
0
LINE
8
DEFAULT_255_2_778
10
25.0129282
20
121.0142968
11
25.0891282
21
120.9380968
0
LINE
8
DEFAULT_255_2_778
10
25.0891282
20
120.9380968
11
22.8380282
21
120.9380968
0
LINE
8
DEFAULT_255_2_778
10
22.8380282
20
120.9380968
11
22.9161282
21
121.0161968
0
ARC
8
DEFAULT_255_2_778
10
54.5855093
20
3.6080797
40
0.2495156
50
44.929123
51
90.0109498
0
ARC
8
DEFAULT_255_2_778
10
56.4401205
20
1.7543641
40
0.2487416
50
359.8920657
51
45.1450072
0
ARC
8
DEFAULT_255_2_778
10
56.4384018
20
7.7613396
40
0.2504599
50
315.0187213
51
359.921294
0
ARC
8
DEFAULT_255_2_778
10
54.585335
20
5.9075308
40
0.2499353
50
270.029019
51
315.0310066
0
ARC
8
DEFAULT_255_2_778
10
48.98807
20
4.7619526
40
1.1456433
50
89.9554097
51
126.8344389
0
ARC
8
DEFAULT_255_2_778
10
48.9885903
20
4.7574922
40
1.1495272
50
126.7219157
51
175.6182126
0
ARC
8
DEFAULT_255_2_778
10
49.0060307
20
4.7568004
40
1.1669695
50
175.6497652
51
179.9511417
0
ARC
8
DEFAULT_255_2_778
10
48.9849673
20
4.7570539
40
1.1459059
50
179.9629184
51
216.8366544
0
ARC
8
DEFAULT_255_2_778
10
48.989231
20
4.7574679
40
1.1495687
50
216.7257632
51
265.6200651
0
ARC
8
DEFAULT_255_2_778
10
48.9899543
20
4.7750076
40
1.1671126
50
265.6504214
51
269.9512698
0
ARC
8
DEFAULT_255_2_778
10
48.9878704
20
4.7604253
40
0.8974709
50
89.9303335
51
136.789914
0
ARC
8
DEFAULT_255_2_778
10
48.9858683
20
4.7591212
40
0.8969075
50
136.6416298
51
180.0782994
0
ARC
8
DEFAULT_255_2_778
10
48.9864438
20
4.7567728
40
0.8974829
50
179.9283267
51
226.7861746
0
ARC
8
DEFAULT_255_2_778
10
48.987692
20
4.7547896
40
0.896895
50
226.6413102
51
270.0811038
0
ARC
8
DEFAULT_255_2_778
10
55.2790263
20
6.1916221
40
0.2499353
50
314.9689934
51
359.970981
0
ARC
8
DEFAULT_255_2_778
10
53.1754487
20
4.0876481
40
0.2495845
50
292.6991926
51
315.0747263
0
ARC
8
DEFAULT_255_2_778
10
62.4687269
20
5.9737545
40
0.133286
50
115.1595276
51
140.2428915
0
ARC
8
DEFAULT_255_2_778
10
62.4743935
20
5.9610029
40
0.1472374
50
91.4134356
51
115.0457957
0
ARC
8
DEFAULT_255_2_778
10
62.4741426
20
5.9261915
40
0.1820354
50
89.9969622
51
91.0642172
0
ARC
8
DEFAULT_255_2_778
10
62.4745077
20
5.9331502
40
0.1750772
50
70.2178578
51
90.1163194
0
ARC
8
DEFAULT_255_2_778
10
62.4689758
20
5.9169916
40
0.1921547
50
50.5152898
51
70.2963903
0
ARC
8
DEFAULT_255_2_778
10
53.1560886
20
4.0881614
40
0.2497634
50
180.97865
51
247.3890717
0
ARC
8
DEFAULT_255_2_778
10
51.8995226
20
4.6596275
40
0.9966686
50
0.9237478
51
43.534879
0
ARC
8
DEFAULT_255_2_778
10
51.8971285
20
4.660729
40
0.9976483
50
43.3943135
51
88.9050856
0
ARC
8
DEFAULT_255_2_778
10
51.8959708
20
4.6391689
40
1.0192268
50
88.8631776
51
89.9892741
0
ARC
8
DEFAULT_255_2_778
10
51.9004016
20
4.6583018
40
1.2501517
50
1.0034647
51
53.1891443
0
ARC
8
DEFAULT_255_2_778
10
55.5086185
20
5.7159987
40
1.5424909
50
16.0127007
51
65.6067972
0
ARC
8
DEFAULT_255_2_778
10
55.5085998
20
5.7156921
40
2.0427784
50
16.0185975
51
60.3726406
0
ARC
8
DEFAULT_255_2_778
10
59.6580449
20
5.9077818
40
2.4987763
50
196.0078767
51
230.0887803
0
ARC
8
DEFAULT_255_2_778
10
59.658309
20
5.9065912
40
2.4980328
50
230.0666138
51
258.3754583
0
ARC
8
DEFAULT_255_2_778
10
59.6605626
20
5.9137472
40
2.5054962
50
258.3579537
51
263.1873796
0
ARC
8
DEFAULT_255_2_778
10
59.6594688
20
5.9047307
40
2.4964135
50
263.1877587
51
269.9992537
0
ARC
8
DEFAULT_255_2_778
10
59.6590017
20
5.9091393
40
2.5008222
50
270.0099563
51
319.7856294
0
ARC
8
DEFAULT_255_2_778
10
59.6498483
20
5.9167079
40
2.5126987
50
319.7886004
51
320.6994974
0
ARC
8
DEFAULT_255_2_778
10
55.2991744
20
2.1579018
40
1.5003384
50
55.3939921
51
90.0015449
0
ARC
8
DEFAULT_255_2_778
10
55.2991354
20
2.1584236
40
1.4998164
50
90.0000559
51
93.3533417
0
ARC
8
DEFAULT_255_2_778
10
55.2992074
20
2.1579238
40
1.5003195
50
93.3549712
51
103.8223924
0
ARC
8
DEFAULT_255_2_778
10
55.3006138
20
2.1609986
40
1.9969348
50
55.3720785
51
77.1798319
0
ARC
8
DEFAULT_255_2_778
10
55.2994643
20
2.1555571
40
2.0024959
50
77.1823092
51
90.0017233
0
ARC
8
DEFAULT_255_2_778
10
55.2993798
20
2.1553316
40
2.0027213
50
89.9993073
51
90.4700666
0
ARC
8
DEFAULT_255_2_778
10
55.2989344
20
2.159806
40
1.9982433
50
90.4583468
51
116.1278288
0
ARC
8
DEFAULT_255_2_778
10
55.3026256
20
2.1526883
40
2.0062592
50
116.1329583
51
121.2757367
0
ARC
8
DEFAULT_255_2_778
10
49.0724569
20
4.6585286
40
1.0001021
50
137.4527613
51
166.6297215
0
ARC
8
DEFAULT_255_2_778
10
49.0718428
20
4.65819
40
1.0001792
50
94.7073559
51
107.1892094
0
ARC
8
DEFAULT_255_2_778
10
50.8904588
20
4.6643201
40
2.0009972
50
180.0064317
51
203.816638
0
ARC
8
DEFAULT_255_2_778
10
45.9896044
20
4.8603274
40
2.3997579
50
359.9586491
51
359.9917298
0
ARC
8
DEFAULT_255_2_778
10
45.9957878
20
4.8595286
40
2.3935743
50
0.0108308
51
12.3064402
0
ARC
8
DEFAULT_255_2_778
10
50.8891105
20
4.6648185
40
2.4997489
50
180.0165704
51
194.9843461
0
ARC
8
DEFAULT_255_2_778
10
50.8917488
20
4.6641994
40
2.1721872
50
180.0027415
51
201.6473417
0
ARC
8
DEFAULT_255_2_778
10
45.9830629
20
4.8581955
40
2.7364987
50
0.008376
51
15.2611868
0
ARC
8
DEFAULT_255_2_778
10
59.6595873
20
5.909093
40
2.0004541
50
270.0038203
51
320.7019215
0
ARC
8
DEFAULT_255_2_778
10
59.6597473
20
5.9068065
40
1.9981676
50
263.2040917
51
269.9992375
0
ARC
8
DEFAULT_255_2_778
10
59.660613
20
5.9139636
40
2.005377
50
258.3645788
51
263.2037269
0
ARC
8
DEFAULT_255_2_778
10
59.659753
20
5.9088926
40
2.0002369
50
196.0166013
51
258.3594116
0
ARC
8
DEFAULT_255_2_778
10
55.5097416
20
5.7167672
40
1.8718541
50
16.0024004
51
61.8425746
0
ARC
8
DEFAULT_255_2_778
10
59.6595083
20
5.9074829
40
2.1695697
50
195.9882662
51
257.3045877
0
ARC
8
DEFAULT_255_2_778
10
59.6612548
20
5.9163736
40
2.1786268
50
257.3111658
51
258.3672592
0
ARC
8
DEFAULT_255_2_778
10
59.660837
20
5.9126237
40
2.1748696
50
258.35812
51
263.1508515
0
ARC
8
DEFAULT_255_2_778
10
59.6598488
20
5.9045153
40
2.1667012
50
263.1512272
51
269.9990555
0
ARC
8
DEFAULT_255_2_778
10
59.6594985
20
5.9075973
40
2.1697832
50
270.008307
51
320.7374385
0
ARC
8
DEFAULT_255_2_778
10
62.526223
20
5.9864896
40
0.1694919
50
89.9214387
51
140.8078294
0
ARC
8
DEFAULT_255_2_778
10
62.5264644
20
5.9859649
40
0.1700163
50
88.753991
51
90.0030218
0
ARC
8
DEFAULT_255_2_778
10
62.526628
20
5.9871109
40
0.168867
50
50.4907581
51
88.8010368
0
ARC
8
DEFAULT_255_2_778
10
59.4380322
20
1.5267602
40
0.1690731
50
10.336037
51
55.6785259
0
ARC
8
DEFAULT_255_2_778
10
59.4388335
20
1.5265246
40
0.1683275
50
4.1063981
51
10.4638814
0
ARC
8
DEFAULT_255_2_778
10
59.4387892
20
1.5265276
40
0.1683715
50
0.0010242
51
4.1043034
0
ARC
8
DEFAULT_255_2_778
10
59.4376941
20
1.5266414
40
0.1694665
50
325.1468495
51
359.9625321
0
ARC
8
DEFAULT_255_2_778
10
55.2993865
20
2.1586706
40
1.829702
50
55.3851512
51
90.0079162
0
ARC
8
DEFAULT_255_2_778
10
55.2991281
20
2.1584694
40
1.8299032
50
89.9998245
51
91.89257
0
ARC
8
DEFAULT_255_2_778
10
55.2989692
20
2.1607092
40
1.8276594
50
91.8899112
51
111.8227468
0
ARC
8
DEFAULT_255_2_778
10
45.9863457
20
4.8584968
40
2.9031159
50
0.001949
51
15.5158685
0
ARC
8
DEFAULT_255_2_778
10
128.2955001
20
11.0012569
40
0.2428954
50
244.3511182
51
265.8592956
0
ARC
8
DEFAULT_255_2_778
10
128.2978532
20
11.001598
40
0.2442295
50
222.2470412
51
243.8881117
0
ARC
8
DEFAULT_255_2_778
10
128.3028352
20
11.0054252
40
0.2504911
50
200.7947678
51
222.1289256
0
ARC
8
DEFAULT_255_2_778
10
128.3102478
20
11.0084261
40
0.2584862
50
179.984609
51
200.8332726
0
ARC
8
DEFAULT_255_2_778
10
56.439535
20
0.4084308
40
0.2499353
50
270.029019
51
315.0310066
0
ARC
8
DEFAULT_255_2_778
10
56.4397263
20
0.4086221
40
0.2499353
50
314.9689934
51
359.970981
0
ARC
8
DEFAULT_255_2_778
10
119.1861666
20
10.9914945
40
0.2331816
50
273.6870154
51
296.1025423
0
ARC
8
DEFAULT_255_2_778
10
119.1816328
20
11.001213
40
0.2439038
50
296.0544976
51
317.7104528
0
ARC
8
DEFAULT_255_2_778
10
119.176287
20
11.0051252
40
0.2504919
50
317.8712389
51
339.205319
0
ARC
8
DEFAULT_255_2_778
10
119.1687403
20
11.0081511
40
0.2586214
50
339.1721912
51
0.0319944
0
ARC
8
DEFAULT_255_2_778
10
63.7015122
20
8.9703584
40
0.7872494
50
359.988147
51
87.0598348
0
ARC
8
DEFAULT_255_2_778
10
63.7014038
20
8.9567786
40
0.8008169
50
87.1019253
51
90.0030204
0
ARC
8
DEFAULT_255_2_778
10
138.0499227
20
70.0931281
40
0.8864612
50
178.4471236
51
180.0344217
0
ARC
8
DEFAULT_255_2_778
10
137.6059275
20
70.1168459
40
0.4421404
50
158.6385681
51
179.9605005
0
ARC
8
DEFAULT_255_2_778
10
137.3790452
20
70.2104125
40
0.1968144
50
123.4143304
51
159.9477955
0
ARC
8
DEFAULT_255_2_778
10
137.3418726
20
70.2480642
40
0.1452807
50
90.0095624
51
119.351191
0
ARC
8
DEFAULT_255_2_778
10
137.3418454
20
70.2481726
40
0.1451724
50
85.477537
51
89.9988396
0
ARC
8
DEFAULT_255_2_778
10
137.3419135
20
70.2489339
40
0.144408
50
84.5768146
51
85.4806242
0
ARC
8
DEFAULT_255_2_778
10
137.3315623
20
70.1949883
40
0.1991585
50
58.1148168
51
83.0788353
0
ARC
8
DEFAULT_255_2_778
10
138.5762613
20
69.8386439
40
0.2499997
50
180.0110928
51
239.9735812
0
ARC
8
DEFAULT_255_2_778
10
138.4030279
20
69.5578092
40
0.0803893
50
359.8798329
51
53.2190306
0
ARC
8
DEFAULT_255_2_778
10
138.2993331
20
69.5397604
40
0.1849503
50
0.8783341
51
5.5478008
0
ARC
8
DEFAULT_255_2_778
10
138.2932043
20
69.5384394
40
0.1911025
50
359.9979428
51
1.2461734
0
ARC
8
DEFAULT_255_2_778
10
138.2445579
20
69.5415081
40
0.2397686
50
344.6395237
51
359.2650422
0
ARC
8
DEFAULT_255_2_778
10
138.07382
20
69.5773242
40
0.4140329
50
344.1589255
51
346.1190505
0
ARC
8
DEFAULT_255_2_778
10
138.018527
20
69.5938426
40
0.4717356
50
336.5075538
51
344.062034
0
ARC
8
DEFAULT_255_2_778
10
137.447417
20
70.1510775
40
0.1947439
50
183.5503946
51
197.4757505
0
ARC
8
DEFAULT_255_2_778
10
137.3831262
20
70.1448795
40
0.1302114
50
180.0166776
51
182.580168
0
ARC
8
DEFAULT_255_2_778
10
137.3653699
20
70.1451408
40
0.1124556
50
171.1223666
51
180.1524754
0
ARC
8
DEFAULT_255_2_778
10
137.3422329
20
70.1493238
40
0.0889519
50
170.5059361
51
171.4845174
0
ARC
8
DEFAULT_255_2_778
10
137.3212318
20
70.1542294
40
0.0674433
50
147.1680905
51
171.673572
0
ARC
8
DEFAULT_255_2_778
10
137.3263333
20
70.1343144
40
0.0858558
50
92.4563758
51
120.8853596
0
ARC
8
DEFAULT_255_2_778
10
137.3309651
20
70.098139
40
0.122235
50
93.0967693
51
93.8988623
0
ARC
8
DEFAULT_255_2_778
10
137.2928132
20
69.8169007
40
0.4074414
50
66.4107961
51
79.3286009
0
ARC
8
DEFAULT_255_2_778
10
137.6914735
20
30.7594747
40
0.2555301
50
180.0013841
51
185.3620904
0
ARC
8
DEFAULT_255_2_778
10
137.6895523
20
30.7594805
40
0.253609
50
176.9552815
51
180.0027152
0
ARC
8
DEFAULT_255_2_778
10
137.6659901
20
30.7622415
40
0.2299383
50
154.2061658
51
177.330441
0
ARC
8
DEFAULT_255_2_778
10
137.6473479
20
30.7717012
40
0.2090376
50
120.4019434
51
154.3172642
0
ARC
8
DEFAULT_255_2_778
10
138.3262908
20
31.6940425
40
0.2502709
50
300.0887024
51
359.9663574
0
ARC
8
DEFAULT_255_2_778
10
137.2956709
20
31.2731604
40
0.3977382
50
280.5891914
51
293.7819563
0
ARC
8
DEFAULT_255_2_778
10
137.3345429
20
31.0230881
40
0.1441181
50
264.4856487
51
266.1481989
0
ARC
8
DEFAULT_255_2_778
10
137.3260752
20
30.964059
40
0.0845935
50
239.2014974
51
266.352713
0
ARC
8
DEFAULT_255_2_778
10
137.3322194
20
30.9501852
40
0.0788353
50
189.483885
51
211.5838913
0
ARC
8
DEFAULT_255_2_778
10
137.3602484
20
30.9545727
40
0.1072045
50
179.8195886
51
189.328455
0
ARC
8
DEFAULT_255_2_778
10
137.3810991
20
30.9548403
40
0.1280547
50
176.6089147
51
179.9687045
0
ARC
8
DEFAULT_255_2_778
10
137.4562104
20
30.9468228
40
0.2035398
50
162.716174
51
175.6065694
0
ARC
8
DEFAULT_255_2_778
10
138.0073998
20
31.5026042
40
0.4836302
50
14.2920643
51
23.3378688
0
ARC
8
DEFAULT_255_2_778
10
138.2411248
20
31.5582184
40
0.2434395
50
0.0629906
51
15.1877823
0
ARC
8
DEFAULT_255_2_778
10
138.2368326
20
31.558486
40
0.2477316
50
359.7477792
51
359.999997
0
ARC
8
DEFAULT_255_2_778
10
138.2990462
20
31.560839
40
0.1855474
50
353.900644
51
358.9366111
0
ARC
8
DEFAULT_255_2_778
10
138.4033224
20
31.5419727
40
0.0802252
50
306.873541
51
359.3939359
0
ARC
8
DEFAULT_255_2_778
10
138.5768772
20
31.261165
40
0.2503155
50
120.0681648
51
179.9701209
0
ARC
8
DEFAULT_255_2_778
10
137.3332182
20
30.9020857
40
0.1961251
50
276.6886501
51
302.0734133
0
ARC
8
DEFAULT_255_2_778
10
137.3424135
20
30.8510571
40
0.144408
50
274.5193758
51
275.4231854
0
ARC
8
DEFAULT_255_2_778
10
137.3423454
20
30.8518184
40
0.1451723
50
270.0011604
51
274.522463
0
ARC
8
DEFAULT_255_2_778
10
137.3423726
20
30.8519268
40
0.1452807
50
240.648809
51
269.9904376
0
ARC
8
DEFAULT_255_2_778
10
137.3792757
20
30.8893653
40
0.196488
50
200.0207572
51
236.6170521
0
ARC
8
DEFAULT_255_2_778
10
137.5936076
20
30.979608
40
0.428915
50
181.504329
51
201.5451762
0
ARC
8
DEFAULT_255_2_778
10
137.9757128
20
31.0061278
40
0.8117522
50
179.9175832
51
182.6675795
0
ARC
8
DEFAULT_255_2_778
10
137.6913709
20
70.3399211
40
0.2554275
50
174.6368245
51
179.9978027
0
ARC
8
DEFAULT_255_2_778
10
137.6890409
20
70.3399178
40
0.2530976
50
179.9970319
51
182.9997473
0
ARC
8
DEFAULT_255_2_778
10
137.6665417
20
70.3372907
40
0.2304964
50
182.6402795
51
205.7657692
0
ARC
8
DEFAULT_255_2_778
10
137.6482136
20
70.328487
40
0.2101636
50
205.7763165
51
239.5044759
0
ARC
8
DEFAULT_255_2_778
10
138.3264123
20
69.4054186
40
0.2501494
50
0.0176164
51
59.927341
0
ARC
8
DEFAULT_255_2_778
10
132.1898117
20
11.0062222
40
0.2490268
50
269.9424587
51
315.1176651
0
ARC
8
DEFAULT_255_2_778
10
132.1889983
20
11.0075826
40
0.2505636
50
315.0284864
51
359.91148
0
ARC
8
DEFAULT_255_2_778
10
138.3191811
20
80.6456146
40
0.0075923
50
13.5658481
51
73.0586419
0
ARC
8
DEFAULT_255_2_778
10
138.4846836
20
80.953271
40
0.3419064
50
241.2559539
51
241.4720636
0
ARC
8
DEFAULT_255_2_778
10
138.3196538
20
20.4542776
40
0.0074754
50
286.368719
51
344.6245691
0
ARC
8
DEFAULT_255_2_778
10
138.3051118
20
20.480888
40
0.0376625
50
294.0518608
51
296.2347544
0
ARC
8
DEFAULT_255_2_778
10
54.585335
20
139.6077602
40
0.2499353
50
44.9689934
51
89.970981
0
ARC
8
DEFAULT_255_2_778
10
53.1568829
20
141.4273901
40
0.2505675
50
112.7311808
51
178.9011146
0
ARC
8
DEFAULT_255_2_778
10
51.8974647
20
140.854689
40
0.9966943
50
269.9250894
51
312.5355444
0
ARC
8
DEFAULT_255_2_778
10
51.8988285
20
140.8568212
40
0.9973464
50
312.3950046
51
357.9170891
0
ARC
8
DEFAULT_255_2_778
10
51.8792497
20
140.8582822
40
1.0169657
50
357.8749196
51
359.0034819
0
ARC
8
DEFAULT_255_2_778
10
51.9005747
20
140.8580031
40
1.2499789
50
306.806871
51
358.9957635
0
ARC
8
DEFAULT_255_2_778
10
53.1772113
20
141.4308684
40
0.2465528
50
44.8647249
51
67.525498
0
ARC
8
DEFAULT_255_2_778
10
55.278502
20
139.3242515
40
0.2504598
50
0.0787061
51
44.9813113
0
ARC
8
DEFAULT_255_2_778
10
56.4389263
20
143.7617221
40
0.2499353
50
314.9689934
51
359.970981
0
ARC
8
DEFAULT_255_2_778
10
54.5858552
20
141.9068767
40
0.2486815
50
269.9093107
51
315.1507345
0
ARC
8
DEFAULT_255_2_778
10
55.298858
20
143.3568857
40
1.502331
50
256.0766468
51
266.6272604
0
ARC
8
DEFAULT_255_2_778
10
55.2988097
20
143.3565983
40
1.5020411
50
266.628455
51
270.0002864
0
ARC
8
DEFAULT_255_2_778
10
55.298801
20
143.3582126
40
1.5036554
50
270.0006188
51
304.7537988
0
ARC
8
DEFAULT_255_2_778
10
55.2982206
20
143.3560183
40
2.0015081
50
238.5579356
51
258.5316524
0
ARC
8
DEFAULT_255_2_778
10
55.2987442
20
143.3595035
40
2.0050279
50
258.5367905
51
269.5196519
0
ARC
8
DEFAULT_255_2_778
10
55.2988323
20
143.3595712
40
2.0050963
50
269.5171504
51
269.9999917
0
ARC
8
DEFAULT_255_2_778
10
55.2993892
20
143.3562738
40
2.0017989
50
269.9840528
51
299.2146161
0
ARC
8
DEFAULT_255_2_778
10
55.2959184
20
143.361672
40
2.0082046
50
299.2258726
51
304.7629542
0
ARC
8
DEFAULT_255_2_778
10
59.4336969
20
143.9947651
40
0.1697017
50
2.6825588
51
34.7915184
0
ARC
8
DEFAULT_255_2_778
10
59.4331043
20
143.9947505
40
0.1702945
50
359.9982676
51
2.6781322
0
ARC
8
DEFAULT_255_2_778
10
59.4337947
20
143.9944938
40
0.1696044
50
304.6649437
51
0.0849819
0
ARC
8
DEFAULT_255_2_778
10
55.2983085
20
143.3567838
40
1.832263
50
247.9369484
51
268.1208993
0
ARC
8
DEFAULT_255_2_778
10
55.2984146
20
143.3582476
40
1.8337295
50
268.1190879
51
270.0003777
0
ARC
8
DEFAULT_255_2_778
10
55.2986978
20
143.3579478
40
1.8334297
50
269.9915248
51
304.7543644
0
ARC
8
DEFAULT_255_2_778
10
56.4401794
20
137.7543887
40
0.2486825
50
359.9094056
51
45.1506281
0
ARC
8
DEFAULT_255_2_778
10
62.331504
20
139.5800393
40
0.0511806
50
220.8018753
51
249.8360014
0
ARC
8
DEFAULT_255_2_778
10
62.3405394
20
139.6180088
40
0.0903012
50
258.9046411
51
270.1890899
0
ARC
8
DEFAULT_255_2_778
10
62.340745
20
139.6347605
40
0.1070524
50
270.0494417
51
274.5503984
0
ARC
8
DEFAULT_255_2_778
10
62.331612
20
139.7007545
40
0.1736062
50
275.8272641
51
291.6500463
0
ARC
8
DEFAULT_255_2_778
10
62.285338
20
139.8197267
40
0.3012588
50
291.4820012
51
309.7467915
0
ARC
8
DEFAULT_255_2_778
10
59.6585034
20
139.6066214
40
2.0005675
50
39.2982553
51
89.9911509
0
ARC
8
DEFAULT_255_2_778
10
59.6588425
20
139.6098139
40
1.997375
50
90.000863
51
96.817488
0
ARC
8
DEFAULT_255_2_778
10
59.6597168
20
139.602627
40
2.0046149
50
96.8179167
51
101.6429363
0
ARC
8
DEFAULT_255_2_778
10
59.6587508
20
139.6067638
40
2.0003682
50
101.6397476
51
163.9804674
0
ARC
8
DEFAULT_255_2_778
10
55.5078289
20
139.7998861
40
1.542878
50
294.3984906
51
343.9762088
0
ARC
8
DEFAULT_255_2_778
10
55.5075952
20
139.7999137
40
2.0429793
50
299.6307572
51
343.9825884
0
ARC
8
DEFAULT_255_2_778
10
59.6601072
20
139.6089199
40
2.497784
50
39.2830188
51
67.1562696
0
ARC
8
DEFAULT_255_2_778
10
59.6581475
20
139.6060176
40
2.5012195
50
67.1407102
51
89.9909109
0
ARC
8
DEFAULT_255_2_778
10
59.6585802
20
139.6099137
40
2.4973233
50
90.0008236
51
96.7948049
0
ARC
8
DEFAULT_255_2_778
10
59.6596407
20
139.6011397
40
2.5061612
50
96.7951481
51
101.6360696
0
ARC
8
DEFAULT_255_2_778
10
59.657835
20
139.6081663
40
2.4989148
50
101.628013
51
135.7073735
0
ARC
8
DEFAULT_255_2_778
10
59.6564127
20
139.6082112
40
2.4978656
50
135.6853271
51
163.995722
0
ARC
8
DEFAULT_255_2_778
10
62.2572801
20
139.6189019
40
0.0189686
50
224.5469964
51
274.7174296
0
ARC
8
DEFAULT_255_2_778
10
62.259108
20
139.6265997
40
0.0266034
50
269.4229799
51
270.1928977
0
ARC
8
DEFAULT_255_2_778
10
62.2590396
20
139.6491986
40
0.0492028
50
270.1839383
51
276.3266948
0
ARC
8
DEFAULT_255_2_778
10
62.5288205
20
139.5252982
40
0.1692857
50
270.0054757
51
309.352011
0
ARC
8
DEFAULT_255_2_778
10
62.5288423
20
139.52555
40
0.1695375
50
264.1497685
51
269.9980781
0
ARC
8
DEFAULT_255_2_778
10
62.5283326
20
139.5254966
40
0.1694331
50
219.1626651
51
264.3194002
0
ARC
8
DEFAULT_255_2_778
10
59.6587228
20
139.6083588
40
2.1694276
50
39.2646066
51
89.9937693
0
ARC
8
DEFAULT_255_2_778
10
59.6589893
20
139.611146
40
2.1666404
50
90.0008078
51
96.8343039
0
ARC
8
DEFAULT_255_2_778
10
59.6599541
20
139.6031638
40
2.1746807
50
96.8345175
51
101.6433661
0
ARC
8
DEFAULT_255_2_778
10
59.6585962
20
139.6081721
40
2.1695013
50
101.6349376
51
162.9782603
0
ARC
8
DEFAULT_255_2_778
10
59.6684815
20
139.6053524
40
2.179779
50
162.9834522
51
164.0078041
0
ARC
8
DEFAULT_255_2_778
10
55.50896
20
139.7991545
40
1.8718725
50
298.1564859
51
343.9935991
0
ARC
8
DEFAULT_255_2_778
10
132.1889222
20
134.5073086
40
0.2498395
50
359.9969939
51
45.0076909
0
ARC
8
DEFAULT_255_2_778
10
132.1885233
20
134.5068495
40
0.2504462
50
45.0174259
51
89.9454816
0
ARC
8
DEFAULT_255_2_778
10
56.4389263
20
145.1074689
40
0.2499353
50
0.029019
51
45.0310066
0
ARC
8
DEFAULT_255_2_778
10
56.438735
20
145.1076602
40
0.2499353
50
44.9689934
51
89.970981
0
ARC
8
DEFAULT_255_2_778
10
63.7016846
20
136.5439496
40
0.7862542
50
269.9764612
51
315.0424024
0
ARC
8
DEFAULT_255_2_778
10
63.7005494
20
136.5455839
40
0.7882124
50
315.0166478
51
359.9644995
0
ARC
8
DEFAULT_255_2_778
10
3.0065722
20
98.8211777
40
3.8734015
50
90.9054717
51
93.1096176
0
ARC
8
DEFAULT_255_2_778
10
2.8565394
20
101.4800441
40
1.2103243
50
92.8455627
51
96.4698287
0
ARC
8
DEFAULT_255_2_778
10
2.7397037
20
102.5092707
40
0.1744874
50
96.4309623
51
102.5649162
0
ARC
8
DEFAULT_255_2_778
10
2.703531
20
102.6666722
40
0.0130301
50
97.8795078
51
126.4728714
0
ARC
8
DEFAULT_255_2_778
10
2.6964509
20
102.6765592
40
0.00089
50
138.3953477
51
177.6648975
0
ARC
8
DEFAULT_255_2_778
10
3.0752238
20
103.0461038
40
0.3803598
50
251.2659833
51
269.0566503
0
ARC
8
DEFAULT_255_2_778
10
3.6955598
20
87.4330346
40
1.1602638
50
143.3518347
51
149.5468386
0
ARC
8
DEFAULT_255_2_778
10
3.3930971
20
87.6574147
40
0.7836609
50
136.4350284
51
143.3141003
0
ARC
8
DEFAULT_255_2_778
10
3.2257423
20
87.8209864
40
0.5496761
50
126.9448524
51
136.767122
0
ARC
8
DEFAULT_255_2_778
10
3.1073645
20
87.9790297
40
0.3522154
50
111.6951638
51
127.0070006
0
ARC
8
DEFAULT_255_2_778
10
3.0721714
20
88.0648357
40
0.2594797
50
90.708777
51
111.4786886
0
ARC
8
DEFAULT_255_2_778
10
2.9512891
20
90.0062345
40
7.101114
50
270.1354463
51
270.9494914
0
ARC
8
DEFAULT_255_2_778
10
2.9544884
20
89.2277924
40
6.3226667
50
269.9996608
51
270.1231307
0
ARC
8
DEFAULT_255_2_778
10
2.9463264
20
87.3794279
40
4.4743098
50
268.2746118
51
270.1040386
0
ARC
8
DEFAULT_255_2_778
10
2.8485211
20
84.2980757
40
1.3914187
50
265.1425731
51
268.4798492
0
ARC
8
DEFAULT_255_2_778
10
2.7338422
20
83.0257337
40
0.1141227
50
251.1171164
51
268.4224764
0
ARC
8
DEFAULT_255_2_778
10
2.6977793
20
82.9198403
40
0.0022619
50
191.3412612
51
247.3473608
0
ARC
8
DEFAULT_255_2_778
10
3.0031376
20
89.6884075
40
3.8325475
50
266.904085
51
269.1362281
0
ARC
8
DEFAULT_255_2_778
10
2.8551825
20
87.0569422
40
1.1969454
50
263.5087878
51
267.1731092
0
ARC
8
DEFAULT_255_2_778
10
2.7389195
20
86.0364382
40
0.1698401
50
257.2935238
51
263.5589809
0
ARC
8
DEFAULT_255_2_778
10
2.7032371
20
85.8829575
40
0.0123144
50
232.6200013
51
262.1821842
0
ARC
8
DEFAULT_255_2_778
10
2.6964273
20
85.8737256
40
0.0008662
50
181.993168
51
219.7213846
0
ARC
8
DEFAULT_255_2_778
10
2.6971496
20
82.9257052
40
0.0016143
50
113.4270463
51
169.6413077
0
ARC
8
DEFAULT_255_2_778
10
2.7266919
20
82.8444668
40
0.0880547
50
93.2888311
51
110.0468276
0
ARC
8
DEFAULT_255_2_778
10
2.8638365
20
81.6366507
40
1.3035049
50
92.594237
51
96.2627239
0
ARC
8
DEFAULT_255_2_778
10
3.010429
20
78.8739973
40
4.0700184
50
90.9160262
51
92.8954641
0
ARC
8
DEFAULT_255_2_778
10
5.3521747
20
88.3382698
40
0.0638742
50
303.3199448
51
352.9186899
0
ARC
8
DEFAULT_255_2_778
10
5.1021579
20
88.8969085
40
0.6820318
50
277.0241163
51
287.4306703
0
ARC
8
DEFAULT_255_2_778
10
5.0380025
20
89.3366119
40
1.126324
50
270.2115763
51
277.5279326
0
ARC
8
DEFAULT_255_2_778
10
5.2449535
20
78.1401736
40
4.8020075
50
90.016576
51
90.8948113
0
ARC
8
DEFAULT_255_2_778
10
5.2519344
20
80.1839195
40
2.7582741
50
87.857558
51
90.1738686
0
ARC
8
DEFAULT_255_2_778
10
5.3435656
20
82.4689559
40
0.4714494
50
82.2552139
51
88.604204
0
ARC
8
DEFAULT_255_2_778
10
5.4077511
20
82.9250631
40
0.0110611
50
45.0798103
51
93.3819613
0
ARC
8
DEFAULT_255_2_778
10
2.5323781
20
76.262875
40
0.4997836
50
306.2438453
51
0.0138123
0
ARC
8
DEFAULT_255_2_778
10
1.6913958
20
73.22446
40
0.0322782
50
86.5556483
51
123.1148483
0
ARC
8
DEFAULT_255_2_778
10
1.8010134
20
72.248328
40
1.0140849
50
91.7971598
51
96.0953168
0
ARC
8
DEFAULT_255_2_778
10
1.9165032
20
69.3730032
40
3.8916992
50
89.8916649
51
92.1690436
0
ARC
8
DEFAULT_255_2_778
10
2.5617109
20
77.0500575
40
3.7853704
50
269.8796782
51
272.2918503
0
ARC
8
DEFAULT_255_2_778
10
2.6843021
20
74.1624915
40
0.8952394
50
271.8425442
51
276.6138594
0
ARC
8
DEFAULT_255_2_778
10
2.788887
20
73.298804
40
0.0256364
50
266.7048604
51
305.7402431
0
ARC
8
DEFAULT_255_2_778
10
1.9236969
20
66.7849689
40
0.2499353
50
134.9689934
51
179.970981
0
ARC
8
DEFAULT_255_2_778
10
1.9237379
20
66.7855221
40
0.2495733
50
89.9716065
51
135.0653992
0
ARC
8
DEFAULT_255_2_778
10
1.9236969
20
72.2853221
40
0.2499353
50
180.029019
51
225.0310066
0
ARC
8
DEFAULT_255_2_778
10
1.923912
20
72.2851883
40
0.2499928
50
224.9744519
51
269.9884441
0
ARC
8
DEFAULT_255_2_778
10
12.6333772
20
28.236943
40
0.2495156
50
134.9290626
51
180.0109134
0
ARC
8
DEFAULT_255_2_778
10
12.6338141
20
28.2373797
40
0.2495158
50
89.9890963
51
135.0709097
0
ARC
8
DEFAULT_255_2_778
10
12.6337835
20
33.7368165
40
0.2499219
50
180.0048112
51
225.0322787
0
ARC
8
DEFAULT_255_2_778
10
12.6339882
20
33.7366308
40
0.2499353
50
224.9689934
51
269.970981
0
ARC
8
DEFAULT_255_2_778
10
3.5372952
20
87.7938639
40
0.6569679
50
152.4750856
51
158.8789377
0
ARC
8
DEFAULT_255_2_778
10
3.3404282
20
87.8929336
40
0.4366121
50
146.1879109
51
152.0652623
0
ARC
8
DEFAULT_255_2_778
10
3.0899236
20
88.0818991
40
0.1245727
50
99.6873087
51
154.3131038
0
ARC
8
DEFAULT_255_2_778
10
5.3518153
20
95.0063977
40
0.0642586
50
7.2396022
51
56.5217633
0
ARC
8
DEFAULT_255_2_778
10
5.1009152
20
94.4422499
40
0.6878737
50
72.6136032
51
82.931538
0
ARC
8
DEFAULT_255_2_778
10
5.0357677
20
93.9870735
40
1.1476398
50
82.5001566
51
89.6807813
0
ARC
8
DEFAULT_255_2_778
10
3.0897176
20
95.2618374
40
0.1235972
50
206.4788766
51
260.3323652
0
ARC
8
DEFAULT_255_2_778
10
3.333196
20
95.4465328
40
0.4276676
50
213.6916694
51
214.1058617
0
ARC
8
DEFAULT_255_2_778
10
3.4492382
20
95.51341
40
0.561385
50
200.7195323
51
212.8009259
0
ARC
8
DEFAULT_255_2_778
10
1.4454525
20
77.5478271
40
0.2500091
50
359.9927658
51
88.9665726
0
ARC
8
DEFAULT_255_2_778
10
13.2718119
20
23.4110625
40
3.8751406
50
87.7599043
51
90.1131131
0
ARC
8
DEFAULT_255_2_778
10
13.3938697
20
26.3519237
40
0.9317825
50
83.6034734
51
88.1912557
0
ARC
8
DEFAULT_255_2_778
10
13.4991773
20
27.2514917
40
0.0264563
50
55.5018175
51
93.2479162
0
ARC
8
DEFAULT_255_2_778
10
13.7633597
20
27.1008138
40
0.2491981
50
179.9582274
51
220.0710984
0
ARC
8
DEFAULT_255_2_778
10
27.8738705
20
9.118942
40
0.5000912
50
359.9946785
51
40.0001711
0
ARC
8
DEFAULT_255_2_778
10
3.5687806
20
74.4940313
40
0.250119
50
93.0524759
51
180.0082064
0
ARC
8
DEFAULT_255_2_778
10
3.0535103
20
47.2716588
40
0.2496488
50
179.9686169
51
219.9976379
0
ARC
8
DEFAULT_255_2_778
10
2.7861405
20
65.7729946
40
0.0329686
50
57.4853454
51
93.2208185
0
ARC
8
DEFAULT_255_2_778
10
2.6748536
20
64.7855437
40
1.0262191
50
83.8784198
51
88.1259967
0
ARC
8
DEFAULT_255_2_778
10
2.5605727
20
62.0282514
40
3.7858503
50
87.7619913
51
90.10308
0
LINE
8
DEFAULT_255_2_778
10
55.4556616
20
6.0144955
11
55.2831616
21
6.1912955
0
LINE
8
DEFAULT_255_2_778
10
55.2831616
20
6.1912955
11
53.1796616
21
4.0877955
0
LINE
8
DEFAULT_255_2_778
10
53.1796616
20
4.0877955
11
53.1606616
21
4.0877955
0
LINE
8
DEFAULT_255_2_778
10
53.1606616
20
4.0877955
11
52.9063616
21
4.0835955
0
LINE
8
DEFAULT_255_2_778
10
52.9063616
20
4.0835955
11
52.8960616
21
4.6754955
0
LINE
8
DEFAULT_255_2_778
10
52.8960616
20
4.6754955
11
53.1503616
21
4.6799955
0
LINE
8
DEFAULT_255_2_778
10
53.1503616
20
4.6799955
11
53.1606616
21
4.0880955
0
LINE
8
DEFAULT_255_2_778
10
53.1606616
20
4.0880955
11
53.1582616
21
3.8652955
0
LINE
8
DEFAULT_255_2_778
10
53.1582616
20
3.8652955
11
53.1579616
21
3.8573955
0
LINE
8
DEFAULT_255_2_778
10
55.4556616
20
6.0147955
11
53.3521616
21
3.9113955
0
LINE
8
DEFAULT_255_2_778
10
53.3521616
20
3.9113955
11
53.1796616
21
4.0880955
0
LINE
8
DEFAULT_255_2_778
10
53.1796616
20
4.0880955
11
53.1770616
21
3.8573955
0
LINE
8
DEFAULT_255_2_778
10
62.5911616
20
6.0652955
11
62.8464616
21
5.8562955
0
LINE
8
DEFAULT_255_2_778
10
54.2610616
20
3.8673955
11
54.2573616
21
3.8652955
0
LINE
8
DEFAULT_255_2_778
10
48.7195616
20
4.6640955
11
48.7195616
21
4.8585955
0
LINE
8
DEFAULT_255_2_778
10
57.7371616
20
5.3569955
11
57.2566616
21
5.2191955
0
LINE
8
DEFAULT_255_2_778
10
57.2566616
20
5.2191955
11
56.9917616
21
6.1420955
0
LINE
8
DEFAULT_255_2_778
10
56.9917616
20
6.1420955
11
57.4722616
21
6.2798955
0
LINE
8
DEFAULT_255_2_778
10
57.4722616
20
6.2798955
11
57.7371616
21
5.3569955
0
LINE
8
DEFAULT_255_2_778
10
57.3090616
20
6.2327955
11
57.5738616
21
5.3098955
0
LINE
8
DEFAULT_255_2_778
10
61.3394616
20
4.5343955
11
62.6342616
21
6.1173955
0
LINE
8
DEFAULT_255_2_778
10
62.6342616
20
6.1173955
11
62.8896616
21
5.9083955
0
LINE
8
DEFAULT_255_2_778
10
62.8896616
20
5.9083955
11
61.5944616
21
4.3253955
0
LINE
8
DEFAULT_255_2_778
10
61.5944616
20
4.3253955
11
61.2073616
21
4.6420955
0
LINE
8
DEFAULT_255_2_778
10
61.2073616
20
4.6420955
11
62.3948616
21
6.0935955
0
LINE
8
DEFAULT_255_2_778
10
62.1858616
20
5.8380955
11
62.5729616
21
5.5212955
0
LINE
8
DEFAULT_255_2_778
10
59.2619616
20
1.8539955
11
58.9780616
21
1.4424955
0
LINE
8
DEFAULT_255_2_778
10
58.9780616
20
1.4424955
11
56.1514616
21
3.3929955
0
LINE
8
DEFAULT_255_2_778
10
56.1514616
20
3.3929955
11
56.4353616
21
3.8044955
0
LINE
8
DEFAULT_255_2_778
10
56.4353616
20
3.8044955
11
59.5333616
21
1.6663955
0
LINE
8
DEFAULT_255_2_778
10
59.5767616
20
1.4297955
11
59.3894616
21
1.1583955
0
LINE
8
DEFAULT_255_2_778
10
59.3894616
20
1.1583955
11
58.9780616
21
1.4422955
0
LINE
8
DEFAULT_255_2_778
10
59.3894616
20
1.1583955
11
59.5767616
21
1.4297955
0
LINE
8
DEFAULT_255_2_778
10
59.5767616
20
1.4297955
11
56.3387616
21
3.6644955
0
LINE
8
DEFAULT_255_2_778
10
55.5294616
20
6.4983955
11
55.5294616
21
6.1920955
0
LINE
8
DEFAULT_255_2_778
10
55.5294616
20
6.1920955
11
55.2839616
21
6.1920955
0
LINE
8
DEFAULT_255_2_778
10
55.2839616
20
6.1920955
11
55.2839616
21
6.2528955
0
LINE
8
DEFAULT_255_2_778
10
48.8894616
20
4.8585955
11
48.8894616
21
4.6640955
0
LINE
8
DEFAULT_255_2_778
10
48.8894616
20
4.6640955
11
48.3893616
21
4.6640955
0
LINE
8
DEFAULT_255_2_778
10
48.3893616
20
4.6640955
11
48.3893616
21
4.8585955
0
LINE
8
DEFAULT_255_2_778
10
48.3893616
20
4.8585955
11
48.8894616
21
4.8585955
0
LINE
8
DEFAULT_255_2_778
10
128.2943616
20
10.7584955
11
132.1895616
21
10.7584955
0
LINE
8
DEFAULT_255_2_778
10
132.1895616
20
10.7584955
11
132.1763616
21
10.7716955
0
LINE
8
DEFAULT_255_2_778
10
132.1763616
20
10.7716955
11
128.8870616
21
10.7716955
0
LINE
8
DEFAULT_255_2_778
10
128.8870616
20
10.7716955
11
128.3922616
21
10.7650955
0
LINE
8
DEFAULT_255_2_778
10
128.3922616
20
10.7650955
11
128.2779616
21
10.7589955
0
LINE
8
DEFAULT_255_2_778
10
56.6896616
20
10.7584955
11
119.1847616
21
10.7584955
0
LINE
8
DEFAULT_255_2_778
10
56.4396616
20
11.0214955
11
56.6896616
21
10.7714955
0
LINE
8
DEFAULT_255_2_778
10
56.6896616
20
10.7714955
11
118.5920616
21
10.7714955
0
LINE
8
DEFAULT_255_2_778
10
118.5920616
20
10.7714955
11
119.0868616
21
10.7648955
0
LINE
8
DEFAULT_255_2_778
10
119.0868616
20
10.7648955
11
119.2011616
21
10.7587955
0
LINE
8
DEFAULT_255_2_778
10
131.2394616
20
10.7581955
11
126.2393616
21
5.7580955
0
LINE
8
DEFAULT_255_2_778
10
126.2393616
20
5.7580955
11
64.4887616
21
5.7580955
0
LINE
8
DEFAULT_255_2_778
10
64.4887616
20
5.7580955
11
64.4887616
21
8.9701955
0
LINE
8
DEFAULT_255_2_778
10
63.7013616
20
9.7575955
11
56.6888616
21
9.7575955
0
LINE
8
DEFAULT_255_2_778
10
137.4367616
20
70.3640955
11
137.6307616
21
70.2494955
0
LINE
8
DEFAULT_255_2_778
10
137.6307616
20
70.2494955
11
138.3262616
21
69.8385955
0
LINE
8
DEFAULT_255_2_778
10
138.4511616
20
69.4057955
11
138.4511616
21
31.6944955
0
LINE
8
DEFAULT_255_2_778
10
138.4511616
20
31.6944955
11
138.5760616
21
31.6944955
0
LINE
8
DEFAULT_255_2_778
10
138.5760616
20
31.6944955
11
138.5760616
21
69.4057955
0
LINE
8
DEFAULT_255_2_778
10
138.5760616
20
69.4057955
11
138.4511616
21
69.4057955
0
LINE
8
DEFAULT_255_2_778
10
138.4511616
20
69.4057955
11
137.2616616
21
70.0925955
0
LINE
8
DEFAULT_255_2_778
10
137.2616616
20
70.0925955
11
137.1637616
21
70.0925955
0
LINE
8
DEFAULT_255_2_778
10
137.1637616
20
70.0925955
11
137.1637616
21
31.0075955
0
LINE
8
DEFAULT_255_2_778
10
137.1637616
20
31.0075955
11
137.2616616
21
31.0075955
0
LINE
8
DEFAULT_255_2_778
10
137.2616616
20
31.0075955
11
137.2616616
21
70.0925955
0
LINE
8
DEFAULT_255_2_778
10
137.2645616
20
70.1907955
11
137.2822616
21
70.2079955
0
LINE
8
DEFAULT_255_2_778
10
137.3243616
20
70.2201955
11
137.3682616
21
70.2172955
0
LINE
8
DEFAULT_255_2_778
10
137.4558616
20
70.1902955
11
137.5412616
21
70.1473955
0
LINE
8
DEFAULT_255_2_778
10
137.5415616
20
30.9519955
11
138.4517616
21
31.4774955
0
LINE
8
DEFAULT_255_2_778
10
137.5415616
20
30.9519955
11
137.4560616
21
30.9091955
0
LINE
8
DEFAULT_255_2_778
10
137.3687616
20
30.8821955
11
137.3248616
21
30.8792955
0
LINE
8
DEFAULT_255_2_778
10
137.2827616
20
30.8913955
11
137.2650616
21
30.9088955
0
LINE
8
DEFAULT_255_2_778
10
137.2618616
20
31.0072955
11
138.4514616
21
31.6941955
0
LINE
8
DEFAULT_255_2_778
10
138.3265616
20
31.2612955
11
137.6299616
21
30.8495955
0
LINE
8
DEFAULT_255_2_778
10
137.6299616
20
30.8495955
11
137.4373616
21
30.7358955
0
LINE
8
DEFAULT_255_2_778
10
137.5415616
20
70.1473955
11
138.4517616
21
69.6218955
0
LINE
8
DEFAULT_255_2_778
10
134.1942616
20
126.7073955
11
134.1942616
21
135.7576955
0
LINE
8
DEFAULT_255_2_778
10
134.5742616
20
126.7076955
11
134.5742616
21
135.7576955
0
LINE
8
DEFAULT_255_2_778
10
134.5742616
20
135.7576955
11
130.2395616
21
135.7576955
0
LINE
8
DEFAULT_255_2_778
10
132.4395616
20
126.7076955
11
139.5698616
21
126.7076955
0
LINE
8
DEFAULT_255_2_778
10
139.5698616
20
126.7076955
11
140.3199616
21
125.9575955
0
LINE
8
DEFAULT_255_2_778
10
140.3199616
20
125.9575955
11
140.3199616
21
85.5574955
0
LINE
8
DEFAULT_255_2_778
10
140.3199616
20
85.5574955
11
139.5698616
21
84.8073955
0
LINE
8
DEFAULT_255_2_778
10
139.5698616
20
84.8073955
11
132.4395616
21
84.8073955
0
LINE
8
DEFAULT_255_2_778
10
138.3202616
20
80.6534955
11
138.3011616
21
80.6595955
0
LINE
8
DEFAULT_255_2_778
10
138.3011616
20
80.6595955
11
138.2694616
21
80.6658955
0
LINE
8
DEFAULT_255_2_778
10
138.2694616
20
80.6658955
11
138.2249616
21
80.6724955
0
LINE
8
DEFAULT_255_2_778
10
138.2249616
20
80.6724955
11
138.1678616
21
80.6791955
0
LINE
8
DEFAULT_255_2_778
10
138.1678616
20
80.6791955
11
138.0982616
21
80.6859955
0
LINE
8
DEFAULT_255_2_778
10
138.0982616
20
80.6859955
11
137.9217616
21
80.7002955
0
LINE
8
DEFAULT_255_2_778
10
137.9217616
20
80.7002955
11
137.6963616
21
80.7150955
0
LINE
8
DEFAULT_255_2_778
10
137.6963616
20
80.7150955
11
137.4230616
21
80.7301955
0
LINE
8
DEFAULT_255_2_778
10
137.4230616
20
80.7301955
11
137.1033616
21
80.7457955
0
LINE
8
DEFAULT_255_2_778
10
137.1033616
20
80.7457955
11
136.7385616
21
80.7616955
0
LINE
8
DEFAULT_255_2_778
10
136.7385616
20
80.7616955
11
136.3305616
21
80.7777955
0
LINE
8
DEFAULT_255_2_778
10
136.3305616
20
80.7777955
11
135.8810616
21
80.7941955
0
LINE
8
DEFAULT_255_2_778
10
135.8810616
20
80.7941955
11
134.8666616
21
80.8272955
0
LINE
8
DEFAULT_255_2_778
10
134.8666616
20
80.8272955
11
133.7143616
21
80.8600955
0
LINE
8
DEFAULT_255_2_778
10
133.7143616
20
80.8600955
11
132.4461616
21
80.8920955
0
LINE
8
DEFAULT_255_2_778
10
138.3268616
20
31.2573955
11
138.3268616
21
20.4522955
0
LINE
8
DEFAULT_255_2_778
10
138.3204616
20
20.4464955
11
138.3014616
21
20.4403955
0
LINE
8
DEFAULT_255_2_778
10
138.3014616
20
20.4403955
11
138.2696616
21
20.4340955
0
LINE
8
DEFAULT_255_2_778
10
138.2696616
20
20.4340955
11
138.2252616
21
20.4273955
0
LINE
8
DEFAULT_255_2_778
10
138.2252616
20
20.4273955
11
138.1680616
21
20.4207955
0
LINE
8
DEFAULT_255_2_778
10
138.1680616
20
20.4207955
11
138.0984616
21
20.4138955
0
LINE
8
DEFAULT_255_2_778
10
138.0984616
20
20.4138955
11
137.9220616
21
20.3998955
0
LINE
8
DEFAULT_255_2_778
10
137.9220616
20
20.3998955
11
137.6965616
21
20.3850955
0
LINE
8
DEFAULT_255_2_778
10
137.6965616
20
20.3850955
11
137.4232616
21
20.3697955
0
LINE
8
DEFAULT_255_2_778
10
137.4232616
20
20.3697955
11
137.1033616
21
20.3541955
0
LINE
8
DEFAULT_255_2_778
10
137.1033616
20
20.3541955
11
136.7385616
21
20.3382955
0
LINE
8
DEFAULT_255_2_778
10
136.7385616
20
20.3382955
11
136.3302616
21
20.3220955
0
LINE
8
DEFAULT_255_2_778
10
136.3302616
20
20.3220955
11
135.8807616
21
20.3056955
0
LINE
8
DEFAULT_255_2_778
10
135.8807616
20
20.3056955
11
134.8663616
21
20.2726955
0
LINE
8
DEFAULT_255_2_778
10
134.8663616
20
20.2726955
11
133.7143616
21
20.2398955
0
LINE
8
DEFAULT_255_2_778
10
133.7143616
20
20.2398955
11
132.4459616
21
20.2077955
0
LINE
8
DEFAULT_255_2_778
10
134.5745616
20
81.8144955
11
134.5745616
21
84.8076955
0
LINE
8
DEFAULT_255_2_778
10
134.1945616
20
81.8276955
11
134.1945616
21
84.8076955
0
LINE
8
DEFAULT_255_2_778
10
134.1945616
20
9.7575955
11
134.1945616
21
19.2727955
0
LINE
8
DEFAULT_255_2_778
10
132.4398616
20
81.8808955
11
135.4177616
21
81.7829955
0
LINE
8
DEFAULT_255_2_778
10
135.4177616
20
81.7829955
11
137.0007616
21
81.7001955
0
LINE
8
DEFAULT_255_2_778
10
137.0007616
20
81.7001955
11
137.4335616
21
81.6535955
0
LINE
8
DEFAULT_255_2_778
10
137.4335616
20
81.6535955
11
137.5838616
21
81.6196955
0
LINE
8
DEFAULT_255_2_778
10
137.5838616
20
81.6196955
11
137.7050616
21
81.5770955
0
LINE
8
DEFAULT_255_2_778
10
137.7050616
20
81.5770955
11
137.8743616
21
81.4868955
0
LINE
8
DEFAULT_255_2_778
10
137.8743616
20
81.4868955
11
138.0627616
21
81.3260955
0
LINE
8
DEFAULT_255_2_778
10
138.0627616
20
81.3260955
11
138.2217616
21
81.0944955
0
LINE
8
DEFAULT_255_2_778
10
138.2217616
20
81.0944955
11
138.3136616
21
80.8100955
0
LINE
8
DEFAULT_255_2_778
10
138.3136616
20
80.8100955
11
138.3268616
21
80.6476955
0
LINE
8
DEFAULT_255_2_778
10
138.3268616
20
80.6476955
11
138.3268616
21
69.8428955
0
LINE
8
DEFAULT_255_2_778
10
132.4398616
20
19.2198955
11
136.3040616
21
19.3579955
0
LINE
8
DEFAULT_255_2_778
10
136.3040616
20
19.3579955
11
137.2901616
21
19.4269955
0
LINE
8
DEFAULT_255_2_778
10
137.2901616
20
19.4269955
11
137.4838616
21
19.4563955
0
LINE
8
DEFAULT_255_2_778
10
137.4838616
20
19.4563955
11
137.5645616
21
19.4754955
0
LINE
8
DEFAULT_255_2_778
10
137.5645616
20
19.4754955
11
137.6801616
21
19.5135955
0
LINE
8
DEFAULT_255_2_778
10
137.6801616
20
19.5135955
11
137.8468616
21
19.5963955
0
LINE
8
DEFAULT_255_2_778
10
137.8468616
20
19.5963955
11
138.0413616
21
19.7519955
0
LINE
8
DEFAULT_255_2_778
10
138.0413616
20
19.7519955
11
138.2098616
21
19.9831955
0
LINE
8
DEFAULT_255_2_778
10
138.2098616
20
19.9831955
11
138.3104616
21
20.2723955
0
LINE
8
DEFAULT_255_2_778
10
138.3104616
20
20.2723955
11
138.3268616
21
20.4530955
0
LINE
8
DEFAULT_255_2_778
10
134.5745616
20
19.2859955
11
134.5745616
21
9.7578955
0
LINE
8
DEFAULT_255_2_778
10
134.5745616
20
9.7578955
11
130.2398616
21
9.7578955
0
LINE
8
DEFAULT_255_2_778
10
53.1770616
20
141.6584955
11
53.1796616
21
141.4276955
0
LINE
8
DEFAULT_255_2_778
10
53.1796616
20
141.4276955
11
53.3521616
21
141.6044955
0
LINE
8
DEFAULT_255_2_778
10
53.3519616
20
141.6047955
11
55.4556616
21
139.5012955
0
LINE
8
DEFAULT_255_2_778
10
53.1579616
20
141.6586955
11
53.1582616
21
141.6507955
0
LINE
8
DEFAULT_255_2_778
10
53.1582616
20
141.6507955
11
53.1606616
21
141.4279955
0
LINE
8
DEFAULT_255_2_778
10
53.1606616
20
141.4279955
11
52.9063616
21
141.4324955
0
LINE
8
DEFAULT_255_2_778
10
52.9063616
20
141.4324955
11
52.8960616
21
140.8405955
0
LINE
8
DEFAULT_255_2_778
10
52.8960616
20
140.8405955
11
53.1503616
21
140.8360955
0
LINE
8
DEFAULT_255_2_778
10
53.1503616
20
140.8360955
11
53.1606616
21
141.4279955
0
LINE
8
DEFAULT_255_2_778
10
53.1606616
20
141.4279955
11
53.1796616
21
141.4279955
0
LINE
8
DEFAULT_255_2_778
10
53.1796616
20
141.4279955
11
55.2831616
21
139.3245955
0
LINE
8
DEFAULT_255_2_778
10
55.2831616
20
139.3245955
11
55.2831616
21
139.2636955
0
LINE
8
DEFAULT_255_2_778
10
55.4556616
20
139.5012955
11
55.2831616
21
139.3245955
0
LINE
8
DEFAULT_255_2_778
10
55.2831616
20
139.3245955
11
55.5286616
21
139.3245955
0
LINE
8
DEFAULT_255_2_778
10
55.5286616
20
139.3245955
11
55.5286616
21
139.0181955
0
LINE
8
DEFAULT_255_2_778
10
59.5302616
20
143.8549955
11
56.4406616
21
141.7118955
0
LINE
8
DEFAULT_255_2_778
10
56.4406616
20
141.7118955
11
56.1557616
21
142.1227955
0
LINE
8
DEFAULT_255_2_778
10
56.1557616
20
142.1227955
11
58.9740616
21
144.0777955
0
LINE
8
DEFAULT_255_2_778
10
58.9740616
20
144.0777955
11
59.2590616
21
143.6668955
0
LINE
8
DEFAULT_255_2_778
10
56.3438616
20
141.8515955
11
59.5728616
21
144.0915955
0
LINE
8
DEFAULT_255_2_778
10
59.5728616
20
144.0915955
11
59.3846616
21
144.3627955
0
LINE
8
DEFAULT_255_2_778
10
59.3846616
20
144.3627955
11
58.9737616
21
144.0777955
0
LINE
8
DEFAULT_255_2_778
10
62.3138616
20
139.5319955
11
62.3231616
21
139.5293955
0
LINE
8
DEFAULT_255_2_778
10
62.4779616
20
139.5880955
11
62.7332616
21
139.7970955
0
LINE
8
DEFAULT_255_2_778
10
57.2553616
20
140.2968955
11
57.7358616
21
140.1590955
0
LINE
8
DEFAULT_255_2_778
10
57.7358616
20
140.1590955
11
57.4709616
21
139.2361955
0
LINE
8
DEFAULT_255_2_778
10
57.4709616
20
139.2361955
11
56.9904616
21
139.3739955
0
LINE
8
DEFAULT_255_2_778
10
56.9904616
20
139.3739955
11
57.2553616
21
140.2968955
0
LINE
8
DEFAULT_255_2_778
10
62.2644616
20
139.6002955
11
62.2752616
21
139.6020955
0
LINE
8
DEFAULT_255_2_778
10
62.2752616
20
139.6020955
11
62.3337616
21
139.6279955
0
LINE
8
DEFAULT_255_2_778
10
62.3337616
20
139.6279955
11
62.4043616
21
139.6777955
0
LINE
8
DEFAULT_255_2_778
10
62.4043616
20
139.6777955
11
62.6596616
21
139.8867955
0
LINE
8
DEFAULT_255_2_778
10
62.3969616
20
139.4184955
11
61.2066616
21
140.8736955
0
LINE
8
DEFAULT_255_2_778
10
61.2066616
20
140.8736955
11
61.5936616
21
141.1903955
0
LINE
8
DEFAULT_255_2_778
10
61.5936616
20
141.1903955
11
62.8917616
21
139.6036955
0
LINE
8
DEFAULT_255_2_778
10
62.8917616
20
139.6036955
11
62.6364616
21
139.3946955
0
LINE
8
DEFAULT_255_2_778
10
62.6364616
20
139.3946955
11
61.3383616
21
140.9813955
0
LINE
8
DEFAULT_255_2_778
10
57.5730616
20
140.2058955
11
57.3082616
21
139.2829955
0
LINE
8
DEFAULT_255_2_778
10
56.6888616
20
135.7576955
11
63.7013616
21
135.7576955
0
LINE
8
DEFAULT_255_2_778
10
64.4887616
20
136.5450955
11
64.4887616
21
139.7576955
0
LINE
8
DEFAULT_255_2_778
10
64.4887616
20
139.7576955
11
126.2388616
21
139.7576955
0
LINE
8
DEFAULT_255_2_778
10
126.2388616
20
139.7576955
11
131.2389616
21
134.7575955
0
LINE
8
DEFAULT_255_2_778
10
119.1839616
20
134.7575955
11
56.6888616
21
134.7575955
0
LINE
8
DEFAULT_255_2_778
10
5.4155616
20
102.7371955
11
2.9456616
21
102.6940955
0
LINE
8
DEFAULT_255_2_778
10
2.9456616
20
102.6940955
11
2.9453616
21
102.6940955
0
LINE
8
DEFAULT_255_2_778
10
2.6955616
20
105.7552955
11
5.4155616
21
105.7052955
0
LINE
8
DEFAULT_255_2_778
10
2.9456616
20
101.9595955
11
2.9456616
21
101.9455955
0
LINE
8
DEFAULT_255_2_778
10
2.9456616
20
101.9455955
11
2.6955616
21
101.9455955
0
LINE
8
DEFAULT_255_2_778
10
2.9456616
20
105.7055955
11
2.9456616
21
101.9629955
0
LINE
8
DEFAULT_255_2_778
10
2.9456616
20
101.9629955
11
2.6955616
21
101.9629955
0
LINE
8
DEFAULT_255_2_778
10
2.6955616
20
102.0733955
11
2.9456616
21
102.0733955
0
LINE
8
DEFAULT_255_2_778
10
2.6955616
20
102.3172955
11
2.9456616
21
102.3172955
0
LINE
8
DEFAULT_255_2_778
10
2.6955616
20
102.5564955
11
2.9456616
21
102.5564955
0
LINE
8
DEFAULT_255_2_778
10
2.6955616
20
102.6667955
11
2.9456616
21
102.6667955
0
LINE
8
DEFAULT_255_2_778
10
3.0689616
20
102.6961955
11
3.0689616
21
95.1399955
0
LINE
8
DEFAULT_255_2_778
10
3.0689616
20
95.1399955
11
5.0421616
21
95.1346955
0
LINE
8
DEFAULT_255_2_778
10
5.0421616
20
95.1346955
11
5.0421616
21
102.6313955
0
LINE
8
DEFAULT_255_2_778
10
5.0421616
20
102.6313955
11
3.0689616
21
102.6657955
0
LINE
8
DEFAULT_255_2_778
10
2.6955616
20
82.9193955
11
2.6955616
21
82.9193955
0
LINE
8
DEFAULT_255_2_778
10
2.9456616
20
85.8562955
11
2.9453616
21
85.8562955
0
LINE
8
DEFAULT_255_2_778
10
2.9453616
20
82.9434955
11
2.9456616
21
82.9434955
0
LINE
8
DEFAULT_255_2_778
10
5.0421616
20
85.8194955
11
5.0421616
21
88.2096955
0
LINE
8
DEFAULT_255_2_778
10
5.0421616
20
88.2096955
11
3.0689616
21
88.2043955
0
LINE
8
DEFAULT_255_2_778
10
3.0689616
20
88.2043955
11
3.0689616
21
85.8540955
0
LINE
8
DEFAULT_255_2_778
10
5.4155616
20
82.8452955
11
2.6955616
21
82.7952955
0
LINE
8
DEFAULT_255_2_778
10
5.0421616
20
88.2102955
11
5.0421616
21
88.3303955
0
LINE
8
DEFAULT_255_2_778
10
5.0421616
20
88.3303955
11
5.4155616
21
88.3303955
0
LINE
8
DEFAULT_255_2_778
10
5.3872616
20
88.2848955
11
5.3528616
21
88.2641955
0
LINE
8
DEFAULT_255_2_778
10
5.3528616
20
88.2641955
11
5.3064616
21
88.2461955
0
LINE
8
DEFAULT_255_2_778
10
5.0421616
20
88.2102955
11
5.0421616
21
88.2102955
0
LINE
8
DEFAULT_255_2_778
10
5.0421616
20
82.9391955
11
5.0421616
21
82.9807955
0
LINE
8
DEFAULT_255_2_778
10
3.0689616
20
82.9463955
11
3.0689616
21
82.9066955
0
LINE
8
DEFAULT_255_2_778
10
3.0689616
20
82.9066955
11
5.1699616
21
82.9415955
0
LINE
8
DEFAULT_255_2_778
10
5.4155616
20
82.9328955
11
5.4155616
21
82.9328955
0
LINE
8
DEFAULT_255_2_778
10
5.4155616
20
85.8138955
11
2.9456616
21
85.8569955
0
LINE
8
DEFAULT_255_2_778
10
2.9456616
20
85.8569955
11
2.9456616
21
82.9444955
0
LINE
8
DEFAULT_255_2_778
10
2.9456616
20
82.9444955
11
5.4157616
21
82.9875955
0
LINE
8
DEFAULT_255_2_778
10
3.0324616
20
77.5128955
11
3.0324616
21
76.2629955
0
LINE
8
DEFAULT_255_2_778
10
3.0324616
20
76.2629955
11
2.8038616
21
76.2629955
0
LINE
8
DEFAULT_255_2_778
10
2.8038616
20
75.8930955
11
2.8278616
21
75.8597955
0
LINE
8
DEFAULT_255_2_778
10
28.9150616
20
110.7423955
11
28.1887616
21
110.7423955
0
LINE
8
DEFAULT_255_2_778
10
1.6737616
20
73.2514955
11
1.6737616
21
73.2514955
0
LINE
8
DEFAULT_255_2_778
10
1.9238616
20
73.2646955
11
2.5537616
21
73.2646955
0
LINE
8
DEFAULT_255_2_778
10
2.8038616
20
73.2779955
11
2.8038616
21
73.2779955
0
LINE
8
DEFAULT_255_2_778
10
2.8038616
20
73.2779955
11
2.8038616
21
77.5128955
0
LINE
8
DEFAULT_255_2_778
10
1.6737616
20
73.3273955
11
2.8038616
21
73.3273955
0
LINE
8
DEFAULT_255_2_778
10
1.9238616
20
67.0350955
11
3.3186616
21
67.0350955
0
LINE
8
DEFAULT_255_2_778
10
1.9238616
20
72.0351955
11
3.3186616
21
72.0351955
0
LINE
8
DEFAULT_255_2_778
10
12.6338616
20
28.4868955
11
14.0287616
21
28.4868955
0
LINE
8
DEFAULT_255_2_778
10
12.6338616
20
33.4866955
11
14.0287616
21
33.4866955
0
LINE
8
DEFAULT_255_2_778
10
5.4155616
20
77.8229955
11
2.6955616
21
77.7755955
0
LINE
8
DEFAULT_255_2_778
10
2.6955616
20
77.7755955
11
2.6955616
21
110.7381955
0
LINE
8
DEFAULT_255_2_778
10
2.6955616
20
86.4139955
11
2.7133616
21
86.8798955
0
LINE
8
DEFAULT_255_2_778
10
2.7133616
20
86.8798955
11
2.7344616
21
87.1127955
0
LINE
8
DEFAULT_255_2_778
10
2.7344616
20
87.1127955
11
2.7638616
21
87.3450955
0
LINE
8
DEFAULT_255_2_778
10
2.7638616
20
87.3450955
11
2.8024616
21
87.5765955
0
LINE
8
DEFAULT_255_2_778
10
2.8024616
20
87.5765955
11
2.8530616
21
87.8061955
0
LINE
8
DEFAULT_255_2_778
10
2.8530616
20
87.8061955
11
2.8850616
21
87.9194955
0
LINE
8
DEFAULT_255_2_778
10
2.8850616
20
87.9194955
11
2.9244616
21
88.0305955
0
LINE
8
DEFAULT_255_2_778
10
3.0689616
20
88.2046955
11
3.0689616
21
88.3245955
0
LINE
8
DEFAULT_255_2_778
10
3.0689616
20
88.3245955
11
5.0421616
21
88.3300955
0
LINE
8
DEFAULT_255_2_778
10
5.0421616
20
88.3300955
11
5.0421616
21
95.0144955
0
LINE
8
DEFAULT_255_2_778
10
5.0421616
20
95.0144955
11
5.4155616
21
95.0144955
0
LINE
8
DEFAULT_255_2_778
10
5.3872616
20
95.0599955
11
5.3528616
21
95.0806955
0
LINE
8
DEFAULT_255_2_778
10
5.3528616
20
95.0806955
11
5.3064616
21
95.0986955
0
LINE
8
DEFAULT_255_2_778
10
5.0421616
20
95.1346955
11
5.0421616
21
95.0144955
0
LINE
8
DEFAULT_255_2_778
10
5.0421616
20
95.0144955
11
3.0689616
21
95.0200955
0
LINE
8
DEFAULT_255_2_778
10
3.0689616
20
95.0200955
11
3.0689616
21
95.1399955
0
LINE
8
DEFAULT_255_2_778
10
2.9241616
20
95.3147955
11
2.8847616
21
95.4259955
0
LINE
8
DEFAULT_255_2_778
10
2.8847616
20
95.4259955
11
2.8527616
21
95.5391955
0
LINE
8
DEFAULT_255_2_778
10
2.8527616
20
95.5391955
11
2.8022616
21
95.7688955
0
LINE
8
DEFAULT_255_2_778
10
2.8022616
20
95.7688955
11
2.7635616
21
96.0003955
0
LINE
8
DEFAULT_255_2_778
10
2.7635616
20
96.0003955
11
2.7342616
21
96.2326955
0
LINE
8
DEFAULT_255_2_778
10
2.7342616
20
96.2326955
11
2.7130616
21
96.4654955
0
LINE
8
DEFAULT_255_2_778
10
2.7130616
20
96.4654955
11
2.6953616
21
96.9311955
0
LINE
8
DEFAULT_255_2_778
10
28.3736616
20
2.8577955
11
28.8885616
21
2.8577955
0
LINE
8
DEFAULT_255_2_778
10
28.8885616
20
3.5271955
11
28.3736616
21
3.5522955
0
LINE
8
DEFAULT_255_2_778
10
28.8885616
20
3.7774955
11
28.3736616
21
3.8025955
0
LINE
8
DEFAULT_255_2_778
10
2.8038616
20
73.8308955
11
3.3186616
21
73.8308955
0
LINE
8
DEFAULT_255_2_778
10
3.3186616
20
62.0299955
11
2.8038616
21
62.0299955
0
LINE
8
DEFAULT_255_2_778
10
1.9044616
20
67.0345955
11
1.9044616
21
65.8142955
0
LINE
8
DEFAULT_255_2_778
10
1.9044616
20
73.2644955
11
1.9044616
21
72.0346955
0
LINE
8
DEFAULT_255_2_778
10
1.8028616
20
72.0661955
11
1.8028616
21
73.2628955
0
LINE
8
DEFAULT_255_2_778
10
1.8028616
20
65.7698955
11
1.8028616
21
67.0030955
0
LINE
8
DEFAULT_255_2_778
10
14.0292616
20
34.1330955
11
13.2585616
21
33.4861955
0
LINE
8
DEFAULT_255_2_778
10
12.8696616
20
33.4861955
11
14.0295616
21
34.4592955
0
LINE
8
DEFAULT_255_2_778
10
4.0648616
20
45.6789955
11
4.5148616
21
46.0565955
0
LINE
8
DEFAULT_255_2_778
10
4.3542616
20
46.2480955
11
3.9042616
21
45.8705955
0
LINE
8
DEFAULT_255_2_778
10
1.6954616
20
77.5125955
11
1.6954616
21
77.5472955
0
LINE
8
DEFAULT_255_2_778
10
3.3186616
20
77.5390955
11
2.6953616
21
77.5255955
0
LINE
8
DEFAULT_255_2_778
10
0.6956616
20
110.7405955
11
0.6956616
21
107.7544955
0
LINE
8
DEFAULT_255_2_778
10
0.6956616
20
107.7544955
11
1.0956616
21
107.7475955
0
LINE
8
DEFAULT_255_2_778
10
1.0956616
20
107.7475955
11
1.0956616
21
107.3475955
0
LINE
8
DEFAULT_255_2_778
10
1.0956616
20
107.3475955
11
0.6956616
21
107.3406955
0
LINE
8
DEFAULT_255_2_778
10
0.6956616
20
107.3406955
11
0.6956616
21
99.7544955
0
LINE
8
DEFAULT_255_2_778
10
0.6956616
20
99.7544955
11
1.0956616
21
99.7476955
0
LINE
8
DEFAULT_255_2_778
10
1.0956616
20
99.7476955
11
1.0956616
21
99.3475955
0
LINE
8
DEFAULT_255_2_778
10
1.0956616
20
99.3475955
11
0.6956616
21
99.3406955
0
LINE
8
DEFAULT_255_2_778
10
0.6956616
20
99.3406955
11
0.6956616
21
91.7545955
0
LINE
8
DEFAULT_255_2_778
10
0.6956616
20
91.7545955
11
1.0956616
21
91.7476955
0
LINE
8
DEFAULT_255_2_778
10
1.0956616
20
91.7476955
11
1.0956616
21
91.3476955
0
LINE
8
DEFAULT_255_2_778
10
1.0956616
20
91.3476955
11
0.6956616
21
91.3407955
0
LINE
8
DEFAULT_255_2_778
10
0.6956616
20
91.3407955
11
0.6956616
21
83.7546955
0
LINE
8
DEFAULT_255_2_778
10
0.6956616
20
83.7546955
11
1.0956616
21
83.7477955
0
LINE
8
DEFAULT_255_2_778
10
1.0956616
20
83.7477955
11
1.0956616
21
83.3476955
0
LINE
8
DEFAULT_255_2_778
10
1.0956616
20
83.3476955
11
0.6956616
21
83.3408955
0
LINE
8
DEFAULT_255_2_778
10
0.6956616
20
83.3408955
11
0.6956616
21
77.8107955
0
LINE
8
DEFAULT_255_2_778
10
0.6956616
20
77.8107955
11
2.6955616
21
77.7758955
0
LINE
8
DEFAULT_255_2_778
10
2.6955616
20
77.7758955
11
2.6955616
21
77.5257955
0
LINE
8
DEFAULT_255_2_778
10
2.6955616
20
77.5257955
11
1.6954616
21
77.5477955
0
LINE
8
DEFAULT_255_2_778
10
26.1437616
20
8.4901955
11
27.2436616
21
8.8904955
0
LINE
8
DEFAULT_255_2_778
10
5.4152616
20
110.7286955
11
4.8321616
21
110.7386955
0
LINE
8
DEFAULT_255_2_778
10
28.8885616
20
110.7685955
11
28.1884616
21
110.7688955
0
LINE
8
DEFAULT_255_2_778
10
11.2842616
20
26.1984955
11
12.3841616
21
26.5987955
0
LINE
8
DEFAULT_255_2_778
10
3.5557616
20
74.7437955
11
3.5544616
21
74.7447955
0
LINE
8
DEFAULT_255_2_778
10
3.5544616
20
74.7447955
11
3.5533616
21
74.7481955
0
LINE
8
DEFAULT_255_2_778
10
3.5533616
20
74.7481955
11
3.5523616
21
74.7540955
0
LINE
8
DEFAULT_255_2_778
10
3.5523616
20
74.7540955
11
3.5515616
21
74.7622955
0
LINE
8
DEFAULT_255_2_778
10
3.5515616
20
74.7622955
11
3.5504616
21
74.7852955
0
LINE
8
DEFAULT_255_2_778
10
3.5504616
20
74.7852955
11
3.5501616
21
74.8161955
0
LINE
8
DEFAULT_255_2_778
10
3.5501616
20
74.8161955
11
3.5504616
21
74.8540955
0
LINE
8
DEFAULT_255_2_778
10
3.5504616
20
74.8540955
11
3.5515616
21
74.8974955
0
LINE
8
DEFAULT_255_2_778
10
3.5515616
20
74.8974955
11
3.5531616
21
74.9442955
0
LINE
8
DEFAULT_255_2_778
10
3.5531616
20
74.9442955
11
3.5554616
21
74.9929955
0
LINE
8
DEFAULT_255_2_778
10
3.5554616
20
74.9929955
11
3.3184616
21
74.9929955
0
LINE
8
DEFAULT_255_2_778
10
1.6737616
20
46.7698955
11
0.5738616
21
46.3695955
0
LINE
8
DEFAULT_255_2_778
10
1.6740616
20
65.7473955
11
2.8038616
21
65.7473955
0
LINE
8
DEFAULT_255_2_778
10
12.6341616
20
27.2861955
11
13.2641616
21
27.2861955
0
LINE
8
DEFAULT_255_2_778
10
13.5141616
20
27.2732955
11
13.5141616
21
27.1009955
0
LINE
8
DEFAULT_255_2_778
10
13.5726616
20
26.9403955
11
28.2569616
21
9.4403955
0
LINE
8
DEFAULT_255_2_778
10
12.3841616
20
27.2078955
11
13.5141616
21
27.2078955
0
LINE
8
DEFAULT_255_2_778
10
28.1281616
20
10.5076955
11
28.1281616
21
9.5937955
0
LINE
8
DEFAULT_255_2_778
10
12.6296616
20
28.4863955
11
12.6296616
21
27.2861955
0
LINE
8
DEFAULT_255_2_778
10
4.9800616
20
77.8152955
11
4.9800616
21
77.8049955
0
LINE
8
DEFAULT_255_2_778
10
4.7302616
20
77.8107955
11
4.7302616
21
77.8004955
0
LINE
8
DEFAULT_255_2_778
10
4.6701616
20
77.7993955
11
4.6701616
21
77.8096955
0
LINE
8
DEFAULT_255_2_778
10
3.5554616
20
74.7437955
11
3.8184616
21
74.7574955
0
LINE
8
DEFAULT_255_2_778
10
3.8184616
20
74.7574955
11
3.8184616
21
77.7845955
0
LINE
8
DEFAULT_255_2_778
10
12.3838616
20
34.7627955
11
12.8767616
21
35.1763955
0
LINE
8
DEFAULT_255_2_778
10
12.8767616
20
35.1763955
11
2.8622616
21
47.1111955
0
LINE
8
DEFAULT_255_2_778
10
2.8038616
20
47.2717955
11
2.8038616
21
65.8007955
0
LINE
8
DEFAULT_255_2_778
10
2.5537616
20
65.8140955
11
1.9238616
21
65.8140955
0
LINE
8
DEFAULT_255_2_778
10
3.8187616
20
75.0066955
11
3.5557616
21
74.9929955
0
LINE
8
DEFAULT_255_2_778
10
3.5557616
20
74.9929955
11
3.5557616
21
77.7795955
0
LINE
8
DEFAULT_255_2_778
10
2.8038616
20
75.8594955
11
2.8276616
21
75.8594955
0
LINE
8
DEFAULT_255_2_778
10
2.8276616
20
75.8594955
11
2.8276616
21
73.8308955
0
LINE
8
DEFAULT_255_2_778
10
2.1865616
20
77.7842955
11
2.1865616
21
110.7381955
0
LINE
8
DEFAULT_255_2_778
10
11.2839616
20
33.6054955
11
12.3841616
21
34.0058955
0
LINE
8
DEFAULT_255_2_778
10
12.3841616
20
34.0058955
11
1.6737616
21
46.7698955
0
LINE
8
DEFAULT_255_2_778
10
1.6737616
20
46.7698955
11
1.6737616
21
77.5125955
0
LINE
8
DEFAULT_255_2_778
10
3.3186616
20
77.5125955
11
0.1738616
21
77.5125955
0
LINE
8
DEFAULT_255_2_778
10
0.1738616
20
77.5125955
11
0.1738616
21
75.7091955
0
LINE
8
DEFAULT_255_2_778
10
0.1738616
20
75.7091955
11
0.5738616
21
75.7022955
0
LINE
8
DEFAULT_255_2_778
10
0.5738616
20
75.7022955
11
0.5738616
21
75.3022955
0
LINE
8
DEFAULT_255_2_778
10
0.5738616
20
75.3022955
11
0.1738616
21
75.2950955
0
LINE
8
DEFAULT_255_2_778
10
0.1738616
20
75.2950955
11
0.1738616
21
67.7089955
0
LINE
8
DEFAULT_255_2_778
10
0.1738616
20
67.7089955
11
0.5738616
21
67.7020955
0
LINE
8
DEFAULT_255_2_778
10
0.5738616
20
67.7020955
11
0.5738616
21
67.3020955
0
LINE
8
DEFAULT_255_2_778
10
0.5738616
20
67.3020955
11
0.1738616
21
67.2951955
0
LINE
8
DEFAULT_255_2_778
10
0.1738616
20
67.2951955
11
0.1738616
21
59.7090955
0
LINE
8
DEFAULT_255_2_778
10
0.1738616
20
59.7090955
11
0.5738616
21
59.7021955
0
LINE
8
DEFAULT_255_2_778
10
0.5738616
20
59.7021955
11
0.5738616
21
59.3020955
0
LINE
8
DEFAULT_255_2_778
10
0.5738616
20
59.3020955
11
0.1738616
21
59.2949955
0
LINE
8
DEFAULT_255_2_778
10
0.1738616
20
59.2949955
11
0.1738616
21
51.7088955
0
LINE
8
DEFAULT_255_2_778
10
0.1738616
20
51.7088955
11
0.5738616
21
51.7019955
0
LINE
8
DEFAULT_255_2_778
10
0.5738616
20
51.7019955
11
0.5738616
21
51.3018955
0
LINE
8
DEFAULT_255_2_778
10
0.5738616
20
51.3018955
11
0.1738616
21
51.2950955
0
LINE
8
DEFAULT_255_2_778
10
0.1738616
20
51.2950955
11
0.1738616
21
46.4309955
0
LINE
8
DEFAULT_255_2_778
10
0.1738616
20
46.4309955
11
0.5738616
21
46.4240955
0
LINE
8
DEFAULT_255_2_778
10
0.5738616
20
46.4240955
11
0.5738616
21
46.2187955
0
LINE
8
DEFAULT_255_2_778
10
0.5738616
20
46.2187955
11
0.3415616
21
46.0239955
0
LINE
8
DEFAULT_255_2_778
10
0.3415616
20
46.0239955
11
5.3533616
21
40.0510955
0
LINE
8
DEFAULT_255_2_778
10
5.3533616
20
40.0510955
11
5.8832616
21
40.0417955
0
LINE
8
DEFAULT_255_2_778
10
5.8832616
20
40.0417955
11
6.2190616
21
39.6416955
0
LINE
8
DEFAULT_255_2_778
10
6.2190616
20
39.6416955
11
5.7044616
21
39.6326955
0
LINE
8
DEFAULT_255_2_778
10
5.7044616
20
39.6326955
11
10.7079616
21
33.6697955
0
LINE
8
DEFAULT_255_2_778
10
10.7079616
20
33.6697955
11
11.2842616
21
33.6597955
0
LINE
8
DEFAULT_255_2_778
10
11.2842616
20
33.6597955
11
11.2842616
21
33.2596955
0
LINE
8
DEFAULT_255_2_778
10
11.2842616
20
33.2596955
11
10.8841616
21
33.2528955
0
LINE
8
DEFAULT_255_2_778
10
10.8841616
20
33.2528955
11
10.8841616
21
26.2595955
0
LINE
8
DEFAULT_255_2_778
10
10.8841616
20
26.2595955
11
11.2842616
21
26.2527955
0
LINE
8
DEFAULT_255_2_778
10
11.2842616
20
26.2527955
11
11.2842616
21
26.0474955
0
LINE
8
DEFAULT_255_2_778
10
11.2842616
20
26.0474955
11
11.0519616
21
25.8526955
0
LINE
8
DEFAULT_255_2_778
10
11.0519616
20
25.8526955
11
15.6694616
21
20.3495955
0
LINE
8
DEFAULT_255_2_778
10
15.6694616
20
20.3495955
11
16.1993616
21
20.3403955
0
LINE
8
DEFAULT_255_2_778
10
16.1993616
20
20.3403955
11
16.5198616
21
19.9585955
0
LINE
8
DEFAULT_255_2_778
10
16.5198616
20
19.9585955
11
16.0051616
21
19.9495955
0
LINE
8
DEFAULT_255_2_778
10
16.0051616
20
19.9495955
11
20.6229616
21
14.4464955
0
LINE
8
DEFAULT_255_2_778
10
20.6229616
20
14.4464955
11
21.1529616
21
14.4372955
0
LINE
8
DEFAULT_255_2_778
10
21.1529616
20
14.4372955
11
21.4733616
21
14.0554955
0
LINE
8
DEFAULT_255_2_778
10
21.4733616
20
14.0554955
11
20.9587616
21
14.0464955
0
LINE
8
DEFAULT_255_2_778
10
20.9587616
20
14.0464955
11
25.5677616
21
8.5534955
0
LINE
8
DEFAULT_255_2_778
10
25.5677616
20
8.5534955
11
26.1440616
21
8.5433955
0
LINE
8
DEFAULT_255_2_778
10
26.1440616
20
8.5433955
11
26.1440616
21
8.1433955
0
LINE
8
DEFAULT_255_2_778
10
26.1440616
20
8.1433955
11
25.7439616
21
8.1364955
0
LINE
8
DEFAULT_255_2_778
10
25.7439616
20
8.1364955
11
25.7439616
21
1.3572955
0
LINE
8
DEFAULT_255_2_778
10
25.7439616
20
1.3572955
11
27.2439616
21
-0.1426045
0
LINE
8
DEFAULT_255_2_778
10
27.2439616
20
-0.1426045
11
28.3739616
21
-0.1426045
0
LINE
8
DEFAULT_255_2_778
10
28.3739616
20
-0.1426045
11
28.3739616
21
10.2144955
0
LINE
8
DEFAULT_255_2_778
10
12.8264616
20
35.2366955
11
12.3841616
21
34.8654955
0
LINE
8
DEFAULT_255_2_778
10
12.3841616
20
34.8654955
11
12.3841616
21
26.5987955
0
LINE
8
DEFAULT_255_2_778
10
12.3841616
20
26.5987955
11
27.2439616
21
8.8897955
0
LINE
8
DEFAULT_255_2_778
10
27.2439616
20
8.8897955
11
27.2439616
21
-0.1423045
0
ARC
8
DEFAULT_255_2_778
10
53.9917492
20
121.2577655
40
2.5044529
50
359.9995038
51
44.9955574
0
ARC
8
DEFAULT_255_2_778
10
53.9920301
20
121.2575055
40
2.5044382
50
45.0043073
51
90.0029269
0
ARC
8
DEFAULT_255_2_778
10
53.9946668
20
121.2633237
40
2.4944216
50
69.2085478
51
90.0635041
0
ARC
8
DEFAULT_255_2_778
10
53.988458
20
121.2550676
40
2.5043458
50
10.4603575
51
69.1427984
0
ARC
8
DEFAULT_255_2_778
10
53.9772071
20
121.2584849
40
2.5147952
50
359.9831157
51
10.3372543
0
ARC
8
DEFAULT_255_2_778
10
53.9972173
20
24.2551562
40
2.4947862
50
339.2074033
51
0.0594279
0
ARC
8
DEFAULT_255_2_778
10
53.989435
20
24.261125
40
2.504182
50
280.4568031
51
339.1429389
0
ARC
8
DEFAULT_255_2_778
10
53.9928324
20
24.2725556
40
2.5148119
50
269.9788046
51
280.3334183
0
ARC
8
DEFAULT_255_2_778
10
36.9888442
20
121.2635796
40
2.4941657
50
89.9366446
51
110.79253
0
ARC
8
DEFAULT_255_2_778
10
36.9951674
20
121.2550715
40
2.5043661
50
110.8586746
51
169.5398196
0
ARC
8
DEFAULT_255_2_778
10
37.0063971
20
121.2584849
40
2.5147952
50
169.6627459
51
180.0168844
0
ARC
8
DEFAULT_255_2_778
10
36.9864098
20
24.2551572
40
2.494809
50
179.9405959
51
200.7924231
0
ARC
8
DEFAULT_255_2_778
10
36.9941569
20
24.2610917
40
2.5041597
50
200.8564401
51
259.5417594
0
ARC
8
DEFAULT_255_2_778
10
36.9906735
20
24.2722437
40
2.5145
50
259.6659408
51
270.0211604
0
ARC
8
DEFAULT_255_2_778
10
62.9743864
20
23.057618
40
2.5046843
50
179.9994103
51
224.9933673
0
ARC
8
DEFAULT_255_2_778
10
62.9740487
20
23.0582027
40
2.5048589
50
225.0082883
51
269.9989361
0
ARC
8
DEFAULT_255_2_778
10
62.9686978
20
23.055057
40
2.494797
50
179.9405912
51
200.7925511
0
ARC
8
DEFAULT_255_2_778
10
62.9766283
20
23.0611069
40
2.5043601
50
200.8575408
51
259.5402498
0
ARC
8
DEFAULT_255_2_778
10
62.9732578
20
23.0725967
40
2.5150531
50
259.6632767
51
270.0169566
0
ARC
8
DEFAULT_255_2_778
10
89.9739279
20
23.0577281
40
2.5046843
50
269.9994103
51
314.9933673
0
ARC
8
DEFAULT_255_2_778
10
89.9733432
20
23.0573903
40
2.5048589
50
315.0082883
51
359.9989361
0
ARC
8
DEFAULT_255_2_778
10
62.9709443
20
122.4629422
40
2.4944031
50
89.9366533
51
110.7907551
0
ARC
8
DEFAULT_255_2_778
10
62.9770476
20
122.4548342
40
2.5041512
50
110.855459
51
169.5420821
0
ARC
8
DEFAULT_255_2_778
10
62.9883427
20
122.4582709
40
2.5146407
50
169.6657994
51
180.0211239
0
ARC
8
DEFAULT_255_2_778
10
62.9740487
20
122.4569848
40
2.5048589
50
90.0010639
51
134.9917117
0
ARC
8
DEFAULT_255_2_778
10
62.9741546
20
122.4576656
40
2.5044525
50
135.004437
51
180.0004981
0
ARC
8
DEFAULT_255_2_778
10
89.9792065
20
23.055057
40
2.494797
50
339.2074489
51
0.0594088
0
ARC
8
DEFAULT_255_2_778
10
89.971276
20
23.0611069
40
2.5043601
50
280.4597502
51
339.1424592
0
ARC
8
DEFAULT_255_2_778
10
89.9746465
20
23.0725967
40
2.5150531
50
269.9830434
51
280.3367233
0
ARC
8
DEFAULT_255_2_778
10
98.9566864
20
23.057618
40
2.5046843
50
179.9994103
51
224.9933673
0
ARC
8
DEFAULT_255_2_778
10
98.9562764
20
23.0580281
40
2.5046843
50
225.0066327
51
270.0005897
0
ARC
8
DEFAULT_255_2_778
10
98.9509978
20
23.055057
40
2.494797
50
179.9405912
51
200.7925511
0
ARC
8
DEFAULT_255_2_778
10
98.9589283
20
23.0611069
40
2.5043601
50
200.8575408
51
259.5402498
0
ARC
8
DEFAULT_255_2_778
10
98.9555578
20
23.0725967
40
2.5150531
50
259.6632767
51
270.0169566
0
ARC
8
DEFAULT_255_2_778
10
125.9561556
20
23.0579027
40
2.5048589
50
270.0010639
51
314.9917117
0
ARC
8
DEFAULT_255_2_778
10
125.9556432
20
23.0573903
40
2.5048589
50
315.0082883
51
359.9989361
0
ARC
8
DEFAULT_255_2_778
10
98.9535325
20
122.4627783
40
2.4945671
50
89.9363869
51
110.7900637
0
ARC
8
DEFAULT_255_2_778
10
98.95964
20
122.4547647
40
2.5042284
50
110.8556234
51
169.5407906
0
ARC
8
DEFAULT_255_2_778
10
98.9712543
20
122.4580881
40
2.5150523
50
169.6632772
51
180.0169572
0
ARC
8
DEFAULT_255_2_778
10
98.9560487
20
122.4572848
40
2.5048589
50
90.0010639
51
134.9917117
0
ARC
8
DEFAULT_255_2_778
10
98.9565611
20
122.4577973
40
2.5048589
50
135.0082883
51
179.9989361
0
ARC
8
DEFAULT_255_2_778
10
125.9613704
20
23.0552688
40
2.494633
50
339.2067575
51
0.0591421
0
ARC
8
DEFAULT_255_2_778
10
125.9533455
20
23.0613145
40
2.504283
50
280.4584587
51
339.1426236
0
ARC
8
DEFAULT_255_2_778
10
125.9568292
20
23.0724851
40
2.5146415
50
269.9788767
51
280.3342012
0
LINE
8
DEFAULT_255_2_778
10
53.9919021
20
123.7619438
11
36.9919021
21
123.7619438
0
LINE
8
DEFAULT_255_2_778
10
36.9919021
20
123.7619438
11
36.9919021
21
123.7577438
0
LINE
8
DEFAULT_255_2_778
10
36.9919021
20
123.7577438
11
53.9919021
21
123.7577438
0
LINE
8
DEFAULT_255_2_778
10
53.9919021
20
123.7577438
11
53.9919021
21
123.7619438
0
LINE
8
DEFAULT_255_2_778
10
56.4920021
20
121.2577438
11
56.4965021
21
121.2577438
0
LINE
8
DEFAULT_255_2_778
10
56.4965021
20
121.2577438
11
56.4965021
21
24.2577438
0
LINE
8
DEFAULT_255_2_778
10
56.4965021
20
24.2577438
11
56.4920021
21
24.2577438
0
LINE
8
DEFAULT_255_2_778
10
56.4920021
20
24.2577438
11
56.4920021
21
121.2577438
0
LINE
8
DEFAULT_255_2_778
10
53.9919021
20
21.7577438
11
53.9919021
21
21.7532438
0
LINE
8
DEFAULT_255_2_778
10
53.9919021
20
21.7532438
11
36.9919021
21
21.7532438
0
LINE
8
DEFAULT_255_2_778
10
36.9919021
20
21.7532438
11
36.9919021
21
21.7577438
0
LINE
8
DEFAULT_255_2_778
10
36.9919021
20
21.7577438
11
53.9919021
21
21.7577438
0
LINE
8
DEFAULT_255_2_778
10
34.4916021
20
121.2577438
11
34.4871021
21
121.2577438
0
LINE
8
DEFAULT_255_2_778
10
34.4871021
20
121.2577438
11
34.4871021
21
24.2577438
0
LINE
8
DEFAULT_255_2_778
10
34.4871021
20
24.2577438
11
34.4916021
21
24.2577438
0
LINE
8
DEFAULT_255_2_778
10
34.4916021
20
24.2577438
11
34.4916021
21
121.2577438
0
LINE
8
DEFAULT_255_2_778
10
92.4782021
20
23.0573438
11
92.4782021
21
120.9592438
0
LINE
8
DEFAULT_255_2_778
10
92.4782021
20
120.9592438
11
92.4737021
21
120.9574438
0
LINE
8
DEFAULT_255_2_778
10
92.4737021
20
120.9574438
11
92.4737021
21
23.0573438
0
LINE
8
DEFAULT_255_2_778
10
92.4737021
20
23.0573438
11
92.4782021
21
23.0573438
0
LINE
8
DEFAULT_255_2_778
10
92.4737021
20
120.9574438
11
88.4737021
21
124.9573438
0
LINE
8
DEFAULT_255_2_778
10
60.4737021
20
122.4573438
11
60.4692021
21
122.4573438
0
LINE
8
DEFAULT_255_2_778
10
60.4692021
20
122.4573438
11
60.4692021
21
23.0573438
0
LINE
8
DEFAULT_255_2_778
10
60.4692021
20
23.0573438
11
60.4737021
21
23.0573438
0
LINE
8
DEFAULT_255_2_778
10
60.4737021
20
23.0573438
11
60.4737021
21
122.4576438
0
LINE
8
DEFAULT_255_2_778
10
92.4779021
20
120.9595438
11
88.4759021
21
124.9618438
0
LINE
8
DEFAULT_255_2_778
10
88.4759021
20
124.9618438
11
62.9740021
21
124.9618438
0
LINE
8
DEFAULT_255_2_778
10
62.9740021
20
124.9618438
11
62.9740021
21
124.9576438
0
LINE
8
DEFAULT_255_2_778
10
62.9740021
20
124.9576438
11
88.4740021
21
124.9576438
0
LINE
8
DEFAULT_255_2_778
10
88.4740021
20
124.9576438
11
88.4759021
21
124.9618438
0
LINE
8
DEFAULT_255_2_778
10
89.9739021
20
20.5575438
11
89.9739021
21
20.5533438
0
LINE
8
DEFAULT_255_2_778
10
89.9739021
20
20.5533438
11
62.9740021
21
20.5533438
0
LINE
8
DEFAULT_255_2_778
10
62.9740021
20
20.5533438
11
62.9740021
21
20.5575438
0
LINE
8
DEFAULT_255_2_778
10
62.9740021
20
20.5575438
11
89.9739021
21
20.5575438
0
LINE
8
DEFAULT_255_2_778
10
128.4605021
20
23.0573438
11
128.4605021
21
120.9592438
0
LINE
8
DEFAULT_255_2_778
10
128.4605021
20
120.9592438
11
128.4562021
21
120.9574438
0
LINE
8
DEFAULT_255_2_778
10
128.4562021
20
120.9574438
11
128.4562021
21
23.0573438
0
LINE
8
DEFAULT_255_2_778
10
128.4562021
20
23.0573438
11
128.4605021
21
23.0573438
0
LINE
8
DEFAULT_255_2_778
10
128.4562021
20
120.9574438
11
124.4563021
21
124.9573438
0
LINE
8
DEFAULT_255_2_778
10
96.4562021
20
122.4573438
11
96.4517021
21
122.4573438
0
LINE
8
DEFAULT_255_2_778
10
96.4517021
20
122.4573438
11
96.4517021
21
23.0573438
0
LINE
8
DEFAULT_255_2_778
10
96.4517021
20
23.0573438
11
96.4562021
21
23.0573438
0
LINE
8
DEFAULT_255_2_778
10
96.4562021
20
23.0573438
11
96.4562021
21
122.4576438
0
LINE
8
DEFAULT_255_2_778
10
128.4605021
20
120.9595438
11
124.4579021
21
124.9621438
0
LINE
8
DEFAULT_255_2_778
10
124.4579021
20
124.9621438
11
98.9560021
21
124.9621438
0
LINE
8
DEFAULT_255_2_778
10
98.9560021
20
124.9621438
11
98.9560021
21
124.9579438
0
LINE
8
DEFAULT_255_2_778
10
98.9560021
20
124.9579438
11
124.4560021
21
124.9579438
0
LINE
8
DEFAULT_255_2_778
10
124.4560021
20
124.9579438
11
124.4579021
21
124.9621438
0
LINE
8
DEFAULT_255_2_778
10
125.9559021
20
20.5578438
11
125.9559021
21
20.5535438
0
LINE
8
DEFAULT_255_2_778
10
125.9559021
20
20.5535438
11
98.9563021
21
20.5535438
0
LINE
8
DEFAULT_255_2_778
10
98.9563021
20
20.5535438
11
98.9563021
21
20.5578438
0
LINE
8
DEFAULT_255_2_778
10
98.9563021
20
20.5578438
11
125.9562021
21
20.5578438
0
ENDSEC
0
EOF