0
SECTION
2
HEADER
9
$MEASUREMENT
70
1
0
ENDSEC
0
SECTION
2
TABLES
0
TABLE
2
LTYPE
0
LTYPE
72
65
70
64
2
CONTINUOUS
3
______
73
0
40
0
0
ENDTAB
0
TABLE
2
LAYER
0
LAYER
2
DEFAULT_255_2_778
70
0
62
255
6
CONTINUOUS
0
LAYER
2
DEFAULT_255_1_388
70
0
62
255
6
CONTINUOUS
0
ENDTAB
0
ENDSEC
0
SECTION
2
ENTITIES
0
ARC
8
DEFAULT_255_2_778
10
3.5700693
20
28.1802037
40
0.7914215
50
129.1312896
51
180.1450914
0
ARC
8
DEFAULT_255_2_778
10
3.5703345
20
28.1806908
40
0.7912112
50
89.854026
51
129.1684493
0
ARC
8
DEFAULT_255_2_778
10
25.7993937
20
28.1803773
40
0.7915249
50
39.4792447
51
90.147911
0
ARC
8
DEFAULT_255_2_778
10
25.7999935
20
28.180224
40
0.7911595
50
359.8533901
51
39.5154338
0
ARC
8
DEFAULT_255_2_778
10
25.7996693
20
-1.9863486
40
0.7914836
50
309.4761667
51
0.1482649
0
ARC
8
DEFAULT_255_2_778
10
25.799398
20
-1.9867797
40
0.7913235
50
269.8517415
51
309.511178
0
ARC
8
DEFAULT_255_2_778
10
3.570342
20
-1.9867215
40
0.7913815
50
219.1282118
51
270.1454017
0
ARC
8
DEFAULT_255_2_778
10
3.5700247
20
-1.986339
40
0.7913769
50
179.8524075
51
219.1641908
0
LINE
8
DEFAULT_255_2_778
10
3.5723503
20
28.9718996
11
25.7973503
21
28.9718996
0
LINE
8
DEFAULT_255_2_778
10
26.5911503
20
28.1781996
11
26.5911503
21
-1.9843004
0
LINE
8
DEFAULT_255_2_778
10
25.7973503
20
-2.7781004
11
3.5723503
21
-2.7781004
0
LINE
8
DEFAULT_255_2_778
10
2.7786503
20
-1.9843004
11
2.7786503
21
28.1781996
0
LINE
8
DEFAULT_255_1_388
10
10.0036985
20
0.6821148
11
10.0036985
21
-0.6398
0
LINE
8
DEFAULT_255_1_388
10
10.0036985
20
-0.6398
11
9.8356355
21
-0.6398
0
LINE
8
DEFAULT_255_1_388
10
9.8356355
20
-0.6398
11
9.8356355
21
0.474295
0
LINE
8
DEFAULT_255_1_388
10
9.8356355
20
0.474295
11
9.498606
21
0.3505066
0
LINE
8
DEFAULT_255_1_388
10
9.498606
20
0.3505066
11
9.498606
21
0.5023055
0
LINE
8
DEFAULT_255_1_388
10
9.498606
20
0.5023055
11
9.9774951
21
0.6821148
0
LINE
8
DEFAULT_255_1_388
10
9.9774951
20
0.6821148
11
10.0036985
21
0.6821148
0
LINE
8
DEFAULT_255_1_388
10
11.342781
20
0.6757898
11
11.342781
21
0.5818191
0
LINE
8
DEFAULT_255_1_388
10
11.342781
20
0.5818191
11
10.7979316
21
-0.6398
0
LINE
8
DEFAULT_255_1_388
10
10.7979316
20
-0.6398
11
10.6226401
21
-0.6398
0
LINE
8
DEFAULT_255_1_388
10
10.6226401
20
-0.6398
11
11.1656824
21
0.538448
0
LINE
8
DEFAULT_255_1_388
10
11.1656824
20
0.538448
11
10.4536736
21
0.538448
0
LINE
8
DEFAULT_255_1_388
10
10.4536736
20
0.538448
11
10.4536736
21
0.6757898
0
LINE
8
DEFAULT_255_1_388
10
10.4536736
20
0.6757898
11
11.342781
21
0.6757898
0
LINE
8
DEFAULT_255_1_388
10
11.7430601
20
-0.0145334
11
11.6093325
21
0.0198021
0
LINE
8
DEFAULT_255_1_388
10
11.6093325
20
0.0198021
11
11.6761963
21
0.6757898
0
LINE
8
DEFAULT_255_1_388
10
11.6761963
20
0.6757898
11
12.3502554
21
0.6757898
0
LINE
8
DEFAULT_255_1_388
10
12.3502554
20
0.6757898
11
12.3502554
21
0.5212803
0
LINE
8
DEFAULT_255_1_388
10
12.3502554
20
0.5212803
11
11.8180559
21
0.5212803
0
LINE
8
DEFAULT_255_1_388
10
11.8180559
20
0.5212803
11
11.7782991
21
0.1625652
0
LINE
8
DEFAULT_255_1_388
10
11.5623472
20
-0.2937348
11
11.7204709
21
-0.2937348
0
LINE
8
DEFAULT_255_1_388
10
11.7873347
20
0.0216092
11
11.7430601
21
-0.0145334
0
ARC
8
DEFAULT_255_1_388
10
11.9869604
20
-0.1951759
40
0.4141476
50
93.7181681
51
120.253934
0
ARC
8
DEFAULT_255_1_388
10
11.9975656
20
-0.2860716
40
0.5055616
50
89.9660471
51
94.2495185
0
ARC
8
DEFAULT_255_1_388
10
12.0021478
20
-0.2197846
40
0.4392953
50
73.8045384
51
90.5585736
0
ARC
8
DEFAULT_255_1_388
10
12.0285736
20
-0.123248
40
0.3392225
50
41.3071072
51
73.543002
0
ARC
8
DEFAULT_255_1_388
10
11.9817556
20
-0.1635539
40
0.4009977
50
13.5075837
51
41.2174839
0
ARC
8
DEFAULT_255_1_388
10
11.7970653
20
-0.2119093
40
0.5918864
50
1.1330171
51
13.8830737
0
ARC
8
DEFAULT_255_1_388
10
11.6374299
20
-0.2204478
40
0.7516787
50
359.9925091
51
1.5431298
0
ARC
8
DEFAULT_255_1_388
10
11.7818914
20
-0.2250973
40
0.6072343
50
347.8572712
51
0.4294349
0
ARC
8
DEFAULT_255_1_388
10
11.9788049
20
-0.2697102
40
0.4053482
50
323.6727442
51
348.1674594
0
ARC
8
DEFAULT_255_1_388
10
12.0119013
20
-0.2898825
40
0.3667495
50
316.8171818
51
323.1486802
0
ARC
8
DEFAULT_255_1_388
10
12.0188137
20
-0.2940388
40
0.358869
50
281.839603
51
316.5458142
0
ARC
8
DEFAULT_255_1_388
10
11.9765425
20
-0.1190637
40
0.5388223
50
269.5770964
51
282.4214641
0
ARC
8
DEFAULT_255_1_388
10
11.9685345
20
-0.143107
40
0.5147801
50
256.2425863
51
270.4486481
0
ARC
8
DEFAULT_255_1_388
10
11.9348873
20
-0.2780876
40
0.3756708
50
228.9024379
51
256.33135
0
ARC
8
DEFAULT_255_1_388
10
11.9265853
20
-0.2911946
40
0.360344
50
193.7536029
51
228.5272638
0
ARC
8
DEFAULT_255_1_388
10
12.0658418
20
-0.2503537
40
0.5053599
50
184.9244437
51
194.4976052
0
ARC
8
DEFAULT_255_1_388
10
12.087506
20
-0.2463278
40
0.3700839
50
187.3596909
51
198.6733728
0
ARC
8
DEFAULT_255_1_388
10
11.9694303
20
-0.2872627
40
0.2451195
50
198.4453795
51
217.7945479
0
ARC
8
DEFAULT_255_1_388
10
11.9361476
20
-0.3108437
40
0.2043754
50
218.2887146
51
228.5613203
0
ARC
8
DEFAULT_255_1_388
10
11.9471482
20
-0.2960098
40
0.2227819
50
228.9652423
51
258.1237049
0
ARC
8
DEFAULT_255_1_388
10
11.970292
20
-0.1969036
40
0.3245374
50
257.7260585
51
270.4013717
0
ARC
8
DEFAULT_255_1_388
10
11.9753418
20
-0.2469745
40
0.2744726
50
269.4204315
51
286.420998
0
ARC
8
DEFAULT_255_1_388
10
11.9920474
20
-0.3076295
40
0.2115721
50
286.7250065
51
320.6004665
0
ARC
8
DEFAULT_255_1_388
10
11.9489389
20
-0.2726473
40
0.2670878
50
320.6712228
51
344.5440474
0
ARC
8
DEFAULT_255_1_388
10
11.8188103
20
-0.2344606
40
0.4026927
50
344.241448
51
356.735803
0
ARC
8
DEFAULT_255_1_388
10
11.678441
20
-0.2228344
40
0.5435085
50
356.3547471
51
0.0507222
0
ARC
8
DEFAULT_255_1_388
10
11.8286675
20
-0.2193188
40
0.3932934
50
359.5579289
51
12.9534322
0
ARC
8
DEFAULT_255_1_388
10
11.9473515
20
-0.1905414
40
0.2711827
50
12.6489751
51
41.608121
0
ARC
8
DEFAULT_255_1_388
10
11.9732675
20
-0.1685054
40
0.2371737
50
41.7851122
51
85.9892156
0
ARC
8
DEFAULT_255_1_388
10
11.9593985
20
-0.2600262
40
0.3295244
50
84.6965848
51
90.0672125
0
ARC
8
DEFAULT_255_1_388
10
11.9567553
20
-0.3351882
40
0.4046926
50
89.6804991
51
99.161352
0
ARC
8
DEFAULT_255_1_388
10
11.9336562
20
-0.1971152
40
0.2647044
50
98.9836248
51
113.8905702
0
ARC
8
DEFAULT_255_1_388
10
11.9078237
20
-0.1361882
40
0.1985386
50
114.195234
51
127.3641866
0
LINE
8
DEFAULT_255_1_388
10
13.1977988
20
0.6766934
11
13.2276165
21
0.6766934
0
LINE
8
DEFAULT_255_1_388
10
13.2276165
20
0.6766934
11
13.2276165
21
0.5348338
0
LINE
8
DEFAULT_255_1_388
10
13.2276165
20
0.5348338
11
13.1968953
21
0.5348338
0
LINE
8
DEFAULT_255_1_388
10
12.5815679
20
-0.1392253
11
12.5815679
21
-0.0750722
0
LINE
8
DEFAULT_255_1_388
10
12.7496309
20
-0.0967578
11
12.7496309
21
-0.1582001
0
ARC
8
DEFAULT_255_1_388
10
13.2027844
20
-0.0274174
40
0.562282
50
90.6001079
51
104.5146616
0
ARC
8
DEFAULT_255_1_388
10
13.1590804
20
0.13511
40
0.3939917
50
104.2855758
51
133.8630124
0
ARC
8
DEFAULT_255_1_388
10
13.1775056
20
0.1229243
40
0.4155734
50
134.5304124
51
161.6210222
0
ARC
8
DEFAULT_255_1_388
10
13.3634989
20
0.0573421
40
0.6127682
50
161.2850533
51
174.2074364
0
ARC
8
DEFAULT_255_1_388
10
13.5224555
20
0.0354437
40
0.7731446
50
173.7817938
51
174.9251711
0
ARC
8
DEFAULT_255_1_388
10
13.0098749
20
-0.120073
40
0.3412588
50
95.8332067
51
138.995412
0
ARC
8
DEFAULT_255_1_388
10
13.0350029
20
-0.2639305
40
0.4870358
50
89.8755506
51
97.0540979
0
ARC
8
DEFAULT_255_1_388
10
13.0403418
20
-0.1699159
40
0.3930432
50
71.6407016
51
90.6240821
0
ARC
8
DEFAULT_255_1_388
10
13.0572812
20
-0.1075567
40
0.3285421
50
39.6368051
51
71.0190743
0
ARC
8
DEFAULT_255_1_388
10
12.9856719
20
-0.1694414
40
0.4231706
50
10.6588054
51
39.9044509
0
ARC
8
DEFAULT_255_1_388
10
12.8115265
20
-0.2072777
40
0.60133
50
359.6827842
51
11.1326896
0
ARC
8
DEFAULT_255_1_388
10
12.8070601
20
-0.2152285
40
0.6058047
50
347.2485908
51
0.4371098
0
ARC
8
DEFAULT_255_1_388
10
12.9946386
20
-0.2603621
40
0.4128987
50
318.1408565
51
347.6118497
0
ARC
8
DEFAULT_255_1_388
10
13.0311983
20
-0.2904097
40
0.3656244
50
275.6342406
51
317.824739
0
ARC
8
DEFAULT_255_1_388
10
13.0063504
20
-0.1442173
40
0.513655
50
269.8872513
51
276.7916069
0
ARC
8
DEFAULT_255_1_388
10
13.0001697
20
-0.2595819
40
0.398323
50
246.9139443
51
270.7436787
0
ARC
8
DEFAULT_255_1_388
10
13.0008893
20
-0.2755956
40
0.3839368
50
218.1665534
51
245.8780431
0
ARC
8
DEFAULT_255_1_388
10
13.0998265
20
-0.1928097
40
0.5128958
50
191.4115343
51
218.6077624
0
ARC
8
DEFAULT_255_1_388
10
13.3178581
20
-0.1439223
40
0.7363054
50
179.6344971
51
191.7836758
0
ARC
8
DEFAULT_255_1_388
10
13.9458455
20
-0.0675505
40
1.3642984
50
171.4523743
51
180.3158856
0
ARC
8
DEFAULT_255_1_388
10
13.4514182
20
0.0093895
40
0.8639311
50
157.9802296
51
171.6246761
0
ARC
8
DEFAULT_255_1_388
10
13.2023533
20
0.1087038
40
0.5958004
50
141.4299236
51
157.8541251
0
ARC
8
DEFAULT_255_1_388
10
13.1301616
20
0.1597746
40
0.5075416
50
102.871586
51
140.8564533
0
ARC
8
DEFAULT_255_1_388
10
13.2030169
20
-0.1147057
40
0.7914163
50
90.377773
51
103.5868422
0
ARC
8
DEFAULT_255_1_388
10
13.007469
20
-0.1827457
40
0.2667015
50
89.8751238
51
126.2072139
0
ARC
8
DEFAULT_255_1_388
10
13.0126161
20
-0.2001153
40
0.2838229
50
124.9742447
51
144.8960197
0
ARC
8
DEFAULT_255_1_388
10
12.9928406
20
-0.1840019
40
0.2583845
50
145.2974778
51
160.2660922
0
ARC
8
DEFAULT_255_1_388
10
13.3384895
20
-0.1617849
40
0.5888695
50
179.6512124
51
190.285571
0
ARC
8
DEFAULT_255_1_388
10
13.1479374
20
-0.1977032
40
0.3949683
50
190.0944895
51
207.5099647
0
ARC
8
DEFAULT_255_1_388
10
13.0842956
20
-0.2279823
40
0.3245464
50
207.9585471
51
216.325377
0
ARC
8
DEFAULT_255_1_388
10
13.0460593
20
-0.2594288
40
0.2751259
50
215.7661336
51
232.5457193
0
ARC
8
DEFAULT_255_1_388
10
13.0029709
20
-0.3141727
40
0.2054668
50
232.8005815
51
270.6605497
0
ARC
8
DEFAULT_255_1_388
10
13.0081133
20
-0.2732147
40
0.2464268
50
269.3550767
51
288.474612
0
ARC
8
DEFAULT_255_1_388
10
13.018564
20
-0.3125279
40
0.2058436
50
289.1831976
51
322.9685307
0
ARC
8
DEFAULT_255_1_388
10
12.9497742
20
-0.2582721
40
0.2934408
50
322.6007085
51
346.5183319
0
ARC
8
DEFAULT_255_1_388
10
12.8195498
20
-0.2250566
40
0.4278249
50
346.2584622
51
358.7739592
0
ARC
8
DEFAULT_255_1_388
10
12.7044073
20
-0.2188171
40
0.5430876
50
358.3757628
51
0.0082477
0
ARC
8
DEFAULT_255_1_388
10
12.7900892
20
-0.2157144
40
0.4574157
50
359.6211417
51
11.28403
0
ARC
8
DEFAULT_255_1_388
10
12.9337498
20
-0.1857465
40
0.3106708
50
11.0483152
51
31.8145585
0
ARC
8
DEFAULT_255_1_388
10
12.9685203
20
-0.1668955
40
0.2711963
50
32.3028554
51
38.0820598
0
ARC
8
DEFAULT_255_1_388
10
13.0158436
20
-0.1240283
40
0.2075566
50
36.8249851
51
85.741667
0
ARC
8
DEFAULT_255_1_388
10
13.0082849
20
-0.1803935
40
0.2643487
50
85.0150021
51
90.050843
0
LINE
8
DEFAULT_255_1_388
10
13.9757678
20
-0.0127263
11
13.9757678
21
-0.1491645
0
LINE
8
DEFAULT_255_1_388
10
13.9757678
20
-0.1491645
11
13.5348284
21
-0.1491645
0
LINE
8
DEFAULT_255_1_388
10
13.5348284
20
-0.1491645
11
13.5348284
21
-0.0127263
0
LINE
8
DEFAULT_255_1_388
10
13.5348284
20
-0.0127263
11
13.9757678
21
-0.0127263
0
LINE
8
DEFAULT_255_1_388
10
14.9326426
20
-0.6398
11
14.6471162
21
-0.1076005
0
LINE
8
DEFAULT_255_1_388
10
14.6471162
20
-0.1076005
11
14.3380972
21
-0.1076005
0
LINE
8
DEFAULT_255_1_388
10
14.3380972
20
-0.1076005
11
14.3380972
21
-0.6398
0
LINE
8
DEFAULT_255_1_388
10
14.3380972
20
-0.6398
11
14.1637092
21
-0.6398
0
LINE
8
DEFAULT_255_1_388
10
14.1637092
20
-0.6398
11
14.1637092
21
0.6757898
0
LINE
8
DEFAULT_255_1_388
10
14.1637092
20
0.6757898
11
14.5992273
21
0.6757898
0
LINE
8
DEFAULT_255_1_388
10
14.8097578
20
-0.0705544
11
15.1187769
21
-0.6289572
0
LINE
8
DEFAULT_255_1_388
10
15.1187769
20
-0.6289572
11
15.1187769
21
-0.6398
0
LINE
8
DEFAULT_255_1_388
10
15.1187769
20
-0.6398
11
14.9326426
21
-0.6398
0
LINE
8
DEFAULT_255_1_388
10
14.3380972
20
0.5330267
11
14.3380972
21
0.0342591
0
LINE
8
DEFAULT_255_1_388
10
14.3380972
20
0.0342591
11
14.6046487
21
0.0342591
0
LINE
8
DEFAULT_255_1_388
10
14.6037451
20
0.5330267
11
14.3380972
21
0.5330267
0
ARC
8
DEFAULT_255_1_388
10
14.6039119
20
-0.1073654
40
0.7831693
50
80.6535681
51
90.3427203
0
ARC
8
DEFAULT_255_1_388
10
14.6511029
20
0.1696722
40
0.5021479
50
65.6987674
51
80.8330164
0
ARC
8
DEFAULT_255_1_388
10
14.7048323
20
0.2928479
40
0.3677787
50
50.0019152
51
65.4304412
0
ARC
8
DEFAULT_255_1_388
10
14.7294139
20
0.3260603
40
0.3265454
50
11.6284215
51
49.5603681
0
ARC
8
DEFAULT_255_1_388
10
14.5566625
20
0.2838524
40
0.5043009
50
359.5655533
51
12.3693319
0
ARC
8
DEFAULT_255_1_388
10
14.6777962
20
0.2768038
40
0.3831661
50
341.998418
51
0.4822212
0
ARC
8
DEFAULT_255_1_388
10
14.7222148
20
0.2647479
40
0.3372036
50
323.8610842
51
341.6141514
0
ARC
8
DEFAULT_255_1_388
10
14.6882694
20
0.2909615
40
0.3800784
50
296.7019299
51
323.6876213
0
ARC
8
DEFAULT_255_1_388
10
14.6386652
20
0.3796532
40
0.4816219
50
290.808313
51
297.2325929
0
ARC
8
DEFAULT_255_1_388
10
14.6075446
20
0.4385377
40
0.404289
50
269.5895908
51
281.8058892
0
ARC
8
DEFAULT_255_1_388
10
14.6357712
20
0.309436
40
0.2721459
50
281.5499321
51
303.9358954
0
ARC
8
DEFAULT_255_1_388
10
14.6512247
20
0.2826588
40
0.2413121
50
304.4410786
51
311.211123
0
ARC
8
DEFAULT_255_1_388
10
14.6660652
20
0.2670152
40
0.2197678
50
310.9874923
51
356.2715203
0
ARC
8
DEFAULT_255_1_388
10
14.5810398
20
0.2796992
40
0.3055212
50
354.9346315
51
0.0617816
0
ARC
8
DEFAULT_255_1_388
10
14.5599239
20
0.2827427
40
0.3266482
50
359.5239293
51
12.8808621
0
ARC
8
DEFAULT_255_1_388
10
14.6699002
20
0.3096638
40
0.2134449
50
12.417206
51
43.1023141
0
ARC
8
DEFAULT_255_1_388
10
14.6768332
20
0.3138253
40
0.2055463
50
43.575886
51
48.2047245
0
ARC
8
DEFAULT_255_1_388
10
14.6577593
20
0.2889151
40
0.2368418
50
48.7809155
51
72.6968768
0
ARC
8
DEFAULT_255_1_388
10
14.6178957
20
0.1679385
40
0.364206
50
72.3699892
51
84.8793749
0
ARC
8
DEFAULT_255_1_388
10
14.6012963
20
0.0169651
40
0.5160674
50
84.5398226
51
89.7281165
0
LINE
8
DEFAULT_255_1_388
10
15.3040076
20
0.6757898
11
15.5280916
21
0.6757898
0
LINE
8
DEFAULT_255_1_388
10
15.5280916
20
0.6757898
11
15.9581882
21
-0.3976447
0
LINE
8
DEFAULT_255_1_388
10
15.9581882
20
-0.3976447
11
16.3882849
21
0.6757898
0
LINE
8
DEFAULT_255_1_388
10
16.3882849
20
0.6757898
11
16.6132725
21
0.6757898
0
LINE
8
DEFAULT_255_1_388
10
16.6132725
20
0.6757898
11
16.6132725
21
-0.6398
0
LINE
8
DEFAULT_255_1_388
10
16.6132725
20
-0.6398
11
16.4397881
21
-0.6398
0
LINE
8
DEFAULT_255_1_388
10
16.4397881
20
-0.6398
11
16.4397881
21
-0.127479
0
LINE
8
DEFAULT_255_1_388
10
16.4397881
20
-0.127479
11
16.4560522
21
0.4255025
0
LINE
8
DEFAULT_255_1_388
10
16.4560522
20
0.4255025
11
16.0241484
21
-0.6398
0
LINE
8
DEFAULT_255_1_388
10
16.0241484
20
-0.6398
11
15.8913245
21
-0.6398
0
LINE
8
DEFAULT_255_1_388
10
15.8913245
20
-0.6398
11
15.4603242
21
0.4227918
0
LINE
8
DEFAULT_255_1_388
10
15.4603242
20
0.4227918
11
15.4774919
21
-0.127479
0
LINE
8
DEFAULT_255_1_388
10
15.4774919
20
-0.127479
11
15.4774919
21
-0.6398
0
LINE
8
DEFAULT_255_1_388
10
15.4774919
20
-0.6398
11
15.3040076
21
-0.6398
0
LINE
8
DEFAULT_255_1_388
10
15.3040076
20
-0.6398
11
15.3040076
21
0.6757898
0
LINE
8
DEFAULT_255_1_388
10
17.7382102
20
-0.5033618
11
17.7382102
21
-0.6398
0
LINE
8
DEFAULT_255_1_388
10
17.7382102
20
-0.6398
11
16.8762097
21
-0.6398
0
LINE
8
DEFAULT_255_1_388
10
16.8762097
20
-0.6398
11
16.8762097
21
-0.5196259
0
LINE
8
DEFAULT_255_1_388
10
16.8762097
20
-0.5196259
11
17.3316062
21
-0.0136298
0
LINE
8
DEFAULT_255_1_388
10
17.0180693
20
0.2881607
11
16.8509099
21
0.2881607
0
LINE
8
DEFAULT_255_1_388
10
17.4300947
20
-0.121154
11
17.0777046
21
-0.5033618
0
LINE
8
DEFAULT_255_1_388
10
17.0777046
20
-0.5033618
11
17.7382102
21
-0.5033618
0
ARC
8
DEFAULT_255_1_388
10
15.8140122
20
1.3283983
40
2.0258655
50
318.5132526
51
320.7829045
0
ARC
8
DEFAULT_255_1_388
10
16.4088078
20
0.8442929
40
1.2589638
50
320.7372878
51
323.9739031
0
ARC
8
DEFAULT_255_1_388
10
16.849701
20
0.5248554
40
0.7145141
50
323.8962701
51
328.64194
0
ARC
8
DEFAULT_255_1_388
10
17.0799268
20
0.3828545
40
0.4440242
50
328.8294576
51
331.7891185
0
ARC
8
DEFAULT_255_1_388
10
17.1921588
20
0.3249374
40
0.3177517
50
331.4254512
51
352.9365785
0
ARC
8
DEFAULT_255_1_388
10
17.2074588
20
0.321505
40
0.3021496
50
353.2257659
51
0.0166158
0
ARC
8
DEFAULT_255_1_388
10
17.2311348
20
0.3240894
40
0.2784847
50
359.486299
51
15.9343185
0
ARC
8
DEFAULT_255_1_388
10
17.2881615
20
0.3394269
40
0.2194403
50
16.1712913
51
43.5286088
0
ARC
8
DEFAULT_255_1_388
10
17.296856
20
0.3481191
40
0.2071504
50
43.4417391
51
83.1661095
0
ARC
8
DEFAULT_255_1_388
10
17.2817721
20
0.2652316
40
0.2912888
50
82.160179
51
90.1505708
0
ARC
8
DEFAULT_255_1_388
10
17.2782203
20
0.2048279
40
0.3517025
50
89.5460741
51
102.5418361
0
ARC
8
DEFAULT_255_1_388
10
17.2508923
20
0.3207933
40
0.2325748
50
102.1738499
51
129.206123
0
ARC
8
DEFAULT_255_1_388
10
17.2420376
20
0.3347664
40
0.2161591
50
129.72865
51
135.753947
0
ARC
8
DEFAULT_255_1_388
10
17.2556858
20
0.3238728
40
0.2335433
50
136.1757367
51
166.3673339
0
ARC
8
DEFAULT_255_1_388
10
17.3689547
20
0.2935148
40
0.3507873
50
165.9090694
51
178.8684636
0
ARC
8
DEFAULT_255_1_388
10
17.4665318
20
0.2882263
40
0.4484624
50
178.4391136
51
180.0083808
0
ARC
8
DEFAULT_255_1_388
10
17.3086019
20
0.2926197
40
0.4577138
50
163.2878482
51
180.5581842
0
ARC
8
DEFAULT_255_1_388
10
17.2184061
20
0.3174393
40
0.3641968
50
133.4540601
51
162.947111
0
ARC
8
DEFAULT_255_1_388
10
17.2384942
20
0.2960789
40
0.3935189
50
100.7869829
51
133.4382499
0
ARC
8
DEFAULT_255_1_388
10
17.2776187
20
0.1218399
40
0.5720313
50
89.660664
51
101.3702276
0
ARC
8
DEFAULT_255_1_388
10
17.2850796
20
0.1287263
40
0.5651495
50
78.2172678
51
90.412935
0
ARC
8
DEFAULT_255_1_388
10
17.3250262
20
0.3114511
40
0.378122
50
55.9269121
51
78.4888449
0
ARC
8
DEFAULT_255_1_388
10
17.3470977
20
0.3495187
40
0.3342379
50
47.929771
51
55.4049217
0
ARC
8
DEFAULT_255_1_388
10
17.3585508
20
0.3611618
40
0.3179217
50
4.334829
51
48.0560205
0
ARC
8
DEFAULT_255_1_388
10
17.2353309
20
0.3420487
40
0.442341
50
359.9251713
51
5.5971671
0
ARC
8
DEFAULT_255_1_388
10
17.2835464
20
0.3483728
40
0.3941854
50
337.8914027
51
358.9967534
0
ARC
8
DEFAULT_255_1_388
10
16.9783034
20
0.4661295
40
0.7213271
50
326.9132501
51
338.3508308
0
ARC
8
DEFAULT_255_1_388
10
16.5299146
20
0.7535105
40
1.2538973
50
319.6471833
51
327.0959558
0
ARC
8
DEFAULT_255_1_388
10
16.0985804
20
1.109305
40
1.8129975
50
317.2588228
51
319.9045804
0
LINE
8
DEFAULT_255_1_388
10
18.759238
20
-0.6398
11
18.2929988
21
-0.0280869
0
LINE
8
DEFAULT_255_1_388
10
18.2929988
20
-0.0280869
11
18.1321643
21
-0.1952463
0
LINE
8
DEFAULT_255_1_388
10
18.1321643
20
-0.1952463
11
18.1321643
21
-0.6398
0
LINE
8
DEFAULT_255_1_388
10
18.1321643
20
-0.6398
11
17.9586799
21
-0.6398
0
LINE
8
DEFAULT_255_1_388
10
17.9586799
20
-0.6398
11
17.9586799
21
0.6757898
0
LINE
8
DEFAULT_255_1_388
10
17.9586799
20
0.6757898
11
18.1321643
21
0.6757898
0
LINE
8
DEFAULT_255_1_388
10
18.1321643
20
0.6757898
11
18.1321643
21
0.0252234
0
LINE
8
DEFAULT_255_1_388
10
18.1321643
20
0.0252234
11
18.7167705
21
0.6757898
0
LINE
8
DEFAULT_255_1_388
10
18.7167705
20
0.6757898
11
18.9263975
21
0.6757898
0
LINE
8
DEFAULT_255_1_388
10
18.9263975
20
0.6757898
11
18.408655
21
0.0947979
0
LINE
8
DEFAULT_255_1_388
10
18.408655
20
0.0947979
11
18.9670579
21
-0.6398
0
LINE
8
DEFAULT_255_1_388
10
18.9670579
20
-0.6398
11
18.759238
21
-0.6398
0
LINE
8
DEFAULT_255_2_778
10
11.0359959
20
25.1806531
11
10.9838959
21
25.5179531
0
LINE
8
DEFAULT_255_2_778
10
10.9838959
20
25.5179531
11
10.4068959
21
25.5179531
0
LINE
8
DEFAULT_255_2_778
10
10.4068959
20
25.5179531
11
10.2364959
21
25.1806531
0
LINE
8
DEFAULT_255_2_778
10
10.2364959
20
25.1806531
11
9.8694959
21
25.1806531
0
LINE
8
DEFAULT_255_2_778
10
9.8694959
20
25.1806531
11
10.7531959
21
26.8181531
0
LINE
8
DEFAULT_255_2_778
10
10.7531959
20
26.8181531
11
11.0608959
21
26.8181531
0
LINE
8
DEFAULT_255_2_778
10
11.0608959
20
26.8181531
11
11.3754959
21
25.1806531
0
LINE
8
DEFAULT_255_2_778
10
11.3754959
20
25.1806531
11
11.0357959
21
25.1806531
0
LINE
8
DEFAULT_255_2_778
10
11.0357959
20
25.1806531
11
11.0359959
21
25.1806531
0
LINE
8
DEFAULT_255_2_778
10
10.8486959
20
26.4009531
11
10.5430959
21
25.7913531
0
LINE
8
DEFAULT_255_2_778
10
10.5430959
20
25.7913531
11
10.9418959
21
25.7913531
0
LINE
8
DEFAULT_255_2_778
10
10.9418959
20
25.7913531
11
10.8486959
21
26.4009531
0
LINE
8
DEFAULT_255_2_778
10
10.8486959
20
26.4009531
11
10.8486959
21
26.4009531
0
LINE
8
DEFAULT_255_2_778
10
12.1615594
20
26.9081646
11
11.8593594
21
25.1804646
0
LINE
8
DEFAULT_255_2_778
10
11.8593594
20
25.1804646
11
11.5368594
21
25.1804646
0
LINE
8
DEFAULT_255_2_778
10
11.5368594
20
25.1804646
11
11.8400594
21
26.9081646
0
LINE
8
DEFAULT_255_2_778
10
11.8400594
20
26.9081646
11
12.1615594
21
26.9081646
0
LINE
8
DEFAULT_255_2_778
10
12.1615594
20
26.9081646
11
12.1615594
21
26.9081646
0
LINE
8
DEFAULT_255_2_778
10
12.7717594
20
26.9081646
11
12.4695594
21
25.1804646
0
LINE
8
DEFAULT_255_2_778
10
12.4695594
20
25.1804646
11
12.1470594
21
25.1804646
0
LINE
8
DEFAULT_255_2_778
10
12.1470594
20
25.1804646
11
12.4502594
21
26.9081646
0
LINE
8
DEFAULT_255_2_778
10
12.4502594
20
26.9081646
11
12.7717594
21
26.9081646
0
LINE
8
DEFAULT_255_2_778
10
12.7717594
20
26.9081646
11
12.7717594
21
26.9081646
0
ARC
8
DEFAULT_255_2_778
10
13.3179403
20
25.6957551
40
0.5378315
50
238.7482666
51
270.7109536
0
ARC
8
DEFAULT_255_2_778
10
13.2871171
20
25.6414616
40
0.4754286
50
204.0953248
51
238.5293175
0
ARC
8
DEFAULT_255_2_778
10
13.369978
20
25.6804489
40
0.5669891
50
179.4893674
51
204.2733579
0
ARC
8
DEFAULT_255_2_778
10
13.494221
20
25.6849975
40
0.6912099
50
175.122749
51
179.9581802
0
ARC
8
DEFAULT_255_2_778
10
13.585056
20
25.7200152
40
0.7790728
50
149.5392097
51
174.9446897
0
ARC
8
DEFAULT_255_2_778
10
13.4591921
20
25.8035212
40
0.628301
50
120.7003982
51
150.2846053
0
ARC
8
DEFAULT_255_2_778
10
13.4196932
20
25.8632024
40
0.556829
50
89.4236852
51
120.3409826
0
ARC
8
DEFAULT_255_2_778
10
13.4252434
20
25.7644671
40
0.6555361
50
88.4553682
51
89.9955718
0
ARC
8
DEFAULT_255_2_778
10
13.4483922
20
25.9501667
40
0.4696303
50
58.00918
51
90.668398
0
ARC
8
DEFAULT_255_2_778
10
13.4737568
20
26.0112652
40
0.4045188
50
35.6383534
51
56.4712999
0
ARC
8
DEFAULT_255_2_778
10
13.3641964
20
25.9382058
40
0.5361477
50
0.6851965
51
35.1616077
0
ARC
8
DEFAULT_255_2_778
10
13.1616394
20
25.9178229
40
0.7391521
50
359.9888194
51
2.0774415
0
ARC
8
DEFAULT_255_2_778
10
13.0480107
20
25.9195249
40
0.852783
50
353.383538
51
359.8759623
0
ARC
8
DEFAULT_255_2_778
10
13.5342292
20
25.6671119
40
0.4107176
50
177.8018731
51
179.9839782
0
ARC
8
DEFAULT_255_2_778
10
13.3756299
20
25.655624
40
0.2523852
50
177.3650374
51
219.8309448
0
ARC
8
DEFAULT_255_2_778
10
13.3461625
20
25.6422258
40
0.2213408
50
222.0539722
51
271.540726
0
ARC
8
DEFAULT_255_2_778
10
13.3631084
20
25.8471328
40
0.4263095
50
268.5221589
51
269.9980703
0
ARC
8
DEFAULT_255_2_778
10
13.3614702
20
25.8178275
40
0.3970076
50
270.2343536
51
318.5005279
0
ARC
8
DEFAULT_255_2_778
10
13.4310137
20
25.6342979
40
0.4555006
50
292.4982989
51
325.2807674
0
ARC
8
DEFAULT_255_2_778
10
13.3411048
20
25.8133078
40
0.6554523
50
269.6237067
51
293.7717535
0
ARC
8
DEFAULT_255_2_778
10
13.3368029
20
25.8987465
40
0.740877
50
269.0805119
51
269.999781
0
ARC
8
DEFAULT_255_2_778
10
13.420533
20
25.8926924
40
0.2651471
50
88.6426469
51
89.9972013
0
ARC
8
DEFAULT_255_2_778
10
13.4187474
20
25.9276021
40
0.2302444
50
89.5524386
51
130.4678957
0
ARC
8
DEFAULT_255_2_778
10
13.517348
20
25.8278327
40
0.370282
50
132.0556576
51
154.4346079
0
ARC
8
DEFAULT_255_2_778
10
13.918637
20
25.6102869
40
0.8264843
50
152.8348001
51
159.2008974
0
ARC
8
DEFAULT_255_2_778
10
13.2837231
20
25.9812268
40
0.3137404
50
351.1327381
51
359.8552777
0
ARC
8
DEFAULT_255_2_778
10
13.3301825
20
25.9808274
40
0.2672803
50
359.9157472
51
8.073482
0
ARC
8
DEFAULT_255_2_778
10
13.4328807
20
25.9961276
40
0.1634528
50
7.8192239
51
49.4174523
0
ARC
8
DEFAULT_255_2_778
10
13.4309417
20
25.9829377
40
0.174876
50
51.746929
51
91.3525911
0
LINE
8
DEFAULT_255_2_778
10
12.8055138
20
25.743765
11
12.8090138
21
25.788665
0
LINE
8
DEFAULT_255_2_778
10
13.8951138
20
25.821265
11
13.8768138
21
25.682865
0
LINE
8
DEFAULT_255_2_778
10
13.8768138
20
25.682865
11
13.1238138
21
25.682865
0
LINE
8
DEFAULT_255_2_778
10
13.6588138
20
25.554765
11
13.8054138
21
25.374865
0
LINE
8
DEFAULT_255_2_778
10
13.3249138
20
25.157965
11
13.3246138
21
25.157965
0
LINE
8
DEFAULT_255_2_778
10
13.1460138
20
25.903765
11
13.5868138
21
25.903765
0
LINE
8
DEFAULT_255_2_778
10
13.5868138
20
25.903765
11
13.5937138
21
25.932865
0
LINE
8
DEFAULT_255_2_778
10
13.4268138
20
26.157765
11
13.4268138
21
26.157765
0
ARC
8
DEFAULT_255_2_778
10
14.7973588
20
25.9763783
40
0.4439397
50
89.8554796
51
141.1589213
0
ARC
8
DEFAULT_255_2_778
10
14.7984572
20
25.915443
40
0.5048737
50
88.7717605
51
89.9975792
0
ARC
8
DEFAULT_255_2_778
10
14.8178417
20
26.1043406
40
0.315976
50
50.4893295
51
91.5528058
0
ARC
8
DEFAULT_255_2_778
10
14.8339359
20
26.1387178
40
0.2793745
50
33.8414583
51
48.5499238
0
ARC
8
DEFAULT_255_2_778
10
14.731985
20
26.0798286
40
0.3969262
50
4.3932888
51
32.7062485
0
ARC
8
DEFAULT_255_2_778
10
14.4819065
20
26.0444301
40
0.6491822
50
359.8769204
51
5.8177478
0
ARC
8
DEFAULT_255_2_778
10
14.2701804
20
26.0453881
40
0.8609097
50
353.9399056
51
359.8434284
0
ARC
8
DEFAULT_255_2_778
10
14.4164047
20
26.0110967
40
0.3954956
50
352.2407688
51
359.7520116
0
ARC
8
DEFAULT_255_2_778
10
14.5201997
20
26.0099041
40
0.2916973
50
359.8980094
51
5.448398
0
ARC
8
DEFAULT_255_2_778
10
14.6814536
20
26.0270865
40
0.129553
50
4.6550554
51
97.2610773
0
ARC
8
DEFAULT_255_2_778
10
14.655996
20
25.9013531
40
0.2544097
50
87.9539208
51
89.9945997
0
ARC
8
DEFAULT_255_2_778
10
14.6629447
20
25.8857668
40
0.2700847
50
91.4691634
51
141.078713
0
ARC
8
DEFAULT_255_2_778
10
14.7966376
20
25.7439301
40
0.4639576
50
137.8219849
51
140.394746
0
ARC
8
DEFAULT_255_2_778
10
16.9661161
20
25.790711
40
1.026426
50
77.5141066
51
90.4821212
0
ARC
8
DEFAULT_255_2_778
10
17.0845798
20
26.2999611
40
0.5036389
50
52.814306
51
78.1469212
0
ARC
8
DEFAULT_255_2_778
10
17.1732245
20
26.4282438
40
0.3479303
50
357.5432245
51
51.6759047
0
ARC
8
DEFAULT_255_2_778
10
16.9814613
20
26.4136938
40
0.5393738
50
356.248244
51
359.9613012
0
ARC
8
DEFAULT_255_2_778
10
17.128092
20
26.4010882
40
0.3922439
50
295.0867564
51
356.6841236
0
ARC
8
DEFAULT_255_2_778
10
16.9599154
20
26.6638279
40
0.7026958
50
292.6018649
51
298.4245718
0
ARC
8
DEFAULT_255_2_778
10
17.1412835
20
25.751175
40
0.2784307
50
29.5992916
51
71.4243751
0
ARC
8
DEFAULT_255_2_778
10
17.0686219
20
25.7089727
40
0.3624559
50
358.8250622
51
29.7265593
0
ARC
8
DEFAULT_255_2_778
10
16.932071
20
25.7018262
40
0.4989307
50
356.3312443
51
359.9671937
0
ARC
8
DEFAULT_255_2_778
10
16.9581925
20
25.6830387
40
0.4719696
50
307.6792206
51
358.4048608
0
ARC
8
DEFAULT_255_2_778
10
16.8807048
20
25.8038643
40
0.6150877
50
279.1080464
51
306.5123219
0
ARC
8
DEFAULT_255_2_778
10
16.7961448
20
26.2259116
40
1.0453321
50
269.63465
51
280.0226117
0
ARC
8
DEFAULT_255_2_778
10
16.8094212
20
25.7910308
40
0.3407431
50
267.9747348
51
304.6141501
0
ARC
8
DEFAULT_255_2_778
10
16.8661516
20
25.7048067
40
0.2375665
50
305.166569
51
352.3059676
0
ARC
8
DEFAULT_255_2_778
10
16.775822
20
25.7258166
40
0.3300111
50
350.7906063
51
359.6837465
0
ARC
8
DEFAULT_255_2_778
10
16.9356152
20
25.7314465
40
0.170376
50
357.4933304
51
35.754963
0
ARC
8
DEFAULT_255_2_778
10
16.9423472
20
25.7171963
40
0.1739313
50
40.8670445
51
88.9145542
0
ARC
8
DEFAULT_255_2_778
10
16.9113357
20
25.5319792
40
0.360752
50
84.5431107
51
87.5464559
0
ARC
8
DEFAULT_255_2_778
10
16.8864523
20
26.5040688
40
0.3741259
50
268.9933192
51
299.9063201
0
ARC
8
DEFAULT_255_2_778
10
16.9296435
20
26.4112438
40
0.2722705
50
301.7671328
51
305.0688299
0
ARC
8
DEFAULT_255_2_778
10
16.9572403
20
26.3751463
40
0.2268776
50
304.6024496
51
352.3134516
0
ARC
8
DEFAULT_255_2_778
10
16.9035208
20
26.3858322
40
0.2815642
50
351.6205962
51
359.745937
0
ARC
8
DEFAULT_255_2_778
10
17.0391775
20
26.3919083
40
0.1460884
50
357.1260689
51
87.9509322
0
ARC
8
DEFAULT_255_2_778
10
16.9733166
20
26.1125677
40
0.4312349
50
80.5121161
51
90.1776895
0
ARC
8
DEFAULT_255_2_778
10
18.304359
20
25.4407308
40
0.6634375
50
79.3314563
51
88.7113465
0
ARC
8
DEFAULT_255_2_778
10
18.3079683
20
25.6741839
40
0.4299655
50
88.4925657
51
89.9946723
0
ARC
8
DEFAULT_255_2_778
10
18.2982438
20
25.7942608
40
0.3100425
50
88.1952228
51
143.885382
0
ARC
8
DEFAULT_255_2_778
10
18.4077805
20
26.0392129
40
0.3980768
50
117.0828142
51
147.9763761
0
ARC
8
DEFAULT_255_2_778
10
18.3544747
20
26.1225295
40
0.2997784
50
89.5977622
51
115.2613452
0
ARC
8
DEFAULT_255_2_778
10
18.3464621
20
25.9503482
40
0.4720608
50
75.0830674
51
88.7719532
0
ARC
8
DEFAULT_255_2_778
10
19.3883565
20
25.2675588
40
0.303463
50
178.9513385
51
196.6911244
0
ARC
8
DEFAULT_255_2_778
10
19.5567182
20
25.2729238
40
0.4717738
50
177.8405456
51
179.9770623
0
ARC
8
DEFAULT_255_2_778
10
18.7787325
20
25.5775947
40
0.4198561
50
270.5473861
51
316.8967404
0
ARC
8
DEFAULT_255_2_778
10
18.7827705
20
25.5879581
40
0.4302003
50
268.5226571
51
269.9964175
0
ARC
8
DEFAULT_255_2_778
10
18.7647216
20
25.5360252
40
0.3781887
50
226.455184
51
271.0541416
0
ARC
8
DEFAULT_255_2_778
10
18.7161161
20
25.4906869
40
0.311866
50
179.0506747
51
227.1894377
0
ARC
8
DEFAULT_255_2_778
10
18.7977006
20
25.4957683
40
0.3934079
50
177.4603384
51
179.9875271
0
ARC
8
DEFAULT_255_2_778
10
18.7677222
20
25.5117892
40
0.3630457
50
122.3464314
51
179.7772632
0
ARC
8
DEFAULT_255_2_778
10
18.9127921
20
25.2846577
40
0.6325515
50
98.6956815
51
122.4402135
0
ARC
8
DEFAULT_255_2_778
10
18.9977072
20
24.8296789
40
1.0952432
50
89.6404969
51
99.4883828
0
ARC
8
DEFAULT_255_2_778
10
18.91142
20
26.044956
40
0.2635833
50
349.2520325
51
359.7979352
0
ARC
8
DEFAULT_255_2_778
10
18.9485896
20
26.0441836
40
0.2264121
50
359.9602232
51
5.7075699
0
ARC
8
DEFAULT_255_2_778
10
19.0517084
20
26.0583244
40
0.1224577
50
3.9221136
51
47.9806675
0
ARC
8
DEFAULT_255_2_778
10
19.0461009
20
26.0409028
40
0.1393558
50
51.0640414
51
91.6537281
0
ARC
8
DEFAULT_255_2_778
10
19.0343864
20
25.9067856
40
0.2735232
50
88.3883484
51
89.9950272
0
ARC
8
DEFAULT_255_2_778
10
19.0289472
20
25.9846996
40
0.1956856
50
88.4002709
51
125.6558116
0
ARC
8
DEFAULT_255_2_778
10
19.0229477
20
26.0029867
40
0.1774238
50
127.5242925
51
170.6536699
0
ARC
8
DEFAULT_255_2_778
10
18.8789596
20
26.0167573
40
0.3527561
50
122.7014157
51
177.7346919
0
ARC
8
DEFAULT_255_2_778
10
19.030198
20
25.8117043
40
0.6072396
50
91.7146868
51
124.2570002
0
ARC
8
DEFAULT_255_2_778
10
19.05893
20
25.5548064
40
0.865138
50
89.9735854
51
93.1077226
0
ARC
8
DEFAULT_255_2_778
10
19.0592938
20
25.498256
40
0.9216883
50
89.4414218
51
89.9978259
0
ARC
8
DEFAULT_255_2_778
10
19.0704714
20
25.8997068
40
0.5201984
50
63.6868659
51
90.2414521
0
ARC
8
DEFAULT_255_2_778
10
19.1244671
20
26.0276249
40
0.3816898
50
44.805062
51
62.4405121
0
ARC
8
DEFAULT_255_2_778
10
19.1511934
20
26.0518957
40
0.3456276
50
358.4368244
51
45.0725574
0
ARC
8
DEFAULT_255_2_778
10
18.9988451
20
26.0432092
40
0.4978477
50
354.0151208
51
359.9146153
0
ARC
8
DEFAULT_255_2_778
10
19.916384
20
25.3209006
40
0.5223437
50
178.2666392
51
179.9853875
0
ARC
8
DEFAULT_255_2_778
10
19.7189724
20
25.3130635
40
0.3250299
50
178.5948625
51
200.018038
0
ARC
8
DEFAULT_255_2_778
10
18.8607749
20
25.7019835
40
0.2979407
50
268.1351457
51
269.9967975
0
ARC
8
DEFAULT_255_2_778
10
18.8555143
20
25.6994809
40
0.2954847
50
271.0168715
51
323.4470831
0
ARC
8
DEFAULT_255_2_778
10
19.0185177
20
25.3399003
40
0.3950093
50
89.6139406
51
115.9632081
0
ARC
8
DEFAULT_255_2_778
10
18.9568146
20
25.4810476
40
0.2411766
50
117.4642621
51
142.4598629
0
ARC
8
DEFAULT_255_2_778
10
18.9147894
20
25.5179762
40
0.1853888
50
143.595728
51
174.110017
0
ARC
8
DEFAULT_255_2_778
10
18.8922711
20
25.5124244
40
0.1637466
50
171.368069
51
179.7835889
0
ARC
8
DEFAULT_255_2_778
10
18.8267207
20
25.5093088
40
0.098266
50
177.8221965
51
224.0379617
0
ARC
8
DEFAULT_255_2_778
10
18.8464576
20
25.5343517
40
0.1299333
50
225.9269812
51
272.0384171
0
ARC
8
DEFAULT_255_2_778
10
20.216987
20
26.0694976
40
0.3515032
50
37.8132465
51
89.9360651
0
ARC
8
DEFAULT_255_2_778
10
20.0346749
20
25.5792418
40
0.4267183
50
285.291584
51
321.0175046
0
ARC
8
DEFAULT_255_2_778
10
20.0570669
20
25.5330225
40
0.3763475
50
269.8450062
51
283.8588709
0
ARC
8
DEFAULT_255_2_778
10
20.0560587
20
25.5657286
40
0.4090522
50
268.5880369
51
269.9986183
0
ARC
8
DEFAULT_255_2_778
10
20.0420305
20
25.5125487
40
0.3557701
50
236.3475668
51
270.6359501
0
ARC
8
DEFAULT_255_2_778
10
20.0598141
20
25.5240321
40
0.3752788
50
201.8435891
51
235.058908
0
ARC
8
DEFAULT_255_2_778
10
20.3322211
20
25.6430871
40
0.6724873
50
181.1917384
51
202.6233367
0
ARC
8
DEFAULT_255_2_778
10
20.6351677
20
25.6761339
40
0.9764219
50
180.0156472
51
182.7609519
0
ARC
8
DEFAULT_255_2_778
10
20.5470549
20
25.6767658
40
0.8883095
50
174.2087211
51
180.0579587
0
ARC
8
DEFAULT_255_2_778
10
20.6346038
20
25.6896468
40
0.9727968
50
152.6606942
51
172.4775279
0
ARC
8
DEFAULT_255_2_778
10
20.4685375
20
25.7641269
40
0.7911386
50
151.1967159
51
151.9287309
0
ARC
8
DEFAULT_255_2_778
10
20.2724416
20
25.8881657
40
0.559722
50
125.8155177
51
152.6517649
0
ARC
8
DEFAULT_255_2_778
10
20.1926864
20
25.9826789
40
0.4365104
50
121.2895022
51
124.5859333
0
ARC
8
DEFAULT_255_2_778
10
20.2005174
20
25.9683255
40
0.4528439
50
89.3885498
51
121.1930117
0
ARC
8
DEFAULT_255_2_778
10
20.205315
20
25.8865492
40
0.5345942
50
88.6747242
51
89.9962477
0
ARC
8
DEFAULT_255_2_778
10
21.0229427
20
25.6491181
40
1.044966
50
173.5557888
51
179.5636493
0
ARC
8
DEFAULT_255_2_778
10
20.5582157
20
25.656089
40
0.5802095
50
179.9025124
51
183.3187157
0
ARC
8
DEFAULT_255_2_778
10
20.270534
20
25.627149
40
0.2915917
50
180.9134286
51
207.6247443
0
ARC
8
DEFAULT_255_2_778
10
20.135005
20
25.5627881
40
0.1417894
50
209.9763709
51
272.172214
0
ARC
8
DEFAULT_255_2_778
10
20.1512082
20
25.6865383
40
0.2656585
50
267.6638236
51
269.9934853
0
ARC
8
DEFAULT_255_2_778
10
20.1452669
20
25.6903962
40
0.2695812
50
271.2564257
51
323.4819236
0
ARC
8
DEFAULT_255_2_778
10
20.0042443
20
25.8292425
40
0.4663623
50
320.0808185
51
322.7722781
0
ARC
8
DEFAULT_255_2_778
10
20.2905955
20
25.9755938
40
0.1811681
50
17.7085133
51
91.4917236
0
ARC
8
DEFAULT_255_2_778
10
20.2776466
20
25.8748302
40
0.2819906
50
88.3270304
51
89.9962875
0
ARC
8
DEFAULT_255_2_778
10
20.2751839
20
25.9229886
40
0.2338453
50
89.3920923
51
141.8934507
0
ARC
8
DEFAULT_255_2_778
10
20.4150372
20
25.8133724
40
0.411538
50
141.9009784
51
164.0634131
0
ARC
8
DEFAULT_255_2_778
10
20.9401614
20
25.6456385
40
0.9626867
50
163.0454941
51
172.7936709
0
LINE
8
DEFAULT_255_2_778
10
14.1790793
20
26.3977006
11
14.4788793
21
26.3988006
0
LINE
8
DEFAULT_255_2_778
10
14.4788793
20
26.3988006
11
14.4515793
21
26.2548006
0
LINE
8
DEFAULT_255_2_778
10
15.1262793
20
25.9545006
11
14.9968793
21
25.1806006
0
LINE
8
DEFAULT_255_2_778
10
14.9968793
20
25.1806006
11
14.6764793
21
25.1806006
0
LINE
8
DEFAULT_255_2_778
10
14.6764793
20
25.1806006
11
14.8082793
21
25.9577006
0
LINE
8
DEFAULT_255_2_778
10
14.4391793
20
26.0397006
11
14.2856793
21
25.1804006
0
LINE
8
DEFAULT_255_2_778
10
14.2856793
20
25.1804006
11
13.9652793
21
25.1804006
0
LINE
8
DEFAULT_255_2_778
10
13.9652793
20
25.1804006
11
14.1787793
21
26.3975006
0
LINE
8
DEFAULT_255_2_778
10
14.1787793
20
26.3975006
11
14.1790793
21
26.3977006
0
LINE
8
DEFAULT_255_2_778
10
16.0157793
20
26.0128006
11
15.9692793
21
25.7508006
0
LINE
8
DEFAULT_255_2_778
10
15.9692793
20
25.7508006
11
15.3466793
21
25.7508006
0
LINE
8
DEFAULT_255_2_778
10
15.3466793
20
25.7508006
11
15.3921793
21
26.0128006
0
LINE
8
DEFAULT_255_2_778
10
15.3921793
20
26.0128006
11
16.0157793
21
26.0128006
0
LINE
8
DEFAULT_255_2_778
10
16.0157793
20
26.0128006
11
16.0157793
21
26.0128006
0
LINE
8
DEFAULT_255_2_778
10
16.7894793
20
25.1806006
11
16.1544793
21
25.1806006
0
LINE
8
DEFAULT_255_2_778
10
16.1544793
20
25.1806006
11
16.4417793
21
26.8181006
0
LINE
8
DEFAULT_255_2_778
10
16.4417793
20
26.8181006
11
16.9574793
21
26.8171006
0
LINE
8
DEFAULT_255_2_778
10
16.7894793
20
25.1806006
11
16.7894793
21
25.1806006
0
LINE
8
DEFAULT_255_2_778
10
16.9267793
20
25.8926006
11
16.6131793
21
25.8937006
0
LINE
8
DEFAULT_255_2_778
10
16.6131793
20
25.8937006
11
16.5348793
21
25.4516006
0
LINE
8
DEFAULT_255_2_778
10
16.5348793
20
25.4516006
11
16.7973793
21
25.4505006
0
LINE
8
DEFAULT_255_2_778
10
16.9267793
20
25.8924006
11
16.9267793
21
25.8926006
0
LINE
8
DEFAULT_255_2_778
10
16.7267793
20
26.5451006
11
16.6539793
21
26.1323006
0
LINE
8
DEFAULT_255_2_778
10
16.6539793
20
26.1323006
11
16.8798793
21
26.1300006
0
LINE
8
DEFAULT_255_2_778
10
16.9719793
20
26.5438006
11
16.7267793
21
26.5448006
0
LINE
8
DEFAULT_255_2_778
10
16.7267793
20
26.5448006
11
16.7267793
21
26.5451006
0
LINE
8
DEFAULT_255_2_778
10
18.4681793
20
26.4065006
11
18.4271793
21
26.0927006
0
LINE
8
DEFAULT_255_2_778
10
18.0477793
20
25.9770006
11
17.9056793
21
25.1806006
0
LINE
8
DEFAULT_255_2_778
10
17.9056793
20
25.1806006
11
17.5852793
21
25.1806006
0
LINE
8
DEFAULT_255_2_778
10
17.5852793
20
25.1806006
11
17.7987793
21
26.3977006
0
LINE
8
DEFAULT_255_2_778
10
17.7987793
20
26.3977006
11
18.0998793
21
26.3988006
0
LINE
8
DEFAULT_255_2_778
10
18.0998793
20
26.3988006
11
18.0702793
21
26.2503006
0
LINE
8
DEFAULT_255_2_778
10
18.4679793
20
26.4065006
11
18.4681793
21
26.4065006
0
LINE
8
DEFAULT_255_2_778
10
19.4122793
20
25.1804006
11
19.0976793
21
25.1804006
0
LINE
8
DEFAULT_255_2_778
10
19.0045793
20
25.9249006
11
19.1545793
21
25.9228006
0
LINE
8
DEFAULT_255_2_778
10
19.1545793
20
25.9228006
11
19.1703793
21
25.9958006
0
LINE
8
DEFAULT_255_2_778
10
18.8478793
20
26.0318006
11
18.5264793
21
26.0307006
0
LINE
8
DEFAULT_255_2_778
10
19.4939793
20
25.9913006
11
19.3997793
21
25.4087006
0
LINE
8
DEFAULT_255_2_778
10
19.3997793
20
25.4087006
11
19.3942793
21
25.3367006
0
LINE
8
DEFAULT_255_2_778
10
19.4135793
20
25.2018006
11
19.4124793
21
25.1804006
0
LINE
8
DEFAULT_255_2_778
10
19.4124793
20
25.1804006
11
19.4122793
21
25.1804006
0
LINE
8
DEFAULT_255_2_778
10
19.0928793
20
25.5235006
11
19.1325793
21
25.7339006
0
LINE
8
DEFAULT_255_2_778
10
19.1325793
20
25.7339006
11
19.0211793
21
25.7349006
0
LINE
8
DEFAULT_255_2_778
10
18.8510793
20
25.4045006
11
18.8510793
21
25.4042006
0
LINE
8
DEFAULT_255_2_778
10
20.4946793
20
26.2850006
11
20.6150793
21
26.9081006
0
LINE
8
DEFAULT_255_2_778
10
20.6150793
20
26.9081006
11
20.9364793
21
26.9081006
0
LINE
8
DEFAULT_255_2_778
10
20.9364793
20
26.9081006
11
20.6343793
21
25.1804006
0
LINE
8
DEFAULT_255_2_778
10
20.6343793
20
25.1804006
11
20.3480793
21
25.1804006
0
LINE
8
DEFAULT_255_2_778
10
20.3480793
20
25.1804006
11
20.3663793
21
25.3108006
0
LINE
8
DEFAULT_255_2_778
10
19.6632793
20
25.7664006
11
19.6701793
21
25.8170006
0
LINE
8
DEFAULT_255_2_778
10
20.2176793
20
26.4210006
11
20.2173793
21
26.4210006
0
LINE
8
DEFAULT_255_2_778
10
20.3755793
20
25.5471006
11
20.4631793
21
26.0307006
0
LINE
8
DEFAULT_255_2_778
10
19.9850793
20
25.7664006
11
19.9845793
21
25.7664006
0
LINE
8
DEFAULT_255_2_778
10
21.5304594
20
26.9081646
11
21.2282594
21
25.1804646
0
LINE
8
DEFAULT_255_2_778
10
21.2282594
20
25.1804646
11
20.9057594
21
25.1804646
0
LINE
8
DEFAULT_255_2_778
10
20.9057594
20
25.1804646
11
21.2089594
21
26.9081646
0
LINE
8
DEFAULT_255_2_778
10
21.2089594
20
26.9081646
11
21.5304594
21
26.9081646
0
LINE
8
DEFAULT_255_2_778
10
21.5304594
20
26.9081646
11
21.5304594
21
26.9081646
0
ARC
8
DEFAULT_255_2_778
10
22.0768767
20
25.6962764
40
0.5383522
50
238.763891
51
270.7055166
0
ARC
8
DEFAULT_255_2_778
10
22.0455625
20
25.640952
40
0.4748131
50
204.061185
51
238.5328679
0
ARC
8
DEFAULT_255_2_778
10
22.1281681
20
25.6805331
40
0.5663841
50
179.4896096
51
204.3103027
0
ARC
8
DEFAULT_255_2_778
10
22.2521843
20
25.6850727
40
0.6903781
50
175.123126
51
179.9580366
0
ARC
8
DEFAULT_255_2_778
10
22.3438479
20
25.7200152
40
0.7790728
50
149.5392097
51
174.9446897
0
ARC
8
DEFAULT_255_2_778
10
22.217984
20
25.8035212
40
0.628301
50
120.7003982
51
150.2846053
0
ARC
8
DEFAULT_255_2_778
10
22.1784851
20
25.8632024
40
0.556829
50
89.4236852
51
120.3409826
0
ARC
8
DEFAULT_255_2_778
10
22.1840352
20
25.7644671
40
0.6555361
50
88.4553682
51
89.9955718
0
ARC
8
DEFAULT_255_2_778
10
22.2069363
20
25.9486369
40
0.4711572
50
58.4514404
51
90.636095
0
ARC
8
DEFAULT_255_2_778
10
22.2332403
20
26.0120423
40
0.403504
50
35.6058989
51
56.9235594
0
ARC
8
DEFAULT_255_2_778
10
22.1229882
20
25.9382058
40
0.5361477
50
0.6851965
51
35.1616077
0
ARC
8
DEFAULT_255_2_778
10
21.9204313
20
25.9178229
40
0.7391521
50
359.9888194
51
2.0774415
0
ARC
8
DEFAULT_255_2_778
10
21.8068025
20
25.9195249
40
0.852783
50
353.383538
51
359.8759623
0
ARC
8
DEFAULT_255_2_778
10
22.293021
20
25.6671119
40
0.4107176
50
177.8018731
51
179.9839782
0
ARC
8
DEFAULT_255_2_778
10
22.1344217
20
25.655624
40
0.2523852
50
177.3650374
51
219.8309448
0
ARC
8
DEFAULT_255_2_778
10
22.1050068
20
25.6423401
40
0.2214564
50
222.0668323
51
271.55222
0
ARC
8
DEFAULT_255_2_778
10
22.1220002
20
25.8471289
40
0.4263057
50
268.5221572
51
269.9980687
0
ARC
8
DEFAULT_255_2_778
10
22.1204001
20
25.8175217
40
0.3967017
50
270.2290309
51
318.5203973
0
ARC
8
DEFAULT_255_2_778
10
22.1898056
20
25.6342979
40
0.4555006
50
292.4982989
51
325.2807674
0
ARC
8
DEFAULT_255_2_778
10
22.0999907
20
25.8128545
40
0.6549996
50
269.6158853
51
293.7802026
0
ARC
8
DEFAULT_255_2_778
10
22.0956026
20
25.899733
40
0.7418635
50
269.0811303
51
269.9997673
0
ARC
8
DEFAULT_255_2_778
10
22.1793249
20
25.8926977
40
0.2651417
50
88.6426435
51
89.9971979
0
ARC
8
DEFAULT_255_2_778
10
22.1775009
20
25.9279788
40
0.2298681
50
89.5421073
51
130.5025885
0
ARC
8
DEFAULT_255_2_778
10
22.2762398
20
25.8278327
40
0.370282
50
132.0556576
51
154.4346079
0
ARC
8
DEFAULT_255_2_778
10
22.6775288
20
25.6102869
40
0.8264843
50
152.8348001
51
159.2008974
0
ARC
8
DEFAULT_255_2_778
10
22.042515
20
25.9812268
40
0.3137404
50
351.1327381
51
359.8552777
0
ARC
8
DEFAULT_255_2_778
10
22.0889744
20
25.9808274
40
0.2672803
50
359.9157472
51
8.073482
0
ARC
8
DEFAULT_255_2_778
10
22.1916726
20
25.9961276
40
0.1634528
50
7.8192239
51
49.4174523
0
ARC
8
DEFAULT_255_2_778
10
22.1897336
20
25.9829377
40
0.174876
50
51.746929
51
91.3525911
0
LINE
8
DEFAULT_255_2_778
10
21.5643056
20
25.743765
11
21.5678056
21
25.788665
0
LINE
8
DEFAULT_255_2_778
10
22.6539056
20
25.821265
11
22.6356056
21
25.682865
0
LINE
8
DEFAULT_255_2_778
10
22.6356056
20
25.682865
11
21.8826056
21
25.682865
0
LINE
8
DEFAULT_255_2_778
10
22.4176056
20
25.554765
11
22.5642056
21
25.374865
0
LINE
8
DEFAULT_255_2_778
10
22.0837056
20
25.157965
11
22.0835056
21
25.157965
0
LINE
8
DEFAULT_255_2_778
10
21.9049056
20
25.903765
11
22.3456056
21
25.903765
0
LINE
8
DEFAULT_255_2_778
10
22.3456056
20
25.903765
11
22.3525056
21
25.932865
0
LINE
8
DEFAULT_255_2_778
10
22.1856056
20
26.157765
11
22.1856056
21
26.157765
0
ARC
8
DEFAULT_255_2_778
10
22.5732251
20
25.2968848
40
0.7187609
50
318.1171527
51
335.3457065
0
ARC
8
DEFAULT_255_2_778
10
22.7861338
20
25.1147586
40
0.4387075
50
306.2044829
51
317.2623563
0
ARC
8
DEFAULT_255_2_778
10
22.8118587
20
25.0840063
40
0.3987066
50
269.0092455
51
305.8318035
0
ARC
8
DEFAULT_255_2_778
10
22.8209703
20
25.2486254
40
0.5634934
50
257.9736769
51
268.3723286
0
ARC
8
DEFAULT_255_2_778
10
22.976467
20
26.1028273
40
1.431581
50
256.8370098
51
259.0102636
0
ARC
8
DEFAULT_255_2_778
10
22.7299218
20
25.350881
40
0.396887
50
268.3457775
51
269.9906226
0
ARC
8
DEFAULT_255_2_778
10
22.744688
20
25.1914479
40
0.2379166
50
266.425992
51
328.6474802
0
LINE
8
DEFAULT_255_2_778
10
23.1491646
20
26.3974594
11
23.2378646
21
25.6439594
0
LINE
8
DEFAULT_255_2_778
10
23.2378646
20
25.6439594
11
23.5889646
21
26.3974594
0
LINE
8
DEFAULT_255_2_778
10
23.5889646
20
26.3974594
11
23.9453646
21
26.3974594
0
LINE
8
DEFAULT_255_2_778
10
23.9453646
20
26.3974594
11
23.2264646
21
24.9970594
0
LINE
8
DEFAULT_255_2_778
10
22.6504646
20
24.7088594
11
22.6742646
21
24.9562594
0
LINE
8
DEFAULT_255_2_778
10
22.6742646
20
24.9562594
11
22.7184646
21
24.9541594
0
LINE
8
DEFAULT_255_2_778
10
22.9478646
20
25.0676594
11
23.0182646
21
25.1970594
0
LINE
8
DEFAULT_255_2_778
10
23.0182646
20
25.1970594
11
22.8171646
21
26.3971594
0
LINE
8
DEFAULT_255_2_778
10
22.8171646
20
26.3971594
11
23.1489646
21
26.3971594
0
LINE
8
DEFAULT_255_2_778
10
23.1489646
20
26.3971594
11
23.1491646
21
26.3974594
0
LINE
8
DEFAULT_255_2_778
10
5.4244542
20
26.7969666
11
5.4244542
21
25.6116666
0
LINE
8
DEFAULT_255_2_778
10
5.4244542
20
25.6116666
11
8.3507542
21
25.5746666
0
LINE
8
DEFAULT_255_2_778
10
8.3507542
20
25.5746666
11
8.3507542
21
26.7969666
0
LINE
8
DEFAULT_255_2_778
10
8.3507542
20
26.7969666
11
7.4246542
21
27.6489666
0
LINE
8
DEFAULT_255_2_778
10
7.4246542
20
27.6489666
11
6.2764542
21
27.6489666
0
LINE
8
DEFAULT_255_2_778
10
6.2764542
20
27.6489666
11
5.4244542
21
26.7969666
0
LINE
8
DEFAULT_255_2_778
10
5.5726542
20
25.3894666
11
8.2025542
21
25.3894666
0
LINE
8
DEFAULT_255_2_778
10
8.2025542
20
25.3894666
11
7.4617542
21
24.6856666
0
LINE
8
DEFAULT_255_2_778
10
7.4617542
20
24.6856666
11
6.3504542
21
24.6856666
0
LINE
8
DEFAULT_255_2_778
10
6.3504542
20
24.6856666
11
5.5726542
21
25.3894666
0
ARC
8
DEFAULT_255_2_778
10
7.8458226
20
25.9385768
40
0.1423419
50
264.5115721
51
318.4176283
0
ARC
8
DEFAULT_255_2_778
10
7.8189879
20
25.9356225
40
0.1616977
50
325.5297452
51
3.3557414
0
ARC
8
DEFAULT_255_2_778
10
7.8389795
20
26.2921157
40
0.142084
50
354.4959081
51
48.5537602
0
ARC
8
DEFAULT_255_2_778
10
7.8416444
20
26.2649068
40
0.1619557
50
55.6500697
51
93.3401169
0
ARC
8
DEFAULT_255_2_778
10
7.8414709
20
26.491425
40
0.0654958
50
261.8698976
51
8.1301024
0
ARC
8
DEFAULT_255_2_778
10
7.7988672
20
26.8741455
40
0.1074847
50
358.3696885
51
95.9524071
0
ARC
8
DEFAULT_255_2_778
10
7.7588839
20
26.6457916
40
0.3364968
50
85.0838783
51
90.1320543
0
LINE
8
DEFAULT_255_2_778
10
5.6838084
20
25.7968875
11
6.1283084
21
27.0192875
0
LINE
8
DEFAULT_255_2_778
10
6.1283084
20
27.0192875
11
6.3876084
21
27.0192875
0
LINE
8
DEFAULT_255_2_778
10
6.3876084
20
27.0192875
11
6.8691084
21
25.8339875
0
LINE
8
DEFAULT_255_2_778
10
6.8691084
20
25.8339875
11
6.5358084
21
25.8339875
0
LINE
8
DEFAULT_255_2_778
10
6.5358084
20
25.8339875
11
6.4246084
21
26.0932875
0
LINE
8
DEFAULT_255_2_778
10
6.4246084
20
26.0932875
11
6.0913084
21
26.0932875
0
LINE
8
DEFAULT_255_2_778
10
6.0913084
20
26.0932875
11
6.0913084
21
26.2413875
0
LINE
8
DEFAULT_255_2_778
10
6.0913084
20
26.2413875
11
6.3876084
21
26.2413875
0
LINE
8
DEFAULT_255_2_778
10
6.3876084
20
26.2413875
11
6.2024084
21
26.6858875
0
LINE
8
DEFAULT_255_2_778
10
6.2024084
20
26.6858875
11
5.8690084
21
25.7968875
0
LINE
8
DEFAULT_255_2_778
10
5.8690084
20
25.7968875
11
5.6838084
21
25.7968875
0
LINE
8
DEFAULT_255_2_778
10
5.6838084
20
25.7968875
11
5.6838084
21
25.7968875
0
LINE
8
DEFAULT_255_2_778
10
6.7580084
20
26.4636875
11
6.9062084
21
26.4636875
0
LINE
8
DEFAULT_255_2_778
10
6.9062084
20
26.4636875
11
6.9062084
21
26.3154875
0
LINE
8
DEFAULT_255_2_778
10
6.9062084
20
26.3154875
11
6.7580084
21
26.3154875
0
LINE
8
DEFAULT_255_2_778
10
6.7580084
20
26.3154875
11
6.7580084
21
26.4636875
0
LINE
8
DEFAULT_255_2_778
10
7.2766084
20
26.7970875
11
7.6100084
21
26.7970875
0
LINE
8
DEFAULT_255_2_778
10
7.6100084
20
26.7970875
11
7.6100084
21
26.4265875
0
LINE
8
DEFAULT_255_2_778
10
7.6100084
20
26.4265875
11
7.3507084
21
26.4265875
0
LINE
8
DEFAULT_255_2_778
10
7.3507084
20
26.4265875
11
7.3507084
21
26.2784875
0
LINE
8
DEFAULT_255_2_778
10
7.3507084
20
26.2784875
11
7.6840084
21
26.2784875
0
LINE
8
DEFAULT_255_2_778
10
7.6840084
20
26.2784875
11
7.6840084
21
25.9450875
0
LINE
8
DEFAULT_255_2_778
10
7.6840084
20
25.9450875
11
7.2766084
21
25.9450875
0
LINE
8
DEFAULT_255_2_778
10
7.2766084
20
25.9450875
11
7.2766084
21
26.7970875
0
LINE
8
DEFAULT_255_2_778
10
7.2766084
20
26.7970875
11
7.2766084
21
26.7970875
0
LINE
8
DEFAULT_255_2_778
10
6.9803084
20
26.9822875
11
6.9803084
21
25.7968875
0
LINE
8
DEFAULT_255_2_778
10
6.9803084
20
25.7968875
11
7.8322084
21
25.7968875
0
LINE
8
DEFAULT_255_2_778
10
7.9804084
20
25.9450875
11
7.9804084
21
26.2784875
0
LINE
8
DEFAULT_255_2_778
10
7.9063084
20
26.5006875
11
7.9063084
21
26.8710875
0
LINE
8
DEFAULT_255_2_778
10
7.7581084
20
26.9822875
11
6.9803084
21
26.9822875
0
LINE
8
DEFAULT_255_2_778
10
6.9803084
20
26.9822875
11
6.9803084
21
26.9822875
0
LINE
8
DEFAULT_255_2_778
10
6.3394427
20
25.0065198
11
6.3367427
21
25.0065198
0
ARC
8
DEFAULT_255_2_778
10
6.3340483
20
25.1315854
40
0.1250946
50
247.1356448
51
271.2341787
0
ARC
8
DEFAULT_255_2_778
10
6.3160916
20
25.0892164
40
0.0790776
50
215.0349981
51
247.1960091
0
ARC
8
DEFAULT_255_2_778
10
6.3109464
20
25.0838964
40
0.0718243
50
178.625123
51
213.9163394
0
ARC
8
DEFAULT_255_2_778
10
6.3131693
20
25.2009391
40
0.0740421
50
147.0420611
51
181.175799
0
ARC
8
DEFAULT_255_2_778
10
6.3147919
20
25.1970628
40
0.0775487
50
112.4780918
51
145.2909011
0
ARC
8
DEFAULT_255_2_778
10
6.333917
20
25.1526534
40
0.1258981
50
88.7138988
51
112.7934617
0
ARC
8
DEFAULT_255_2_778
10
6.339481
20
25.1531878
40
0.1253619
50
67.159311
51
91.2516049
0
ARC
8
DEFAULT_255_2_778
10
6.3569794
20
25.1951852
40
0.0798654
50
35.1978461
51
67.0331611
0
ARC
8
DEFAULT_255_2_778
10
6.3626391
20
25.2011431
40
0.0718243
50
358.625123
51
33.9163394
0
ARC
8
DEFAULT_255_2_778
10
6.3604162
20
25.0841004
40
0.0740421
50
327.0420611
51
1.175799
0
ARC
8
DEFAULT_255_2_778
10
6.361381
20
25.0853218
40
0.0739133
50
291.6436853
51
325.8406333
0
ARC
8
DEFAULT_255_2_778
10
6.3401809
20
25.094374
40
0.0482768
50
265.9160158
51
308.3617549
0
ARC
8
DEFAULT_255_2_778
10
6.3451719
20
25.0833207
40
0.036631
50
312.9754563
51
3.2850623
0
ARC
8
DEFAULT_255_2_778
10
6.3448152
20
25.201002
40
0.0369754
50
357.082104
51
47.4006092
0
ARC
8
DEFAULT_255_2_778
10
6.339634
20
25.1908686
40
0.0480383
50
51.0349629
51
93.4505724
0
ARC
8
DEFAULT_255_2_778
10
6.3340455
20
25.190549
40
0.0483461
50
86.8017862
51
128.8135095
0
ARC
8
DEFAULT_255_2_778
10
6.3287702
20
25.201002
40
0.0369754
50
132.5993908
51
182.917896
0
ARC
8
DEFAULT_255_2_778
10
6.3284135
20
25.0833207
40
0.036631
50
176.7149377
51
227.0245437
0
ARC
8
DEFAULT_255_2_778
10
6.3334908
20
25.094686
40
0.0485752
50
231.7867693
51
273.8385805
0
ARC
8
DEFAULT_255_2_778
10
6.5570034
20
25.0830567
40
0.0766655
50
226.2029837
51
273.3195937
0
ARC
8
DEFAULT_255_2_778
10
6.5622798
20
25.0810746
40
0.0790566
50
176.8492311
51
222.4458356
0
ARC
8
DEFAULT_255_2_778
10
6.5699928
20
25.0829647
40
0.043631
50
176.5112098
51
217.639275
0
ARC
8
DEFAULT_255_2_778
10
6.5593879
20
25.0778664
40
0.0322122
50
221.9818643
51
273.6574471
0
ARC
8
DEFAULT_255_2_778
10
6.5632217
20
25.0783151
40
0.0326438
50
266.8760675
51
317.6392064
0
ARC
8
DEFAULT_255_2_778
10
6.5527926
20
25.0829647
40
0.043631
50
322.360725
51
3.4887902
0
ARC
8
DEFAULT_255_2_778
10
6.5605056
20
25.0810746
40
0.0790566
50
317.5541644
51
3.1507689
0
ARC
8
DEFAULT_255_2_778
10
6.5656687
20
25.0833223
40
0.0769357
50
266.6274163
51
313.7210327
0
LINE
8
DEFAULT_255_2_778
10
6.4394427
20
24.9449198
11
6.3828427
21
24.9449198
0
LINE
8
DEFAULT_255_2_778
10
6.3828427
20
24.9449198
11
6.3394427
21
25.0065198
0
LINE
8
DEFAULT_255_2_778
10
6.2391427
20
25.0856198
11
6.2391427
21
25.1994198
0
LINE
8
DEFAULT_255_2_778
10
6.4344427
20
25.1994198
11
6.4344427
21
25.0856198
0
LINE
8
DEFAULT_255_2_778
10
6.3886427
20
25.0166198
11
6.4394427
21
24.9451198
0
LINE
8
DEFAULT_255_2_778
10
6.4394427
20
24.9451198
11
6.4394427
21
24.9449198
0
LINE
8
DEFAULT_255_2_778
10
6.3817427
20
25.0854198
11
6.3817427
21
25.1991198
0
LINE
8
DEFAULT_255_2_778
10
6.2918427
20
25.1991198
11
6.2918427
21
25.0854198
0
LINE
8
DEFAULT_255_2_778
10
6.3367427
20
25.0462198
11
6.3367427
21
25.0462198
0
LINE
8
DEFAULT_255_2_778
10
6.4833427
20
25.0854198
11
6.4833427
21
25.2745198
0
LINE
8
DEFAULT_255_2_778
10
6.4833427
20
25.2745198
11
6.5264427
21
25.2745198
0
LINE
8
DEFAULT_255_2_778
10
6.5264427
20
25.2745198
11
6.5264427
21
25.0856198
0
LINE
8
DEFAULT_255_2_778
10
6.5963427
20
25.0856198
11
6.5963427
21
25.2745198
0
LINE
8
DEFAULT_255_2_778
10
6.5963427
20
25.2745198
11
6.6394427
21
25.2745198
0
LINE
8
DEFAULT_255_2_778
10
6.6394427
20
25.2745198
11
6.6394427
21
25.0854198
0
LINE
8
DEFAULT_255_2_778
10
6.5611427
20
25.0065198
11
6.5614427
21
25.0065198
0
ARC
8
DEFAULT_255_2_778
10
12.1641553
20
26.3096635
40
5.5033955
50
191.4837585
51
191.8239227
0
ARC
8
DEFAULT_255_2_778
10
8.3589245
20
25.5058972
40
1.6145995
50
189.6626565
51
190.4158531
0
ARC
8
DEFAULT_255_2_778
10
6.1197449
20
25.3387409
40
0.6557616
50
349.0334606
51
350.8880298
0
ARC
8
DEFAULT_255_2_778
10
6.0674183
20
25.3423866
40
0.7078549
50
346.9283592
51
349.5494987
0
ARC
8
DEFAULT_255_2_778
10
7.2958769
20
25.1115243
40
0.1856762
50
15.5793022
51
22.5708948
0
ARC
8
DEFAULT_255_2_778
10
7.3328007
20
25.1163058
40
0.1489195
50
11.1061152
51
17.6230497
0
ARC
8
DEFAULT_255_2_778
10
8.063214
20
25.0005593
40
0.6018696
50
164.5010167
51
166.1150622
0
ARC
8
DEFAULT_255_2_778
10
7.6620856
20
25.1115243
40
0.1856762
50
157.4291052
51
164.4206978
0
LINE
8
DEFAULT_255_2_778
10
6.7201313
20
25.0099917
11
6.6762313
21
25.0099917
0
LINE
8
DEFAULT_255_2_778
10
6.6762313
20
25.0099917
11
6.7392313
21
25.2745917
0
LINE
8
DEFAULT_255_2_778
10
6.7392313
20
25.2745917
11
6.7942313
21
25.2745917
0
LINE
8
DEFAULT_255_2_778
10
6.7942313
20
25.2745917
11
6.8577313
21
25.0099917
0
LINE
8
DEFAULT_255_2_778
10
6.8577313
20
25.0099917
11
6.8138313
21
25.0099917
0
LINE
8
DEFAULT_255_2_778
10
6.8138313
20
25.0099917
11
6.8000313
21
25.0739917
0
LINE
8
DEFAULT_255_2_778
10
6.8000313
20
25.0739917
11
6.7336313
21
25.0739917
0
LINE
8
DEFAULT_255_2_778
10
6.7336313
20
25.0739917
11
6.7199313
21
25.0099917
0
LINE
8
DEFAULT_255_2_778
10
6.7199313
20
25.0099917
11
6.7201313
21
25.0099917
0
LINE
8
DEFAULT_255_2_778
10
6.7569313
20
25.1824917
11
6.7418313
21
25.1110917
0
LINE
8
DEFAULT_255_2_778
10
6.7418313
20
25.1110917
11
6.7926313
21
25.1110917
0
LINE
8
DEFAULT_255_2_778
10
6.7926313
20
25.1110917
11
6.7775313
21
25.1819917
0
LINE
8
DEFAULT_255_2_778
10
6.7569313
20
25.1822917
11
6.7569313
21
25.1824917
0
LINE
8
DEFAULT_255_2_778
10
7.0231313
20
25.0099917
11
6.8741313
21
25.0099917
0
LINE
8
DEFAULT_255_2_778
10
6.8741313
20
25.0099917
11
6.8741313
21
25.2745917
0
LINE
8
DEFAULT_255_2_778
10
6.8741313
20
25.2745917
11
6.9170313
21
25.2745917
0
LINE
8
DEFAULT_255_2_778
10
6.9170313
20
25.2745917
11
6.9170313
21
25.0509917
0
LINE
8
DEFAULT_255_2_778
10
6.9170313
20
25.0509917
11
7.0231313
21
25.0509917
0
LINE
8
DEFAULT_255_2_778
10
7.0231313
20
25.0509917
11
7.0231313
21
25.0099917
0
LINE
8
DEFAULT_255_2_778
10
7.0231313
20
25.0099917
11
7.0231313
21
25.0099917
0
LINE
8
DEFAULT_255_2_778
10
7.1760313
20
25.0099917
11
7.0321313
21
25.0099917
0
LINE
8
DEFAULT_255_2_778
10
7.0321313
20
25.0099917
11
7.0321313
21
25.0509917
0
LINE
8
DEFAULT_255_2_778
10
7.0321313
20
25.0509917
11
7.0823313
21
25.0509917
0
LINE
8
DEFAULT_255_2_778
10
7.0823313
20
25.0509917
11
7.0823313
21
25.2335917
0
LINE
8
DEFAULT_255_2_778
10
7.0823313
20
25.2335917
11
7.0321313
21
25.2335917
0
LINE
8
DEFAULT_255_2_778
10
7.0321313
20
25.2335917
11
7.0321313
21
25.2745917
0
LINE
8
DEFAULT_255_2_778
10
7.0321313
20
25.2745917
11
7.1760313
21
25.2745917
0
LINE
8
DEFAULT_255_2_778
10
7.1760313
20
25.2745917
11
7.1760313
21
25.2335917
0
LINE
8
DEFAULT_255_2_778
10
7.1760313
20
25.2335917
11
7.1257313
21
25.2335917
0
LINE
8
DEFAULT_255_2_778
10
7.1257313
20
25.2335917
11
7.1257313
21
25.0509917
0
LINE
8
DEFAULT_255_2_778
10
7.1257313
20
25.0509917
11
7.1760313
21
25.0509917
0
LINE
8
DEFAULT_255_2_778
10
7.1760313
20
25.0509917
11
7.1760313
21
25.0099917
0
LINE
8
DEFAULT_255_2_778
10
7.1760313
20
25.0099917
11
7.1760313
21
25.0099917
0
LINE
8
DEFAULT_255_2_778
10
7.2940313
20
25.0099917
11
7.2509313
21
25.0099917
0
LINE
8
DEFAULT_255_2_778
10
7.2509313
20
25.0099917
11
7.2509313
21
25.2335917
0
LINE
8
DEFAULT_255_2_778
10
7.2509313
20
25.2335917
11
7.1855313
21
25.2335917
0
LINE
8
DEFAULT_255_2_778
10
7.1855313
20
25.2335917
11
7.1855313
21
25.2745917
0
LINE
8
DEFAULT_255_2_778
10
7.1855313
20
25.2745917
11
7.3596313
21
25.2745917
0
LINE
8
DEFAULT_255_2_778
10
7.3596313
20
25.2745917
11
7.3596313
21
25.2335917
0
LINE
8
DEFAULT_255_2_778
10
7.3596313
20
25.2335917
11
7.2943313
21
25.2335917
0
LINE
8
DEFAULT_255_2_778
10
7.2943313
20
25.2335917
11
7.2943313
21
25.0099917
0
LINE
8
DEFAULT_255_2_778
10
7.2943313
20
25.0099917
11
7.2940313
21
25.0099917
0
LINE
8
DEFAULT_255_2_778
10
7.4996313
20
25.0099917
11
7.4565313
21
25.0099917
0
LINE
8
DEFAULT_255_2_778
10
7.4565313
20
25.0099917
11
7.4565313
21
25.1060917
0
LINE
8
DEFAULT_255_2_778
10
7.4565313
20
25.1060917
11
7.3832313
21
25.2745917
0
LINE
8
DEFAULT_255_2_778
10
7.3832313
20
25.2745917
11
7.4281313
21
25.2745917
0
LINE
8
DEFAULT_255_2_778
10
7.4281313
20
25.2745917
11
7.4673313
21
25.1827917
0
LINE
8
DEFAULT_255_2_778
10
7.4906313
20
25.1827917
11
7.5287313
21
25.2745917
0
LINE
8
DEFAULT_255_2_778
10
7.5287313
20
25.2745917
11
7.5731313
21
25.2745917
0
LINE
8
DEFAULT_255_2_778
10
7.5731313
20
25.2745917
11
7.4998313
21
25.1060917
0
LINE
8
DEFAULT_255_2_778
10
7.4998313
20
25.1060917
11
7.4998313
21
25.0099917
0
LINE
8
DEFAULT_255_2_778
10
7.4998313
20
25.0099917
11
7.4996313
21
25.0099917
0
LINE
8
DEFAULT_255_1_388
10
7.568032
20
22.9287468
11
7.7424199
21
22.9287468
0
LINE
8
DEFAULT_255_1_388
10
6.7295242
20
23.1076525
11
6.7295242
21
23.2341516
0
LINE
8
DEFAULT_255_1_388
10
7.7424199
20
23.4040217
11
7.568032
21
23.4040217
0
LINE
8
DEFAULT_255_1_388
10
6.9039121
20
23.2296337
11
6.9039121
21
23.1022312
0
ARC
8
DEFAULT_255_1_388
10
7.1258433
20
22.9959329
40
0.6202263
50
340.1774904
51
353.7812217
0
ARC
8
DEFAULT_255_1_388
10
7.3026286
20
22.9300893
40
0.4315926
50
311.4560052
51
340.4420756
0
ARC
8
DEFAULT_255_1_388
10
7.2988826
20
22.9425665
40
0.4434573
50
282.4332229
51
310.7514507
0
ARC
8
DEFAULT_255_1_388
10
7.2494644
20
23.1467703
40
0.6535262
50
269.9358869
51
282.8096729
0
ARC
8
DEFAULT_255_1_388
10
7.2436583
20
23.2980329
40
0.8048043
50
269.9995752
51
270.3612856
0
ARC
8
DEFAULT_255_1_388
10
7.2377073
20
23.0181781
40
0.5249831
50
250.7885263
51
270.6488451
0
ARC
8
DEFAULT_255_1_388
10
7.2187898
20
22.9464853
40
0.4510942
50
219.3628377
51
250.0611024
0
ARC
8
DEFAULT_255_1_388
10
7.3120772
20
23.0257653
40
0.5735046
50
193.5480293
51
219.5755675
0
ARC
8
DEFAULT_255_1_388
10
7.5788981
20
23.095052
40
0.849146
50
181.1220183
51
193.8754971
0
ARC
8
DEFAULT_255_1_388
10
7.8112214
20
23.1074914
40
1.0816971
50
179.9914644
51
181.5398227
0
ARC
8
DEFAULT_255_1_388
10
7.6035525
20
23.2383586
40
0.8740384
50
169.5837606
51
180.275782
0
ARC
8
DEFAULT_255_1_388
10
7.3968873
20
23.2765439
40
0.6638751
50
155.0367033
51
169.6002779
0
ARC
8
DEFAULT_255_1_388
10
7.2691331
20
23.3381336
40
0.5220662
50
136.7831557
51
155.2472983
0
ARC
8
DEFAULT_255_1_388
10
7.2253122
20
23.3753577
40
0.4646502
50
121.7633063
51
136.4281161
0
ARC
8
DEFAULT_255_1_388
10
7.2404962
20
23.3473049
40
0.4964979
50
95.6460018
51
121.5489589
0
ARC
8
DEFAULT_255_1_388
10
7.2581936
20
23.2225704
40
0.6223912
50
89.9245727
51
96.1375919
0
ARC
8
DEFAULT_255_1_388
10
7.2638641
20
23.2359721
40
0.6090084
50
76.6779212
51
90.456405
0
ARC
8
DEFAULT_255_1_388
10
7.3081454
20
23.414906
40
0.42469
50
47.4858803
51
76.9287069
0
ARC
8
DEFAULT_255_1_388
10
7.2916068
20
23.4036623
40
0.4441778
50
16.5424081
51
46.8934505
0
ARC
8
DEFAULT_255_1_388
10
7.1107118
20
23.3442265
40
0.6345318
50
5.4072971
51
17.0363711
0
ARC
8
DEFAULT_255_1_388
10
6.9488843
20
23.3182304
40
0.6250632
50
7.8888693
51
15.9242022
0
ARC
8
DEFAULT_255_1_388
10
7.1723828
20
23.3831309
40
0.3923364
50
15.7650676
51
27.9410069
0
ARC
8
DEFAULT_255_1_388
10
7.2965997
20
23.4496317
40
0.2514401
50
27.8167196
51
46.4007942
0
ARC
8
DEFAULT_255_1_388
10
7.3021839
20
23.4489882
40
0.2480958
50
47.4372362
51
75.0695672
0
ARC
8
DEFAULT_255_1_388
10
7.2674675
20
23.3281277
40
0.3738281
50
74.7009379
51
87.8124314
0
ARC
8
DEFAULT_255_1_388
10
7.2592292
20
23.2097659
40
0.4924321
50
87.3802571
51
90.0251599
0
ARC
8
DEFAULT_255_1_388
10
7.2548939
20
23.3417997
40
0.3604218
50
89.3451886
51
108.5744412
0
ARC
8
DEFAULT_255_1_388
10
7.2394931
20
23.3995836
40
0.3007661
50
109.2998307
51
143.3037387
0
ARC
8
DEFAULT_255_1_388
10
7.3252221
20
23.3336584
40
0.4089031
50
143.075267
51
163.1918576
0
ARC
8
DEFAULT_255_1_388
10
7.5448055
20
23.2643652
40
0.6391492
50
162.9375929
51
174.6208776
0
ARC
8
DEFAULT_255_1_388
10
7.8402437
20
23.2319711
40
0.9363344
50
174.342123
51
180.1430283
0
ARC
8
DEFAULT_255_1_388
10
7.7354978
20
23.0976117
40
0.8315986
50
179.6817261
51
189.150555
0
ARC
8
DEFAULT_255_1_388
10
7.4541727
20
23.0507559
40
0.5464044
50
188.9911061
51
203.5772363
0
ARC
8
DEFAULT_255_1_388
10
7.3327019
20
23.0003539
40
0.4149206
50
203.9075402
51
215.1312435
0
ARC
8
DEFAULT_255_1_388
10
7.2288817
20
22.9198907
40
0.2837747
50
213.9071511
51
263.8848919
0
ARC
8
DEFAULT_255_1_388
10
7.242981
20
23.0081519
40
0.3730641
50
263.1757928
51
270.1031044
0
ARC
8
DEFAULT_255_1_388
10
7.246589
20
23.1484511
40
0.5133712
50
269.6722503
51
279.0606936
0
ARC
8
DEFAULT_255_1_388
10
7.2766045
20
22.967015
40
0.3294739
50
278.8749101
51
293.6349581
0
ARC
8
DEFAULT_255_1_388
10
7.3126249
20
22.8824251
40
0.2375405
50
293.8553806
51
310.0518171
0
ARC
8
DEFAULT_255_1_388
10
7.3131758
20
22.8754021
40
0.2318463
50
311.0644687
51
332.0111037
0
ARC
8
DEFAULT_255_1_388
10
7.1790431
20
22.9493702
40
0.3850112
50
331.6586806
51
343.2877423
0
ARC
8
DEFAULT_255_1_388
10
6.9469896
20
23.0206806
40
0.6277712
50
343.1446576
51
351.0103568
0
ARC
8
DEFAULT_255_1_388
10
6.783722
20
23.0506873
40
0.7937327
50
350.71248
51
351.1626997
0
LINE
8
DEFAULT_255_1_388
10
7.9086758
20
22.9974177
11
7.9086758
21
23.009164
0
LINE
8
DEFAULT_255_1_388
10
8.7986868
20
23.0010319
11
8.7986868
21
22.9892856
0
ARC
8
DEFAULT_255_1_388
10
8.5371202
20
23.012804
40
0.628455
50
166.3005265
51
180.3318609
0
ARC
8
DEFAULT_255_1_388
10
8.4400552
20
23.0345267
40
0.52901
50
153.8608648
51
166.0965672
0
ARC
8
DEFAULT_255_1_388
10
8.3651718
20
23.0746652
40
0.4441126
50
135.1317053
51
154.2534962
0
ARC
8
DEFAULT_255_1_388
10
8.3338369
20
23.1023431
40
0.4023863
50
121.7042632
51
134.7771455
0
ARC
8
DEFAULT_255_1_388
10
8.3413801
20
23.0878469
40
0.4186852
50
93.4001111
51
121.5399523
0
ARC
8
DEFAULT_255_1_388
10
8.3520635
20
22.9948759
40
0.5121521
50
89.9706387
51
93.9763381
0
ARC
8
DEFAULT_255_1_388
10
8.3573619
20
23.0388563
40
0.4681988
50
71.3321659
51
90.6162917
0
ARC
8
DEFAULT_255_1_388
10
8.3756653
20
23.1066003
40
0.3981841
50
41.1813875
51
70.7072086
0
ARC
8
DEFAULT_255_1_388
10
8.3219369
20
23.057813
40
0.4707474
50
12.1971434
51
41.3446641
0
ARC
8
DEFAULT_255_1_388
10
8.1052633
20
23.0062328
40
0.6934429
50
359.5702713
51
12.5803533
0
ARC
8
DEFAULT_255_1_388
10
8.1584949
20
22.9857207
40
0.6402018
50
347.0196754
51
0.3190452
0
ARC
8
DEFAULT_255_1_388
10
8.2663002
20
22.9625189
40
0.5299421
50
334.350439
51
346.8460534
0
ARC
8
DEFAULT_255_1_388
10
8.3614249
20
22.9131244
40
0.4228234
50
310.4228125
51
334.8045131
0
ARC
8
DEFAULT_255_1_388
10
8.3706227
20
22.9059301
40
0.4113892
50
301.8488154
51
310.0972985
0
ARC
8
DEFAULT_255_1_388
10
8.3669967
20
22.9144573
40
0.4205483
50
274.3078723
51
301.6554173
0
ARC
8
DEFAULT_255_1_388
10
8.3545423
20
23.0131943
40
0.5199658
50
269.954904
51
274.859116
0
ARC
8
DEFAULT_255_1_388
10
8.3490247
20
22.9568239
40
0.4636233
50
250.8887647
51
270.6313164
0
ARC
8
DEFAULT_255_1_388
10
8.3321407
20
22.8939405
40
0.398705
50
221.1701369
51
250.2227012
0
ARC
8
DEFAULT_255_1_388
10
8.3866073
20
22.9435716
40
0.4723796
50
191.6263861
51
221.3526879
0
ARC
8
DEFAULT_255_1_388
10
8.5989918
20
22.9927203
40
0.6903321
50
179.6101251
51
192.0694841
0
ARC
8
DEFAULT_255_1_388
10
8.6466266
20
22.9856681
40
0.5698993
50
179.636304
51
190.6161344
0
ARC
8
DEFAULT_255_1_388
10
8.4618598
20
22.9496635
40
0.3816643
50
190.4136062
51
208.7168709
0
ARC
8
DEFAULT_255_1_388
10
8.4044632
20
22.9211905
40
0.3176572
50
209.187109
51
217.4221816
0
ARC
8
DEFAULT_255_1_388
10
8.3449102
20
22.8687729
40
0.2385702
50
216.1156863
51
265.2575395
0
ARC
8
DEFAULT_255_1_388
10
8.3538139
20
22.9332608
40
0.3035941
50
264.5891546
51
270.0602378
0
ARC
8
DEFAULT_255_1_388
10
8.3575335
20
22.8905539
40
0.2609091
50
269.2532353
51
291.8793864
0
ARC
8
DEFAULT_255_1_388
10
8.3608214
20
22.8705359
40
0.241148
50
292.9269367
51
323.1777736
0
ARC
8
DEFAULT_255_1_388
10
8.31375
20
22.9118762
40
0.3036446
50
322.25666
51
323.087958
0
ARC
8
DEFAULT_255_1_388
10
8.2834757
20
22.9301332
40
0.3388345
50
323.6941379
51
343.8493587
0
ARC
8
DEFAULT_255_1_388
10
8.1059193
20
22.9841698
40
0.5244204
50
343.5746655
51
355.008149
0
ARC
8
DEFAULT_255_1_388
10
7.8800885
20
23.0075797
40
0.7514406
50
354.728272
51
0.1208026
0
ARC
8
DEFAULT_255_1_388
10
8.0789911
20
23.0127947
40
0.5525482
50
359.6235211
51
11.2016685
0
ARC
8
DEFAULT_255_1_388
10
8.2515738
20
23.0483284
40
0.3763527
50
10.9991302
51
30.8317616
0
ARC
8
DEFAULT_255_1_388
10
8.2961042
20
23.0717988
40
0.3260975
50
31.3007463
51
37.395541
0
ARC
8
DEFAULT_255_1_388
10
8.3519761
20
23.1189773
40
0.253082
50
36.5918894
51
62.2439906
0
ARC
8
DEFAULT_255_1_388
10
8.3572052
20
23.1186378
40
0.2509927
50
63.3364883
51
89.7193846
0
ARC
8
DEFAULT_255_1_388
10
8.3523506
20
23.0538375
40
0.3158485
50
88.8962924
51
90.004475
0
ARC
8
DEFAULT_255_1_388
10
8.3487933
20
23.1191071
40
0.250604
50
89.1923115
51
114.7099029
0
ARC
8
DEFAULT_255_1_388
10
8.3520275
20
23.1233675
40
0.2481307
50
115.7996284
51
142.2901353
0
ARC
8
DEFAULT_255_1_388
10
8.3988546
20
23.0814752
40
0.310833
50
141.4607507
51
142.383894
0
ARC
8
DEFAULT_255_1_388
10
8.4136397
20
23.0746449
40
0.3267335
50
143.0176473
51
163.2340089
0
ARC
8
DEFAULT_255_1_388
10
8.5911686
20
23.0184553
40
0.5129308
50
162.9446504
51
174.3733893
0
ARC
8
DEFAULT_255_1_388
10
8.8325659
20
22.9913483
40
0.75583
50
174.1225809
51
180.1563667
0
LINE
8
DEFAULT_255_1_388
10
9.0083137
20
23.4889567
11
9.1664375
21
23.4889567
0
LINE
8
DEFAULT_255_1_388
10
9.1664375
20
23.4889567
11
9.1718589
21
23.366072
0
LINE
8
DEFAULT_255_1_388
10
9.7772471
20
23.1573486
11
9.7772471
21
22.5113
0
LINE
8
DEFAULT_255_1_388
10
9.7772471
20
22.5113
11
9.6100876
21
22.5113
0
LINE
8
DEFAULT_255_1_388
10
9.6100876
20
22.5113
11
9.6100876
21
23.1582521
0
LINE
8
DEFAULT_255_1_388
10
9.1754731
20
23.2079482
11
9.1754731
21
22.5113
0
LINE
8
DEFAULT_255_1_388
10
9.1754731
20
22.5113
11
9.0083137
21
22.5113
0
LINE
8
DEFAULT_255_1_388
10
9.0083137
20
22.5113
11
9.0083137
21
23.4889567
0
ARC
8
DEFAULT_255_1_388
10
9.4648888
20
23.1397868
40
0.3702317
50
116.459579
51
142.3237674
0
ARC
8
DEFAULT_255_1_388
10
9.4585168
20
23.1374216
40
0.3695717
50
89.9344799
51
115.4117431
0
ARC
8
DEFAULT_255_1_388
10
9.4646217
20
23.0457477
40
0.4612803
50
90.0009789
51
90.7058119
0
ARC
8
DEFAULT_255_1_388
10
9.4715613
20
23.1154095
40
0.3916802
50
71.6503198
51
91.0163578
0
ARC
8
DEFAULT_255_1_388
10
9.5116678
20
23.2483483
40
0.2529032
50
13.4487463
51
70.7930078
0
ARC
8
DEFAULT_255_1_388
10
9.2527049
20
23.1662303
40
0.5242314
50
1.3250409
51
15.5955556
0
ARC
8
DEFAULT_255_1_388
10
9.0228291
20
23.1516495
40
0.7544396
50
0.4328171
51
2.0283925
0
ARC
8
DEFAULT_255_1_388
10
9.2324494
20
23.157166
40
0.3776398
50
0.1647891
51
8.9343738
0
ARC
8
DEFAULT_255_1_388
10
9.3743534
20
23.1802206
40
0.2338783
50
8.7538928
51
22.2899346
0
ARC
8
DEFAULT_255_1_388
10
9.4495964
20
23.2112479
40
0.1524893
50
22.2261896
51
42.6534349
0
ARC
8
DEFAULT_255_1_388
10
9.4567006
20
23.2139551
40
0.1454574
50
43.7652806
51
71.277358
0
ARC
8
DEFAULT_255_1_388
10
9.4280569
20
23.1344698
40
0.2299367
50
70.8751244
51
84.317538
0
ARC
8
DEFAULT_255_1_388
10
9.4149281
20
23.023887
40
0.3412827
50
83.9624774
51
90.1534326
0
ARC
8
DEFAULT_255_1_388
10
9.411804
20
23.1075668
40
0.2576111
50
89.5084243
51
108.792202
0
ARC
8
DEFAULT_255_1_388
10
9.4047408
20
23.1333171
40
0.2309638
50
109.1912151
51
125.3077659
0
ARC
8
DEFAULT_255_1_388
10
9.4414265
20
23.0814216
40
0.2945169
50
125.2968281
51
154.5573532
0
LINE
8
DEFAULT_255_1_388
10
10.0889768
20
23.7256906
11
10.2561362
21
23.7256906
0
LINE
8
DEFAULT_255_1_388
10
10.2561362
20
23.7256906
11
10.2561362
21
23.4889567
0
LINE
8
DEFAULT_255_1_388
10
10.2561362
20
23.4889567
11
10.4386563
21
23.4889567
0
LINE
8
DEFAULT_255_1_388
10
10.4386563
20
23.4889567
11
10.4386563
21
23.359747
0
LINE
8
DEFAULT_255_1_388
10
10.4386563
20
23.359747
11
10.2561362
21
23.359747
0
LINE
8
DEFAULT_255_1_388
10
10.2561362
20
23.359747
11
10.2561362
21
22.7534553
0
LINE
8
DEFAULT_255_1_388
10
10.4431741
20
22.6468347
11
10.4431741
21
22.5113
0
LINE
8
DEFAULT_255_1_388
10
10.0889768
20
22.7534553
11
10.0889768
21
23.359747
0
LINE
8
DEFAULT_255_1_388
10
10.0889768
20
23.359747
11
9.9109746
21
23.359747
0
LINE
8
DEFAULT_255_1_388
10
9.9109746
20
23.359747
11
9.9109746
21
23.4889567
0
LINE
8
DEFAULT_255_1_388
10
9.9109746
20
23.4889567
11
10.0889768
21
23.4889567
0
LINE
8
DEFAULT_255_1_388
10
10.0889768
20
23.4889567
11
10.0889768
21
23.7256906
0
ARC
8
DEFAULT_255_1_388
10
10.481987
20
22.7522842
40
0.2258538
50
179.7029045
51
187.9180047
0
ARC
8
DEFAULT_255_1_388
10
10.3980444
20
22.7402019
40
0.1410477
50
187.7540838
51
200.2454047
0
ARC
8
DEFAULT_255_1_388
10
10.3507349
20
22.7225591
40
0.0905561
50
200.1304287
51
219.1733455
0
ARC
8
DEFAULT_255_1_388
10
10.3354516
20
22.7121695
40
0.0721626
50
220.4434631
51
249.6169985
0
ARC
8
DEFAULT_255_1_388
10
10.3528742
20
22.7559919
40
0.1193141
50
249.1038184
51
262.7745376
0
ARC
8
DEFAULT_255_1_388
10
10.3627924
20
22.8267481
40
0.1907583
50
262.4921618
51
270.2607019
0
ARC
8
DEFAULT_255_1_388
10
10.3625006
20
22.8509817
40
0.2149929
50
270.309081
51
275.6615459
0
ARC
8
DEFAULT_255_1_388
10
10.3464414
20
23.0198342
40
0.3846066
50
275.5607354
51
279.087751
0
ARC
8
DEFAULT_255_1_388
10
10.3092346
20
23.2559428
40
0.6236283
50
279.0369545
51
281.5000133
0
ARC
8
DEFAULT_255_1_388
10
10.2701614
20
23.4536499
40
0.825157
50
281.4217093
51
282.1031556
0
ARC
8
DEFAULT_255_1_388
10
10.3077589
20
22.9993229
40
0.5064619
50
275.2597791
51
285.5081125
0
ARC
8
DEFAULT_255_1_388
10
10.3146603
20
22.9367452
40
0.4435166
50
270.0268175
51
275.1130565
0
ARC
8
DEFAULT_255_1_388
10
10.3124055
20
22.7874367
40
0.2942182
50
257.3572424
51
270.4795428
0
ARC
8
DEFAULT_255_1_388
10
10.2884325
20
22.6863952
40
0.1903838
50
230.8036715
51
257.7414447
0
ARC
8
DEFAULT_255_1_388
10
10.2807821
20
22.6740723
40
0.1760087
50
219.9745381
51
230.1985446
0
ARC
8
DEFAULT_255_1_388
10
10.3181108
20
22.7026116
40
0.2229598
50
196.5081334
51
219.4319996
0
ARC
8
DEFAULT_255_1_388
10
10.432372
20
22.7384617
40
0.3427033
50
184.6408645
51
196.8266009
0
ARC
8
DEFAULT_255_1_388
10
10.5724625
20
22.752601
40
0.4834863
50
179.8987586
51
184.9677262
0
LINE
8
DEFAULT_255_1_388
10
11.1063904
20
23.4943781
11
11.1063904
21
23.338965
0
LINE
8
DEFAULT_255_1_388
10
10.8009856
20
23.2052375
11
10.8009856
21
22.5113
0
LINE
8
DEFAULT_255_1_388
10
10.8009856
20
22.5113
11
10.6338262
21
22.5113
0
LINE
8
DEFAULT_255_1_388
10
10.6338262
20
22.5113
11
10.6338262
21
23.4889567
0
LINE
8
DEFAULT_255_1_388
10
10.6338262
20
23.4889567
11
10.7964678
21
23.4889567
0
LINE
8
DEFAULT_255_1_388
10
10.7964678
20
23.4889567
11
10.7991785
21
23.3760112
0
ARC
8
DEFAULT_255_1_388
10
11.0314064
20
22.8823068
40
0.4627735
50
80.6751522
51
86.893806
0
ARC
8
DEFAULT_255_1_388
10
11.0245893
20
22.7731103
40
0.5721798
50
86.8046851
51
90.0423898
0
ARC
8
DEFAULT_255_1_388
10
11.0204313
20
23.0498197
40
0.2954939
50
89.2758283
51
106.6212906
0
ARC
8
DEFAULT_255_1_388
10
10.9974338
20
23.1334009
40
0.2088351
50
107.1347109
51
157.6456887
0
ARC
8
DEFAULT_255_1_388
10
11.07424
20
23.0906908
40
0.296292
50
155.6557383
51
157.256838
0
ARC
8
DEFAULT_255_1_388
10
11.0522014
20
23.2217472
40
0.296341
50
127.8167201
51
148.6300223
0
ARC
8
DEFAULT_255_1_388
10
11.0236761
20
23.2510066
40
0.2557782
50
91.3329934
51
126.7875218
0
ARC
8
DEFAULT_255_1_388
10
11.0322149
20
23.1706718
40
0.3363561
50
89.9858247
51
92.4688453
0
ARC
8
DEFAULT_255_1_388
10
11.0331642
20
23.2015114
40
0.3055179
50
85.3587643
51
90.1624243
0
ARC
8
DEFAULT_255_1_388
10
11.0426707
20
23.3144458
40
0.1921848
50
78.4019195
51
85.4592653
0
ARC
8
DEFAULT_255_1_388
10
11.0589768
20
23.3922142
40
0.1127267
50
67.7849217
51
78.573798
0
ARC
8
DEFAULT_255_1_388
10
11.0711402
20
23.4237374
40
0.0789473
50
63.4805074
51
67.3074739
0
LINE
8
DEFAULT_255_1_388
10
11.1976504
20
22.9974177
11
11.1976504
21
23.009164
0
LINE
8
DEFAULT_255_1_388
10
12.0876614
20
23.0010319
11
12.0876614
21
22.9892856
0
ARC
8
DEFAULT_255_1_388
10
11.8260948
20
23.012804
40
0.628455
50
166.3005265
51
180.3318609
0
ARC
8
DEFAULT_255_1_388
10
11.7290298
20
23.0345267
40
0.52901
50
153.8608648
51
166.0965672
0
ARC
8
DEFAULT_255_1_388
10
11.6541464
20
23.0746652
40
0.4441126
50
135.1317053
51
154.2534962
0
ARC
8
DEFAULT_255_1_388
10
11.6228115
20
23.1023431
40
0.4023863
50
121.7042632
51
134.7771455
0
ARC
8
DEFAULT_255_1_388
10
11.6303547
20
23.0878469
40
0.4186852
50
93.4001111
51
121.5399523
0
ARC
8
DEFAULT_255_1_388
10
11.6410381
20
22.9948759
40
0.5121521
50
89.9706387
51
93.9763381
0
ARC
8
DEFAULT_255_1_388
10
11.6463365
20
23.0388563
40
0.4681988
50
71.3321659
51
90.6162917
0
ARC
8
DEFAULT_255_1_388
10
11.6646399
20
23.1066003
40
0.3981841
50
41.1813875
51
70.7072086
0
ARC
8
DEFAULT_255_1_388
10
11.6109115
20
23.057813
40
0.4707474
50
12.1971434
51
41.3446641
0
ARC
8
DEFAULT_255_1_388
10
11.3942379
20
23.0062328
40
0.6934429
50
359.5702713
51
12.5803533
0
ARC
8
DEFAULT_255_1_388
10
11.4474695
20
22.9857207
40
0.6402018
50
347.0196754
51
0.3190452
0
ARC
8
DEFAULT_255_1_388
10
11.5552748
20
22.9625189
40
0.5299421
50
334.350439
51
346.8460534
0
ARC
8
DEFAULT_255_1_388
10
11.6503995
20
22.9131244
40
0.4228234
50
310.4228125
51
334.8045131
0
ARC
8
DEFAULT_255_1_388
10
11.6595973
20
22.9059301
40
0.4113892
50
301.8488154
51
310.0972985
0
ARC
8
DEFAULT_255_1_388
10
11.6559713
20
22.9144573
40
0.4205483
50
274.3078723
51
301.6554173
0
ARC
8
DEFAULT_255_1_388
10
11.6435169
20
23.0131943
40
0.5199658
50
269.954904
51
274.859116
0
ARC
8
DEFAULT_255_1_388
10
11.6379993
20
22.9568239
40
0.4636233
50
250.8887647
51
270.6313164
0
ARC
8
DEFAULT_255_1_388
10
11.6211154
20
22.8939405
40
0.398705
50
221.1701369
51
250.2227012
0
ARC
8
DEFAULT_255_1_388
10
11.6755819
20
22.9435716
40
0.4723796
50
191.6263861
51
221.3526879
0
ARC
8
DEFAULT_255_1_388
10
11.8879664
20
22.9927203
40
0.6903321
50
179.6101251
51
192.0694841
0
ARC
8
DEFAULT_255_1_388
10
11.9356012
20
22.9856681
40
0.5698993
50
179.636304
51
190.6161344
0
ARC
8
DEFAULT_255_1_388
10
11.7508344
20
22.9496635
40
0.3816643
50
190.4136062
51
208.7168709
0
ARC
8
DEFAULT_255_1_388
10
11.6934378
20
22.9211905
40
0.3176572
50
209.187109
51
217.4221816
0
ARC
8
DEFAULT_255_1_388
10
11.6338848
20
22.8687729
40
0.2385702
50
216.1156863
51
265.2575395
0
ARC
8
DEFAULT_255_1_388
10
11.6427885
20
22.9332608
40
0.3035941
50
264.5891546
51
270.0602378
0
ARC
8
DEFAULT_255_1_388
10
11.6465081
20
22.8905539
40
0.2609091
50
269.2532353
51
291.8793864
0
ARC
8
DEFAULT_255_1_388
10
11.649796
20
22.8705359
40
0.241148
50
292.9269367
51
323.1777736
0
ARC
8
DEFAULT_255_1_388
10
11.6027246
20
22.9118762
40
0.3036446
50
322.25666
51
323.087958
0
ARC
8
DEFAULT_255_1_388
10
11.5724503
20
22.9301332
40
0.3388345
50
323.6941379
51
343.8493587
0
ARC
8
DEFAULT_255_1_388
10
11.394894
20
22.9841698
40
0.5244204
50
343.5746655
51
355.008149
0
ARC
8
DEFAULT_255_1_388
10
11.1690631
20
23.0075797
40
0.7514406
50
354.728272
51
0.1208026
0
ARC
8
DEFAULT_255_1_388
10
11.3679657
20
23.0127947
40
0.5525482
50
359.6235211
51
11.2016685
0
ARC
8
DEFAULT_255_1_388
10
11.5405484
20
23.0483284
40
0.3763527
50
10.9991302
51
30.8317616
0
ARC
8
DEFAULT_255_1_388
10
11.5850788
20
23.0717988
40
0.3260975
50
31.3007463
51
37.395541
0
ARC
8
DEFAULT_255_1_388
10
11.6409507
20
23.1189773
40
0.253082
50
36.5918894
51
62.2439906
0
ARC
8
DEFAULT_255_1_388
10
11.6461799
20
23.1186378
40
0.2509927
50
63.3364883
51
89.7193846
0
ARC
8
DEFAULT_255_1_388
10
11.6413252
20
23.0538375
40
0.3158485
50
88.8962924
51
90.004475
0
ARC
8
DEFAULT_255_1_388
10
11.6377679
20
23.1191071
40
0.250604
50
89.1923115
51
114.7099029
0
ARC
8
DEFAULT_255_1_388
10
11.6410021
20
23.1233675
40
0.2481307
50
115.7996284
51
142.2901353
0
ARC
8
DEFAULT_255_1_388
10
11.6878292
20
23.0814752
40
0.310833
50
141.4607507
51
142.383894
0
ARC
8
DEFAULT_255_1_388
10
11.7026143
20
23.0746449
40
0.3267335
50
143.0176473
51
163.2340089
0
ARC
8
DEFAULT_255_1_388
10
11.8801432
20
23.0184553
40
0.5129308
50
162.9446504
51
174.3733893
0
ARC
8
DEFAULT_255_1_388
10
12.1215405
20
22.9913483
40
0.75583
50
174.1225809
51
180.1563667
0
LINE
8
DEFAULT_255_1_388
10
12.4789048
20
23.899175
11
12.4789048
21
22.5113
0
LINE
8
DEFAULT_255_1_388
10
12.4789048
20
22.5113
11
12.3117454
21
22.5113
0
LINE
8
DEFAULT_255_1_388
10
12.3117454
20
22.5113
11
12.3117454
21
23.899175
0
LINE
8
DEFAULT_255_1_388
10
12.3117454
20
23.899175
11
12.4789048
21
23.899175
0
LINE
8
DEFAULT_255_1_388
10
12.9469512
20
23.8268898
11
12.9469512
21
22.6531596
0
LINE
8
DEFAULT_255_1_388
10
12.9469512
20
22.6531596
11
13.5704106
21
22.6531596
0
LINE
8
DEFAULT_255_1_388
10
13.5704106
20
22.6531596
11
13.5704106
21
22.5113
0
LINE
8
DEFAULT_255_1_388
10
13.5704106
20
22.5113
11
12.7725632
21
22.5113
0
LINE
8
DEFAULT_255_1_388
10
12.7725632
20
22.5113
11
12.7725632
21
23.8268898
0
LINE
8
DEFAULT_255_1_388
10
12.7725632
20
23.8268898
11
12.9469512
21
23.8268898
0
LINE
8
DEFAULT_255_1_388
10
13.6978132
20
22.9974177
11
13.6978132
21
23.009164
0
LINE
8
DEFAULT_255_1_388
10
14.5878242
20
23.0010319
11
14.5878242
21
22.9892856
0
ARC
8
DEFAULT_255_1_388
10
14.3262577
20
23.012804
40
0.628455
50
166.3005265
51
180.3318609
0
ARC
8
DEFAULT_255_1_388
10
14.2291927
20
23.0345267
40
0.52901
50
153.8608648
51
166.0965672
0
ARC
8
DEFAULT_255_1_388
10
14.1543093
20
23.0746652
40
0.4441126
50
135.1317053
51
154.2534962
0
ARC
8
DEFAULT_255_1_388
10
14.1229743
20
23.1023431
40
0.4023863
50
121.7042632
51
134.7771455
0
ARC
8
DEFAULT_255_1_388
10
14.1305175
20
23.0878469
40
0.4186852
50
93.4001111
51
121.5399523
0
ARC
8
DEFAULT_255_1_388
10
14.1412009
20
22.9948759
40
0.5121521
50
89.9706387
51
93.9763381
0
ARC
8
DEFAULT_255_1_388
10
14.1464994
20
23.0388563
40
0.4681988
50
71.3321659
51
90.6162917
0
ARC
8
DEFAULT_255_1_388
10
14.1648028
20
23.1066003
40
0.3981841
50
41.1813875
51
70.7072086
0
ARC
8
DEFAULT_255_1_388
10
14.1110744
20
23.057813
40
0.4707474
50
12.1971434
51
41.3446641
0
ARC
8
DEFAULT_255_1_388
10
13.8944008
20
23.0062328
40
0.6934429
50
359.5702713
51
12.5803533
0
ARC
8
DEFAULT_255_1_388
10
13.9476324
20
22.9857207
40
0.6402018
50
347.0196754
51
0.3190452
0
ARC
8
DEFAULT_255_1_388
10
14.0554377
20
22.9625189
40
0.5299421
50
334.350439
51
346.8460534
0
ARC
8
DEFAULT_255_1_388
10
14.1505623
20
22.9131244
40
0.4228234
50
310.4228125
51
334.8045131
0
ARC
8
DEFAULT_255_1_388
10
14.1597601
20
22.9059301
40
0.4113892
50
301.8488154
51
310.0972985
0
ARC
8
DEFAULT_255_1_388
10
14.1561342
20
22.9144573
40
0.4205483
50
274.3078723
51
301.6554173
0
ARC
8
DEFAULT_255_1_388
10
14.1436798
20
23.0131943
40
0.5199658
50
269.954904
51
274.859116
0
ARC
8
DEFAULT_255_1_388
10
14.1381622
20
22.9568239
40
0.4636233
50
250.8887647
51
270.6313164
0
ARC
8
DEFAULT_255_1_388
10
14.1212782
20
22.8939405
40
0.398705
50
221.1701369
51
250.2227012
0
ARC
8
DEFAULT_255_1_388
10
14.1757448
20
22.9435716
40
0.4723796
50
191.6263861
51
221.3526879
0
ARC
8
DEFAULT_255_1_388
10
14.3881293
20
22.9927203
40
0.6903321
50
179.6101251
51
192.0694841
0
ARC
8
DEFAULT_255_1_388
10
14.435764
20
22.9856681
40
0.5698993
50
179.636304
51
190.6161344
0
ARC
8
DEFAULT_255_1_388
10
14.2509972
20
22.9496635
40
0.3816643
50
190.4136062
51
208.7168709
0
ARC
8
DEFAULT_255_1_388
10
14.1936007
20
22.9211905
40
0.3176572
50
209.187109
51
217.4221816
0
ARC
8
DEFAULT_255_1_388
10
14.1340477
20
22.8687729
40
0.2385702
50
216.1156863
51
265.2575395
0
ARC
8
DEFAULT_255_1_388
10
14.1429513
20
22.9332608
40
0.3035941
50
264.5891546
51
270.0602378
0
ARC
8
DEFAULT_255_1_388
10
14.146671
20
22.8905539
40
0.2609091
50
269.2532353
51
291.8793864
0
ARC
8
DEFAULT_255_1_388
10
14.1499589
20
22.8705359
40
0.241148
50
292.9269367
51
323.1777736
0
ARC
8
DEFAULT_255_1_388
10
14.1028874
20
22.9118762
40
0.3036446
50
322.25666
51
323.087958
0
ARC
8
DEFAULT_255_1_388
10
14.0726132
20
22.9301332
40
0.3388345
50
323.6941379
51
343.8493587
0
ARC
8
DEFAULT_255_1_388
10
13.8950568
20
22.9841698
40
0.5244204
50
343.5746655
51
355.008149
0
ARC
8
DEFAULT_255_1_388
10
13.669226
20
23.0075797
40
0.7514406
50
354.728272
51
0.1208026
0
ARC
8
DEFAULT_255_1_388
10
13.8681285
20
23.0127947
40
0.5525482
50
359.6235211
51
11.2016685
0
ARC
8
DEFAULT_255_1_388
10
14.0407113
20
23.0483284
40
0.3763527
50
10.9991302
51
30.8317616
0
ARC
8
DEFAULT_255_1_388
10
14.0852416
20
23.0717988
40
0.3260975
50
31.3007463
51
37.395541
0
ARC
8
DEFAULT_255_1_388
10
14.1411136
20
23.1189773
40
0.253082
50
36.5918894
51
62.2439906
0
ARC
8
DEFAULT_255_1_388
10
14.1463427
20
23.1186378
40
0.2509927
50
63.3364883
51
89.7193846
0
ARC
8
DEFAULT_255_1_388
10
14.141488
20
23.0538375
40
0.3158485
50
88.8962924
51
90.004475
0
ARC
8
DEFAULT_255_1_388
10
14.1379308
20
23.1191071
40
0.250604
50
89.1923115
51
114.7099029
0
ARC
8
DEFAULT_255_1_388
10
14.141165
20
23.1233675
40
0.2481307
50
115.7996284
51
142.2901353
0
ARC
8
DEFAULT_255_1_388
10
14.1879921
20
23.0814752
40
0.310833
50
141.4607507
51
142.383894
0
ARC
8
DEFAULT_255_1_388
10
14.2027772
20
23.0746449
40
0.3267335
50
143.0176473
51
163.2340089
0
ARC
8
DEFAULT_255_1_388
10
14.3803061
20
23.0184553
40
0.5129308
50
162.9446504
51
174.3733893
0
ARC
8
DEFAULT_255_1_388
10
14.6217033
20
22.9913483
40
0.75583
50
174.1225809
51
180.1563667
0
LINE
8
DEFAULT_255_1_388
10
15.4227178
20
23.380529
11
15.4308499
21
23.4889567
0
LINE
8
DEFAULT_255_1_388
10
15.4308499
20
23.4889567
11
15.5835522
21
23.4889567
0
LINE
8
DEFAULT_255_1_388
10
15.5835522
20
23.4889567
11
15.5835522
21
22.5347927
0
LINE
8
DEFAULT_255_1_388
10
14.8073904
20
22.2953481
11
14.8941326
21
22.3956437
0
LINE
8
DEFAULT_255_1_388
10
15.4154893
20
22.5248535
11
15.4154893
21
22.608885
0
LINE
8
DEFAULT_255_1_388
10
15.4154893
20
22.7787551
11
15.4154893
21
23.2251159
0
ARC
8
DEFAULT_255_1_388
10
15.561587
20
23.013122
40
0.8039074
50
169.8802333
51
180.3464902
0
ARC
8
DEFAULT_255_1_388
10
15.2968676
20
23.062287
40
0.5346711
50
152.8534324
51
170.0824729
0
ARC
8
DEFAULT_255_1_388
10
15.2031071
20
23.1066868
40
0.4309932
50
142.0147746
51
152.418569
0
ARC
8
DEFAULT_255_1_388
10
15.131452
20
23.1719169
40
0.3344504
50
94.3317494
51
143.2674518
0
ARC
8
DEFAULT_255_1_388
10
15.1431379
20
23.0838903
40
0.423138
50
89.9487512
51
95.0093077
0
ARC
8
DEFAULT_255_1_388
10
15.1478177
20
23.1018021
40
0.4052487
50
72.9496911
51
90.6081488
0
ARC
8
DEFAULT_255_1_388
10
15.17089
20
23.1853718
40
0.3185963
50
37.7743532
51
72.5099202
0
ARC
8
DEFAULT_255_1_388
10
15.0673766
20
22.5304774
40
0.5161937
50
346.3655403
51
0.4789834
0
ARC
8
DEFAULT_255_1_388
10
15.2212599
20
22.4913644
40
0.3574311
50
314.3365584
51
346.6438898
0
ARC
8
DEFAULT_255_1_388
10
15.2097744
20
22.50749
40
0.3770042
50
280.7144
51
313.872307
0
ARC
8
DEFAULT_255_1_388
10
15.1720479
20
22.6756099
40
0.5492378
50
269.6628653
51
281.3208129
0
ARC
8
DEFAULT_255_1_388
10
15.1702139
20
22.6292105
40
0.5028309
50
245.5258654
51
269.8407328
0
ARC
8
DEFAULT_255_1_388
10
15.1272985
20
22.5487065
40
0.4118207
50
232.6664457
51
246.3200328
0
ARC
8
DEFAULT_255_1_388
10
15.0728229
20
22.4764386
40
0.3213227
50
214.3036526
51
232.5750527
0
ARC
8
DEFAULT_255_1_388
10
15.1986261
20
22.6368259
40
0.3884393
50
218.381912
51
236.3657409
0
ARC
8
DEFAULT_255_1_388
10
15.153603
20
22.5740326
40
0.3112322
50
236.8637655
51
270.6382272
0
ARC
8
DEFAULT_255_1_388
10
15.1597713
20
22.6112587
40
0.3484494
50
269.5557858
51
282.3972101
0
ARC
8
DEFAULT_255_1_388
10
15.1863299
20
22.4970767
40
0.2312324
50
282.043923
51
308.3079272
0
ARC
8
DEFAULT_255_1_388
10
15.1959413
20
22.481747
40
0.2132542
50
308.8347234
51
315.2037678
0
ARC
8
DEFAULT_255_1_388
10
15.1871122
20
22.4882123
40
0.2240808
50
315.6213011
51
345.6795376
0
ARC
8
DEFAULT_255_1_388
10
15.0769548
20
22.5188736
40
0.3384084
50
345.2627538
51
358.6311244
0
ARC
8
DEFAULT_255_1_388
10
14.9771053
20
22.5247581
40
0.4383839
50
358.1739988
51
0.0124651
0
ARC
8
DEFAULT_255_1_388
10
15.1665229
20
22.8241381
40
0.3291173
50
275.6950404
51
319.1537182
0
ARC
8
DEFAULT_255_1_388
10
15.142686
20
22.9619049
40
0.4686772
50
269.8805882
51
276.9235205
0
ARC
8
DEFAULT_255_1_388
10
15.1367161
20
22.83699
40
0.3437976
50
244.0748846
51
270.8321697
0
ARC
8
DEFAULT_255_1_388
10
15.1451669
20
22.8392423
40
0.3495805
50
217.781776
51
242.9905232
0
ARC
8
DEFAULT_255_1_388
10
15.21271
20
22.8993567
40
0.4398355
50
217.5209891
51
218.58043
0
ARC
8
DEFAULT_255_1_388
10
15.2442938
20
22.917913
40
0.4762087
50
195.3497149
51
216.9773048
0
ARC
8
DEFAULT_255_1_388
10
15.4718828
20
22.9840667
40
0.7131994
50
183.9387193
51
195.6348167
0
ARC
8
DEFAULT_255_1_388
10
15.7279022
20
23.0070646
40
0.9702086
50
179.929381
51
184.2551265
0
ARC
8
DEFAULT_255_1_388
10
15.5792689
20
22.9858515
40
0.6535206
50
179.6989243
51
188.5749266
0
ARC
8
DEFAULT_255_1_388
10
15.3527879
20
22.9504789
40
0.4242988
50
188.4117627
51
202.0559679
0
ARC
8
DEFAULT_255_1_388
10
15.2438139
20
22.9076952
40
0.3072368
50
202.2924994
51
215.4475859
0
ARC
8
DEFAULT_255_1_388
10
15.171321
20
22.8515576
40
0.2156547
50
214.4673097
51
264.3362727
0
ARC
8
DEFAULT_255_1_388
10
15.1827879
20
22.9231673
40
0.2880794
50
263.4723224
51
270.0965288
0
ARC
8
DEFAULT_255_1_388
10
15.1873114
20
22.9063896
40
0.2713313
50
269.1472473
51
291.7978484
0
ARC
8
DEFAULT_255_1_388
10
15.1943374
20
22.8750081
40
0.2396396
50
293.0243185
51
327.6232391
0
ARC
8
DEFAULT_255_1_388
10
15.1146808
20
22.9332435
40
0.3381603
50
326.5171836
51
332.8160011
0
ARC
8
DEFAULT_255_1_388
10
15.1541989
20
23.0862272
40
0.29591
50
27.9928465
51
47.6314088
0
ARC
8
DEFAULT_255_1_388
10
15.1948694
20
23.1249256
40
0.2399437
50
48.5793547
51
88.6245273
0
ARC
8
DEFAULT_255_1_388
10
15.1851812
20
23.0409448
40
0.3242237
50
87.2690754
51
90.0178312
0
ARC
8
DEFAULT_255_1_388
10
15.1819512
20
23.1147957
40
0.2503923
50
89.2839515
51
110.1847982
0
ARC
8
DEFAULT_255_1_388
10
15.1750312
20
23.1447002
40
0.2199699
50
111.180781
51
145.0423499
0
ARC
8
DEFAULT_255_1_388
10
15.2111173
20
23.1134759
40
0.2674811
50
143.9895932
51
144.106678
0
ARC
8
DEFAULT_255_1_388
10
15.2481244
20
23.091319
40
0.3104736
50
144.7981654
51
162.8715843
0
ARC
8
DEFAULT_255_1_388
10
15.4387843
20
23.0300138
40
0.5107383
50
162.598526
51
173.3417416
0
ARC
8
DEFAULT_255_1_388
10
15.7389216
20
22.9927767
40
0.8131718
50
173.1877249
51
180.2459848
0
LINE
8
DEFAULT_255_1_388
10
16.0172632
20
23.4889567
11
16.0172632
21
22.5113
0
LINE
8
DEFAULT_255_1_388
10
16.0172632
20
22.5113
11
15.8501038
21
22.5113
0
LINE
8
DEFAULT_255_1_388
10
15.8501038
20
22.5113
11
15.8501038
21
23.4889567
0
LINE
8
DEFAULT_255_1_388
10
15.8501038
20
23.4889567
11
16.0172632
21
23.4889567
0
ARC
8
DEFAULT_255_1_388
10
15.94664
20
23.7493428
40
0.1100948
50
161.4148232
51
180.5532607
0
ARC
8
DEFAULT_255_1_388
10
15.932671
20
23.7531875
40
0.0956324
50
138.1830164
51
160.9307633
0
ARC
8
DEFAULT_255_1_388
10
15.9202897
20
23.7639313
40
0.0792417
50
104.6371663
51
138.0036136
0
ARC
8
DEFAULT_255_1_388
10
15.9323436
20
23.7226963
40
0.1221906
50
92.0601206
51
105.2198859
0
ARC
8
DEFAULT_255_1_388
10
15.93498
20
23.6838583
40
0.161103
50
89.9790681
51
92.5006086
0
ARC
8
DEFAULT_255_1_388
10
15.9360976
20
23.7094998
40
0.1354654
50
78.0234649
51
90.4478111
0
ARC
8
DEFAULT_255_1_388
10
15.946456
20
23.7560203
40
0.0878096
50
55.0521508
51
78.336297
0
ARC
8
DEFAULT_255_1_388
10
15.9521095
20
23.7655168
40
0.0767913
50
42.0506198
51
54.4508489
0
ARC
8
DEFAULT_255_1_388
10
15.9369127
20
23.7515821
40
0.0974091
50
1.7493657
51
42.1498724
0
ARC
8
DEFAULT_255_1_388
10
15.9083033
20
23.7483166
40
0.1261276
50
359.9832635
51
2.8353994
0
ARC
8
DEFAULT_255_1_388
10
15.9269443
20
23.7472412
40
0.1074916
50
342.1062453
51
0.5535864
0
ARC
8
DEFAULT_255_1_388
10
15.9429867
20
23.7428197
40
0.0908695
50
316.7110111
51
341.6513114
0
ARC
8
DEFAULT_255_1_388
10
15.9505299
20
23.7360607
40
0.0807447
50
285.4398289
51
316.5320129
0
ARC
8
DEFAULT_255_1_388
10
15.938147
20
23.7772023
40
0.1237022
50
272.3543902
51
285.8951677
0
ARC
8
DEFAULT_255_1_388
10
15.935118
20
23.8187742
40
0.1653687
50
269.9725761
51
272.8112722
0
ARC
8
DEFAULT_255_1_388
10
15.9340232
20
23.7936727
40
0.1402709
50
258.8433431
51
270.4148607
0
ARC
8
DEFAULT_255_1_388
10
15.9239012
20
23.7446739
40
0.0902407
50
238.54281
51
259.1289544
0
ARC
8
DEFAULT_255_1_388
10
15.9162333
20
23.7307694
40
0.0743817
50
222.5056676
51
237.9918132
0
ARC
8
DEFAULT_255_1_388
10
15.9305927
20
23.7438295
40
0.0937918
50
184.1070774
51
222.4604165
0
ARC
8
DEFAULT_255_1_388
10
15.960834
20
23.7481538
40
0.1242838
50
179.9419581
51
185.0970785
0
LINE
8
DEFAULT_255_1_388
10
16.3985674
20
23.4889567
11
16.6127122
21
23.1320488
0
LINE
8
DEFAULT_255_1_388
10
16.6127122
20
23.1320488
11
16.8295676
21
23.4889567
0
LINE
8
DEFAULT_255_1_388
10
16.8295676
20
23.4889567
11
17.0247375
21
23.4889567
0
LINE
8
DEFAULT_255_1_388
10
17.0247375
20
23.4889567
11
16.7048757
21
23.0055498
0
LINE
8
DEFAULT_255_1_388
10
16.7048757
20
23.0055498
11
17.0346768
21
22.5113
0
LINE
8
DEFAULT_255_1_388
10
17.0346768
20
22.5113
11
16.841314
21
22.5113
0
LINE
8
DEFAULT_255_1_388
10
16.841314
20
22.5113
11
16.6154229
21
22.8772436
0
LINE
8
DEFAULT_255_1_388
10
16.6154229
20
22.8772436
11
16.3895317
21
22.5113
0
LINE
8
DEFAULT_255_1_388
10
16.3895317
20
22.5113
11
16.1952654
21
22.5113
0
LINE
8
DEFAULT_255_1_388
10
16.1952654
20
22.5113
11
16.5250664
21
23.0055498
0
LINE
8
DEFAULT_255_1_388
10
16.5250664
20
23.0055498
11
16.2052046
21
23.4889567
0
LINE
8
DEFAULT_255_1_388
10
16.2052046
20
23.4889567
11
16.3985674
21
23.4889567
0
LINE
8
DEFAULT_255_1_388
10
17.8533062
20
23.1365666
11
17.7195786
21
23.1709021
0
LINE
8
DEFAULT_255_1_388
10
17.7195786
20
23.1709021
11
17.7864424
21
23.8268898
0
LINE
8
DEFAULT_255_1_388
10
17.7864424
20
23.8268898
11
18.4605015
21
23.8268898
0
LINE
8
DEFAULT_255_1_388
10
18.4605015
20
23.8268898
11
18.4605015
21
23.6723803
0
LINE
8
DEFAULT_255_1_388
10
18.4605015
20
23.6723803
11
17.928302
21
23.6723803
0
LINE
8
DEFAULT_255_1_388
10
17.928302
20
23.6723803
11
17.8885452
21
23.3136652
0
LINE
8
DEFAULT_255_1_388
10
17.6725933
20
22.8573652
11
17.830717
21
22.8573652
0
LINE
8
DEFAULT_255_1_388
10
17.8975808
20
23.1727092
11
17.8533062
21
23.1365666
0
ARC
8
DEFAULT_255_1_388
10
18.0972065
20
22.9559241
40
0.4141476
50
93.7181681
51
120.253934
0
ARC
8
DEFAULT_255_1_388
10
18.1078117
20
22.8650284
40
0.5055616
50
89.9660471
51
94.2495185
0
ARC
8
DEFAULT_255_1_388
10
18.1123939
20
22.9313154
40
0.4392953
50
73.8045384
51
90.5585736
0
ARC
8
DEFAULT_255_1_388
10
18.1388197
20
23.027852
40
0.3392225
50
41.3071072
51
73.543002
0
ARC
8
DEFAULT_255_1_388
10
18.0920017
20
22.9875461
40
0.4009977
50
13.5075837
51
41.2174839
0
ARC
8
DEFAULT_255_1_388
10
17.9073114
20
22.9391907
40
0.5918864
50
1.1330171
51
13.8830737
0
ARC
8
DEFAULT_255_1_388
10
17.747676
20
22.9306522
40
0.7516787
50
359.9925091
51
1.5431298
0
ARC
8
DEFAULT_255_1_388
10
17.8921375
20
22.9260027
40
0.6072343
50
347.8572712
51
0.4294349
0
ARC
8
DEFAULT_255_1_388
10
18.089051
20
22.8813898
40
0.4053482
50
323.6727442
51
348.1674594
0
ARC
8
DEFAULT_255_1_388
10
18.1221474
20
22.8612175
40
0.3667495
50
316.8171818
51
323.1486802
0
ARC
8
DEFAULT_255_1_388
10
18.1290598
20
22.8570612
40
0.358869
50
281.839603
51
316.5458142
0
ARC
8
DEFAULT_255_1_388
10
18.0867886
20
23.0320363
40
0.5388223
50
269.5770964
51
282.4214641
0
ARC
8
DEFAULT_255_1_388
10
18.0787806
20
23.007993
40
0.5147801
50
256.2425863
51
270.4486481
0
ARC
8
DEFAULT_255_1_388
10
18.0451334
20
22.8730124
40
0.3756708
50
228.9024379
51
256.33135
0
ARC
8
DEFAULT_255_1_388
10
18.0368314
20
22.8599054
40
0.360344
50
193.7536029
51
228.5272638
0
ARC
8
DEFAULT_255_1_388
10
18.1760879
20
22.9007463
40
0.5053599
50
184.9244437
51
194.4976052
0
ARC
8
DEFAULT_255_1_388
10
18.197752
20
22.9047722
40
0.3700839
50
187.3596909
51
198.6733728
0
ARC
8
DEFAULT_255_1_388
10
18.0796764
20
22.8638373
40
0.2451195
50
198.4453795
51
217.7945479
0
ARC
8
DEFAULT_255_1_388
10
18.0463937
20
22.8402563
40
0.2043754
50
218.2887146
51
228.5613203
0
ARC
8
DEFAULT_255_1_388
10
18.0573943
20
22.8550902
40
0.2227819
50
228.9652423
51
258.1237049
0
ARC
8
DEFAULT_255_1_388
10
18.0805381
20
22.9541964
40
0.3245374
50
257.7260585
51
270.4013717
0
ARC
8
DEFAULT_255_1_388
10
18.0855879
20
22.9041255
40
0.2744726
50
269.4204315
51
286.420998
0
ARC
8
DEFAULT_255_1_388
10
18.1022934
20
22.8434705
40
0.2115721
50
286.7250065
51
320.6004665
0
ARC
8
DEFAULT_255_1_388
10
18.059185
20
22.8784527
40
0.2670878
50
320.6712228
51
344.5440474
0
ARC
8
DEFAULT_255_1_388
10
17.9290564
20
22.9166394
40
0.4026927
50
344.241448
51
356.735803
0
ARC
8
DEFAULT_255_1_388
10
17.7886871
20
22.9282656
40
0.5435085
50
356.3547471
51
0.0507222
0
ARC
8
DEFAULT_255_1_388
10
17.9389136
20
22.9317812
40
0.3932934
50
359.5579289
51
12.9534322
0
ARC
8
DEFAULT_255_1_388
10
18.0575976
20
22.9605586
40
0.2711827
50
12.6489751
51
41.608121
0
ARC
8
DEFAULT_255_1_388
10
18.0835136
20
22.9825946
40
0.2371737
50
41.7851122
51
85.9892156
0
ARC
8
DEFAULT_255_1_388
10
18.0696446
20
22.8910738
40
0.3295244
50
84.6965848
51
90.0672125
0
ARC
8
DEFAULT_255_1_388
10
18.0670014
20
22.8159118
40
0.4046926
50
89.6804991
51
99.161352
0
ARC
8
DEFAULT_255_1_388
10
18.0439023
20
22.9539848
40
0.2647044
50
98.9836248
51
113.8905702
0
ARC
8
DEFAULT_255_1_388
10
18.0180698
20
23.0149118
40
0.1985386
50
114.195234
51
127.3641866
0
LINE
8
DEFAULT_255_1_388
10
18.8924053
20
23.1365666
11
18.7586777
21
23.1709021
0
LINE
8
DEFAULT_255_1_388
10
18.7586777
20
23.1709021
11
18.8255415
21
23.8268898
0
LINE
8
DEFAULT_255_1_388
10
18.8255415
20
23.8268898
11
19.4996006
21
23.8268898
0
LINE
8
DEFAULT_255_1_388
10
19.4996006
20
23.8268898
11
19.4996006
21
23.6723803
0
LINE
8
DEFAULT_255_1_388
10
19.4996006
20
23.6723803
11
18.9674011
21
23.6723803
0
LINE
8
DEFAULT_255_1_388
10
18.9674011
20
23.6723803
11
18.9276443
21
23.3136652
0
LINE
8
DEFAULT_255_1_388
10
18.7116924
20
22.8573652
11
18.8698162
21
22.8573652
0
LINE
8
DEFAULT_255_1_388
10
18.9366799
20
23.1727092
11
18.8924053
21
23.1365666
0
ARC
8
DEFAULT_255_1_388
10
19.1363056
20
22.9559241
40
0.4141476
50
93.7181681
51
120.253934
0
ARC
8
DEFAULT_255_1_388
10
19.1469109
20
22.8650284
40
0.5055616
50
89.9660471
51
94.2495185
0
ARC
8
DEFAULT_255_1_388
10
19.151493
20
22.9313154
40
0.4392953
50
73.8045384
51
90.5585736
0
ARC
8
DEFAULT_255_1_388
10
19.1779188
20
23.027852
40
0.3392225
50
41.3071072
51
73.543002
0
ARC
8
DEFAULT_255_1_388
10
19.1311008
20
22.9875461
40
0.4009977
50
13.5075837
51
41.2174839
0
ARC
8
DEFAULT_255_1_388
10
18.9464106
20
22.9391907
40
0.5918864
50
1.1330171
51
13.8830737
0
ARC
8
DEFAULT_255_1_388
10
18.7867751
20
22.9306522
40
0.7516787
50
359.9925091
51
1.5431298
0
ARC
8
DEFAULT_255_1_388
10
18.9312366
20
22.9260027
40
0.6072343
50
347.8572712
51
0.4294349
0
ARC
8
DEFAULT_255_1_388
10
19.1281501
20
22.8813898
40
0.4053482
50
323.6727442
51
348.1674594
0
ARC
8
DEFAULT_255_1_388
10
19.1612466
20
22.8612175
40
0.3667495
50
316.8171818
51
323.1486802
0
ARC
8
DEFAULT_255_1_388
10
19.1681589
20
22.8570612
40
0.358869
50
281.839603
51
316.5458142
0
ARC
8
DEFAULT_255_1_388
10
19.1258877
20
23.0320363
40
0.5388223
50
269.5770964
51
282.4214641
0
ARC
8
DEFAULT_255_1_388
10
19.1178798
20
23.007993
40
0.5147801
50
256.2425863
51
270.4486481
0
ARC
8
DEFAULT_255_1_388
10
19.0842325
20
22.8730124
40
0.3756708
50
228.9024379
51
256.33135
0
ARC
8
DEFAULT_255_1_388
10
19.0759306
20
22.8599054
40
0.360344
50
193.7536029
51
228.5272638
0
ARC
8
DEFAULT_255_1_388
10
19.2151871
20
22.9007463
40
0.5053599
50
184.9244437
51
194.4976052
0
ARC
8
DEFAULT_255_1_388
10
19.2368512
20
22.9047722
40
0.3700839
50
187.3596909
51
198.6733728
0
ARC
8
DEFAULT_255_1_388
10
19.1187755
20
22.8638373
40
0.2451195
50
198.4453795
51
217.7945479
0
ARC
8
DEFAULT_255_1_388
10
19.0854928
20
22.8402563
40
0.2043754
50
218.2887146
51
228.5613203
0
ARC
8
DEFAULT_255_1_388
10
19.0964935
20
22.8550902
40
0.2227819
50
228.9652423
51
258.1237049
0
ARC
8
DEFAULT_255_1_388
10
19.1196372
20
22.9541964
40
0.3245374
50
257.7260585
51
270.4013717
0
ARC
8
DEFAULT_255_1_388
10
19.124687
20
22.9041255
40
0.2744726
50
269.4204315
51
286.420998
0
ARC
8
DEFAULT_255_1_388
10
19.1413926
20
22.8434705
40
0.2115721
50
286.7250065
51
320.6004665
0
ARC
8
DEFAULT_255_1_388
10
19.0982841
20
22.8784527
40
0.2670878
50
320.6712228
51
344.5440474
0
ARC
8
DEFAULT_255_1_388
10
18.9681555
20
22.9166394
40
0.4026927
50
344.241448
51
356.735803
0
ARC
8
DEFAULT_255_1_388
10
18.8277862
20
22.9282656
40
0.5435085
50
356.3547471
51
0.0507222
0
ARC
8
DEFAULT_255_1_388
10
18.9780127
20
22.9317812
40
0.3932934
50
359.5579289
51
12.9534322
0
ARC
8
DEFAULT_255_1_388
10
19.0966967
20
22.9605586
40
0.2711827
50
12.6489751
51
41.608121
0
ARC
8
DEFAULT_255_1_388
10
19.1226127
20
22.9825946
40
0.2371737
50
41.7851122
51
85.9892156
0
ARC
8
DEFAULT_255_1_388
10
19.1087437
20
22.8910738
40
0.3295244
50
84.6965848
51
90.0672125
0
ARC
8
DEFAULT_255_1_388
10
19.1061005
20
22.8159118
40
0.4046926
50
89.6804991
51
99.161352
0
ARC
8
DEFAULT_255_1_388
10
19.0830014
20
22.9539848
40
0.2647044
50
98.9836248
51
113.8905702
0
ARC
8
DEFAULT_255_1_388
10
19.0571689
20
23.0149118
40
0.1985386
50
114.195234
51
127.3641866
0
ARC
8
DEFAULT_255_1_388
10
20.2013244
20
23.480672
40
0.3175098
50
338.8762533
51
0.5167111
0
ARC
8
DEFAULT_255_1_388
10
20.2202838
20
23.47556
40
0.2979894
50
325.8415285
51
338.4793574
0
ARC
8
DEFAULT_255_1_388
10
20.1763472
20
23.5060242
40
0.351452
50
296.7587686
51
325.7536481
0
ARC
8
DEFAULT_255_1_388
10
20.1435099
20
23.5614363
40
0.4157374
50
296.0927901
51
297.3613472
0
ARC
8
DEFAULT_255_1_388
10
20.1729295
20
22.8231593
40
0.395855
50
47.9007294
51
67.1948823
0
ARC
8
DEFAULT_255_1_388
10
20.1949937
20
22.8508599
40
0.360516
50
35.2363914
51
47.551141
0
ARC
8
DEFAULT_255_1_388
10
20.2244341
20
22.8705093
40
0.3251343
50
359.2759765
51
35.4014143
0
ARC
8
DEFAULT_255_1_388
10
20.1406267
20
22.8622787
40
0.4089365
50
343.1293083
51
0.5775513
0
ARC
8
DEFAULT_255_1_388
10
20.222138
20
22.8398336
40
0.3244269
50
310.8496669
51
342.7449331
0
ARC
8
DEFAULT_255_1_388
10
20.1751255
20
22.8934913
40
0.3957651
50
281.5472888
51
310.9170406
0
ARC
8
DEFAULT_255_1_388
10
20.135013
20
23.0681814
40
0.5749654
50
269.619248
51
281.9789564
0
ARC
8
DEFAULT_255_1_388
10
20.1268907
20
23.0682776
40
0.5750649
50
257.4585678
51
270.4285689
0
ARC
8
DEFAULT_255_1_388
10
20.0840428
20
22.8878741
40
0.389671
50
228.7554326
51
257.8484789
0
ARC
8
DEFAULT_255_1_388
10
20.0491913
20
22.8459228
40
0.335154
50
184.0104975
51
228.5071184
0
ARC
8
DEFAULT_255_1_388
10
20.1800305
20
22.865843
40
0.4671891
50
179.9315832
51
185.3253753
0
ARC
8
DEFAULT_255_1_388
10
20.0476818
20
22.8700592
40
0.33486
50
145.6796023
51
180.6259786
0
ARC
8
DEFAULT_255_1_388
10
20.0660584
20
22.8572271
40
0.3572723
50
115.5537685
51
145.6415986
0
ARC
8
DEFAULT_255_1_388
10
20.1043628
20
22.7886087
40
0.4357296
50
113.243307
51
116.2057839
0
ARC
8
DEFAULT_255_1_388
10
20.087228
20
23.5083379
40
0.3549126
50
222.9549744
51
244.1370481
0
ARC
8
DEFAULT_255_1_388
10
20.0734923
20
23.4929378
40
0.3343711
50
213.3436887
51
222.6274467
0
ARC
8
DEFAULT_255_1_388
10
20.0518992
20
23.4782653
40
0.3082678
50
180.431584
51
213.271499
0
ARC
8
DEFAULT_255_1_388
10
20.1153991
20
23.4835296
40
0.3718363
50
179.9991191
51
181.1690594
0
ARC
8
DEFAULT_255_1_388
10
20.1626447
20
23.4874072
40
0.4190996
50
164.6186169
51
180.529336
0
ARC
8
DEFAULT_255_1_388
10
20.0616096
20
23.514578
40
0.3144772
50
132.2455553
51
164.5090724
0
ARC
8
DEFAULT_255_1_388
10
20.0939075
20
23.478007
40
0.3632644
50
100.7053914
51
132.1386381
0
ARC
8
DEFAULT_255_1_388
10
20.1282135
20
23.3230118
40
0.5219578
50
89.6730358
51
101.2451698
0
ARC
8
DEFAULT_255_1_388
10
20.1352127
20
23.3426648
40
0.5023124
50
76.287748
51
90.4586006
0
ARC
8
DEFAULT_255_1_388
10
20.1696629
20
23.4801671
40
0.3605639
50
47.8240511
51
76.4266241
0
ARC
8
DEFAULT_255_1_388
10
20.1947013
20
23.5094599
40
0.3220463
50
6.9168387
51
47.6262497
0
ARC
8
DEFAULT_255_1_388
10
20.0612466
20
23.4848004
40
0.4575765
50
359.8415968
51
7.9697453
0
ARC
8
DEFAULT_255_1_388
10
20.0996735
20
22.8727519
40
0.2827228
50
359.445363
51
16.9256873
0
ARC
8
DEFAULT_255_1_388
10
20.1524169
20
22.8872781
40
0.2280396
50
17.2920767
51
45.4630727
0
ARC
8
DEFAULT_255_1_388
10
20.1463305
20
22.8820324
40
0.2360485
50
45.30305
51
83.1920945
0
ARC
8
DEFAULT_255_1_388
10
20.130205
20
22.7918473
40
0.3275527
50
82.2612665
51
90.1434275
0
ARC
8
DEFAULT_255_1_388
10
20.1267326
20
22.8180869
40
0.3013237
50
89.4956434
51
104.8580688
0
ARC
8
DEFAULT_255_1_388
10
20.1068516
20
22.8934455
40
0.2233867
50
104.8856641
51
135.244616
0
ARC
8
DEFAULT_255_1_388
10
20.1124505
20
22.8884352
40
0.2308906
50
135.3399546
51
172.1044062
0
ARC
8
DEFAULT_255_1_388
10
20.2032029
20
22.8710667
40
0.3232034
50
171.2645637
51
180.186429
0
ARC
8
DEFAULT_255_1_388
10
20.1842034
20
22.8674426
40
0.304213
50
179.5154935
51
193.6464289
0
ARC
8
DEFAULT_255_1_388
10
20.092371
20
22.8440473
40
0.209456
50
193.3540274
51
225.8258581
0
ARC
8
DEFAULT_255_1_388
10
20.0969582
20
22.8520076
40
0.2183738
50
226.4180634
51
255.8552336
0
ARC
8
DEFAULT_255_1_388
10
20.1258048
20
22.9573521
40
0.3275812
50
255.4654104
51
268.7987425
0
ARC
8
DEFAULT_255_1_388
10
20.1311225
20
23.0515545
40
0.4218877
50
268.3449238
51
270.0094605
0
ARC
8
DEFAULT_255_1_388
10
20.1337458
20
22.9747094
40
0.3450519
50
269.5759586
51
282.0820163
0
ARC
8
DEFAULT_255_1_388
10
20.1590495
20
22.8628363
40
0.2303642
50
281.752014
51
306.6056188
0
ARC
8
DEFAULT_255_1_388
10
20.1701303
20
22.8446802
40
0.2091906
50
307.1346085
51
314.027845
0
ARC
8
DEFAULT_255_1_388
10
20.1660814
20
22.8476459
40
0.2141385
50
314.2552483
51
350.1694025
0
ARC
8
DEFAULT_255_1_388
10
20.0703052
20
22.8684175
40
0.312082
50
349.4140529
51
0.2933014
0
ARC
8
DEFAULT_255_1_388
10
20.1288329
20
23.4487924
40
0.2588377
50
89.477747
51
105.729729
0
ARC
8
DEFAULT_255_1_388
10
20.1135249
20
23.5056367
40
0.1999733
50
105.9233417
51
135.1660906
0
ARC
8
DEFAULT_255_1_388
10
20.1158279
20
23.5040412
40
0.2027322
50
135.3052302
51
168.9883645
0
ARC
8
DEFAULT_255_1_388
10
20.2089296
20
23.4826996
40
0.2982129
50
168.3801673
51
180.3602268
0
ARC
8
DEFAULT_255_1_388
10
20.1832412
20
23.4784622
40
0.2725291
50
179.5033122
51
194.9125571
0
ARC
8
DEFAULT_255_1_388
10
20.1173819
20
23.4611427
40
0.204431
50
194.9720816
51
224.194444
0
ARC
8
DEFAULT_255_1_388
10
20.1142185
20
23.4585635
40
0.2003651
50
224.2962453
51
262.015664
0
ARC
8
DEFAULT_255_1_388
10
20.1302189
20
23.5408315
40
0.2840925
50
261.1245923
51
270.1962896
0
ARC
8
DEFAULT_255_1_388
10
20.133567
20
23.5197859
40
0.2630559
50
269.4827276
51
285.0987215
0
ARC
8
DEFAULT_255_1_388
10
20.1509106
20
23.4547175
40
0.1957162
50
285.1585357
51
315.9484501
0
ARC
8
DEFAULT_255_1_388
10
20.140898
20
23.4639315
40
0.2093195
50
316.0413965
51
351.916092
0
ARC
8
DEFAULT_255_1_388
10
20.0584354
20
23.4798323
40
0.2932279
50
351.105835
51
0.1939062
0
ARC
8
DEFAULT_255_1_388
10
20.0879988
20
23.4832224
40
0.2636739
50
359.4789618
51
16.0678224
0
ARC
8
DEFAULT_255_1_388
10
20.141546
20
23.4976721
40
0.2082215
50
16.3252067
51
44.7913869
0
ARC
8
DEFAULT_255_1_388
10
20.1395522
20
23.497732
40
0.2095992
50
44.3957814
51
88.2499162
0
ARC
8
DEFAULT_255_1_388
10
20.1312856
20
23.4289006
40
0.2787189
50
86.9833854
51
90.0192215
0
LINE
8
DEFAULT_255_1_388
10
21.5850273
20
23.289269
11
21.5850273
21
23.0724135
0
LINE
8
DEFAULT_255_1_388
10
20.7546516
20
23.0498244
11
20.7546516
21
23.2730048
0
LINE
8
DEFAULT_255_1_388
10
21.4178679
20
23.0272353
11
21.4178679
21
23.3010153
0
LINE
8
DEFAULT_255_1_388
10
20.921811
20
23.3136652
11
20.921811
21
23.0462102
0
ARC
8
DEFAULT_255_1_388
10
20.2072607
20
23.0669118
40
1.3777776
50
353.8440855
51
0.2287917
0
ARC
8
DEFAULT_255_1_388
10
20.7291625
20
23.0086414
40
0.852639
50
344.4934746
51
353.9763743
0
ARC
8
DEFAULT_255_1_388
10
21.0658432
20
22.9129191
40
0.5026273
50
329.2803599
51
344.7473406
0
ARC
8
DEFAULT_255_1_388
10
21.1773928
20
22.8517038
40
0.3754848
50
324.9361395
51
328.6153007
0
ARC
8
DEFAULT_255_1_388
10
21.2199577
20
22.8219586
40
0.3235566
50
280.5801797
51
324.9173226
0
ARC
8
DEFAULT_255_1_388
10
21.1748206
20
23.0099236
40
0.5167077
50
269.5979457
51
281.6732777
0
ARC
8
DEFAULT_255_1_388
10
21.166711
20
22.9964113
40
0.5032026
50
256.6228565
51
270.5105488
0
ARC
8
DEFAULT_255_1_388
10
21.1214852
20
22.8222345
40
0.3233092
50
215.8618351
51
257.2787793
0
ARC
8
DEFAULT_255_1_388
10
21.2363559
20
22.8993106
40
0.4615831
50
197.9695203
51
215.2622745
0
ARC
8
DEFAULT_255_1_388
10
21.5159235
20
22.9936641
40
0.7566307
50
187.8816486
51
198.2346584
0
ARC
8
DEFAULT_255_1_388
10
21.9612473
20
23.0579453
40
1.2065653
50
180.8977266
51
188.0054894
0
ARC
8
DEFAULT_255_1_388
10
22.2662687
20
23.06944
40
1.5117443
50
180.7434591
51
181.152202
0
ARC
8
DEFAULT_255_1_388
10
22.0987683
20
23.2784371
40
1.3441277
50
173.7674302
51
180.2315596
0
ARC
8
DEFAULT_255_1_388
10
21.5905552
20
23.3358779
40
0.8326847
50
164.3058537
51
173.9000553
0
ARC
8
DEFAULT_255_1_388
10
21.2629552
20
23.4302652
40
0.4917711
50
148.7922028
51
164.5682288
0
ARC
8
DEFAULT_255_1_388
10
21.1560289
20
23.4899457
40
0.3694204
50
144.5883979
51
148.1161588
0
ARC
8
DEFAULT_255_1_388
10
21.1173035
20
23.5169667
40
0.322202
50
101.6440149
51
144.5142619
0
ARC
8
DEFAULT_255_1_388
10
21.1651227
20
23.3269337
40
0.5180451
50
89.528284
51
102.5820197
0
ARC
8
DEFAULT_255_1_388
10
21.1740219
20
23.3225376
40
0.5224441
50
77.0437914
51
90.508231
0
ARC
8
DEFAULT_255_1_388
10
21.2192472
20
23.5073272
40
0.3322297
50
48.2777708
51
77.4996087
0
ARC
8
DEFAULT_255_1_388
10
21.2274212
20
23.5218557
40
0.315966
50
36.3141586
51
47.6307332
0
ARC
8
DEFAULT_255_1_388
10
21.1296935
20
23.4560159
40
0.4337313
50
18.2931065
51
35.6770203
0
ARC
8
DEFAULT_255_1_388
10
20.8435775
20
23.3578107
40
0.7362203
50
8.0246996
51
18.5605636
0
ARC
8
DEFAULT_255_1_388
10
20.3752131
20
23.2886432
40
1.2096583
50
1.127539
51
8.1718423
0
ARC
8
DEFAULT_255_1_388
10
20.0103264
20
23.2743374
40
1.5747719
50
0.5432713
51
1.38669
0
ARC
8
DEFAULT_255_1_388
10
20.2160643
20
23.3050163
40
1.2018103
50
359.8092569
51
4.9408001
0
ARC
8
DEFAULT_255_1_388
10
20.6897224
20
23.34729
40
0.7262727
50
4.8364937
51
12.2906017
0
ARC
8
DEFAULT_255_1_388
10
20.9996689
20
23.4163485
40
0.4087324
50
12.0806994
51
23.8171225
0
ARC
8
DEFAULT_255_1_388
10
21.1317085
20
23.4722508
40
0.2653719
50
24.2874621
51
31.3934353
0
ARC
8
DEFAULT_255_1_388
10
21.1907521
20
23.5108822
40
0.1948607
50
30.7407708
51
82.4658033
0
ARC
8
DEFAULT_255_1_388
10
21.1705182
20
23.4115017
40
0.2961198
50
81.1057101
51
90.2187368
0
ARC
8
DEFAULT_255_1_388
10
21.1664994
20
23.4405421
40
0.2670929
50
89.380395
51
105.6763916
0
ARC
8
DEFAULT_255_1_388
10
21.1458716
20
23.515532
40
0.1893189
50
105.7980655
51
149.7387869
0
ARC
8
DEFAULT_255_1_388
10
21.2655856
20
23.4435719
40
0.3289892
50
149.4208441
51
163.628295
0
ARC
8
DEFAULT_255_1_388
10
21.5008085
20
23.3718345
40
0.5749004
50
163.3764549
51
172.141138
0
ARC
8
DEFAULT_255_1_388
10
21.8720807
20
23.3186582
40
0.9499585
50
172.0258462
51
178.0705453
0
ARC
8
DEFAULT_255_1_388
10
22.214236
20
23.3024682
40
1.2924734
50
177.8639301
51
179.5036263
0
ARC
8
DEFAULT_255_1_388
10
22.0923378
20
23.0421151
40
1.170534
50
179.7995545
51
185.246089
0
ARC
8
DEFAULT_255_1_388
10
21.6374971
20
22.9990404
40
0.7136613
50
185.1411911
51
193.0082205
0
ARC
8
DEFAULT_255_1_388
10
21.3401232
20
22.9287441
40
0.4080987
50
192.7897338
51
205.2507384
0
ARC
8
DEFAULT_255_1_388
10
21.2223442
20
22.8761538
40
0.2791522
50
205.8001921
51
211.2545876
0
ARC
8
DEFAULT_255_1_388
10
21.1634981
20
22.8367132
40
0.2084074
50
210.3789935
51
238.4007996
0
ARC
8
DEFAULT_255_1_388
10
21.1613067
20
22.8419786
40
0.2117943
50
239.6521916
51
265.9793852
0
ARC
8
DEFAULT_255_1_388
10
21.1708916
20
22.9176358
40
0.2879689
50
265.1324455
51
270.0603288
0
ARC
8
DEFAULT_255_1_388
10
21.1741293
20
22.8811418
40
0.2514919
50
269.3314378
51
287.2180039
0
ARC
8
DEFAULT_255_1_388
10
21.1896375
20
22.8245291
40
0.1928357
50
287.7957942
51
329.0808983
0
ARC
8
DEFAULT_255_1_388
10
21.0819132
20
22.8917651
40
0.319808
50
328.6635261
51
343.3325043
0
ARC
8
DEFAULT_255_1_388
10
20.8374591
20
22.9679195
40
0.5758408
50
343.0498092
51
351.9392499
0
ARC
8
DEFAULT_255_1_388
10
20.4473913
20
23.0254205
40
0.9701202
50
351.8071632
51
357.7957897
0
ARC
8
DEFAULT_255_1_388
10
20.083939
20
23.0442724
40
1.3340376
50
357.5870923
51
359.2682493
0
LINE
8
DEFAULT_255_1_388
10
4.8805318
20
20.6633382
11
4.8805318
21
20.5269
0
LINE
8
DEFAULT_255_1_388
10
4.8805318
20
20.5269
11
4.0185313
21
20.5269
0
LINE
8
DEFAULT_255_1_388
10
4.0185313
20
20.5269
11
4.0185313
21
20.6470741
0
LINE
8
DEFAULT_255_1_388
10
4.0185313
20
20.6470741
11
4.4739278
21
21.1530702
0
LINE
8
DEFAULT_255_1_388
10
4.1603909
20
21.4548607
11
3.9932315
21
21.4548607
0
LINE
8
DEFAULT_255_1_388
10
4.5724163
20
21.045546
11
4.2200262
21
20.6633382
0
LINE
8
DEFAULT_255_1_388
10
4.2200262
20
20.6633382
11
4.8805318
21
20.6633382
0
ARC
8
DEFAULT_255_1_388
10
2.9563337
20
22.4950983
40
2.0258655
50
318.5132526
51
320.7829045
0
ARC
8
DEFAULT_255_1_388
10
3.5511294
20
22.0109929
40
1.2589638
50
320.7372878
51
323.9739031
0
ARC
8
DEFAULT_255_1_388
10
3.9920226
20
21.6915554
40
0.7145141
50
323.8962701
51
328.64194
0
ARC
8
DEFAULT_255_1_388
10
4.2222484
20
21.5495545
40
0.4440242
50
328.8294576
51
331.7891185
0
ARC
8
DEFAULT_255_1_388
10
4.3344804
20
21.4916374
40
0.3177517
50
331.4254512
51
352.9365785
0
ARC
8
DEFAULT_255_1_388
10
4.3497804
20
21.488205
40
0.3021496
50
353.2257659
51
0.0166158
0
ARC
8
DEFAULT_255_1_388
10
4.3734564
20
21.4907894
40
0.2784847
50
359.486299
51
15.9343185
0
ARC
8
DEFAULT_255_1_388
10
4.4304831
20
21.5061269
40
0.2194403
50
16.1712913
51
43.5286088
0
ARC
8
DEFAULT_255_1_388
10
4.4391776
20
21.5148191
40
0.2071504
50
43.4417391
51
83.1661095
0
ARC
8
DEFAULT_255_1_388
10
4.4240937
20
21.4319316
40
0.2912888
50
82.160179
51
90.1505708
0
ARC
8
DEFAULT_255_1_388
10
4.4205418
20
21.3715279
40
0.3517025
50
89.5460741
51
102.5418361
0
ARC
8
DEFAULT_255_1_388
10
4.3932138
20
21.4874933
40
0.2325748
50
102.1738499
51
129.206123
0
ARC
8
DEFAULT_255_1_388
10
4.3843592
20
21.5014664
40
0.2161591
50
129.72865
51
135.753947
0
ARC
8
DEFAULT_255_1_388
10
4.3980074
20
21.4905728
40
0.2335433
50
136.1757367
51
166.3673339
0
ARC
8
DEFAULT_255_1_388
10
4.5112762
20
21.4602148
40
0.3507873
50
165.9090694
51
178.8684636
0
ARC
8
DEFAULT_255_1_388
10
4.6088534
20
21.4549263
40
0.4484624
50
178.4391136
51
180.0083808
0
ARC
8
DEFAULT_255_1_388
10
4.4509235
20
21.4593197
40
0.4577138
50
163.2878482
51
180.5581842
0
ARC
8
DEFAULT_255_1_388
10
4.3607276
20
21.4841393
40
0.3641968
50
133.4540601
51
162.947111
0
ARC
8
DEFAULT_255_1_388
10
4.3808158
20
21.4627789
40
0.3935189
50
100.7869829
51
133.4382499
0
ARC
8
DEFAULT_255_1_388
10
4.4199403
20
21.2885399
40
0.5720313
50
89.660664
51
101.3702276
0
ARC
8
DEFAULT_255_1_388
10
4.4274012
20
21.2954263
40
0.5651495
50
78.2172678
51
90.412935
0
ARC
8
DEFAULT_255_1_388
10
4.4673478
20
21.4781511
40
0.378122
50
55.9269121
51
78.4888449
0
ARC
8
DEFAULT_255_1_388
10
4.4894193
20
21.5162187
40
0.3342379
50
47.929771
51
55.4049217
0
ARC
8
DEFAULT_255_1_388
10
4.5008723
20
21.5278618
40
0.3179217
50
4.334829
51
48.0560205
0
ARC
8
DEFAULT_255_1_388
10
4.3776525
20
21.5087487
40
0.442341
50
359.9251713
51
5.5971671
0
ARC
8
DEFAULT_255_1_388
10
4.425868
20
21.5150728
40
0.3941854
50
337.8914027
51
358.9967534
0
ARC
8
DEFAULT_255_1_388
10
4.120625
20
21.6328295
40
0.7213271
50
326.9132501
51
338.3508308
0
ARC
8
DEFAULT_255_1_388
10
3.6722362
20
21.9202105
40
1.2538973
50
319.6471833
51
327.0959558
0
ARC
8
DEFAULT_255_1_388
10
3.240902
20
22.276005
40
1.8129975
50
317.2588228
51
319.9045804
0
LINE
8
DEFAULT_255_1_388
10
5.7633143
20
21.8424898
11
5.7633143
21
20.968743
0
LINE
8
DEFAULT_255_1_388
10
5.7633143
20
20.968743
11
5.9458343
21
20.968743
0
LINE
8
DEFAULT_255_1_388
10
5.9458343
20
20.968743
11
5.9458343
21
20.8323048
0
LINE
8
DEFAULT_255_1_388
10
5.9458343
20
20.8323048
11
5.7633143
21
20.8323048
0
LINE
8
DEFAULT_255_1_388
10
5.7633143
20
20.8323048
11
5.7633143
21
20.5269
0
LINE
8
DEFAULT_255_1_388
10
5.7633143
20
20.5269
11
5.5952513
21
20.5269
0
LINE
8
DEFAULT_255_1_388
10
5.5952513
20
20.5269
11
5.5952513
21
20.8323048
0
LINE
8
DEFAULT_255_1_388
10
5.5952513
20
20.8323048
11
4.996188
21
20.8323048
0
LINE
8
DEFAULT_255_1_388
10
4.996188
20
20.8323048
11
4.996188
21
20.9307933
0
LINE
8
DEFAULT_255_1_388
10
4.996188
20
20.9307933
11
5.5853121
21
21.8424898
0
LINE
8
DEFAULT_255_1_388
10
5.5853121
20
21.8424898
11
5.7633143
21
21.8424898
0
LINE
8
DEFAULT_255_1_388
10
5.5753729
20
21.5777455
11
5.1859366
21
20.968743
0
LINE
8
DEFAULT_255_1_388
10
5.1859366
20
20.968743
11
5.5952513
21
20.968743
0
LINE
8
DEFAULT_255_1_388
10
5.5952513
20
20.968743
11
5.5952513
21
21.613888
0
LINE
8
DEFAULT_255_1_388
10
5.5952513
20
21.613888
11
5.5753729
21
21.5777455
0
LINE
8
DEFAULT_255_1_388
10
6.201543
20
21.8424898
11
6.5756187
21
20.7573089
0
LINE
8
DEFAULT_255_1_388
10
6.5756187
20
20.7573089
11
6.9515015
21
21.8424898
0
LINE
8
DEFAULT_255_1_388
10
6.9515015
20
21.8424898
11
7.14125
21
21.8424898
0
LINE
8
DEFAULT_255_1_388
10
7.14125
20
21.8424898
11
6.6533252
21
20.5269
0
LINE
8
DEFAULT_255_1_388
10
6.6533252
20
20.5269
11
6.4997193
21
20.5269
0
LINE
8
DEFAULT_255_1_388
10
6.4997193
20
20.5269
11
6.012698
21
21.8424898
0
LINE
8
DEFAULT_255_1_388
10
6.012698
20
21.8424898
11
6.201543
21
21.8424898
0
LINE
8
DEFAULT_255_1_388
10
4.826368
20
5.9674898
11
5.000756
21
5.9674898
0
LINE
8
DEFAULT_255_1_388
10
5.000756
20
5.9674898
11
5.000756
21
5.072961
0
LINE
8
DEFAULT_255_1_388
10
4.5688521
20
4.6356358
11
4.5227704
21
4.6338287
0
LINE
8
DEFAULT_255_1_388
10
4.048399
20
5.0711539
11
4.048399
21
5.9674898
0
LINE
8
DEFAULT_255_1_388
10
4.048399
20
5.9674898
11
4.2200763
21
5.9674898
0
LINE
8
DEFAULT_255_1_388
10
4.2200763
20
5.9674898
11
4.2200763
21
5.0765753
0
LINE
8
DEFAULT_255_1_388
10
4.826368
20
5.0756717
11
4.826368
21
5.9674898
0
ARC
8
DEFAULT_255_1_388
10
4.5110358
20
5.070727
40
0.4897252
50
343.0897723
51
0.2613727
0
ARC
8
DEFAULT_255_1_388
10
4.6042329
20
5.044727
40
0.3930016
50
315.3344451
51
342.7642569
0
ARC
8
DEFAULT_255_1_388
10
4.5790825
20
5.0708085
40
0.4292244
50
284.6605441
51
315.2183439
0
ARC
8
DEFAULT_255_1_388
10
4.5278605
20
5.2447508
40
0.6104926
50
273.8500371
51
285.1796441
0
ARC
8
DEFAULT_255_1_388
10
4.5179669
20
5.2831762
40
0.6493653
50
257.6315393
51
270.4238259
0
ARC
8
DEFAULT_255_1_388
10
4.4701753
20
5.0782915
40
0.4390079
50
230.6086859
51
257.9965362
0
ARC
8
DEFAULT_255_1_388
10
4.4555811
20
5.0553643
40
0.4120404
50
227.745033
51
230.1538266
0
ARC
8
DEFAULT_255_1_388
10
4.440234
20
5.0369253
40
0.3880742
50
189.2524335
51
227.5915299
0
ARC
8
DEFAULT_255_1_388
10
4.6114211
20
5.0737735
40
0.5630282
50
180.2665782
51
190.1525221
0
ARC
8
DEFAULT_255_1_388
10
4.6363939
20
5.0734254
40
0.4163296
50
179.566507
51
191.9954402
0
ARC
8
DEFAULT_255_1_388
10
4.4982628
20
5.0426151
40
0.274815
50
191.6974619
51
215.1403758
0
ARC
8
DEFAULT_255_1_388
10
4.471502
20
5.0266689
40
0.2437647
50
215.6958251
51
224.8509274
0
ARC
8
DEFAULT_255_1_388
10
4.4777496
20
5.0356016
40
0.2545012
50
225.2846515
51
255.0110023
0
ARC
8
DEFAULT_255_1_388
10
4.5141943
20
5.1609017
40
0.384974
50
254.5945979
51
267.9129427
0
ARC
8
DEFAULT_255_1_388
10
4.5225636
20
5.2826444
40
0.506956
50
267.4687563
51
270.0233681
0
ARC
8
DEFAULT_255_1_388
10
4.5259631
20
5.2166288
40
0.440952
50
269.5851384
51
281.1845308
0
ARC
8
DEFAULT_255_1_388
10
4.5573235
20
5.0644469
40
0.2855802
50
280.9345159
51
300.9740496
0
ARC
8
DEFAULT_255_1_388
10
4.5812415
20
5.0204128
40
0.2355257
50
301.4982546
51
315.1468616
0
ARC
8
DEFAULT_255_1_388
10
4.5649912
20
5.0337488
40
0.2564594
50
315.5952932
51
345.6679188
0
ARC
8
DEFAULT_255_1_388
10
4.4390469
20
5.0688235
40
0.3871766
50
345.2525685
51
358.6303941
0
ARC
8
DEFAULT_255_1_388
10
4.3246859
20
5.0755695
40
0.5016822
50
358.1723541
51
0.0116795
0
LINE
8
DEFAULT_255_1_388
10
6.1473792
20
5.5870892
11
5.9729913
21
5.5870892
0
LINE
8
DEFAULT_255_1_388
10
5.1941188
20
5.0332042
11
5.3685067
21
5.0332042
0
ARC
8
DEFAULT_255_1_388
10
6.047064
20
6.5934821
40
1.4087688
50
248.9196578
51
254.1442424
0
ARC
8
DEFAULT_255_1_388
10
5.858052
20
6.1068805
40
0.8867498
50
241.6337352
51
249.0064643
0
ARC
8
DEFAULT_255_1_388
10
5.6860833
20
5.7917764
40
0.5277799
50
230.4982261
51
241.8087583
0
ARC
8
DEFAULT_255_1_388
10
5.5978605
20
5.6793686
40
0.3849419
50
227.4062979
51
229.9877433
0
ARC
8
DEFAULT_255_1_388
10
5.5429951
20
5.6258155
40
0.3084129
50
200.6782127
51
228.1765252
0
ARC
8
DEFAULT_255_1_388
10
5.551132
20
5.6241277
40
0.315461
50
179.506278
51
199.8695278
0
ARC
8
DEFAULT_255_1_388
10
5.5500909
20
5.6324671
40
0.3144584
50
132.4834401
51
181.0242352
0
ARC
8
DEFAULT_255_1_388
10
5.6170113
20
5.5692788
40
0.4063094
50
129.2526113
51
133.4249077
0
ARC
8
DEFAULT_255_1_388
10
5.6335706
20
5.5444619
40
0.436014
50
101.9878945
51
128.8741833
0
ARC
8
DEFAULT_255_1_388
10
5.6784121
20
5.350836
40
0.6347415
50
89.5906376
51
102.3170567
0
ARC
8
DEFAULT_255_1_388
10
5.6863432
20
5.3866586
40
0.5989122
50
77.2359491
51
90.3248968
0
ARC
8
DEFAULT_255_1_388
10
5.7096363
20
5.4954554
40
0.4876594
50
63.8379856
51
77.0808925
0
ARC
8
DEFAULT_255_1_388
10
5.7408897
20
5.5536882
40
0.4216191
50
45.9863127
51
64.1608798
0
ARC
8
DEFAULT_255_1_388
10
5.7702291
20
5.587199
40
0.3771394
50
32.2747934
51
45.6544796
0
ARC
8
DEFAULT_255_1_388
10
5.7777097
20
5.5893426
40
0.3696765
50
359.6507495
51
32.6129943
0
ARC
8
DEFAULT_255_1_388
10
5.671628
20
5.5898788
40
0.3013762
50
359.469654
51
14.983205
0
ARC
8
DEFAULT_255_1_388
10
5.7509532
20
5.6111288
40
0.2192542
50
14.9781954
51
48.2004799
0
ARC
8
DEFAULT_255_1_388
10
5.7324643
20
5.5878937
40
0.2489048
50
48.5926661
51
74.1242559
0
ARC
8
DEFAULT_255_1_388
10
5.6949445
20
5.4640607
40
0.3782845
50
73.7889321
51
86.6653996
0
ARC
8
DEFAULT_255_1_388
10
5.683426
20
5.3282955
40
0.5145025
50
86.2642725
51
90.0533288
0
ARC
8
DEFAULT_255_1_388
10
5.6802353
20
5.3727376
40
0.4700681
50
89.669455
51
99.2313411
0
ARC
8
DEFAULT_255_1_388
10
5.6529512
20
5.5352401
40
0.3052945
50
99.0695987
51
113.7659242
0
ARC
8
DEFAULT_255_1_388
10
5.6221507
20
5.6078772
40
0.226407
50
114.0402885
51
127.9848946
0
ARC
8
DEFAULT_255_1_388
10
5.5950983
20
5.6411884
40
0.1835045
50
127.7287217
51
176.7106493
0
ARC
8
DEFAULT_255_1_388
10
5.6714648
20
5.629821
40
0.2604907
50
175.1780759
51
180.0581213
0
ARC
8
DEFAULT_255_1_388
10
5.5765992
20
5.6284411
40
0.1656287
50
179.6140658
51
228.124674
0
ARC
8
DEFAULT_255_1_388
10
5.6263349
20
5.674494
40
0.2332038
50
226.5785315
51
230.8792476
0
ARC
8
DEFAULT_255_1_388
10
5.6792836
20
5.7447908
40
0.3211664
50
231.4636401
51
241.9261664
0
ARC
8
DEFAULT_255_1_388
10
5.8139619
20
5.9926349
40
0.6032345
50
241.7177136
51
248.3259138
0
ARC
8
DEFAULT_255_1_388
10
5.9698214
20
6.3787771
40
1.0196417
50
248.2007377
51
252.4527713
0
ARC
8
DEFAULT_255_1_388
10
6.105174
20
6.7972092
40
1.4594143
50
252.3388938
51
254.347037
0
ARC
8
DEFAULT_255_1_388
10
5.2567041
20
3.7624095
40
1.6917621
50
71.0197462
51
74.4085467
0
ARC
8
DEFAULT_255_1_388
10
5.4474129
20
4.3129144
40
1.1091618
50
66.1845203
51
71.086519
0
ARC
8
DEFAULT_255_1_388
10
5.6224678
20
4.7070439
40
0.6779073
50
59.3537334
51
66.269255
0
ARC
8
DEFAULT_255_1_388
10
5.7224404
20
4.8761777
40
0.4814366
50
49.1021732
51
59.3294421
0
ARC
8
DEFAULT_255_1_388
10
5.8145392
20
4.9811575
40
0.3417875
50
32.7924183
51
49.2503526
0
ARC
8
DEFAULT_255_1_388
10
5.8495006
20
5.0061311
40
0.2988789
50
31.121225
51
32.3977355
0
ARC
8
DEFAULT_255_1_388
10
5.8407184
20
5.0028728
40
0.3080861
50
8.1116803
51
30.7958224
0
ARC
8
DEFAULT_255_1_388
10
5.749553
20
4.9873437
40
0.4005385
50
359.8390945
51
8.4707348
0
ARC
8
DEFAULT_255_1_388
10
5.8199578
20
4.9818751
40
0.3301608
50
337.4732479
51
0.7538283
0
ARC
8
DEFAULT_255_1_388
10
5.8400603
20
4.9796554
40
0.3107929
50
307.5917028
51
336.4313755
0
ARC
8
DEFAULT_255_1_388
10
5.788966
20
5.0364509
40
0.3870096
50
307.6560665
51
308.4561779
0
ARC
8
DEFAULT_255_1_388
10
5.7623877
20
5.0772832
40
0.435591
50
284.3733666
51
307.1426212
0
ARC
8
DEFAULT_255_1_388
10
5.7066771
20
5.2822391
40
0.6479685
50
272.4384566
51
284.6464689
0
ARC
8
DEFAULT_255_1_388
10
5.6924156
20
5.4846434
40
0.8508149
50
269.9708517
51
272.8180721
0
ARC
8
DEFAULT_255_1_388
10
5.6875839
20
5.2554283
40
0.6216151
50
248.2707343
51
270.4054609
0
ARC
8
DEFAULT_255_1_388
10
5.681471
20
5.2339673
40
0.5994203
50
246.1380358
51
248.054058
0
ARC
8
DEFAULT_255_1_388
10
5.6343853
20
5.1350705
40
0.4899388
50
233.1671897
51
246.4951656
0
ARC
8
DEFAULT_255_1_388
10
5.5720488
20
5.0509137
40
0.3852115
50
215.3403381
51
233.084328
0
ARC
8
DEFAULT_255_1_388
10
5.5413852
20
5.0286093
40
0.3472969
50
179.2419235
51
215.2648426
0
ARC
8
DEFAULT_255_1_388
10
5.6277403
20
5.0301979
40
0.259251
50
179.3355796
51
199.1045873
0
ARC
8
DEFAULT_255_1_388
10
5.5903545
20
5.0204223
40
0.2207454
50
199.8830064
51
232.7061328
0
ARC
8
DEFAULT_255_1_388
10
5.6434819
20
5.0872456
40
0.306101
50
232.3736206
51
255.5136621
0
ARC
8
DEFAULT_255_1_388
10
5.6818325
20
5.2272177
40
0.4512213
50
255.2447928
51
267.5318292
0
ARC
8
DEFAULT_255_1_388
10
5.6916792
20
5.3658709
40
0.5901825
50
267.1564563
51
270.0294721
0
ARC
8
DEFAULT_255_1_388
10
5.6948117
20
5.3159623
40
0.5402814
50
269.6999944
51
278.1662446
0
ARC
8
DEFAULT_255_1_388
10
5.7236145
20
5.1212974
40
0.3435003
50
278.0229022
51
290.6255326
0
ARC
8
DEFAULT_255_1_388
10
5.7627311
20
5.0169547
40
0.2320666
50
290.6616368
51
307.0374127
0
ARC
8
DEFAULT_255_1_388
10
5.7965211
20
4.975504
40
0.1786372
50
306.3942078
51
355.303191
0
ARC
8
DEFAULT_255_1_388
10
5.7389504
20
4.9841186
40
0.2367516
50
354.3662092
51
0.0709489
0
ARC
8
DEFAULT_255_1_388
10
5.7549373
20
4.9866561
40
0.2207761
50
359.4175379
51
16.1975911
0
ARC
8
DEFAULT_255_1_388
10
5.8061491
20
5.0006954
40
0.1676828
50
16.4721294
51
52.6261798
0
ARC
8
DEFAULT_255_1_388
10
5.7137998
20
4.8787606
40
0.3206412
50
52.7381828
51
62.4979144
0
ARC
8
DEFAULT_255_1_388
10
5.5579751
20
4.5855236
40
0.6527035
50
62.2517425
51
68.1219454
0
ARC
8
DEFAULT_255_1_388
10
5.3645239
20
4.1100951
40
1.1659797
50
68.006043
51
71.8055127
0
ARC
8
DEFAULT_255_1_388
10
5.1625147
20
3.5042723
40
1.8045908
50
71.718361
51
73.9260743
0
LINE
8
DEFAULT_255_1_388
10
6.8286668
20
4.6519
11
6.3723668
21
4.6519
0
LINE
8
DEFAULT_255_1_388
10
6.3723668
20
4.6519
11
6.3723668
21
5.9674898
0
LINE
8
DEFAULT_255_1_388
10
6.3723668
20
5.9674898
11
6.8024635
21
5.9674898
0
LINE
8
DEFAULT_255_1_388
10
6.8349918
20
5.2672274
11
6.5458512
21
5.2672274
0
LINE
8
DEFAULT_255_1_388
10
6.5458512
20
5.2672274
11
6.5458512
21
4.7937596
0
LINE
8
DEFAULT_255_1_388
10
6.5458512
20
4.7937596
11
6.8322811
21
4.7937596
0
LINE
8
DEFAULT_255_1_388
10
6.5458512
20
5.8247267
11
6.5458512
21
5.4063763
0
LINE
8
DEFAULT_255_1_388
10
6.5458512
20
5.4063763
11
6.8078849
21
5.4063763
0
LINE
8
DEFAULT_255_1_388
10
6.8024635
20
5.8247267
11
6.5458512
21
5.8247267
0
ARC
8
DEFAULT_255_1_388
10
6.8067055
20
5.1386824
40
0.8288183
50
82.1256322
51
90.2932506
0
ARC
8
DEFAULT_255_1_388
10
6.850463
20
5.444459
40
0.5199321
50
69.9044202
51
82.2857574
0
ARC
8
DEFAULT_255_1_388
10
6.9146623
20
5.6179993
40
0.3348993
50
51.1840204
51
70.018125
0
ARC
8
DEFAULT_255_1_388
10
6.9433455
20
5.6596945
40
0.2844579
50
12.1018086
51
50.421322
0
ARC
8
DEFAULT_255_1_388
10
6.7876326
20
5.6205937
40
0.4449429
50
359.5252354
51
12.8212369
0
ARC
8
DEFAULT_255_1_388
10
6.9653756
20
5.6127943
40
0.2672162
50
323.4907456
51
0.8818258
0
ARC
8
DEFAULT_255_1_388
10
6.9183169
20
5.6491523
40
0.3266736
50
298.6824053
51
323.2758285
0
ARC
8
DEFAULT_255_1_388
10
6.8776461
20
5.7167509
40
0.4055105
50
293.1994739
51
299.139634
0
ARC
8
DEFAULT_255_1_388
10
6.953341
20
5.0321651
40
0.3229926
50
54.0009997
51
74.9168635
0
ARC
8
DEFAULT_255_1_388
10
6.9664337
20
5.0543511
40
0.2973581
50
36.3578854
51
53.5293172
0
ARC
8
DEFAULT_255_1_388
10
6.9521705
20
5.044185
40
0.3148715
50
4.8189348
51
36.3090187
0
ARC
8
DEFAULT_255_1_388
10
6.8644729
20
5.0318383
40
0.4033265
50
359.9373213
51
5.5201284
0
ARC
8
DEFAULT_255_1_388
10
6.8280059
20
5.0272733
40
0.4398126
50
344.7479357
51
0.5372278
0
ARC
8
DEFAULT_255_1_388
10
6.9394958
20
4.9972205
40
0.3243441
50
311.1785587
51
344.6887681
0
ARC
8
DEFAULT_255_1_388
10
6.9066501
20
5.0381084
40
0.3767511
50
286.0417804
51
310.8440924
0
ARC
8
DEFAULT_255_1_388
10
6.849591
20
5.2233885
40
0.5705957
50
274.1044074
51
286.4070149
0
ARC
8
DEFAULT_255_1_388
10
6.8297126
20
5.4351901
40
0.7832907
50
269.9235077
51
274.4458593
0
ARC
8
DEFAULT_255_1_388
10
6.8348844
20
5.1720462
40
0.3782955
50
269.6057074
51
281.3740795
0
ARC
8
DEFAULT_255_1_388
10
6.8608342
20
5.0490569
40
0.2526069
50
281.105298
51
302.5134029
0
ARC
8
DEFAULT_255_1_388
10
6.877373
20
5.0193944
40
0.2187131
50
303.0365425
51
311.8818034
0
ARC
8
DEFAULT_255_1_388
10
6.8853907
20
5.0098602
40
0.2062624
50
311.9916937
51
351.7143773
0
ARC
8
DEFAULT_255_1_388
10
6.7934932
20
5.0284271
40
0.2999202
50
350.7343295
51
0.2221526
0
ARC
8
DEFAULT_255_1_388
10
6.781402
20
5.034787
40
0.3120525
50
359.045729
51
17.2295312
0
ARC
8
DEFAULT_255_1_388
10
6.898305
20
5.0695155
40
0.1901144
50
17.6685208
51
78.9940245
0
ARC
8
DEFAULT_255_1_388
10
6.8401411
20
4.8607011
40
0.4065575
50
76.565218
51
90.7103392
0
LINE
8
DEFAULT_255_1_388
10
6.8351008
20
5.2672274
11
6.8349918
21
5.2672274
0
ARC
8
DEFAULT_255_1_388
10
6.8104237
20
5.7759949
40
0.3696273
50
269.6064514
51
281.4533785
0
ARC
8
DEFAULT_255_1_388
10
6.8354878
20
5.6577283
40
0.2487412
50
281.2044438
51
302.5143998
0
ARC
8
DEFAULT_255_1_388
10
6.8509132
20
5.6299576
40
0.2170405
50
303.0211308
51
309.8378766
0
ARC
8
DEFAULT_255_1_388
10
6.8715249
20
5.6068486
40
0.1860946
50
309.5229446
51
356.9509628
0
ARC
8
DEFAULT_255_1_388
10
6.7969375
20
5.6175831
40
0.2612347
50
355.4699226
51
0.0498632
0
ARC
8
DEFAULT_255_1_388
10
6.7655049
20
5.6200789
40
0.2926762
50
359.5558955
51
11.2092924
0
ARC
8
DEFAULT_255_1_388
10
6.8732016
20
5.6423667
40
0.1827036
50
10.9185717
51
31.322519
0
ARC
8
DEFAULT_255_1_388
10
6.9053564
20
5.6602571
40
0.1459418
50
31.8850633
51
52.1415586
0
ARC
8
DEFAULT_255_1_388
10
6.8744993
20
5.6166674
40
0.1993088
50
52.8283418
51
71.9850132
0
ARC
8
DEFAULT_255_1_388
10
6.8322154
20
5.4922158
40
0.3307407
50
71.686634
51
82.8453416
0
ARC
8
DEFAULT_255_1_388
10
6.8052801
20
5.2886892
40
0.536039
50
82.6981895
51
90.1730083
0
ARC
8
DEFAULT_255_1_388
10
6.8027633
20
5.3765836
40
0.4481429
50
89.8851568
51
90.0383283
0
LINE
8
DEFAULT_255_1_388
10
4.7349359
20
13.3393585
11
4.7349359
21
13.1974989
0
LINE
8
DEFAULT_255_1_388
10
4.7349359
20
13.1974989
11
4.1647868
21
13.1974989
0
LINE
8
DEFAULT_255_1_388
10
4.1647868
20
13.1974989
11
4.1647868
21
12.7312596
0
LINE
8
DEFAULT_255_1_388
10
4.1647868
20
12.7312596
11
4.8270995
21
12.7312596
0
LINE
8
DEFAULT_255_1_388
10
4.8270995
20
12.7312596
11
4.8270995
21
12.5894
0
LINE
8
DEFAULT_255_1_388
10
4.8270995
20
12.5894
11
3.9913024
21
12.5894
0
LINE
8
DEFAULT_255_1_388
10
3.9913024
20
12.5894
11
3.9913024
21
13.9049898
0
LINE
8
DEFAULT_255_1_388
10
3.9913024
20
13.9049898
11
4.8180639
21
13.9049898
0
LINE
8
DEFAULT_255_1_388
10
4.8180639
20
13.9049898
11
4.8180639
21
13.7622267
0
LINE
8
DEFAULT_255_1_388
10
4.8180639
20
13.7622267
11
4.1647868
21
13.7622267
0
LINE
8
DEFAULT_255_1_388
10
4.1647868
20
13.7622267
11
4.1647868
21
13.3393585
0
LINE
8
DEFAULT_255_1_388
10
4.1647868
20
13.3393585
11
4.7349359
21
13.3393585
0
LINE
8
DEFAULT_255_1_388
10
5.9701085
20
13.9049898
11
5.9701085
21
13.7622267
0
LINE
8
DEFAULT_255_1_388
10
5.9701085
20
13.7622267
11
5.5472404
21
13.7622267
0
LINE
8
DEFAULT_255_1_388
10
5.5472404
20
13.7622267
11
5.5472404
21
12.5894
0
LINE
8
DEFAULT_255_1_388
10
5.5472404
20
12.5894
11
5.3746596
21
12.5894
0
LINE
8
DEFAULT_255_1_388
10
5.3746596
20
12.5894
11
5.3746596
21
13.7622267
0
LINE
8
DEFAULT_255_1_388
10
5.3746596
20
13.7622267
11
4.952695
21
13.7622267
0
LINE
8
DEFAULT_255_1_388
10
4.952695
20
13.7622267
11
4.952695
21
13.9049898
0
LINE
8
DEFAULT_255_1_388
10
4.952695
20
13.9049898
11
5.9701085
21
13.9049898
0
LINE
8
DEFAULT_255_1_388
10
7.1763671
20
13.9049898
11
7.1763671
21
12.5894
0
LINE
8
DEFAULT_255_1_388
10
7.1763671
20
12.5894
11
7.0019792
21
12.5894
0
LINE
8
DEFAULT_255_1_388
10
7.0019792
20
12.5894
11
6.3396664
21
13.6031993
0
LINE
8
DEFAULT_255_1_388
10
6.3396664
20
13.6031993
11
6.3396664
21
12.5894
0
LINE
8
DEFAULT_255_1_388
10
6.3396664
20
12.5894
11
6.1652785
21
12.5894
0
LINE
8
DEFAULT_255_1_388
10
6.1652785
20
12.5894
11
6.1652785
21
13.9049898
0
LINE
8
DEFAULT_255_1_388
10
6.1652785
20
13.9049898
11
6.3396664
21
13.9049898
0
LINE
8
DEFAULT_255_1_388
10
6.3396664
20
13.9049898
11
7.0037863
21
12.8866727
0
LINE
8
DEFAULT_255_1_388
10
7.0037863
20
12.8866727
11
7.0037863
21
13.9049898
0
LINE
8
DEFAULT_255_1_388
10
7.0037863
20
13.9049898
11
7.1763671
21
13.9049898
0
LINE
8
DEFAULT_255_1_388
10
23.1196856
20
21.304869
11
23.1196856
21
21.0880135
0
LINE
8
DEFAULT_255_1_388
10
22.2893099
20
21.0654244
11
22.2893099
21
21.2886048
0
LINE
8
DEFAULT_255_1_388
10
22.9525262
20
21.0428353
11
22.9525262
21
21.3166153
0
LINE
8
DEFAULT_255_1_388
10
22.4564693
20
21.3292652
11
22.4564693
21
21.0618102
0
ARC
8
DEFAULT_255_1_388
10
21.741919
20
21.0825118
40
1.3777776
50
353.8440855
51
0.2287917
0
ARC
8
DEFAULT_255_1_388
10
22.2638208
20
21.0242414
40
0.852639
50
344.4934746
51
353.9763743
0
ARC
8
DEFAULT_255_1_388
10
22.6005015
20
20.9285191
40
0.5026273
50
329.2803599
51
344.7473406
0
ARC
8
DEFAULT_255_1_388
10
22.7120511
20
20.8673038
40
0.3754848
50
324.9361395
51
328.6153007
0
ARC
8
DEFAULT_255_1_388
10
22.7546161
20
20.8375586
40
0.3235566
50
280.5801797
51
324.9173226
0
ARC
8
DEFAULT_255_1_388
10
22.7094789
20
21.0255236
40
0.5167077
50
269.5979457
51
281.6732777
0
ARC
8
DEFAULT_255_1_388
10
22.7013693
20
21.0120113
40
0.5032026
50
256.6228565
51
270.5105488
0
ARC
8
DEFAULT_255_1_388
10
22.6561435
20
20.8378345
40
0.3233092
50
215.8618351
51
257.2787793
0
ARC
8
DEFAULT_255_1_388
10
22.7710142
20
20.9149106
40
0.4615831
50
197.9695203
51
215.2622745
0
ARC
8
DEFAULT_255_1_388
10
23.0505818
20
21.0092641
40
0.7566307
50
187.8816486
51
198.2346584
0
ARC
8
DEFAULT_255_1_388
10
23.4959056
20
21.0735453
40
1.2065653
50
180.8977266
51
188.0054894
0
ARC
8
DEFAULT_255_1_388
10
23.800927
20
21.08504
40
1.5117443
50
180.7434591
51
181.152202
0
ARC
8
DEFAULT_255_1_388
10
23.6334266
20
21.2940371
40
1.3441277
50
173.7674302
51
180.2315596
0
ARC
8
DEFAULT_255_1_388
10
23.1252135
20
21.3514779
40
0.8326847
50
164.3058537
51
173.9000553
0
ARC
8
DEFAULT_255_1_388
10
22.7976135
20
21.4458652
40
0.4917711
50
148.7922028
51
164.5682288
0
ARC
8
DEFAULT_255_1_388
10
22.6906872
20
21.5055457
40
0.3694204
50
144.5883979
51
148.1161588
0
ARC
8
DEFAULT_255_1_388
10
22.6519618
20
21.5325667
40
0.322202
50
101.6440149
51
144.5142619
0
ARC
8
DEFAULT_255_1_388
10
22.699781
20
21.3425337
40
0.5180451
50
89.528284
51
102.5820197
0
ARC
8
DEFAULT_255_1_388
10
22.7086802
20
21.3381376
40
0.5224441
50
77.0437914
51
90.508231
0
ARC
8
DEFAULT_255_1_388
10
22.7539055
20
21.5229272
40
0.3322297
50
48.2777708
51
77.4996087
0
ARC
8
DEFAULT_255_1_388
10
22.7620795
20
21.5374557
40
0.315966
50
36.3141586
51
47.6307332
0
ARC
8
DEFAULT_255_1_388
10
22.6643518
20
21.4716159
40
0.4337313
50
18.2931065
51
35.6770203
0
ARC
8
DEFAULT_255_1_388
10
22.3782358
20
21.3734107
40
0.7362203
50
8.0246996
51
18.5605636
0
ARC
8
DEFAULT_255_1_388
10
21.9098714
20
21.3042432
40
1.2096583
50
1.127539
51
8.1718423
0
ARC
8
DEFAULT_255_1_388
10
21.5449847
20
21.2899374
40
1.5747719
50
0.5432713
51
1.38669
0
ARC
8
DEFAULT_255_1_388
10
21.7507226
20
21.3206163
40
1.2018103
50
359.8092569
51
4.9408001
0
ARC
8
DEFAULT_255_1_388
10
22.2243807
20
21.36289
40
0.7262727
50
4.8364937
51
12.2906017
0
ARC
8
DEFAULT_255_1_388
10
22.5343272
20
21.4319485
40
0.4087324
50
12.0806994
51
23.8171225
0
ARC
8
DEFAULT_255_1_388
10
22.6663668
20
21.4878508
40
0.2653719
50
24.2874621
51
31.3934353
0
ARC
8
DEFAULT_255_1_388
10
22.7254104
20
21.5264822
40
0.1948607
50
30.7407708
51
82.4658033
0
ARC
8
DEFAULT_255_1_388
10
22.7051765
20
21.4271017
40
0.2961198
50
81.1057101
51
90.2187368
0
ARC
8
DEFAULT_255_1_388
10
22.7011577
20
21.4561421
40
0.2670929
50
89.380395
51
105.6763916
0
ARC
8
DEFAULT_255_1_388
10
22.6805299
20
21.531132
40
0.1893189
50
105.7980655
51
149.7387869
0
ARC
8
DEFAULT_255_1_388
10
22.8002439
20
21.4591719
40
0.3289892
50
149.4208441
51
163.628295
0
ARC
8
DEFAULT_255_1_388
10
23.0354668
20
21.3874345
40
0.5749004
50
163.3764549
51
172.141138
0
ARC
8
DEFAULT_255_1_388
10
23.406739
20
21.3342582
40
0.9499585
50
172.0258462
51
178.0705453
0
ARC
8
DEFAULT_255_1_388
10
23.7488943
20
21.3180682
40
1.2924734
50
177.8639301
51
179.5036263
0
ARC
8
DEFAULT_255_1_388
10
23.6269961
20
21.0577151
40
1.170534
50
179.7995545
51
185.246089
0
ARC
8
DEFAULT_255_1_388
10
23.1721554
20
21.0146404
40
0.7136613
50
185.1411911
51
193.0082205
0
ARC
8
DEFAULT_255_1_388
10
22.8747815
20
20.9443441
40
0.4080987
50
192.7897338
51
205.2507384
0
ARC
8
DEFAULT_255_1_388
10
22.7570025
20
20.8917538
40
0.2791522
50
205.8001921
51
211.2545876
0
ARC
8
DEFAULT_255_1_388
10
22.6981564
20
20.8523132
40
0.2084074
50
210.3789935
51
238.4007996
0
ARC
8
DEFAULT_255_1_388
10
22.695965
20
20.8575786
40
0.2117943
50
239.6521916
51
265.9793852
0
ARC
8
DEFAULT_255_1_388
10
22.7055499
20
20.9332358
40
0.2879689
50
265.1324455
51
270.0603288
0
ARC
8
DEFAULT_255_1_388
10
22.7087876
20
20.8967418
40
0.2514919
50
269.3314378
51
287.2180039
0
ARC
8
DEFAULT_255_1_388
10
22.7242958
20
20.8401291
40
0.1928357
50
287.7957942
51
329.0808983
0
ARC
8
DEFAULT_255_1_388
10
22.6165715
20
20.9073651
40
0.319808
50
328.6635261
51
343.3325043
0
ARC
8
DEFAULT_255_1_388
10
22.3721174
20
20.9835195
40
0.5758408
50
343.0498092
51
351.9392499
0
ARC
8
DEFAULT_255_1_388
10
21.9820496
20
21.0410205
40
0.9701202
50
351.8071632
51
357.7957897
0
ARC
8
DEFAULT_255_1_388
10
21.6185973
20
21.0598724
40
1.3340376
50
357.5870923
51
359.2682493
0
LINE
8
DEFAULT_255_1_388
10
23.4386439
20
21.8424898
11
23.8127196
21
20.7573089
0
LINE
8
DEFAULT_255_1_388
10
23.8127196
20
20.7573089
11
24.1886024
21
21.8424898
0
LINE
8
DEFAULT_255_1_388
10
24.1886024
20
21.8424898
11
24.3783509
21
21.8424898
0
LINE
8
DEFAULT_255_1_388
10
24.3783509
20
21.8424898
11
23.8904261
21
20.5269
0
LINE
8
DEFAULT_255_1_388
10
23.8904261
20
20.5269
11
23.7368202
21
20.5269
0
LINE
8
DEFAULT_255_1_388
10
23.7368202
20
20.5269
11
23.2497989
21
21.8424898
0
LINE
8
DEFAULT_255_1_388
10
23.2497989
20
21.8424898
11
23.4386439
21
21.8424898
0
ENDSEC
0
EOF