0
SECTION
2
HEADER
9
$MEASUREMENT
70
1
0
ENDSEC
0
SECTION
2
TABLES
0
TABLE
2
LTYPE
0
LTYPE
72
65
70
64
2
CONTINUOUS
3
______
73
0
40
0
0
LTYPE
72
65
70
64
2
DASH_DEFAULT_255_2_778_1
3
______
73
1
40
1
49
-0.5292
0
ENDTAB
0
TABLE
2
LAYER
0
LAYER
2
DEFAULT_255_2_778
70
0
62
255
6
CONTINUOUS
0
LAYER
2
DEFAULT_255_1_388
70
0
62
255
6
CONTINUOUS
0
LAYER
2
DEFAULT_255_2_778_1
70
0
62
255
6
DASH_DEFAULT_255_2_778_1
0
ENDTAB
0
ENDSEC
0
SECTION
2
ENTITIES
0
ARC
8
DEFAULT_255_2_778
10
3.5700693
20
139.3052021
40
0.7914215
50
129.1312896
51
180.1450914
0
ARC
8
DEFAULT_255_2_778
10
3.5703345
20
139.3056893
40
0.7912112
50
89.854026
51
129.1684493
0
ARC
8
DEFAULT_255_2_778
10
25.7993937
20
139.3053758
40
0.7915249
50
39.4792447
51
90.147911
0
ARC
8
DEFAULT_255_2_778
10
25.7999935
20
139.3052224
40
0.7911595
50
359.8533901
51
39.5154338
0
ARC
8
DEFAULT_255_2_778
10
25.7996693
20
-1.9863501
40
0.7914836
50
309.4761667
51
0.1482649
0
ARC
8
DEFAULT_255_2_778
10
25.799398
20
-1.9867812
40
0.7913235
50
269.8517415
51
309.511178
0
ARC
8
DEFAULT_255_2_778
10
3.570342
20
-1.986723
40
0.7913815
50
219.1282118
51
270.1454017
0
ARC
8
DEFAULT_255_2_778
10
3.5700247
20
-1.9863406
40
0.7913769
50
179.8524075
51
219.1641908
0
LINE
8
DEFAULT_255_2_778
10
3.5723503
20
140.096898
11
25.7973503
21
140.096898
0
LINE
8
DEFAULT_255_2_778
10
26.5911503
20
139.303198
11
26.5911503
21
-1.984302
0
LINE
8
DEFAULT_255_2_778
10
25.7973503
20
-2.778102
11
3.5723503
21
-2.778102
0
LINE
8
DEFAULT_255_2_778
10
2.7786503
20
-1.984302
11
2.7786503
21
139.303198
0
LINE
8
DEFAULT_255_1_388
10
10.2393985
20
0.6821148
11
10.2393985
21
-0.6398
0
LINE
8
DEFAULT_255_1_388
10
10.2393985
20
-0.6398
11
10.0713355
21
-0.6398
0
LINE
8
DEFAULT_255_1_388
10
10.0713355
20
-0.6398
11
10.0713355
21
0.474295
0
LINE
8
DEFAULT_255_1_388
10
10.0713355
20
0.474295
11
9.734306
21
0.3505066
0
LINE
8
DEFAULT_255_1_388
10
9.734306
20
0.3505066
11
9.734306
21
0.5023055
0
LINE
8
DEFAULT_255_1_388
10
9.734306
20
0.5023055
11
10.2131951
21
0.6821148
0
LINE
8
DEFAULT_255_1_388
10
10.2131951
20
0.6821148
11
10.2393985
21
0.6821148
0
LINE
8
DEFAULT_255_1_388
10
11.578481
20
0.6757898
11
11.578481
21
0.5818191
0
LINE
8
DEFAULT_255_1_388
10
11.578481
20
0.5818191
11
11.0336316
21
-0.6398
0
LINE
8
DEFAULT_255_1_388
10
11.0336316
20
-0.6398
11
10.8583401
21
-0.6398
0
LINE
8
DEFAULT_255_1_388
10
10.8583401
20
-0.6398
11
11.4013824
21
0.538448
0
LINE
8
DEFAULT_255_1_388
10
11.4013824
20
0.538448
11
10.6893736
21
0.538448
0
LINE
8
DEFAULT_255_1_388
10
10.6893736
20
0.538448
11
10.6893736
21
0.6757898
0
LINE
8
DEFAULT_255_1_388
10
10.6893736
20
0.6757898
11
11.578481
21
0.6757898
0
LINE
8
DEFAULT_255_1_388
10
11.9787601
20
-0.0145334
11
11.8450325
21
0.0198021
0
LINE
8
DEFAULT_255_1_388
10
11.8450325
20
0.0198021
11
11.9118963
21
0.6757898
0
LINE
8
DEFAULT_255_1_388
10
11.9118963
20
0.6757898
11
12.5859554
21
0.6757898
0
LINE
8
DEFAULT_255_1_388
10
12.5859554
20
0.6757898
11
12.5859554
21
0.5212803
0
LINE
8
DEFAULT_255_1_388
10
12.5859554
20
0.5212803
11
12.0537559
21
0.5212803
0
LINE
8
DEFAULT_255_1_388
10
12.0537559
20
0.5212803
11
12.0139991
21
0.1625652
0
LINE
8
DEFAULT_255_1_388
10
11.7980472
20
-0.2937348
11
11.9561709
21
-0.2937348
0
LINE
8
DEFAULT_255_1_388
10
12.0230347
20
0.0216092
11
11.9787601
21
-0.0145334
0
ARC
8
DEFAULT_255_1_388
10
12.2226604
20
-0.1951759
40
0.4141476
50
93.7181681
51
120.253934
0
ARC
8
DEFAULT_255_1_388
10
12.2332656
20
-0.2860716
40
0.5055616
50
89.9660471
51
94.2495185
0
ARC
8
DEFAULT_255_1_388
10
12.2378478
20
-0.2197846
40
0.4392953
50
73.8045384
51
90.5585736
0
ARC
8
DEFAULT_255_1_388
10
12.2642736
20
-0.123248
40
0.3392225
50
41.3071072
51
73.543002
0
ARC
8
DEFAULT_255_1_388
10
12.2174556
20
-0.1635539
40
0.4009977
50
13.5075837
51
41.2174839
0
ARC
8
DEFAULT_255_1_388
10
12.0327653
20
-0.2119093
40
0.5918864
50
1.1330171
51
13.8830737
0
ARC
8
DEFAULT_255_1_388
10
11.8731299
20
-0.2204478
40
0.7516787
50
359.9925091
51
1.5431298
0
ARC
8
DEFAULT_255_1_388
10
12.0175914
20
-0.2250973
40
0.6072343
50
347.8572712
51
0.4294349
0
ARC
8
DEFAULT_255_1_388
10
12.2145049
20
-0.2697102
40
0.4053482
50
323.6727442
51
348.1674594
0
ARC
8
DEFAULT_255_1_388
10
12.2476013
20
-0.2898825
40
0.3667495
50
316.8171818
51
323.1486802
0
ARC
8
DEFAULT_255_1_388
10
12.2545137
20
-0.2940388
40
0.358869
50
281.839603
51
316.5458142
0
ARC
8
DEFAULT_255_1_388
10
12.2122425
20
-0.1190637
40
0.5388223
50
269.5770964
51
282.4214641
0
ARC
8
DEFAULT_255_1_388
10
12.2042345
20
-0.143107
40
0.5147801
50
256.2425863
51
270.4486481
0
ARC
8
DEFAULT_255_1_388
10
12.1705873
20
-0.2780876
40
0.3756708
50
228.9024379
51
256.33135
0
ARC
8
DEFAULT_255_1_388
10
12.1622853
20
-0.2911946
40
0.360344
50
193.7536029
51
228.5272638
0
ARC
8
DEFAULT_255_1_388
10
12.3015418
20
-0.2503537
40
0.5053599
50
184.9244437
51
194.4976052
0
ARC
8
DEFAULT_255_1_388
10
12.323206
20
-0.2463278
40
0.3700839
50
187.3596909
51
198.6733728
0
ARC
8
DEFAULT_255_1_388
10
12.2051303
20
-0.2872627
40
0.2451195
50
198.4453795
51
217.7945479
0
ARC
8
DEFAULT_255_1_388
10
12.1718476
20
-0.3108437
40
0.2043754
50
218.2887146
51
228.5613203
0
ARC
8
DEFAULT_255_1_388
10
12.1828482
20
-0.2960098
40
0.2227819
50
228.9652423
51
258.1237049
0
ARC
8
DEFAULT_255_1_388
10
12.205992
20
-0.1969036
40
0.3245374
50
257.7260585
51
270.4013717
0
ARC
8
DEFAULT_255_1_388
10
12.2110418
20
-0.2469745
40
0.2744726
50
269.4204315
51
286.420998
0
ARC
8
DEFAULT_255_1_388
10
12.2277474
20
-0.3076295
40
0.2115721
50
286.7250065
51
320.6004665
0
ARC
8
DEFAULT_255_1_388
10
12.1846389
20
-0.2726473
40
0.2670878
50
320.6712228
51
344.5440474
0
ARC
8
DEFAULT_255_1_388
10
12.0545103
20
-0.2344606
40
0.4026927
50
344.241448
51
356.735803
0
ARC
8
DEFAULT_255_1_388
10
11.914141
20
-0.2228344
40
0.5435085
50
356.3547471
51
0.0507222
0
ARC
8
DEFAULT_255_1_388
10
12.0643675
20
-0.2193188
40
0.3932934
50
359.5579289
51
12.9534322
0
ARC
8
DEFAULT_255_1_388
10
12.1830515
20
-0.1905414
40
0.2711827
50
12.6489751
51
41.608121
0
ARC
8
DEFAULT_255_1_388
10
12.2089675
20
-0.1685054
40
0.2371737
50
41.7851122
51
85.9892156
0
ARC
8
DEFAULT_255_1_388
10
12.1950985
20
-0.2600262
40
0.3295244
50
84.6965848
51
90.0672125
0
ARC
8
DEFAULT_255_1_388
10
12.1924553
20
-0.3351882
40
0.4046926
50
89.6804991
51
99.161352
0
ARC
8
DEFAULT_255_1_388
10
12.1693562
20
-0.1971152
40
0.2647044
50
98.9836248
51
113.8905702
0
ARC
8
DEFAULT_255_1_388
10
12.1435237
20
-0.1361882
40
0.1985386
50
114.195234
51
127.3641866
0
LINE
8
DEFAULT_255_1_388
10
13.4334988
20
0.6766934
11
13.4633165
21
0.6766934
0
LINE
8
DEFAULT_255_1_388
10
13.4633165
20
0.6766934
11
13.4633165
21
0.5348338
0
LINE
8
DEFAULT_255_1_388
10
13.4633165
20
0.5348338
11
13.4325953
21
0.5348338
0
LINE
8
DEFAULT_255_1_388
10
12.8172679
20
-0.1392253
11
12.8172679
21
-0.0750722
0
LINE
8
DEFAULT_255_1_388
10
12.9853309
20
-0.0967578
11
12.9853309
21
-0.1582001
0
ARC
8
DEFAULT_255_1_388
10
13.4384844
20
-0.0274174
40
0.562282
50
90.6001079
51
104.5146616
0
ARC
8
DEFAULT_255_1_388
10
13.3947804
20
0.13511
40
0.3939917
50
104.2855758
51
133.8630124
0
ARC
8
DEFAULT_255_1_388
10
13.4132056
20
0.1229243
40
0.4155734
50
134.5304124
51
161.6210222
0
ARC
8
DEFAULT_255_1_388
10
13.5991989
20
0.0573421
40
0.6127682
50
161.2850533
51
174.2074364
0
ARC
8
DEFAULT_255_1_388
10
13.7581555
20
0.0354437
40
0.7731446
50
173.7817938
51
174.9251711
0
ARC
8
DEFAULT_255_1_388
10
13.2455749
20
-0.120073
40
0.3412588
50
95.8332067
51
138.995412
0
ARC
8
DEFAULT_255_1_388
10
13.2707029
20
-0.2639305
40
0.4870358
50
89.8755506
51
97.0540979
0
ARC
8
DEFAULT_255_1_388
10
13.2760418
20
-0.1699159
40
0.3930432
50
71.6407016
51
90.6240821
0
ARC
8
DEFAULT_255_1_388
10
13.2929812
20
-0.1075567
40
0.3285421
50
39.6368051
51
71.0190743
0
ARC
8
DEFAULT_255_1_388
10
13.2213719
20
-0.1694414
40
0.4231706
50
10.6588054
51
39.9044509
0
ARC
8
DEFAULT_255_1_388
10
13.0472265
20
-0.2072777
40
0.60133
50
359.6827842
51
11.1326896
0
ARC
8
DEFAULT_255_1_388
10
13.0427601
20
-0.2152285
40
0.6058047
50
347.2485908
51
0.4371098
0
ARC
8
DEFAULT_255_1_388
10
13.2303386
20
-0.2603621
40
0.4128987
50
318.1408565
51
347.6118497
0
ARC
8
DEFAULT_255_1_388
10
13.2668983
20
-0.2904097
40
0.3656244
50
275.6342406
51
317.824739
0
ARC
8
DEFAULT_255_1_388
10
13.2420504
20
-0.1442173
40
0.513655
50
269.8872513
51
276.7916069
0
ARC
8
DEFAULT_255_1_388
10
13.2358697
20
-0.2595819
40
0.398323
50
246.9139443
51
270.7436787
0
ARC
8
DEFAULT_255_1_388
10
13.2365893
20
-0.2755956
40
0.3839368
50
218.1665534
51
245.8780431
0
ARC
8
DEFAULT_255_1_388
10
13.3355265
20
-0.1928097
40
0.5128958
50
191.4115343
51
218.6077624
0
ARC
8
DEFAULT_255_1_388
10
13.5535581
20
-0.1439223
40
0.7363054
50
179.6344971
51
191.7836758
0
ARC
8
DEFAULT_255_1_388
10
14.1815455
20
-0.0675505
40
1.3642984
50
171.4523743
51
180.3158856
0
ARC
8
DEFAULT_255_1_388
10
13.6871182
20
0.0093895
40
0.8639311
50
157.9802296
51
171.6246761
0
ARC
8
DEFAULT_255_1_388
10
13.4380533
20
0.1087038
40
0.5958004
50
141.4299236
51
157.8541251
0
ARC
8
DEFAULT_255_1_388
10
13.3658616
20
0.1597746
40
0.5075416
50
102.871586
51
140.8564533
0
ARC
8
DEFAULT_255_1_388
10
13.4387169
20
-0.1147057
40
0.7914163
50
90.377773
51
103.5868422
0
ARC
8
DEFAULT_255_1_388
10
13.243169
20
-0.1827457
40
0.2667015
50
89.8751238
51
126.2072139
0
ARC
8
DEFAULT_255_1_388
10
13.2483161
20
-0.2001153
40
0.2838229
50
124.9742447
51
144.8960197
0
ARC
8
DEFAULT_255_1_388
10
13.2285406
20
-0.1840019
40
0.2583845
50
145.2974778
51
160.2660922
0
ARC
8
DEFAULT_255_1_388
10
13.5741895
20
-0.1617849
40
0.5888695
50
179.6512124
51
190.285571
0
ARC
8
DEFAULT_255_1_388
10
13.3836374
20
-0.1977032
40
0.3949683
50
190.0944895
51
207.5099647
0
ARC
8
DEFAULT_255_1_388
10
13.3199956
20
-0.2279823
40
0.3245464
50
207.9585471
51
216.325377
0
ARC
8
DEFAULT_255_1_388
10
13.2817593
20
-0.2594288
40
0.2751259
50
215.7661336
51
232.5457193
0
ARC
8
DEFAULT_255_1_388
10
13.2386709
20
-0.3141727
40
0.2054668
50
232.8005815
51
270.6605497
0
ARC
8
DEFAULT_255_1_388
10
13.2438133
20
-0.2732147
40
0.2464268
50
269.3550767
51
288.474612
0
ARC
8
DEFAULT_255_1_388
10
13.254264
20
-0.3125279
40
0.2058436
50
289.1831976
51
322.9685307
0
ARC
8
DEFAULT_255_1_388
10
13.1854742
20
-0.2582721
40
0.2934408
50
322.6007085
51
346.5183319
0
ARC
8
DEFAULT_255_1_388
10
13.0552498
20
-0.2250566
40
0.4278249
50
346.2584622
51
358.7739592
0
ARC
8
DEFAULT_255_1_388
10
12.9401073
20
-0.2188171
40
0.5430876
50
358.3757628
51
0.0082477
0
ARC
8
DEFAULT_255_1_388
10
13.0257892
20
-0.2157144
40
0.4574157
50
359.6211417
51
11.28403
0
ARC
8
DEFAULT_255_1_388
10
13.1694498
20
-0.1857465
40
0.3106708
50
11.0483152
51
31.8145585
0
ARC
8
DEFAULT_255_1_388
10
13.2042203
20
-0.1668955
40
0.2711963
50
32.3028554
51
38.0820598
0
ARC
8
DEFAULT_255_1_388
10
13.2515436
20
-0.1240283
40
0.2075566
50
36.8249851
51
85.741667
0
ARC
8
DEFAULT_255_1_388
10
13.2439849
20
-0.1803935
40
0.2643487
50
85.0150021
51
90.050843
0
LINE
8
DEFAULT_255_1_388
10
14.2114678
20
-0.0127263
11
14.2114678
21
-0.1491645
0
LINE
8
DEFAULT_255_1_388
10
14.2114678
20
-0.1491645
11
13.7705284
21
-0.1491645
0
LINE
8
DEFAULT_255_1_388
10
13.7705284
20
-0.1491645
11
13.7705284
21
-0.0127263
0
LINE
8
DEFAULT_255_1_388
10
13.7705284
20
-0.0127263
11
14.2114678
21
-0.0127263
0
LINE
8
DEFAULT_255_1_388
10
15.412305
20
0.0586553
11
15.412305
21
-0.0244726
0
LINE
8
DEFAULT_255_1_388
10
14.354231
20
-0.0362189
11
14.354231
21
0.0586553
0
LINE
8
DEFAULT_255_1_388
10
15.2397242
20
-0.0371225
11
15.2397242
21
0.0604625
0
LINE
8
DEFAULT_255_1_388
10
14.5268118
20
0.0722088
11
14.5268118
21
-0.0244726
0
ARC
8
DEFAULT_255_1_388
10
14.4400788
20
-0.0289274
40
0.9722364
50
350.4878118
51
0.2625322
0
ARC
8
DEFAULT_255_1_388
10
14.6980748
20
-0.0733006
40
0.7104556
50
336.0277991
51
350.5787241
0
ARC
8
DEFAULT_255_1_388
10
14.8493855
20
-0.1416757
40
0.544417
50
319.887443
51
336.1331163
0
ARC
8
DEFAULT_255_1_388
10
14.9171667
20
-0.1959267
40
0.4576311
50
302.4806296
51
319.6144102
0
ARC
8
DEFAULT_255_1_388
10
14.9042288
20
-0.1709933
40
0.4856183
50
275.8196423
51
302.1885521
0
ARC
8
DEFAULT_255_1_388
10
14.885515
20
-0.0424534
40
0.6154183
50
269.9169897
51
276.339506
0
ARC
8
DEFAULT_255_1_388
10
14.880475
20
-0.119632
40
0.5382553
50
252.5221437
51
270.441579
0
ARC
8
DEFAULT_255_1_388
10
14.8643001
20
-0.1802954
40
0.4755426
50
237.5349961
51
252.1858334
0
ARC
8
DEFAULT_255_1_388
10
14.8743377
20
-0.167488
40
0.4917393
50
209.0632754
51
237.3492577
0
ARC
8
DEFAULT_255_1_388
10
14.9722703
20
-0.1059896
40
0.6072464
50
205.118533
51
209.6465345
0
ARC
8
DEFAULT_255_1_388
10
15.0618705
20
-0.0679826
40
0.7045164
50
188.7216633
51
204.8239753
0
ARC
8
DEFAULT_255_1_388
10
15.286548
20
-0.0301613
40
0.9323368
50
180.3722704
51
188.9253909
0
ARC
8
DEFAULT_255_1_388
10
15.2835042
20
0.0631416
40
0.929284
50
169.5253055
51
180.2766048
0
ARC
8
DEFAULT_255_1_388
10
15.0694841
20
0.1025024
40
0.7116745
50
155.8314601
51
169.5088611
0
ARC
8
DEFAULT_255_1_388
10
14.9254304
20
0.1693312
40
0.5528904
50
139.6259579
51
156.0379072
0
ARC
8
DEFAULT_255_1_388
10
14.8590838
20
0.2227143
40
0.4677708
50
122.6414784
51
139.3431662
0
ARC
8
DEFAULT_255_1_388
10
14.8704092
20
0.2020787
40
0.4912586
50
93.0224537
51
122.4556091
0
ARC
8
DEFAULT_255_1_388
10
14.8825613
20
0.0934776
40
0.6003837
50
89.9756766
51
93.6340839
0
ARC
8
DEFAULT_255_1_388
10
14.8869211
20
0.1383879
40
0.5554884
50
73.7463329
51
90.4234008
0
ARC
8
DEFAULT_255_1_388
10
14.9066684
20
0.2148772
40
0.4765353
50
57.663051
51
73.4516911
0
ARC
8
DEFAULT_255_1_388
10
14.9057722
20
0.2173108
40
0.4749629
50
29.1441355
51
57.4146687
0
ARC
8
DEFAULT_255_1_388
10
14.8005533
20
0.1516046
40
0.5988917
50
24.0985653
51
29.732054
0
ARC
8
DEFAULT_255_1_388
10
14.6843165
20
0.1034154
40
0.7246823
50
8.6654943
51
23.8241215
0
ARC
8
DEFAULT_255_1_388
10
14.4329583
20
0.0624037
40
0.9793537
50
359.7807044
51
8.8218476
0
ARC
8
DEFAULT_255_1_388
10
14.3039288
20
0.0652731
40
0.9358078
50
359.7054632
51
8.0359751
0
ARC
8
DEFAULT_255_1_388
10
14.6414339
20
0.1144252
40
0.5947474
50
7.8926278
51
20.2962188
0
ARC
8
DEFAULT_255_1_388
10
14.8245189
20
0.1819367
40
0.3996117
50
20.3231056
51
36.4990255
0
ARC
8
DEFAULT_255_1_388
10
14.9016487
20
0.2413399
40
0.3022818
50
36.1436715
51
85.6627846
0
ARC
8
DEFAULT_255_1_388
10
14.8833742
20
0.1243881
40
0.4203853
50
84.3845912
51
90.076054
0
ARC
8
DEFAULT_255_1_388
10
14.8786097
20
0.1986416
40
0.346157
50
89.3037228
51
109.9046209
0
ARC
8
DEFAULT_255_1_388
10
14.868193
20
0.2416379
40
0.3022217
50
110.8229774
51
143.917961
0
ARC
8
DEFAULT_255_1_388
10
14.9732289
20
0.1614455
40
0.434348
50
143.5289166
51
163.2980252
0
ARC
8
DEFAULT_255_1_388
10
15.1878576
20
0.0939685
40
0.659321
50
163.0418884
51
174.3139873
0
ARC
8
DEFAULT_255_1_388
10
15.4583541
20
0.0627378
40
0.9315905
50
174.050934
51
179.4174954
0
ARC
8
DEFAULT_255_1_388
10
15.4015485
20
-0.0291618
40
0.8747493
50
179.6928582
51
188.7908948
0
ARC
8
DEFAULT_255_1_388
10
15.1019285
20
-0.0770914
40
0.5713262
50
188.6328449
51
202.5630732
0
ARC
8
DEFAULT_255_1_388
10
14.9608122
20
-0.1337858
40
0.4192612
50
202.8078931
51
216.1195888
0
ARC
8
DEFAULT_255_1_388
10
14.8697639
20
-0.2070521
40
0.3025752
50
215.0755613
51
264.6379773
0
ARC
8
DEFAULT_255_1_388
10
14.8840476
20
-0.1135624
40
0.3970284
50
263.8464302
51
270.0830805
0
ARC
8
DEFAULT_255_1_388
10
14.8887021
20
-0.1426192
40
0.3679937
50
269.3649295
51
287.5149684
0
ARC
8
DEFAULT_255_1_388
10
14.9087462
20
-0.2154286
40
0.2925408
50
288.0629019
51
323.8115617
0
ARC
8
DEFAULT_255_1_388
10
14.8107438
20
-0.1423246
40
0.4148018
50
323.6546541
51
342.6591359
0
ARC
8
DEFAULT_255_1_388
10
14.5822096
20
-0.067972
40
0.6551163
50
342.4092446
51
353.6451501
0
ARC
8
DEFAULT_255_1_388
10
14.2636889
20
-0.0283435
40
0.9760748
50
353.4027553
51
359.4846611
0
LINE
8
DEFAULT_255_1_388
10
16.3980938
20
0.0830516
11
16.3980938
21
-0.0588081
0
LINE
8
DEFAULT_255_1_388
10
16.3980938
20
-0.0588081
11
15.8460159
21
-0.0588081
0
LINE
8
DEFAULT_255_1_388
10
15.8460159
20
-0.0588081
11
15.8460159
21
-0.6398
0
LINE
8
DEFAULT_255_1_388
10
15.8460159
20
-0.6398
11
15.6725315
21
-0.6398
0
LINE
8
DEFAULT_255_1_388
10
15.6725315
20
-0.6398
11
15.6725315
21
0.6757898
0
LINE
8
DEFAULT_255_1_388
10
15.6725315
20
0.6757898
11
16.4875467
21
0.6757898
0
LINE
8
DEFAULT_255_1_388
10
16.4875467
20
0.6757898
11
16.4875467
21
0.5330267
0
LINE
8
DEFAULT_255_1_388
10
16.4875467
20
0.5330267
11
15.8460159
21
0.5330267
0
LINE
8
DEFAULT_255_1_388
10
15.8460159
20
0.5330267
11
15.8460159
21
0.0830516
0
LINE
8
DEFAULT_255_1_388
10
15.8460159
20
0.0830516
11
16.3980938
21
0.0830516
0
ARC
8
DEFAULT_255_1_388
10
17.1323459
20
0.329572
40
0.3175098
50
338.8762533
51
0.5167111
0
ARC
8
DEFAULT_255_1_388
10
17.1513053
20
0.32446
40
0.2979894
50
325.8415285
51
338.4793574
0
ARC
8
DEFAULT_255_1_388
10
17.1073687
20
0.3549242
40
0.351452
50
296.7587686
51
325.7536481
0
ARC
8
DEFAULT_255_1_388
10
17.0745315
20
0.4103363
40
0.4157374
50
296.0927901
51
297.3613472
0
ARC
8
DEFAULT_255_1_388
10
17.103951
20
-0.3279407
40
0.395855
50
47.9007294
51
67.1948823
0
ARC
8
DEFAULT_255_1_388
10
17.1260152
20
-0.3002401
40
0.360516
50
35.2363914
51
47.551141
0
ARC
8
DEFAULT_255_1_388
10
17.1554556
20
-0.2805907
40
0.3251343
50
359.2759765
51
35.4014143
0
ARC
8
DEFAULT_255_1_388
10
17.0716482
20
-0.2888213
40
0.4089365
50
343.1293083
51
0.5775513
0
ARC
8
DEFAULT_255_1_388
10
17.1531596
20
-0.3112664
40
0.3244269
50
310.8496669
51
342.7449331
0
ARC
8
DEFAULT_255_1_388
10
17.106147
20
-0.2576087
40
0.3957651
50
281.5472888
51
310.9170406
0
ARC
8
DEFAULT_255_1_388
10
17.0660345
20
-0.0829186
40
0.5749654
50
269.619248
51
281.9789564
0
ARC
8
DEFAULT_255_1_388
10
17.0579123
20
-0.0828224
40
0.5750649
50
257.4585678
51
270.4285689
0
ARC
8
DEFAULT_255_1_388
10
17.0150643
20
-0.2632259
40
0.389671
50
228.7554326
51
257.8484789
0
ARC
8
DEFAULT_255_1_388
10
16.9802128
20
-0.3051772
40
0.335154
50
184.0104975
51
228.5071184
0
ARC
8
DEFAULT_255_1_388
10
17.1110521
20
-0.285257
40
0.4671891
50
179.9315832
51
185.3253753
0
ARC
8
DEFAULT_255_1_388
10
16.9787034
20
-0.2810408
40
0.33486
50
145.6796023
51
180.6259786
0
ARC
8
DEFAULT_255_1_388
10
16.9970799
20
-0.2938729
40
0.3572723
50
115.5537685
51
145.6415986
0
ARC
8
DEFAULT_255_1_388
10
17.0353843
20
-0.3624913
40
0.4357296
50
113.243307
51
116.2057839
0
ARC
8
DEFAULT_255_1_388
10
17.0182495
20
0.3572379
40
0.3549126
50
222.9549744
51
244.1370481
0
ARC
8
DEFAULT_255_1_388
10
17.0045138
20
0.3418378
40
0.3343711
50
213.3436887
51
222.6274467
0
ARC
8
DEFAULT_255_1_388
10
16.9829208
20
0.3271653
40
0.3082678
50
180.431584
51
213.271499
0
ARC
8
DEFAULT_255_1_388
10
17.0464206
20
0.3324296
40
0.3718363
50
179.9991191
51
181.1690594
0
ARC
8
DEFAULT_255_1_388
10
17.0936662
20
0.3363072
40
0.4190996
50
164.6186169
51
180.529336
0
ARC
8
DEFAULT_255_1_388
10
16.9926311
20
0.363478
40
0.3144772
50
132.2455553
51
164.5090724
0
ARC
8
DEFAULT_255_1_388
10
17.024929
20
0.326907
40
0.3632644
50
100.7053914
51
132.1386381
0
ARC
8
DEFAULT_255_1_388
10
17.0592351
20
0.1719118
40
0.5219578
50
89.6730358
51
101.2451698
0
ARC
8
DEFAULT_255_1_388
10
17.0662342
20
0.1915648
40
0.5023124
50
76.287748
51
90.4586006
0
ARC
8
DEFAULT_255_1_388
10
17.1006844
20
0.3290671
40
0.3605639
50
47.8240511
51
76.4266241
0
ARC
8
DEFAULT_255_1_388
10
17.1257228
20
0.3583599
40
0.3220463
50
6.9168387
51
47.6262497
0
ARC
8
DEFAULT_255_1_388
10
16.9922681
20
0.3337004
40
0.4575765
50
359.8415968
51
7.9697453
0
ARC
8
DEFAULT_255_1_388
10
17.0306951
20
-0.2783481
40
0.2827228
50
359.445363
51
16.9256873
0
ARC
8
DEFAULT_255_1_388
10
17.0834385
20
-0.2638219
40
0.2280396
50
17.2920767
51
45.4630727
0
ARC
8
DEFAULT_255_1_388
10
17.077352
20
-0.2690676
40
0.2360485
50
45.30305
51
83.1920945
0
ARC
8
DEFAULT_255_1_388
10
17.0612265
20
-0.3592527
40
0.3275527
50
82.2612665
51
90.1434275
0
ARC
8
DEFAULT_255_1_388
10
17.0577541
20
-0.3330131
40
0.3013237
50
89.4956434
51
104.8580688
0
ARC
8
DEFAULT_255_1_388
10
17.0378731
20
-0.2576545
40
0.2233867
50
104.8856641
51
135.244616
0
ARC
8
DEFAULT_255_1_388
10
17.043472
20
-0.2626648
40
0.2308906
50
135.3399546
51
172.1044062
0
ARC
8
DEFAULT_255_1_388
10
17.1342245
20
-0.2800333
40
0.3232034
50
171.2645637
51
180.186429
0
ARC
8
DEFAULT_255_1_388
10
17.1152249
20
-0.2836574
40
0.304213
50
179.5154935
51
193.6464289
0
ARC
8
DEFAULT_255_1_388
10
17.0233925
20
-0.3070527
40
0.209456
50
193.3540274
51
225.8258581
0
ARC
8
DEFAULT_255_1_388
10
17.0279797
20
-0.2990924
40
0.2183738
50
226.4180634
51
255.8552336
0
ARC
8
DEFAULT_255_1_388
10
17.0568264
20
-0.1937479
40
0.3275812
50
255.4654104
51
268.7987425
0
ARC
8
DEFAULT_255_1_388
10
17.062144
20
-0.0995455
40
0.4218877
50
268.3449238
51
270.0094605
0
ARC
8
DEFAULT_255_1_388
10
17.0647673
20
-0.1763906
40
0.3450519
50
269.5759586
51
282.0820163
0
ARC
8
DEFAULT_255_1_388
10
17.090071
20
-0.2882637
40
0.2303642
50
281.752014
51
306.6056188
0
ARC
8
DEFAULT_255_1_388
10
17.1011518
20
-0.3064198
40
0.2091906
50
307.1346085
51
314.027845
0
ARC
8
DEFAULT_255_1_388
10
17.097103
20
-0.3034541
40
0.2141385
50
314.2552483
51
350.1694025
0
ARC
8
DEFAULT_255_1_388
10
17.0013267
20
-0.2826825
40
0.312082
50
349.4140529
51
0.2933014
0
ARC
8
DEFAULT_255_1_388
10
17.0598544
20
0.2976924
40
0.2588377
50
89.477747
51
105.729729
0
ARC
8
DEFAULT_255_1_388
10
17.0445464
20
0.3545367
40
0.1999733
50
105.9233417
51
135.1660906
0
ARC
8
DEFAULT_255_1_388
10
17.0468495
20
0.3529412
40
0.2027322
50
135.3052302
51
168.9883645
0
ARC
8
DEFAULT_255_1_388
10
17.1399511
20
0.3315996
40
0.2982129
50
168.3801673
51
180.3602268
0
ARC
8
DEFAULT_255_1_388
10
17.1142628
20
0.3273622
40
0.2725291
50
179.5033122
51
194.9125571
0
ARC
8
DEFAULT_255_1_388
10
17.0484035
20
0.3100427
40
0.204431
50
194.9720816
51
224.194444
0
ARC
8
DEFAULT_255_1_388
10
17.04524
20
0.3074635
40
0.2003651
50
224.2962453
51
262.015664
0
ARC
8
DEFAULT_255_1_388
10
17.0612404
20
0.3897315
40
0.2840925
50
261.1245923
51
270.1962896
0
ARC
8
DEFAULT_255_1_388
10
17.0645885
20
0.3686859
40
0.2630559
50
269.4827276
51
285.0987215
0
ARC
8
DEFAULT_255_1_388
10
17.0819322
20
0.3036175
40
0.1957162
50
285.1585357
51
315.9484501
0
ARC
8
DEFAULT_255_1_388
10
17.0719195
20
0.3128315
40
0.2093195
50
316.0413965
51
351.916092
0
ARC
8
DEFAULT_255_1_388
10
16.9894569
20
0.3287323
40
0.2932279
50
351.105835
51
0.1939062
0
ARC
8
DEFAULT_255_1_388
10
17.0190204
20
0.3321224
40
0.2636739
50
359.4789618
51
16.0678224
0
ARC
8
DEFAULT_255_1_388
10
17.0725675
20
0.3465721
40
0.2082215
50
16.3252067
51
44.7913869
0
ARC
8
DEFAULT_255_1_388
10
17.0705738
20
0.346632
40
0.2095992
50
44.3957814
51
88.2499162
0
ARC
8
DEFAULT_255_1_388
10
17.0623072
20
0.2778006
40
0.2787189
50
86.9833854
51
90.0192215
0
LINE
8
DEFAULT_255_1_388
10
18.5350237
20
-0.6398
11
18.0687845
21
-0.0280869
0
LINE
8
DEFAULT_255_1_388
10
18.0687845
20
-0.0280869
11
17.90795
21
-0.1952463
0
LINE
8
DEFAULT_255_1_388
10
17.90795
20
-0.1952463
11
17.90795
21
-0.6398
0
LINE
8
DEFAULT_255_1_388
10
17.90795
20
-0.6398
11
17.7344656
21
-0.6398
0
LINE
8
DEFAULT_255_1_388
10
17.7344656
20
-0.6398
11
17.7344656
21
0.6757898
0
LINE
8
DEFAULT_255_1_388
10
17.7344656
20
0.6757898
11
17.90795
21
0.6757898
0
LINE
8
DEFAULT_255_1_388
10
17.90795
20
0.6757898
11
17.90795
21
0.0252234
0
LINE
8
DEFAULT_255_1_388
10
17.90795
20
0.0252234
11
18.4925562
21
0.6757898
0
LINE
8
DEFAULT_255_1_388
10
18.4925562
20
0.6757898
11
18.7021832
21
0.6757898
0
LINE
8
DEFAULT_255_1_388
10
18.7021832
20
0.6757898
11
18.1844407
21
0.0947979
0
LINE
8
DEFAULT_255_1_388
10
18.1844407
20
0.0947979
11
18.7428436
21
-0.6398
0
LINE
8
DEFAULT_255_1_388
10
18.7428436
20
-0.6398
11
18.5350237
21
-0.6398
0
LINE
8
DEFAULT_255_2_778
10
11.0359959
20
136.6231531
11
10.9838959
21
136.9604531
0
LINE
8
DEFAULT_255_2_778
10
10.9838959
20
136.9604531
11
10.4068959
21
136.9604531
0
LINE
8
DEFAULT_255_2_778
10
10.4068959
20
136.9604531
11
10.2364959
21
136.6231531
0
LINE
8
DEFAULT_255_2_778
10
10.2364959
20
136.6231531
11
9.8694959
21
136.6231531
0
LINE
8
DEFAULT_255_2_778
10
9.8694959
20
136.6231531
11
10.7531959
21
138.2606531
0
LINE
8
DEFAULT_255_2_778
10
10.7531959
20
138.2606531
11
11.0608959
21
138.2606531
0
LINE
8
DEFAULT_255_2_778
10
11.0608959
20
138.2606531
11
11.3754959
21
136.6231531
0
LINE
8
DEFAULT_255_2_778
10
11.3754959
20
136.6231531
11
11.0357959
21
136.6231531
0
LINE
8
DEFAULT_255_2_778
10
11.0357959
20
136.6231531
11
11.0359959
21
136.6231531
0
LINE
8
DEFAULT_255_2_778
10
10.8486959
20
137.8434531
11
10.5430959
21
137.2338531
0
LINE
8
DEFAULT_255_2_778
10
10.5430959
20
137.2338531
11
10.9418959
21
137.2338531
0
LINE
8
DEFAULT_255_2_778
10
10.9418959
20
137.2338531
11
10.8486959
21
137.8434531
0
LINE
8
DEFAULT_255_2_778
10
10.8486959
20
137.8434531
11
10.8486959
21
137.8434531
0
LINE
8
DEFAULT_255_2_778
10
12.1615594
20
138.3506646
11
11.8593594
21
136.6229646
0
LINE
8
DEFAULT_255_2_778
10
11.8593594
20
136.6229646
11
11.5368594
21
136.6229646
0
LINE
8
DEFAULT_255_2_778
10
11.5368594
20
136.6229646
11
11.8400594
21
138.3506646
0
LINE
8
DEFAULT_255_2_778
10
11.8400594
20
138.3506646
11
12.1615594
21
138.3506646
0
LINE
8
DEFAULT_255_2_778
10
12.1615594
20
138.3506646
11
12.1615594
21
138.3506646
0
LINE
8
DEFAULT_255_2_778
10
12.7717594
20
138.3506646
11
12.4695594
21
136.6229646
0
LINE
8
DEFAULT_255_2_778
10
12.4695594
20
136.6229646
11
12.1470594
21
136.6229646
0
LINE
8
DEFAULT_255_2_778
10
12.1470594
20
136.6229646
11
12.4502594
21
138.3506646
0
LINE
8
DEFAULT_255_2_778
10
12.4502594
20
138.3506646
11
12.7717594
21
138.3506646
0
LINE
8
DEFAULT_255_2_778
10
12.7717594
20
138.3506646
11
12.7717594
21
138.3506646
0
ARC
8
DEFAULT_255_2_778
10
13.3180767
20
137.1387764
40
0.5383522
50
238.763891
51
270.7055166
0
ARC
8
DEFAULT_255_2_778
10
13.2867625
20
137.083452
40
0.4748131
50
204.061185
51
238.5328679
0
ARC
8
DEFAULT_255_2_778
10
13.3693681
20
137.1230331
40
0.5663841
50
179.4896096
51
204.3103027
0
ARC
8
DEFAULT_255_2_778
10
13.4933843
20
137.1275727
40
0.6903781
50
175.123126
51
179.9580366
0
ARC
8
DEFAULT_255_2_778
10
13.5850479
20
137.1625152
40
0.7790728
50
149.5392097
51
174.9446897
0
ARC
8
DEFAULT_255_2_778
10
13.459184
20
137.2460212
40
0.628301
50
120.7003982
51
150.2846053
0
ARC
8
DEFAULT_255_2_778
10
13.4196851
20
137.3057024
40
0.556829
50
89.4236852
51
120.3409826
0
ARC
8
DEFAULT_255_2_778
10
13.4252352
20
137.2069671
40
0.6555361
50
88.4553682
51
89.9955718
0
ARC
8
DEFAULT_255_2_778
10
13.4481363
20
137.3911369
40
0.4711572
50
58.4514404
51
90.636095
0
ARC
8
DEFAULT_255_2_778
10
13.4744403
20
137.4545423
40
0.403504
50
35.6058989
51
56.9235594
0
ARC
8
DEFAULT_255_2_778
10
13.3641882
20
137.3807058
40
0.5361477
50
0.6851965
51
35.1616077
0
ARC
8
DEFAULT_255_2_778
10
13.1616313
20
137.3603229
40
0.7391521
50
359.9888194
51
2.0774415
0
ARC
8
DEFAULT_255_2_778
10
13.0480025
20
137.3620249
40
0.852783
50
353.383538
51
359.8759623
0
ARC
8
DEFAULT_255_2_778
10
13.534221
20
137.1096119
40
0.4107176
50
177.8018731
51
179.9839782
0
ARC
8
DEFAULT_255_2_778
10
13.3756217
20
137.098124
40
0.2523852
50
177.3650374
51
219.8309448
0
ARC
8
DEFAULT_255_2_778
10
13.3462068
20
137.0848401
40
0.2214564
50
222.0668323
51
271.55222
0
ARC
8
DEFAULT_255_2_778
10
13.3632002
20
137.2896289
40
0.4263057
50
268.5221572
51
269.9980687
0
ARC
8
DEFAULT_255_2_778
10
13.3616001
20
137.2600217
40
0.3967017
50
270.2290309
51
318.5203973
0
ARC
8
DEFAULT_255_2_778
10
13.4310056
20
137.0767979
40
0.4555006
50
292.4982989
51
325.2807674
0
ARC
8
DEFAULT_255_2_778
10
13.3411907
20
137.2553545
40
0.6549996
50
269.6158853
51
293.7802026
0
ARC
8
DEFAULT_255_2_778
10
13.3368026
20
137.342233
40
0.7418635
50
269.0811303
51
269.9997673
0
ARC
8
DEFAULT_255_2_778
10
13.4205249
20
137.3351977
40
0.2651417
50
88.6426435
51
89.9971979
0
ARC
8
DEFAULT_255_2_778
10
13.4187009
20
137.3704788
40
0.2298681
50
89.5421073
51
130.5025885
0
ARC
8
DEFAULT_255_2_778
10
13.5174398
20
137.2703327
40
0.370282
50
132.0556576
51
154.4346079
0
ARC
8
DEFAULT_255_2_778
10
13.9187288
20
137.0527869
40
0.8264843
50
152.8348001
51
159.2008974
0
ARC
8
DEFAULT_255_2_778
10
13.283715
20
137.4237268
40
0.3137404
50
351.1327381
51
359.8552777
0
ARC
8
DEFAULT_255_2_778
10
13.3301744
20
137.4233274
40
0.2672803
50
359.9157472
51
8.073482
0
ARC
8
DEFAULT_255_2_778
10
13.4328726
20
137.4386276
40
0.1634528
50
7.8192239
51
49.4174523
0
ARC
8
DEFAULT_255_2_778
10
13.4309336
20
137.4254377
40
0.174876
50
51.746929
51
91.3525911
0
LINE
8
DEFAULT_255_2_778
10
12.8055056
20
137.186265
11
12.8090056
21
137.231165
0
LINE
8
DEFAULT_255_2_778
10
13.8951056
20
137.263765
11
13.8768056
21
137.125365
0
LINE
8
DEFAULT_255_2_778
10
13.8768056
20
137.125365
11
13.1238056
21
137.125365
0
LINE
8
DEFAULT_255_2_778
10
13.6588056
20
136.997265
11
13.8054056
21
136.817365
0
LINE
8
DEFAULT_255_2_778
10
13.3249056
20
136.600465
11
13.3247056
21
136.600465
0
LINE
8
DEFAULT_255_2_778
10
13.1461056
20
137.346265
11
13.5868056
21
137.346265
0
LINE
8
DEFAULT_255_2_778
10
13.5868056
20
137.346265
11
13.5937056
21
137.375365
0
LINE
8
DEFAULT_255_2_778
10
13.4268056
20
137.600265
11
13.4268056
21
137.600265
0
ARC
8
DEFAULT_255_2_778
10
14.7973588
20
137.4188783
40
0.4439397
50
89.8554796
51
141.1589213
0
ARC
8
DEFAULT_255_2_778
10
14.7984572
20
137.357943
40
0.5048737
50
88.7717605
51
89.9975792
0
ARC
8
DEFAULT_255_2_778
10
14.8178417
20
137.5468406
40
0.315976
50
50.4893295
51
91.5528058
0
ARC
8
DEFAULT_255_2_778
10
14.8339359
20
137.5812178
40
0.2793745
50
33.8414583
51
48.5499238
0
ARC
8
DEFAULT_255_2_778
10
14.731985
20
137.5223286
40
0.3969262
50
4.3932888
51
32.7062485
0
ARC
8
DEFAULT_255_2_778
10
14.4819065
20
137.4869301
40
0.6491822
50
359.8769204
51
5.8177478
0
ARC
8
DEFAULT_255_2_778
10
14.2701804
20
137.4878881
40
0.8609097
50
353.9399056
51
359.8434284
0
ARC
8
DEFAULT_255_2_778
10
14.4164047
20
137.4535967
40
0.3954956
50
352.2407688
51
359.7520116
0
ARC
8
DEFAULT_255_2_778
10
14.5201997
20
137.4524041
40
0.2916973
50
359.8980094
51
5.448398
0
ARC
8
DEFAULT_255_2_778
10
14.6814536
20
137.4695865
40
0.129553
50
4.6550554
51
97.2610773
0
ARC
8
DEFAULT_255_2_778
10
14.655996
20
137.3438531
40
0.2544097
50
87.9539208
51
89.9945997
0
ARC
8
DEFAULT_255_2_778
10
14.6629447
20
137.3282668
40
0.2700847
50
91.4691634
51
141.078713
0
ARC
8
DEFAULT_255_2_778
10
14.7966376
20
137.1864301
40
0.4639576
50
137.8219849
51
140.394746
0
ARC
8
DEFAULT_255_2_778
10
16.9661161
20
137.233211
40
1.026426
50
77.5141066
51
90.4821212
0
ARC
8
DEFAULT_255_2_778
10
17.0845798
20
137.7424611
40
0.5036389
50
52.814306
51
78.1469212
0
ARC
8
DEFAULT_255_2_778
10
17.1732245
20
137.8707438
40
0.3479303
50
357.5432245
51
51.6759047
0
ARC
8
DEFAULT_255_2_778
10
16.9814613
20
137.8561938
40
0.5393738
50
356.248244
51
359.9613012
0
ARC
8
DEFAULT_255_2_778
10
17.128092
20
137.8435882
40
0.3922439
50
295.0867564
51
356.6841236
0
ARC
8
DEFAULT_255_2_778
10
16.9599154
20
138.1063279
40
0.7026958
50
292.6018649
51
298.4245718
0
ARC
8
DEFAULT_255_2_778
10
17.1412835
20
137.193675
40
0.2784307
50
29.5992916
51
71.4243751
0
ARC
8
DEFAULT_255_2_778
10
17.0686219
20
137.1514727
40
0.3624559
50
358.8250622
51
29.7265593
0
ARC
8
DEFAULT_255_2_778
10
16.932071
20
137.1443262
40
0.4989307
50
356.3312443
51
359.9671937
0
ARC
8
DEFAULT_255_2_778
10
16.9581925
20
137.1255387
40
0.4719696
50
307.6792206
51
358.4048608
0
ARC
8
DEFAULT_255_2_778
10
16.8807048
20
137.2463643
40
0.6150877
50
279.1080464
51
306.5123219
0
ARC
8
DEFAULT_255_2_778
10
16.7961448
20
137.6684116
40
1.0453321
50
269.63465
51
280.0226117
0
ARC
8
DEFAULT_255_2_778
10
16.8094212
20
137.2335308
40
0.3407431
50
267.9747348
51
304.6141501
0
ARC
8
DEFAULT_255_2_778
10
16.8661516
20
137.1473067
40
0.2375665
50
305.166569
51
352.3059676
0
ARC
8
DEFAULT_255_2_778
10
16.775822
20
137.1683166
40
0.3300111
50
350.7906063
51
359.6837465
0
ARC
8
DEFAULT_255_2_778
10
16.9356152
20
137.1739465
40
0.170376
50
357.4933304
51
35.754963
0
ARC
8
DEFAULT_255_2_778
10
16.9423472
20
137.1596963
40
0.1739313
50
40.8670445
51
88.9145542
0
ARC
8
DEFAULT_255_2_778
10
16.9113357
20
136.9744792
40
0.360752
50
84.5431107
51
87.5464559
0
ARC
8
DEFAULT_255_2_778
10
16.8864523
20
137.9465688
40
0.3741259
50
268.9933192
51
299.9063201
0
ARC
8
DEFAULT_255_2_778
10
16.9296435
20
137.8537438
40
0.2722705
50
301.7671328
51
305.0688299
0
ARC
8
DEFAULT_255_2_778
10
16.9572403
20
137.8176463
40
0.2268776
50
304.6024496
51
352.3134516
0
ARC
8
DEFAULT_255_2_778
10
16.9035208
20
137.8283322
40
0.2815642
50
351.6205962
51
359.745937
0
ARC
8
DEFAULT_255_2_778
10
17.0391775
20
137.8344083
40
0.1460884
50
357.1260689
51
87.9509322
0
ARC
8
DEFAULT_255_2_778
10
16.9733166
20
137.5550677
40
0.4312349
50
80.5121161
51
90.1776895
0
ARC
8
DEFAULT_255_2_778
10
18.304359
20
136.8832308
40
0.6634375
50
79.3314563
51
88.7113465
0
ARC
8
DEFAULT_255_2_778
10
18.3079683
20
137.1166839
40
0.4299655
50
88.4925657
51
89.9946723
0
ARC
8
DEFAULT_255_2_778
10
18.2982438
20
137.2367608
40
0.3100425
50
88.1952228
51
143.885382
0
ARC
8
DEFAULT_255_2_778
10
18.4077805
20
137.4817129
40
0.3980768
50
117.0828142
51
147.9763761
0
ARC
8
DEFAULT_255_2_778
10
18.3544747
20
137.5650295
40
0.2997784
50
89.5977622
51
115.2613452
0
ARC
8
DEFAULT_255_2_778
10
18.3464621
20
137.3928482
40
0.4720608
50
75.0830674
51
88.7719532
0
ARC
8
DEFAULT_255_2_778
10
19.3883565
20
136.7100588
40
0.303463
50
178.9513385
51
196.6911244
0
ARC
8
DEFAULT_255_2_778
10
19.5567182
20
136.7154238
40
0.4717738
50
177.8405456
51
179.9770623
0
ARC
8
DEFAULT_255_2_778
10
18.7787325
20
137.0200947
40
0.4198561
50
270.5473861
51
316.8967404
0
ARC
8
DEFAULT_255_2_778
10
18.7827705
20
137.0304581
40
0.4302003
50
268.5226571
51
269.9964175
0
ARC
8
DEFAULT_255_2_778
10
18.7647216
20
136.9785252
40
0.3781887
50
226.455184
51
271.0541416
0
ARC
8
DEFAULT_255_2_778
10
18.7161161
20
136.9331869
40
0.311866
50
179.0506747
51
227.1894377
0
ARC
8
DEFAULT_255_2_778
10
18.7977006
20
136.9382683
40
0.3934079
50
177.4603384
51
179.9875271
0
ARC
8
DEFAULT_255_2_778
10
18.7677222
20
136.9542892
40
0.3630457
50
122.3464314
51
179.7772632
0
ARC
8
DEFAULT_255_2_778
10
18.9127921
20
136.7271577
40
0.6325515
50
98.6956815
51
122.4402135
0
ARC
8
DEFAULT_255_2_778
10
18.9977072
20
136.2721789
40
1.0952432
50
89.6404969
51
99.4883828
0
ARC
8
DEFAULT_255_2_778
10
18.91142
20
137.487456
40
0.2635833
50
349.2520325
51
359.7979352
0
ARC
8
DEFAULT_255_2_778
10
18.9485896
20
137.4866836
40
0.2264121
50
359.9602232
51
5.7075699
0
ARC
8
DEFAULT_255_2_778
10
19.0517084
20
137.5008244
40
0.1224577
50
3.9221136
51
47.9806675
0
ARC
8
DEFAULT_255_2_778
10
19.0461009
20
137.4834028
40
0.1393558
50
51.0640414
51
91.6537281
0
ARC
8
DEFAULT_255_2_778
10
19.0343864
20
137.3492856
40
0.2735232
50
88.3883484
51
89.9950272
0
ARC
8
DEFAULT_255_2_778
10
19.0289472
20
137.4271996
40
0.1956856
50
88.4002709
51
125.6558116
0
ARC
8
DEFAULT_255_2_778
10
19.0229477
20
137.4454867
40
0.1774238
50
127.5242925
51
170.6536699
0
ARC
8
DEFAULT_255_2_778
10
18.8789596
20
137.4592573
40
0.3527561
50
122.7014157
51
177.7346919
0
ARC
8
DEFAULT_255_2_778
10
19.030198
20
137.2542043
40
0.6072396
50
91.7146868
51
124.2570002
0
ARC
8
DEFAULT_255_2_778
10
19.05893
20
136.9973064
40
0.865138
50
89.9735854
51
93.1077226
0
ARC
8
DEFAULT_255_2_778
10
19.0592938
20
136.940756
40
0.9216883
50
89.4414218
51
89.9978259
0
ARC
8
DEFAULT_255_2_778
10
19.0704714
20
137.3422068
40
0.5201984
50
63.6868659
51
90.2414521
0
ARC
8
DEFAULT_255_2_778
10
19.1244671
20
137.4701249
40
0.3816898
50
44.805062
51
62.4405121
0
ARC
8
DEFAULT_255_2_778
10
19.1511934
20
137.4943957
40
0.3456276
50
358.4368244
51
45.0725574
0
ARC
8
DEFAULT_255_2_778
10
18.9988451
20
137.4857092
40
0.4978477
50
354.0151208
51
359.9146153
0
ARC
8
DEFAULT_255_2_778
10
19.916384
20
136.7634006
40
0.5223437
50
178.2666392
51
179.9853875
0
ARC
8
DEFAULT_255_2_778
10
19.7189724
20
136.7555635
40
0.3250299
50
178.5948625
51
200.018038
0
ARC
8
DEFAULT_255_2_778
10
18.8607749
20
137.1444835
40
0.2979407
50
268.1351457
51
269.9967975
0
ARC
8
DEFAULT_255_2_778
10
18.8555143
20
137.1419809
40
0.2954847
50
271.0168715
51
323.4470831
0
ARC
8
DEFAULT_255_2_778
10
19.0185177
20
136.7824003
40
0.3950093
50
89.6139406
51
115.9632081
0
ARC
8
DEFAULT_255_2_778
10
18.9568146
20
136.9235476
40
0.2411766
50
117.4642621
51
142.4598629
0
ARC
8
DEFAULT_255_2_778
10
18.9147894
20
136.9604762
40
0.1853888
50
143.595728
51
174.110017
0
ARC
8
DEFAULT_255_2_778
10
18.8922711
20
136.9549244
40
0.1637466
50
171.368069
51
179.7835889
0
ARC
8
DEFAULT_255_2_778
10
18.8267207
20
136.9518088
40
0.098266
50
177.8221965
51
224.0379617
0
ARC
8
DEFAULT_255_2_778
10
18.8464576
20
136.9768517
40
0.1299333
50
225.9269812
51
272.0384171
0
ARC
8
DEFAULT_255_2_778
10
20.216987
20
137.5119976
40
0.3515032
50
37.8132465
51
89.9360651
0
ARC
8
DEFAULT_255_2_778
10
20.0346749
20
137.0217418
40
0.4267183
50
285.291584
51
321.0175046
0
ARC
8
DEFAULT_255_2_778
10
20.0570669
20
136.9755225
40
0.3763475
50
269.8450062
51
283.8588709
0
ARC
8
DEFAULT_255_2_778
10
20.0560587
20
137.0082286
40
0.4090522
50
268.5880369
51
269.9986183
0
ARC
8
DEFAULT_255_2_778
10
20.0420305
20
136.9550487
40
0.3557701
50
236.3475668
51
270.6359501
0
ARC
8
DEFAULT_255_2_778
10
20.0598141
20
136.9665321
40
0.3752788
50
201.8435891
51
235.058908
0
ARC
8
DEFAULT_255_2_778
10
20.3322211
20
137.0855871
40
0.6724873
50
181.1917384
51
202.6233367
0
ARC
8
DEFAULT_255_2_778
10
20.6351677
20
137.1186339
40
0.9764219
50
180.0156472
51
182.7609519
0
ARC
8
DEFAULT_255_2_778
10
20.5470549
20
137.1192658
40
0.8883095
50
174.2087211
51
180.0579587
0
ARC
8
DEFAULT_255_2_778
10
20.6346038
20
137.1321468
40
0.9727968
50
152.6606942
51
172.4775279
0
ARC
8
DEFAULT_255_2_778
10
20.4685375
20
137.2066269
40
0.7911386
50
151.1967159
51
151.9287309
0
ARC
8
DEFAULT_255_2_778
10
20.2724416
20
137.3306657
40
0.559722
50
125.8155177
51
152.6517649
0
ARC
8
DEFAULT_255_2_778
10
20.1926864
20
137.4251789
40
0.4365104
50
121.2895022
51
124.5859333
0
ARC
8
DEFAULT_255_2_778
10
20.2005174
20
137.4108255
40
0.4528439
50
89.3885498
51
121.1930117
0
ARC
8
DEFAULT_255_2_778
10
20.205315
20
137.3290492
40
0.5345942
50
88.6747242
51
89.9962477
0
ARC
8
DEFAULT_255_2_778
10
21.0229427
20
137.0916181
40
1.044966
50
173.5557888
51
179.5636493
0
ARC
8
DEFAULT_255_2_778
10
20.5582157
20
137.098589
40
0.5802095
50
179.9025124
51
183.3187157
0
ARC
8
DEFAULT_255_2_778
10
20.270534
20
137.069649
40
0.2915917
50
180.9134286
51
207.6247443
0
ARC
8
DEFAULT_255_2_778
10
20.135005
20
137.0052881
40
0.1417894
50
209.9763709
51
272.172214
0
ARC
8
DEFAULT_255_2_778
10
20.1512082
20
137.1290383
40
0.2656585
50
267.6638236
51
269.9934853
0
ARC
8
DEFAULT_255_2_778
10
20.1452669
20
137.1328962
40
0.2695812
50
271.2564257
51
323.4819236
0
ARC
8
DEFAULT_255_2_778
10
20.0042443
20
137.2717425
40
0.4663623
50
320.0808185
51
322.7722781
0
ARC
8
DEFAULT_255_2_778
10
20.2905955
20
137.4180938
40
0.1811681
50
17.7085133
51
91.4917236
0
ARC
8
DEFAULT_255_2_778
10
20.2776466
20
137.3173302
40
0.2819906
50
88.3270304
51
89.9962875
0
ARC
8
DEFAULT_255_2_778
10
20.2751839
20
137.3654886
40
0.2338453
50
89.3920923
51
141.8934507
0
ARC
8
DEFAULT_255_2_778
10
20.4150372
20
137.2558724
40
0.411538
50
141.9009784
51
164.0634131
0
ARC
8
DEFAULT_255_2_778
10
20.9401614
20
137.0881385
40
0.9626867
50
163.0454941
51
172.7936709
0
LINE
8
DEFAULT_255_2_778
10
14.1790793
20
137.8402006
11
14.4788793
21
137.8413006
0
LINE
8
DEFAULT_255_2_778
10
14.4788793
20
137.8413006
11
14.4515793
21
137.6973006
0
LINE
8
DEFAULT_255_2_778
10
15.1262793
20
137.3970006
11
14.9968793
21
136.6231006
0
LINE
8
DEFAULT_255_2_778
10
14.9968793
20
136.6231006
11
14.6764793
21
136.6231006
0
LINE
8
DEFAULT_255_2_778
10
14.6764793
20
136.6231006
11
14.8082793
21
137.4002006
0
LINE
8
DEFAULT_255_2_778
10
14.4391793
20
137.4822006
11
14.2856793
21
136.6229006
0
LINE
8
DEFAULT_255_2_778
10
14.2856793
20
136.6229006
11
13.9652793
21
136.6229006
0
LINE
8
DEFAULT_255_2_778
10
13.9652793
20
136.6229006
11
14.1787793
21
137.8400006
0
LINE
8
DEFAULT_255_2_778
10
14.1787793
20
137.8400006
11
14.1790793
21
137.8402006
0
LINE
8
DEFAULT_255_2_778
10
16.0157793
20
137.4553006
11
15.9692793
21
137.1933006
0
LINE
8
DEFAULT_255_2_778
10
15.9692793
20
137.1933006
11
15.3466793
21
137.1933006
0
LINE
8
DEFAULT_255_2_778
10
15.3466793
20
137.1933006
11
15.3921793
21
137.4553006
0
LINE
8
DEFAULT_255_2_778
10
15.3921793
20
137.4553006
11
16.0157793
21
137.4553006
0
LINE
8
DEFAULT_255_2_778
10
16.0157793
20
137.4553006
11
16.0157793
21
137.4553006
0
LINE
8
DEFAULT_255_2_778
10
16.7894793
20
136.6231006
11
16.1544793
21
136.6231006
0
LINE
8
DEFAULT_255_2_778
10
16.1544793
20
136.6231006
11
16.4417793
21
138.2606006
0
LINE
8
DEFAULT_255_2_778
10
16.4417793
20
138.2606006
11
16.9574793
21
138.2596006
0
LINE
8
DEFAULT_255_2_778
10
16.7894793
20
136.6231006
11
16.7894793
21
136.6231006
0
LINE
8
DEFAULT_255_2_778
10
16.9267793
20
137.3351006
11
16.6131793
21
137.3362006
0
LINE
8
DEFAULT_255_2_778
10
16.6131793
20
137.3362006
11
16.5348793
21
136.8941006
0
LINE
8
DEFAULT_255_2_778
10
16.5348793
20
136.8941006
11
16.7973793
21
136.8930006
0
LINE
8
DEFAULT_255_2_778
10
16.9267793
20
137.3349006
11
16.9267793
21
137.3351006
0
LINE
8
DEFAULT_255_2_778
10
16.7267793
20
137.9876006
11
16.6539793
21
137.5748006
0
LINE
8
DEFAULT_255_2_778
10
16.6539793
20
137.5748006
11
16.8798793
21
137.5725006
0
LINE
8
DEFAULT_255_2_778
10
16.9719793
20
137.9863006
11
16.7267793
21
137.9873006
0
LINE
8
DEFAULT_255_2_778
10
16.7267793
20
137.9873006
11
16.7267793
21
137.9876006
0
LINE
8
DEFAULT_255_2_778
10
18.4681793
20
137.8490006
11
18.4271793
21
137.5352006
0
LINE
8
DEFAULT_255_2_778
10
18.0477793
20
137.4195006
11
17.9056793
21
136.6231006
0
LINE
8
DEFAULT_255_2_778
10
17.9056793
20
136.6231006
11
17.5852793
21
136.6231006
0
LINE
8
DEFAULT_255_2_778
10
17.5852793
20
136.6231006
11
17.7987793
21
137.8402006
0
LINE
8
DEFAULT_255_2_778
10
17.7987793
20
137.8402006
11
18.0998793
21
137.8413006
0
LINE
8
DEFAULT_255_2_778
10
18.0998793
20
137.8413006
11
18.0702793
21
137.6928006
0
LINE
8
DEFAULT_255_2_778
10
18.4679793
20
137.8490006
11
18.4681793
21
137.8490006
0
LINE
8
DEFAULT_255_2_778
10
19.4122793
20
136.6229006
11
19.0976793
21
136.6229006
0
LINE
8
DEFAULT_255_2_778
10
19.0045793
20
137.3674006
11
19.1545793
21
137.3653006
0
LINE
8
DEFAULT_255_2_778
10
19.1545793
20
137.3653006
11
19.1703793
21
137.4383006
0
LINE
8
DEFAULT_255_2_778
10
18.8478793
20
137.4743006
11
18.5264793
21
137.4732006
0
LINE
8
DEFAULT_255_2_778
10
19.4939793
20
137.4338006
11
19.3997793
21
136.8512006
0
LINE
8
DEFAULT_255_2_778
10
19.3997793
20
136.8512006
11
19.3942793
21
136.7792006
0
LINE
8
DEFAULT_255_2_778
10
19.4135793
20
136.6443006
11
19.4124793
21
136.6229006
0
LINE
8
DEFAULT_255_2_778
10
19.4124793
20
136.6229006
11
19.4122793
21
136.6229006
0
LINE
8
DEFAULT_255_2_778
10
19.0928793
20
136.9660006
11
19.1325793
21
137.1764006
0
LINE
8
DEFAULT_255_2_778
10
19.1325793
20
137.1764006
11
19.0211793
21
137.1774006
0
LINE
8
DEFAULT_255_2_778
10
18.8510793
20
136.8470006
11
18.8510793
21
136.8467006
0
LINE
8
DEFAULT_255_2_778
10
20.4946793
20
137.7275006
11
20.6150793
21
138.3506006
0
LINE
8
DEFAULT_255_2_778
10
20.6150793
20
138.3506006
11
20.9364793
21
138.3506006
0
LINE
8
DEFAULT_255_2_778
10
20.9364793
20
138.3506006
11
20.6343793
21
136.6229006
0
LINE
8
DEFAULT_255_2_778
10
20.6343793
20
136.6229006
11
20.3480793
21
136.6229006
0
LINE
8
DEFAULT_255_2_778
10
20.3480793
20
136.6229006
11
20.3663793
21
136.7533006
0
LINE
8
DEFAULT_255_2_778
10
19.6632793
20
137.2089006
11
19.6701793
21
137.2595006
0
LINE
8
DEFAULT_255_2_778
10
20.2176793
20
137.8635006
11
20.2173793
21
137.8635006
0
LINE
8
DEFAULT_255_2_778
10
20.3755793
20
136.9896006
11
20.4631793
21
137.4732006
0
LINE
8
DEFAULT_255_2_778
10
19.9850793
20
137.2089006
11
19.9845793
21
137.2089006
0
LINE
8
DEFAULT_255_2_778
10
21.5304594
20
138.3506646
11
21.2282594
21
136.6229646
0
LINE
8
DEFAULT_255_2_778
10
21.2282594
20
136.6229646
11
20.9057594
21
136.6229646
0
LINE
8
DEFAULT_255_2_778
10
20.9057594
20
136.6229646
11
21.2089594
21
138.3506646
0
LINE
8
DEFAULT_255_2_778
10
21.2089594
20
138.3506646
11
21.5304594
21
138.3506646
0
LINE
8
DEFAULT_255_2_778
10
21.5304594
20
138.3506646
11
21.5304594
21
138.3506646
0
ARC
8
DEFAULT_255_2_778
10
22.0768767
20
137.1387764
40
0.5383522
50
238.763891
51
270.7055166
0
ARC
8
DEFAULT_255_2_778
10
22.0455625
20
137.083452
40
0.4748131
50
204.061185
51
238.5328679
0
ARC
8
DEFAULT_255_2_778
10
22.1281681
20
137.1230331
40
0.5663841
50
179.4896096
51
204.3103027
0
ARC
8
DEFAULT_255_2_778
10
22.2521843
20
137.1275727
40
0.6903781
50
175.123126
51
179.9580366
0
ARC
8
DEFAULT_255_2_778
10
22.3438479
20
137.1625152
40
0.7790728
50
149.5392097
51
174.9446897
0
ARC
8
DEFAULT_255_2_778
10
22.217984
20
137.2460212
40
0.628301
50
120.7003982
51
150.2846053
0
ARC
8
DEFAULT_255_2_778
10
22.1784851
20
137.3057024
40
0.556829
50
89.4236852
51
120.3409826
0
ARC
8
DEFAULT_255_2_778
10
22.1840352
20
137.2069671
40
0.6555361
50
88.4553682
51
89.9955718
0
ARC
8
DEFAULT_255_2_778
10
22.2069363
20
137.3911369
40
0.4711572
50
58.4514404
51
90.636095
0
ARC
8
DEFAULT_255_2_778
10
22.2332403
20
137.4545423
40
0.403504
50
35.6058989
51
56.9235594
0
ARC
8
DEFAULT_255_2_778
10
22.1229882
20
137.3807058
40
0.5361477
50
0.6851965
51
35.1616077
0
ARC
8
DEFAULT_255_2_778
10
21.9204313
20
137.3603229
40
0.7391521
50
359.9888194
51
2.0774415
0
ARC
8
DEFAULT_255_2_778
10
21.8068025
20
137.3620249
40
0.852783
50
353.383538
51
359.8759623
0
ARC
8
DEFAULT_255_2_778
10
22.293021
20
137.1096119
40
0.4107176
50
177.8018731
51
179.9839782
0
ARC
8
DEFAULT_255_2_778
10
22.1344217
20
137.098124
40
0.2523852
50
177.3650374
51
219.8309448
0
ARC
8
DEFAULT_255_2_778
10
22.1050068
20
137.0848401
40
0.2214564
50
222.0668323
51
271.55222
0
ARC
8
DEFAULT_255_2_778
10
22.1220002
20
137.2896289
40
0.4263057
50
268.5221572
51
269.9980687
0
ARC
8
DEFAULT_255_2_778
10
22.1204001
20
137.2600217
40
0.3967017
50
270.2290309
51
318.5203973
0
ARC
8
DEFAULT_255_2_778
10
22.1898056
20
137.0767979
40
0.4555006
50
292.4982989
51
325.2807674
0
ARC
8
DEFAULT_255_2_778
10
22.0999907
20
137.2553545
40
0.6549996
50
269.6158853
51
293.7802026
0
ARC
8
DEFAULT_255_2_778
10
22.0956026
20
137.342233
40
0.7418635
50
269.0811303
51
269.9997673
0
ARC
8
DEFAULT_255_2_778
10
22.1793249
20
137.3351977
40
0.2651417
50
88.6426435
51
89.9971979
0
ARC
8
DEFAULT_255_2_778
10
22.1775009
20
137.3704788
40
0.2298681
50
89.5421073
51
130.5025885
0
ARC
8
DEFAULT_255_2_778
10
22.2762398
20
137.2703327
40
0.370282
50
132.0556576
51
154.4346079
0
ARC
8
DEFAULT_255_2_778
10
22.6775288
20
137.0527869
40
0.8264843
50
152.8348001
51
159.2008974
0
ARC
8
DEFAULT_255_2_778
10
22.042515
20
137.4237268
40
0.3137404
50
351.1327381
51
359.8552777
0
ARC
8
DEFAULT_255_2_778
10
22.0889744
20
137.4233274
40
0.2672803
50
359.9157472
51
8.073482
0
ARC
8
DEFAULT_255_2_778
10
22.1916726
20
137.4386276
40
0.1634528
50
7.8192239
51
49.4174523
0
ARC
8
DEFAULT_255_2_778
10
22.1897336
20
137.4254377
40
0.174876
50
51.746929
51
91.3525911
0
LINE
8
DEFAULT_255_2_778
10
21.5643056
20
137.186265
11
21.5678056
21
137.231165
0
LINE
8
DEFAULT_255_2_778
10
22.6539056
20
137.263765
11
22.6356056
21
137.125365
0
LINE
8
DEFAULT_255_2_778
10
22.6356056
20
137.125365
11
21.8826056
21
137.125365
0
LINE
8
DEFAULT_255_2_778
10
22.4176056
20
136.997265
11
22.5642056
21
136.817365
0
LINE
8
DEFAULT_255_2_778
10
22.0837056
20
136.600465
11
22.0835056
21
136.600465
0
LINE
8
DEFAULT_255_2_778
10
21.9049056
20
137.346265
11
22.3456056
21
137.346265
0
LINE
8
DEFAULT_255_2_778
10
22.3456056
20
137.346265
11
22.3525056
21
137.375365
0
LINE
8
DEFAULT_255_2_778
10
22.1856056
20
137.600265
11
22.1856056
21
137.600265
0
ARC
8
DEFAULT_255_2_778
10
22.5732251
20
136.7393848
40
0.7187609
50
318.1171527
51
335.3457065
0
ARC
8
DEFAULT_255_2_778
10
22.7861338
20
136.5572586
40
0.4387075
50
306.2044829
51
317.2623563
0
ARC
8
DEFAULT_255_2_778
10
22.8118587
20
136.5265063
40
0.3987066
50
269.0092455
51
305.8318035
0
ARC
8
DEFAULT_255_2_778
10
22.8209703
20
136.6911254
40
0.5634934
50
257.9736769
51
268.3723286
0
ARC
8
DEFAULT_255_2_778
10
22.976467
20
137.5453273
40
1.431581
50
256.8370098
51
259.0102636
0
ARC
8
DEFAULT_255_2_778
10
22.7299218
20
136.793381
40
0.396887
50
268.3457775
51
269.9906226
0
ARC
8
DEFAULT_255_2_778
10
22.744688
20
136.6339479
40
0.2379166
50
266.425992
51
328.6474802
0
LINE
8
DEFAULT_255_2_778
10
23.1491646
20
137.8399594
11
23.2378646
21
137.0864594
0
LINE
8
DEFAULT_255_2_778
10
23.2378646
20
137.0864594
11
23.5889646
21
137.8399594
0
LINE
8
DEFAULT_255_2_778
10
23.5889646
20
137.8399594
11
23.9453646
21
137.8399594
0
LINE
8
DEFAULT_255_2_778
10
23.9453646
20
137.8399594
11
23.2264646
21
136.4395594
0
LINE
8
DEFAULT_255_2_778
10
22.6504646
20
136.1513594
11
22.6742646
21
136.3987594
0
LINE
8
DEFAULT_255_2_778
10
22.6742646
20
136.3987594
11
22.7184646
21
136.3966594
0
LINE
8
DEFAULT_255_2_778
10
22.9478646
20
136.5101594
11
23.0182646
21
136.6395594
0
LINE
8
DEFAULT_255_2_778
10
23.0182646
20
136.6395594
11
22.8171646
21
137.8396594
0
LINE
8
DEFAULT_255_2_778
10
22.8171646
20
137.8396594
11
23.1489646
21
137.8396594
0
LINE
8
DEFAULT_255_2_778
10
23.1489646
20
137.8396594
11
23.1491646
21
137.8399594
0
LINE
8
DEFAULT_255_2_778
10
5.4244542
20
138.2394666
11
5.4244542
21
137.0541666
0
LINE
8
DEFAULT_255_2_778
10
5.4244542
20
137.0541666
11
8.3507542
21
137.0171666
0
LINE
8
DEFAULT_255_2_778
10
8.3507542
20
137.0171666
11
8.3507542
21
138.2394666
0
LINE
8
DEFAULT_255_2_778
10
8.3507542
20
138.2394666
11
7.4246542
21
139.0914666
0
LINE
8
DEFAULT_255_2_778
10
7.4246542
20
139.0914666
11
6.2764542
21
139.0914666
0
LINE
8
DEFAULT_255_2_778
10
6.2764542
20
139.0914666
11
5.4244542
21
138.2394666
0
LINE
8
DEFAULT_255_2_778
10
5.5726542
20
136.8319666
11
8.2025542
21
136.8319666
0
LINE
8
DEFAULT_255_2_778
10
8.2025542
20
136.8319666
11
7.4617542
21
136.1281666
0
LINE
8
DEFAULT_255_2_778
10
7.4617542
20
136.1281666
11
6.3504542
21
136.1281666
0
LINE
8
DEFAULT_255_2_778
10
6.3504542
20
136.1281666
11
5.5726542
21
136.8319666
0
ARC
8
DEFAULT_255_2_778
10
7.8458226
20
137.3810768
40
0.1423419
50
264.5115721
51
318.4176283
0
ARC
8
DEFAULT_255_2_778
10
7.8189879
20
137.3781225
40
0.1616977
50
325.5297452
51
3.3557414
0
ARC
8
DEFAULT_255_2_778
10
7.8389795
20
137.7346157
40
0.142084
50
354.4959081
51
48.5537602
0
ARC
8
DEFAULT_255_2_778
10
7.8416444
20
137.7074068
40
0.1619557
50
55.6500697
51
93.3401169
0
ARC
8
DEFAULT_255_2_778
10
7.8414709
20
137.933925
40
0.0654958
50
261.8698976
51
8.1301024
0
ARC
8
DEFAULT_255_2_778
10
7.7988672
20
138.3166455
40
0.1074847
50
358.3696885
51
95.9524071
0
ARC
8
DEFAULT_255_2_778
10
7.7588839
20
138.0882916
40
0.3364968
50
85.0838783
51
90.1320543
0
LINE
8
DEFAULT_255_2_778
10
5.6838084
20
137.2393875
11
6.1283084
21
138.4617875
0
LINE
8
DEFAULT_255_2_778
10
6.1283084
20
138.4617875
11
6.3876084
21
138.4617875
0
LINE
8
DEFAULT_255_2_778
10
6.3876084
20
138.4617875
11
6.8691084
21
137.2764875
0
LINE
8
DEFAULT_255_2_778
10
6.8691084
20
137.2764875
11
6.5358084
21
137.2764875
0
LINE
8
DEFAULT_255_2_778
10
6.5358084
20
137.2764875
11
6.4246084
21
137.5357875
0
LINE
8
DEFAULT_255_2_778
10
6.4246084
20
137.5357875
11
6.0913084
21
137.5357875
0
LINE
8
DEFAULT_255_2_778
10
6.0913084
20
137.5357875
11
6.0913084
21
137.6838875
0
LINE
8
DEFAULT_255_2_778
10
6.0913084
20
137.6838875
11
6.3876084
21
137.6838875
0
LINE
8
DEFAULT_255_2_778
10
6.3876084
20
137.6838875
11
6.2024084
21
138.1283875
0
LINE
8
DEFAULT_255_2_778
10
6.2024084
20
138.1283875
11
5.8690084
21
137.2393875
0
LINE
8
DEFAULT_255_2_778
10
5.8690084
20
137.2393875
11
5.6838084
21
137.2393875
0
LINE
8
DEFAULT_255_2_778
10
5.6838084
20
137.2393875
11
5.6838084
21
137.2393875
0
LINE
8
DEFAULT_255_2_778
10
6.7580084
20
137.9061875
11
6.9062084
21
137.9061875
0
LINE
8
DEFAULT_255_2_778
10
6.9062084
20
137.9061875
11
6.9062084
21
137.7579875
0
LINE
8
DEFAULT_255_2_778
10
6.9062084
20
137.7579875
11
6.7580084
21
137.7579875
0
LINE
8
DEFAULT_255_2_778
10
6.7580084
20
137.7579875
11
6.7580084
21
137.9061875
0
LINE
8
DEFAULT_255_2_778
10
7.2766084
20
138.2395875
11
7.6100084
21
138.2395875
0
LINE
8
DEFAULT_255_2_778
10
7.6100084
20
138.2395875
11
7.6100084
21
137.8690875
0
LINE
8
DEFAULT_255_2_778
10
7.6100084
20
137.8690875
11
7.3507084
21
137.8690875
0
LINE
8
DEFAULT_255_2_778
10
7.3507084
20
137.8690875
11
7.3507084
21
137.7209875
0
LINE
8
DEFAULT_255_2_778
10
7.3507084
20
137.7209875
11
7.6840084
21
137.7209875
0
LINE
8
DEFAULT_255_2_778
10
7.6840084
20
137.7209875
11
7.6840084
21
137.3875875
0
LINE
8
DEFAULT_255_2_778
10
7.6840084
20
137.3875875
11
7.2766084
21
137.3875875
0
LINE
8
DEFAULT_255_2_778
10
7.2766084
20
137.3875875
11
7.2766084
21
138.2395875
0
LINE
8
DEFAULT_255_2_778
10
7.2766084
20
138.2395875
11
7.2766084
21
138.2395875
0
LINE
8
DEFAULT_255_2_778
10
6.9803084
20
138.4247875
11
6.9803084
21
137.2393875
0
LINE
8
DEFAULT_255_2_778
10
6.9803084
20
137.2393875
11
7.8322084
21
137.2393875
0
LINE
8
DEFAULT_255_2_778
10
7.9804084
20
137.3875875
11
7.9804084
21
137.7209875
0
LINE
8
DEFAULT_255_2_778
10
7.9063084
20
137.9431875
11
7.9063084
21
138.3135875
0
LINE
8
DEFAULT_255_2_778
10
7.7581084
20
138.4247875
11
6.9803084
21
138.4247875
0
LINE
8
DEFAULT_255_2_778
10
6.9803084
20
138.4247875
11
6.9803084
21
138.4247875
0
LINE
8
DEFAULT_255_2_778
10
6.3394427
20
136.4490198
11
6.3367427
21
136.4490198
0
ARC
8
DEFAULT_255_2_778
10
6.3340483
20
136.5740854
40
0.1250946
50
247.1356448
51
271.2341787
0
ARC
8
DEFAULT_255_2_778
10
6.3160916
20
136.5317164
40
0.0790776
50
215.0349981
51
247.1960091
0
ARC
8
DEFAULT_255_2_778
10
6.3109464
20
136.5263964
40
0.0718243
50
178.625123
51
213.9163394
0
ARC
8
DEFAULT_255_2_778
10
6.3131693
20
136.6434391
40
0.0740421
50
147.0420611
51
181.175799
0
ARC
8
DEFAULT_255_2_778
10
6.3147919
20
136.6395628
40
0.0775487
50
112.4780918
51
145.2909011
0
ARC
8
DEFAULT_255_2_778
10
6.333917
20
136.5951534
40
0.1258981
50
88.7138988
51
112.7934617
0
ARC
8
DEFAULT_255_2_778
10
6.339481
20
136.5956878
40
0.1253619
50
67.159311
51
91.2516049
0
ARC
8
DEFAULT_255_2_778
10
6.3569794
20
136.6376852
40
0.0798654
50
35.1978461
51
67.0331611
0
ARC
8
DEFAULT_255_2_778
10
6.3626391
20
136.6436431
40
0.0718243
50
358.625123
51
33.9163394
0
ARC
8
DEFAULT_255_2_778
10
6.3604162
20
136.5266004
40
0.0740421
50
327.0420611
51
1.175799
0
ARC
8
DEFAULT_255_2_778
10
6.361381
20
136.5278218
40
0.0739133
50
291.6436853
51
325.8406333
0
ARC
8
DEFAULT_255_2_778
10
6.3401809
20
136.536874
40
0.0482768
50
265.9160158
51
308.3617549
0
ARC
8
DEFAULT_255_2_778
10
6.3451719
20
136.5258207
40
0.036631
50
312.9754563
51
3.2850623
0
ARC
8
DEFAULT_255_2_778
10
6.3448152
20
136.643502
40
0.0369754
50
357.082104
51
47.4006092
0
ARC
8
DEFAULT_255_2_778
10
6.339634
20
136.6333686
40
0.0480383
50
51.0349629
51
93.4505724
0
ARC
8
DEFAULT_255_2_778
10
6.3340455
20
136.633049
40
0.0483461
50
86.8017862
51
128.8135095
0
ARC
8
DEFAULT_255_2_778
10
6.3287702
20
136.643502
40
0.0369754
50
132.5993908
51
182.917896
0
ARC
8
DEFAULT_255_2_778
10
6.3284135
20
136.5258207
40
0.036631
50
176.7149377
51
227.0245437
0
ARC
8
DEFAULT_255_2_778
10
6.3334908
20
136.537186
40
0.0485752
50
231.7867693
51
273.8385805
0
ARC
8
DEFAULT_255_2_778
10
6.5570034
20
136.5255567
40
0.0766655
50
226.2029837
51
273.3195937
0
ARC
8
DEFAULT_255_2_778
10
6.5622798
20
136.5235746
40
0.0790566
50
176.8492311
51
222.4458356
0
ARC
8
DEFAULT_255_2_778
10
6.5699928
20
136.5254647
40
0.043631
50
176.5112098
51
217.639275
0
ARC
8
DEFAULT_255_2_778
10
6.5593879
20
136.5203664
40
0.0322122
50
221.9818643
51
273.6574471
0
ARC
8
DEFAULT_255_2_778
10
6.5632217
20
136.5208151
40
0.0326438
50
266.8760675
51
317.6392064
0
ARC
8
DEFAULT_255_2_778
10
6.5527926
20
136.5254647
40
0.043631
50
322.360725
51
3.4887902
0
ARC
8
DEFAULT_255_2_778
10
6.5605056
20
136.5235746
40
0.0790566
50
317.5541644
51
3.1507689
0
ARC
8
DEFAULT_255_2_778
10
6.5656687
20
136.5258223
40
0.0769357
50
266.6274163
51
313.7210327
0
LINE
8
DEFAULT_255_2_778
10
6.4394427
20
136.3874198
11
6.3828427
21
136.3874198
0
LINE
8
DEFAULT_255_2_778
10
6.3828427
20
136.3874198
11
6.3394427
21
136.4490198
0
LINE
8
DEFAULT_255_2_778
10
6.2391427
20
136.5281198
11
6.2391427
21
136.6419198
0
LINE
8
DEFAULT_255_2_778
10
6.4344427
20
136.6419198
11
6.4344427
21
136.5281198
0
LINE
8
DEFAULT_255_2_778
10
6.3886427
20
136.4591198
11
6.4394427
21
136.3876198
0
LINE
8
DEFAULT_255_2_778
10
6.4394427
20
136.3876198
11
6.4394427
21
136.3874198
0
LINE
8
DEFAULT_255_2_778
10
6.3817427
20
136.5279198
11
6.3817427
21
136.6416198
0
LINE
8
DEFAULT_255_2_778
10
6.2918427
20
136.6416198
11
6.2918427
21
136.5279198
0
LINE
8
DEFAULT_255_2_778
10
6.3367427
20
136.4887198
11
6.3367427
21
136.4887198
0
LINE
8
DEFAULT_255_2_778
10
6.4833427
20
136.5279198
11
6.4833427
21
136.7170198
0
LINE
8
DEFAULT_255_2_778
10
6.4833427
20
136.7170198
11
6.5264427
21
136.7170198
0
LINE
8
DEFAULT_255_2_778
10
6.5264427
20
136.7170198
11
6.5264427
21
136.5281198
0
LINE
8
DEFAULT_255_2_778
10
6.5963427
20
136.5281198
11
6.5963427
21
136.7170198
0
LINE
8
DEFAULT_255_2_778
10
6.5963427
20
136.7170198
11
6.6394427
21
136.7170198
0
LINE
8
DEFAULT_255_2_778
10
6.6394427
20
136.7170198
11
6.6394427
21
136.5279198
0
LINE
8
DEFAULT_255_2_778
10
6.5611427
20
136.4490198
11
6.5614427
21
136.4490198
0
ARC
8
DEFAULT_255_2_778
10
12.1641553
20
137.7521635
40
5.5033955
50
191.4837585
51
191.8239227
0
ARC
8
DEFAULT_255_2_778
10
8.3589245
20
136.9483972
40
1.6145995
50
189.6626565
51
190.4158531
0
ARC
8
DEFAULT_255_2_778
10
6.1197449
20
136.7812409
40
0.6557616
50
349.0334606
51
350.8880298
0
ARC
8
DEFAULT_255_2_778
10
6.0674183
20
136.7848866
40
0.7078549
50
346.9283592
51
349.5494987
0
ARC
8
DEFAULT_255_2_778
10
7.2958769
20
136.5540243
40
0.1856762
50
15.5793022
51
22.5708948
0
ARC
8
DEFAULT_255_2_778
10
7.3328007
20
136.5588058
40
0.1489195
50
11.1061152
51
17.6230497
0
ARC
8
DEFAULT_255_2_778
10
8.063214
20
136.4430593
40
0.6018696
50
164.5010167
51
166.1150622
0
ARC
8
DEFAULT_255_2_778
10
7.6620856
20
136.5540243
40
0.1856762
50
157.4291052
51
164.4206978
0
LINE
8
DEFAULT_255_2_778
10
6.7201313
20
136.4524917
11
6.6762313
21
136.4524917
0
LINE
8
DEFAULT_255_2_778
10
6.6762313
20
136.4524917
11
6.7392313
21
136.7170917
0
LINE
8
DEFAULT_255_2_778
10
6.7392313
20
136.7170917
11
6.7942313
21
136.7170917
0
LINE
8
DEFAULT_255_2_778
10
6.7942313
20
136.7170917
11
6.8577313
21
136.4524917
0
LINE
8
DEFAULT_255_2_778
10
6.8577313
20
136.4524917
11
6.8138313
21
136.4524917
0
LINE
8
DEFAULT_255_2_778
10
6.8138313
20
136.4524917
11
6.8000313
21
136.5164917
0
LINE
8
DEFAULT_255_2_778
10
6.8000313
20
136.5164917
11
6.7336313
21
136.5164917
0
LINE
8
DEFAULT_255_2_778
10
6.7336313
20
136.5164917
11
6.7199313
21
136.4524917
0
LINE
8
DEFAULT_255_2_778
10
6.7199313
20
136.4524917
11
6.7201313
21
136.4524917
0
LINE
8
DEFAULT_255_2_778
10
6.7569313
20
136.6249917
11
6.7418313
21
136.5535917
0
LINE
8
DEFAULT_255_2_778
10
6.7418313
20
136.5535917
11
6.7926313
21
136.5535917
0
LINE
8
DEFAULT_255_2_778
10
6.7926313
20
136.5535917
11
6.7775313
21
136.6244917
0
LINE
8
DEFAULT_255_2_778
10
6.7569313
20
136.6247917
11
6.7569313
21
136.6249917
0
LINE
8
DEFAULT_255_2_778
10
7.0231313
20
136.4524917
11
6.8741313
21
136.4524917
0
LINE
8
DEFAULT_255_2_778
10
6.8741313
20
136.4524917
11
6.8741313
21
136.7170917
0
LINE
8
DEFAULT_255_2_778
10
6.8741313
20
136.7170917
11
6.9170313
21
136.7170917
0
LINE
8
DEFAULT_255_2_778
10
6.9170313
20
136.7170917
11
6.9170313
21
136.4934917
0
LINE
8
DEFAULT_255_2_778
10
6.9170313
20
136.4934917
11
7.0231313
21
136.4934917
0
LINE
8
DEFAULT_255_2_778
10
7.0231313
20
136.4934917
11
7.0231313
21
136.4524917
0
LINE
8
DEFAULT_255_2_778
10
7.0231313
20
136.4524917
11
7.0231313
21
136.4524917
0
LINE
8
DEFAULT_255_2_778
10
7.1760313
20
136.4524917
11
7.0321313
21
136.4524917
0
LINE
8
DEFAULT_255_2_778
10
7.0321313
20
136.4524917
11
7.0321313
21
136.4934917
0
LINE
8
DEFAULT_255_2_778
10
7.0321313
20
136.4934917
11
7.0823313
21
136.4934917
0
LINE
8
DEFAULT_255_2_778
10
7.0823313
20
136.4934917
11
7.0823313
21
136.6760917
0
LINE
8
DEFAULT_255_2_778
10
7.0823313
20
136.6760917
11
7.0321313
21
136.6760917
0
LINE
8
DEFAULT_255_2_778
10
7.0321313
20
136.6760917
11
7.0321313
21
136.7170917
0
LINE
8
DEFAULT_255_2_778
10
7.0321313
20
136.7170917
11
7.1760313
21
136.7170917
0
LINE
8
DEFAULT_255_2_778
10
7.1760313
20
136.7170917
11
7.1760313
21
136.6760917
0
LINE
8
DEFAULT_255_2_778
10
7.1760313
20
136.6760917
11
7.1257313
21
136.6760917
0
LINE
8
DEFAULT_255_2_778
10
7.1257313
20
136.6760917
11
7.1257313
21
136.4934917
0
LINE
8
DEFAULT_255_2_778
10
7.1257313
20
136.4934917
11
7.1760313
21
136.4934917
0
LINE
8
DEFAULT_255_2_778
10
7.1760313
20
136.4934917
11
7.1760313
21
136.4524917
0
LINE
8
DEFAULT_255_2_778
10
7.1760313
20
136.4524917
11
7.1760313
21
136.4524917
0
LINE
8
DEFAULT_255_2_778
10
7.2940313
20
136.4524917
11
7.2509313
21
136.4524917
0
LINE
8
DEFAULT_255_2_778
10
7.2509313
20
136.4524917
11
7.2509313
21
136.6760917
0
LINE
8
DEFAULT_255_2_778
10
7.2509313
20
136.6760917
11
7.1855313
21
136.6760917
0
LINE
8
DEFAULT_255_2_778
10
7.1855313
20
136.6760917
11
7.1855313
21
136.7170917
0
LINE
8
DEFAULT_255_2_778
10
7.1855313
20
136.7170917
11
7.3596313
21
136.7170917
0
LINE
8
DEFAULT_255_2_778
10
7.3596313
20
136.7170917
11
7.3596313
21
136.6760917
0
LINE
8
DEFAULT_255_2_778
10
7.3596313
20
136.6760917
11
7.2943313
21
136.6760917
0
LINE
8
DEFAULT_255_2_778
10
7.2943313
20
136.6760917
11
7.2943313
21
136.4524917
0
LINE
8
DEFAULT_255_2_778
10
7.2943313
20
136.4524917
11
7.2940313
21
136.4524917
0
LINE
8
DEFAULT_255_2_778
10
7.4996313
20
136.4524917
11
7.4565313
21
136.4524917
0
LINE
8
DEFAULT_255_2_778
10
7.4565313
20
136.4524917
11
7.4565313
21
136.5485917
0
LINE
8
DEFAULT_255_2_778
10
7.4565313
20
136.5485917
11
7.3832313
21
136.7170917
0
LINE
8
DEFAULT_255_2_778
10
7.3832313
20
136.7170917
11
7.4281313
21
136.7170917
0
LINE
8
DEFAULT_255_2_778
10
7.4281313
20
136.7170917
11
7.4673313
21
136.6252917
0
LINE
8
DEFAULT_255_2_778
10
7.4906313
20
136.6252917
11
7.5287313
21
136.7170917
0
LINE
8
DEFAULT_255_2_778
10
7.5287313
20
136.7170917
11
7.5731313
21
136.7170917
0
LINE
8
DEFAULT_255_2_778
10
7.5731313
20
136.7170917
11
7.4998313
21
136.5485917
0
LINE
8
DEFAULT_255_2_778
10
7.4998313
20
136.5485917
11
7.4998313
21
136.4524917
0
LINE
8
DEFAULT_255_2_778
10
7.4998313
20
136.4524917
11
7.4996313
21
136.4524917
0
LINE
8
DEFAULT_255_1_388
10
7.577632
20
134.0537468
11
7.7520199
21
134.0537468
0
LINE
8
DEFAULT_255_1_388
10
6.7391242
20
134.2326525
11
6.7391242
21
134.3591516
0
LINE
8
DEFAULT_255_1_388
10
7.7520199
20
134.5290217
11
7.577632
21
134.5290217
0
LINE
8
DEFAULT_255_1_388
10
6.9135121
20
134.3546337
11
6.9135121
21
134.2272312
0
ARC
8
DEFAULT_255_1_388
10
7.1354433
20
134.1209329
40
0.6202263
50
340.1774904
51
353.7812217
0
ARC
8
DEFAULT_255_1_388
10
7.3122286
20
134.0550893
40
0.4315926
50
311.4560052
51
340.4420756
0
ARC
8
DEFAULT_255_1_388
10
7.3084826
20
134.0675665
40
0.4434573
50
282.4332229
51
310.7514507
0
ARC
8
DEFAULT_255_1_388
10
7.2590644
20
134.2717703
40
0.6535262
50
269.9358869
51
282.8096729
0
ARC
8
DEFAULT_255_1_388
10
7.2532583
20
134.4230329
40
0.8048043
50
269.9995752
51
270.3612856
0
ARC
8
DEFAULT_255_1_388
10
7.2473073
20
134.1431781
40
0.5249831
50
250.7885263
51
270.6488451
0
ARC
8
DEFAULT_255_1_388
10
7.2283898
20
134.0714853
40
0.4510942
50
219.3628377
51
250.0611024
0
ARC
8
DEFAULT_255_1_388
10
7.3216772
20
134.1507653
40
0.5735046
50
193.5480293
51
219.5755675
0
ARC
8
DEFAULT_255_1_388
10
7.5884981
20
134.220052
40
0.849146
50
181.1220183
51
193.8754971
0
ARC
8
DEFAULT_255_1_388
10
7.8208214
20
134.2324914
40
1.0816971
50
179.9914644
51
181.5398227
0
ARC
8
DEFAULT_255_1_388
10
7.6131525
20
134.3633586
40
0.8740384
50
169.5837606
51
180.275782
0
ARC
8
DEFAULT_255_1_388
10
7.4064873
20
134.4015439
40
0.6638751
50
155.0367033
51
169.6002779
0
ARC
8
DEFAULT_255_1_388
10
7.2787331
20
134.4631336
40
0.5220662
50
136.7831557
51
155.2472983
0
ARC
8
DEFAULT_255_1_388
10
7.2349122
20
134.5003577
40
0.4646502
50
121.7633063
51
136.4281161
0
ARC
8
DEFAULT_255_1_388
10
7.2500962
20
134.4723049
40
0.4964979
50
95.6460018
51
121.5489589
0
ARC
8
DEFAULT_255_1_388
10
7.2677936
20
134.3475704
40
0.6223912
50
89.9245727
51
96.1375919
0
ARC
8
DEFAULT_255_1_388
10
7.2734641
20
134.3609721
40
0.6090084
50
76.6779212
51
90.456405
0
ARC
8
DEFAULT_255_1_388
10
7.3177454
20
134.539906
40
0.42469
50
47.4858803
51
76.9287069
0
ARC
8
DEFAULT_255_1_388
10
7.3012068
20
134.5286623
40
0.4441778
50
16.5424081
51
46.8934505
0
ARC
8
DEFAULT_255_1_388
10
7.1203118
20
134.4692265
40
0.6345318
50
5.4072971
51
17.0363711
0
ARC
8
DEFAULT_255_1_388
10
6.9584843
20
134.4432304
40
0.6250632
50
7.8888693
51
15.9242022
0
ARC
8
DEFAULT_255_1_388
10
7.1819828
20
134.5081309
40
0.3923364
50
15.7650676
51
27.9410069
0
ARC
8
DEFAULT_255_1_388
10
7.3061997
20
134.5746317
40
0.2514401
50
27.8167196
51
46.4007942
0
ARC
8
DEFAULT_255_1_388
10
7.3117839
20
134.5739882
40
0.2480958
50
47.4372362
51
75.0695672
0
ARC
8
DEFAULT_255_1_388
10
7.2770675
20
134.4531277
40
0.3738281
50
74.7009379
51
87.8124314
0
ARC
8
DEFAULT_255_1_388
10
7.2688292
20
134.3347659
40
0.4924321
50
87.3802571
51
90.0251599
0
ARC
8
DEFAULT_255_1_388
10
7.2644939
20
134.4667997
40
0.3604218
50
89.3451886
51
108.5744412
0
ARC
8
DEFAULT_255_1_388
10
7.2490931
20
134.5245836
40
0.3007661
50
109.2998307
51
143.3037387
0
ARC
8
DEFAULT_255_1_388
10
7.3348221
20
134.4586584
40
0.4089031
50
143.075267
51
163.1918576
0
ARC
8
DEFAULT_255_1_388
10
7.5544055
20
134.3893652
40
0.6391492
50
162.9375929
51
174.6208776
0
ARC
8
DEFAULT_255_1_388
10
7.8498437
20
134.3569711
40
0.9363344
50
174.342123
51
180.1430283
0
ARC
8
DEFAULT_255_1_388
10
7.7450978
20
134.2226117
40
0.8315986
50
179.6817261
51
189.150555
0
ARC
8
DEFAULT_255_1_388
10
7.4637727
20
134.1757559
40
0.5464044
50
188.9911061
51
203.5772363
0
ARC
8
DEFAULT_255_1_388
10
7.3423019
20
134.1253539
40
0.4149206
50
203.9075402
51
215.1312435
0
ARC
8
DEFAULT_255_1_388
10
7.2384817
20
134.0448907
40
0.2837747
50
213.9071511
51
263.8848919
0
ARC
8
DEFAULT_255_1_388
10
7.252581
20
134.1331519
40
0.3730641
50
263.1757928
51
270.1031044
0
ARC
8
DEFAULT_255_1_388
10
7.256189
20
134.2734511
40
0.5133712
50
269.6722503
51
279.0606936
0
ARC
8
DEFAULT_255_1_388
10
7.2862045
20
134.092015
40
0.3294739
50
278.8749101
51
293.6349581
0
ARC
8
DEFAULT_255_1_388
10
7.3222249
20
134.0074251
40
0.2375405
50
293.8553806
51
310.0518171
0
ARC
8
DEFAULT_255_1_388
10
7.3227758
20
134.0004021
40
0.2318463
50
311.0644687
51
332.0111037
0
ARC
8
DEFAULT_255_1_388
10
7.1886431
20
134.0743702
40
0.3850112
50
331.6586806
51
343.2877423
0
ARC
8
DEFAULT_255_1_388
10
6.9565896
20
134.1456806
40
0.6277712
50
343.1446576
51
351.0103568
0
ARC
8
DEFAULT_255_1_388
10
6.793322
20
134.1756873
40
0.7937327
50
350.71248
51
351.1626997
0
LINE
8
DEFAULT_255_1_388
10
7.9182758
20
134.1224177
11
7.9182758
21
134.134164
0
LINE
8
DEFAULT_255_1_388
10
8.8082868
20
134.1260319
11
8.8082868
21
134.1142856
0
ARC
8
DEFAULT_255_1_388
10
8.5467202
20
134.137804
40
0.628455
50
166.3005265
51
180.3318609
0
ARC
8
DEFAULT_255_1_388
10
8.4496552
20
134.1595267
40
0.52901
50
153.8608648
51
166.0965672
0
ARC
8
DEFAULT_255_1_388
10
8.3747718
20
134.1996652
40
0.4441126
50
135.1317053
51
154.2534962
0
ARC
8
DEFAULT_255_1_388
10
8.3434369
20
134.2273431
40
0.4023863
50
121.7042632
51
134.7771455
0
ARC
8
DEFAULT_255_1_388
10
8.3509801
20
134.2128469
40
0.4186852
50
93.4001111
51
121.5399523
0
ARC
8
DEFAULT_255_1_388
10
8.3616635
20
134.1198759
40
0.5121521
50
89.9706387
51
93.9763381
0
ARC
8
DEFAULT_255_1_388
10
8.3669619
20
134.1638563
40
0.4681988
50
71.3321659
51
90.6162917
0
ARC
8
DEFAULT_255_1_388
10
8.3852653
20
134.2316003
40
0.3981841
50
41.1813875
51
70.7072086
0
ARC
8
DEFAULT_255_1_388
10
8.3315369
20
134.182813
40
0.4707474
50
12.1971434
51
41.3446641
0
ARC
8
DEFAULT_255_1_388
10
8.1148633
20
134.1312328
40
0.6934429
50
359.5702713
51
12.5803533
0
ARC
8
DEFAULT_255_1_388
10
8.1680949
20
134.1107207
40
0.6402018
50
347.0196754
51
0.3190452
0
ARC
8
DEFAULT_255_1_388
10
8.2759002
20
134.0875189
40
0.5299421
50
334.350439
51
346.8460534
0
ARC
8
DEFAULT_255_1_388
10
8.3710249
20
134.0381244
40
0.4228234
50
310.4228125
51
334.8045131
0
ARC
8
DEFAULT_255_1_388
10
8.3802227
20
134.0309301
40
0.4113892
50
301.8488154
51
310.0972985
0
ARC
8
DEFAULT_255_1_388
10
8.3765967
20
134.0394573
40
0.4205483
50
274.3078723
51
301.6554173
0
ARC
8
DEFAULT_255_1_388
10
8.3641423
20
134.1381943
40
0.5199658
50
269.954904
51
274.859116
0
ARC
8
DEFAULT_255_1_388
10
8.3586247
20
134.0818239
40
0.4636233
50
250.8887647
51
270.6313164
0
ARC
8
DEFAULT_255_1_388
10
8.3417407
20
134.0189405
40
0.398705
50
221.1701369
51
250.2227012
0
ARC
8
DEFAULT_255_1_388
10
8.3962073
20
134.0685716
40
0.4723796
50
191.6263861
51
221.3526879
0
ARC
8
DEFAULT_255_1_388
10
8.6085918
20
134.1177203
40
0.6903321
50
179.6101251
51
192.0694841
0
ARC
8
DEFAULT_255_1_388
10
8.6562266
20
134.1106681
40
0.5698993
50
179.636304
51
190.6161344
0
ARC
8
DEFAULT_255_1_388
10
8.4714598
20
134.0746635
40
0.3816643
50
190.4136062
51
208.7168709
0
ARC
8
DEFAULT_255_1_388
10
8.4140632
20
134.0461905
40
0.3176572
50
209.187109
51
217.4221816
0
ARC
8
DEFAULT_255_1_388
10
8.3545102
20
133.9937729
40
0.2385702
50
216.1156863
51
265.2575395
0
ARC
8
DEFAULT_255_1_388
10
8.3634139
20
134.0582608
40
0.3035941
50
264.5891546
51
270.0602378
0
ARC
8
DEFAULT_255_1_388
10
8.3671335
20
134.0155539
40
0.2609091
50
269.2532353
51
291.8793864
0
ARC
8
DEFAULT_255_1_388
10
8.3704214
20
133.9955359
40
0.241148
50
292.9269367
51
323.1777736
0
ARC
8
DEFAULT_255_1_388
10
8.32335
20
134.0368762
40
0.3036446
50
322.25666
51
323.087958
0
ARC
8
DEFAULT_255_1_388
10
8.2930757
20
134.0551332
40
0.3388345
50
323.6941379
51
343.8493587
0
ARC
8
DEFAULT_255_1_388
10
8.1155193
20
134.1091698
40
0.5244204
50
343.5746655
51
355.008149
0
ARC
8
DEFAULT_255_1_388
10
7.8896885
20
134.1325797
40
0.7514406
50
354.728272
51
0.1208026
0
ARC
8
DEFAULT_255_1_388
10
8.0885911
20
134.1377947
40
0.5525482
50
359.6235211
51
11.2016685
0
ARC
8
DEFAULT_255_1_388
10
8.2611738
20
134.1733284
40
0.3763527
50
10.9991302
51
30.8317616
0
ARC
8
DEFAULT_255_1_388
10
8.3057042
20
134.1967988
40
0.3260975
50
31.3007463
51
37.395541
0
ARC
8
DEFAULT_255_1_388
10
8.3615761
20
134.2439773
40
0.253082
50
36.5918894
51
62.2439906
0
ARC
8
DEFAULT_255_1_388
10
8.3668052
20
134.2436378
40
0.2509927
50
63.3364883
51
89.7193846
0
ARC
8
DEFAULT_255_1_388
10
8.3619506
20
134.1788375
40
0.3158485
50
88.8962924
51
90.004475
0
ARC
8
DEFAULT_255_1_388
10
8.3583933
20
134.2441071
40
0.250604
50
89.1923115
51
114.7099029
0
ARC
8
DEFAULT_255_1_388
10
8.3616275
20
134.2483675
40
0.2481307
50
115.7996284
51
142.2901353
0
ARC
8
DEFAULT_255_1_388
10
8.4084546
20
134.2064752
40
0.310833
50
141.4607507
51
142.383894
0
ARC
8
DEFAULT_255_1_388
10
8.4232397
20
134.1996449
40
0.3267335
50
143.0176473
51
163.2340089
0
ARC
8
DEFAULT_255_1_388
10
8.6007686
20
134.1434553
40
0.5129308
50
162.9446504
51
174.3733893
0
ARC
8
DEFAULT_255_1_388
10
8.8421659
20
134.1163483
40
0.75583
50
174.1225809
51
180.1563667
0
LINE
8
DEFAULT_255_1_388
10
9.0179137
20
134.6139567
11
9.1760375
21
134.6139567
0
LINE
8
DEFAULT_255_1_388
10
9.1760375
20
134.6139567
11
9.1814589
21
134.491072
0
LINE
8
DEFAULT_255_1_388
10
9.7868471
20
134.2823486
11
9.7868471
21
133.6363
0
LINE
8
DEFAULT_255_1_388
10
9.7868471
20
133.6363
11
9.6196876
21
133.6363
0
LINE
8
DEFAULT_255_1_388
10
9.6196876
20
133.6363
11
9.6196876
21
134.2832521
0
LINE
8
DEFAULT_255_1_388
10
9.1850731
20
134.3329482
11
9.1850731
21
133.6363
0
LINE
8
DEFAULT_255_1_388
10
9.1850731
20
133.6363
11
9.0179137
21
133.6363
0
LINE
8
DEFAULT_255_1_388
10
9.0179137
20
133.6363
11
9.0179137
21
134.6139567
0
ARC
8
DEFAULT_255_1_388
10
9.4744888
20
134.2647868
40
0.3702317
50
116.459579
51
142.3237674
0
ARC
8
DEFAULT_255_1_388
10
9.4681168
20
134.2624216
40
0.3695717
50
89.9344799
51
115.4117431
0
ARC
8
DEFAULT_255_1_388
10
9.4742217
20
134.1707477
40
0.4612803
50
90.0009789
51
90.7058119
0
ARC
8
DEFAULT_255_1_388
10
9.4811613
20
134.2404095
40
0.3916802
50
71.6503198
51
91.0163578
0
ARC
8
DEFAULT_255_1_388
10
9.5212678
20
134.3733483
40
0.2529032
50
13.4487463
51
70.7930078
0
ARC
8
DEFAULT_255_1_388
10
9.2623049
20
134.2912303
40
0.5242314
50
1.3250409
51
15.5955556
0
ARC
8
DEFAULT_255_1_388
10
9.0324291
20
134.2766495
40
0.7544396
50
0.4328171
51
2.0283925
0
ARC
8
DEFAULT_255_1_388
10
9.2420494
20
134.282166
40
0.3776398
50
0.1647891
51
8.9343738
0
ARC
8
DEFAULT_255_1_388
10
9.3839534
20
134.3052206
40
0.2338783
50
8.7538928
51
22.2899346
0
ARC
8
DEFAULT_255_1_388
10
9.4591964
20
134.3362479
40
0.1524893
50
22.2261896
51
42.6534349
0
ARC
8
DEFAULT_255_1_388
10
9.4663006
20
134.3389551
40
0.1454574
50
43.7652806
51
71.277358
0
ARC
8
DEFAULT_255_1_388
10
9.4376569
20
134.2594698
40
0.2299367
50
70.8751244
51
84.317538
0
ARC
8
DEFAULT_255_1_388
10
9.4245281
20
134.148887
40
0.3412827
50
83.9624774
51
90.1534326
0
ARC
8
DEFAULT_255_1_388
10
9.421404
20
134.2325668
40
0.2576111
50
89.5084243
51
108.792202
0
ARC
8
DEFAULT_255_1_388
10
9.4143408
20
134.2583171
40
0.2309638
50
109.1912151
51
125.3077659
0
ARC
8
DEFAULT_255_1_388
10
9.4510265
20
134.2064216
40
0.2945169
50
125.2968281
51
154.5573532
0
LINE
8
DEFAULT_255_1_388
10
10.0985768
20
134.8506906
11
10.2657362
21
134.8506906
0
LINE
8
DEFAULT_255_1_388
10
10.2657362
20
134.8506906
11
10.2657362
21
134.6139567
0
LINE
8
DEFAULT_255_1_388
10
10.2657362
20
134.6139567
11
10.4482563
21
134.6139567
0
LINE
8
DEFAULT_255_1_388
10
10.4482563
20
134.6139567
11
10.4482563
21
134.484747
0
LINE
8
DEFAULT_255_1_388
10
10.4482563
20
134.484747
11
10.2657362
21
134.484747
0
LINE
8
DEFAULT_255_1_388
10
10.2657362
20
134.484747
11
10.2657362
21
133.8784553
0
LINE
8
DEFAULT_255_1_388
10
10.4527741
20
133.7718347
11
10.4527741
21
133.6363
0
LINE
8
DEFAULT_255_1_388
10
10.0985768
20
133.8784553
11
10.0985768
21
134.484747
0
LINE
8
DEFAULT_255_1_388
10
10.0985768
20
134.484747
11
9.9205746
21
134.484747
0
LINE
8
DEFAULT_255_1_388
10
9.9205746
20
134.484747
11
9.9205746
21
134.6139567
0
LINE
8
DEFAULT_255_1_388
10
9.9205746
20
134.6139567
11
10.0985768
21
134.6139567
0
LINE
8
DEFAULT_255_1_388
10
10.0985768
20
134.6139567
11
10.0985768
21
134.8506906
0
ARC
8
DEFAULT_255_1_388
10
10.491587
20
133.8772842
40
0.2258538
50
179.7029045
51
187.9180047
0
ARC
8
DEFAULT_255_1_388
10
10.4076444
20
133.8652019
40
0.1410477
50
187.7540838
51
200.2454047
0
ARC
8
DEFAULT_255_1_388
10
10.3603349
20
133.8475591
40
0.0905561
50
200.1304287
51
219.1733455
0
ARC
8
DEFAULT_255_1_388
10
10.3450516
20
133.8371695
40
0.0721626
50
220.4434631
51
249.6169985
0
ARC
8
DEFAULT_255_1_388
10
10.3624742
20
133.8809919
40
0.1193141
50
249.1038184
51
262.7745376
0
ARC
8
DEFAULT_255_1_388
10
10.3723924
20
133.9517481
40
0.1907583
50
262.4921618
51
270.2607019
0
ARC
8
DEFAULT_255_1_388
10
10.3721006
20
133.9759817
40
0.2149929
50
270.309081
51
275.6615459
0
ARC
8
DEFAULT_255_1_388
10
10.3560414
20
134.1448342
40
0.3846066
50
275.5607354
51
279.087751
0
ARC
8
DEFAULT_255_1_388
10
10.3188346
20
134.3809428
40
0.6236283
50
279.0369545
51
281.5000133
0
ARC
8
DEFAULT_255_1_388
10
10.2797614
20
134.5786499
40
0.825157
50
281.4217093
51
282.1031556
0
ARC
8
DEFAULT_255_1_388
10
10.3173589
20
134.1243229
40
0.5064619
50
275.2597791
51
285.5081125
0
ARC
8
DEFAULT_255_1_388
10
10.3242603
20
134.0617452
40
0.4435166
50
270.0268175
51
275.1130565
0
ARC
8
DEFAULT_255_1_388
10
10.3220055
20
133.9124367
40
0.2942182
50
257.3572424
51
270.4795428
0
ARC
8
DEFAULT_255_1_388
10
10.2980325
20
133.8113952
40
0.1903838
50
230.8036715
51
257.7414447
0
ARC
8
DEFAULT_255_1_388
10
10.2903821
20
133.7990723
40
0.1760087
50
219.9745381
51
230.1985446
0
ARC
8
DEFAULT_255_1_388
10
10.3277108
20
133.8276116
40
0.2229598
50
196.5081334
51
219.4319996
0
ARC
8
DEFAULT_255_1_388
10
10.441972
20
133.8634617
40
0.3427033
50
184.6408645
51
196.8266009
0
ARC
8
DEFAULT_255_1_388
10
10.5820625
20
133.877601
40
0.4834863
50
179.8987586
51
184.9677262
0
LINE
8
DEFAULT_255_1_388
10
11.1159904
20
134.6193781
11
11.1159904
21
134.463965
0
LINE
8
DEFAULT_255_1_388
10
10.8105856
20
134.3302375
11
10.8105856
21
133.6363
0
LINE
8
DEFAULT_255_1_388
10
10.8105856
20
133.6363
11
10.6434262
21
133.6363
0
LINE
8
DEFAULT_255_1_388
10
10.6434262
20
133.6363
11
10.6434262
21
134.6139567
0
LINE
8
DEFAULT_255_1_388
10
10.6434262
20
134.6139567
11
10.8060678
21
134.6139567
0
LINE
8
DEFAULT_255_1_388
10
10.8060678
20
134.6139567
11
10.8087785
21
134.5010112
0
ARC
8
DEFAULT_255_1_388
10
11.0410064
20
134.0073068
40
0.4627735
50
80.6751522
51
86.893806
0
ARC
8
DEFAULT_255_1_388
10
11.0341893
20
133.8981103
40
0.5721798
50
86.8046851
51
90.0423898
0
ARC
8
DEFAULT_255_1_388
10
11.0300313
20
134.1748197
40
0.2954939
50
89.2758283
51
106.6212906
0
ARC
8
DEFAULT_255_1_388
10
11.0070338
20
134.2584009
40
0.2088351
50
107.1347109
51
157.6456887
0
ARC
8
DEFAULT_255_1_388
10
11.08384
20
134.2156908
40
0.296292
50
155.6557383
51
157.256838
0
ARC
8
DEFAULT_255_1_388
10
11.0618014
20
134.3467472
40
0.296341
50
127.8167201
51
148.6300223
0
ARC
8
DEFAULT_255_1_388
10
11.0332761
20
134.3760066
40
0.2557782
50
91.3329934
51
126.7875218
0
ARC
8
DEFAULT_255_1_388
10
11.0418149
20
134.2956718
40
0.3363561
50
89.9858247
51
92.4688453
0
ARC
8
DEFAULT_255_1_388
10
11.0427642
20
134.3265114
40
0.3055179
50
85.3587643
51
90.1624243
0
ARC
8
DEFAULT_255_1_388
10
11.0522707
20
134.4394458
40
0.1921848
50
78.4019195
51
85.4592653
0
ARC
8
DEFAULT_255_1_388
10
11.0685768
20
134.5172142
40
0.1127267
50
67.7849217
51
78.573798
0
ARC
8
DEFAULT_255_1_388
10
11.0807402
20
134.5487374
40
0.0789473
50
63.4805074
51
67.3074739
0
LINE
8
DEFAULT_255_1_388
10
11.2072504
20
134.1224177
11
11.2072504
21
134.134164
0
LINE
8
DEFAULT_255_1_388
10
12.0972614
20
134.1260319
11
12.0972614
21
134.1142856
0
ARC
8
DEFAULT_255_1_388
10
11.8356948
20
134.137804
40
0.628455
50
166.3005265
51
180.3318609
0
ARC
8
DEFAULT_255_1_388
10
11.7386298
20
134.1595267
40
0.52901
50
153.8608648
51
166.0965672
0
ARC
8
DEFAULT_255_1_388
10
11.6637464
20
134.1996652
40
0.4441126
50
135.1317053
51
154.2534962
0
ARC
8
DEFAULT_255_1_388
10
11.6324115
20
134.2273431
40
0.4023863
50
121.7042632
51
134.7771455
0
ARC
8
DEFAULT_255_1_388
10
11.6399547
20
134.2128469
40
0.4186852
50
93.4001111
51
121.5399523
0
ARC
8
DEFAULT_255_1_388
10
11.6506381
20
134.1198759
40
0.5121521
50
89.9706387
51
93.9763381
0
ARC
8
DEFAULT_255_1_388
10
11.6559365
20
134.1638563
40
0.4681988
50
71.3321659
51
90.6162917
0
ARC
8
DEFAULT_255_1_388
10
11.6742399
20
134.2316003
40
0.3981841
50
41.1813875
51
70.7072086
0
ARC
8
DEFAULT_255_1_388
10
11.6205115
20
134.182813
40
0.4707474
50
12.1971434
51
41.3446641
0
ARC
8
DEFAULT_255_1_388
10
11.4038379
20
134.1312328
40
0.6934429
50
359.5702713
51
12.5803533
0
ARC
8
DEFAULT_255_1_388
10
11.4570695
20
134.1107207
40
0.6402018
50
347.0196754
51
0.3190452
0
ARC
8
DEFAULT_255_1_388
10
11.5648748
20
134.0875189
40
0.5299421
50
334.350439
51
346.8460534
0
ARC
8
DEFAULT_255_1_388
10
11.6599995
20
134.0381244
40
0.4228234
50
310.4228125
51
334.8045131
0
ARC
8
DEFAULT_255_1_388
10
11.6691973
20
134.0309301
40
0.4113892
50
301.8488154
51
310.0972985
0
ARC
8
DEFAULT_255_1_388
10
11.6655713
20
134.0394573
40
0.4205483
50
274.3078723
51
301.6554173
0
ARC
8
DEFAULT_255_1_388
10
11.6531169
20
134.1381943
40
0.5199658
50
269.954904
51
274.859116
0
ARC
8
DEFAULT_255_1_388
10
11.6475993
20
134.0818239
40
0.4636233
50
250.8887647
51
270.6313164
0
ARC
8
DEFAULT_255_1_388
10
11.6307154
20
134.0189405
40
0.398705
50
221.1701369
51
250.2227012
0
ARC
8
DEFAULT_255_1_388
10
11.6851819
20
134.0685716
40
0.4723796
50
191.6263861
51
221.3526879
0
ARC
8
DEFAULT_255_1_388
10
11.8975664
20
134.1177203
40
0.6903321
50
179.6101251
51
192.0694841
0
ARC
8
DEFAULT_255_1_388
10
11.9452012
20
134.1106681
40
0.5698993
50
179.636304
51
190.6161344
0
ARC
8
DEFAULT_255_1_388
10
11.7604344
20
134.0746635
40
0.3816643
50
190.4136062
51
208.7168709
0
ARC
8
DEFAULT_255_1_388
10
11.7030378
20
134.0461905
40
0.3176572
50
209.187109
51
217.4221816
0
ARC
8
DEFAULT_255_1_388
10
11.6434848
20
133.9937729
40
0.2385702
50
216.1156863
51
265.2575395
0
ARC
8
DEFAULT_255_1_388
10
11.6523885
20
134.0582608
40
0.3035941
50
264.5891546
51
270.0602378
0
ARC
8
DEFAULT_255_1_388
10
11.6561081
20
134.0155539
40
0.2609091
50
269.2532353
51
291.8793864
0
ARC
8
DEFAULT_255_1_388
10
11.659396
20
133.9955359
40
0.241148
50
292.9269367
51
323.1777736
0
ARC
8
DEFAULT_255_1_388
10
11.6123246
20
134.0368762
40
0.3036446
50
322.25666
51
323.087958
0
ARC
8
DEFAULT_255_1_388
10
11.5820503
20
134.0551332
40
0.3388345
50
323.6941379
51
343.8493587
0
ARC
8
DEFAULT_255_1_388
10
11.404494
20
134.1091698
40
0.5244204
50
343.5746655
51
355.008149
0
ARC
8
DEFAULT_255_1_388
10
11.1786631
20
134.1325797
40
0.7514406
50
354.728272
51
0.1208026
0
ARC
8
DEFAULT_255_1_388
10
11.3775657
20
134.1377947
40
0.5525482
50
359.6235211
51
11.2016685
0
ARC
8
DEFAULT_255_1_388
10
11.5501484
20
134.1733284
40
0.3763527
50
10.9991302
51
30.8317616
0
ARC
8
DEFAULT_255_1_388
10
11.5946788
20
134.1967988
40
0.3260975
50
31.3007463
51
37.395541
0
ARC
8
DEFAULT_255_1_388
10
11.6505507
20
134.2439773
40
0.253082
50
36.5918894
51
62.2439906
0
ARC
8
DEFAULT_255_1_388
10
11.6557799
20
134.2436378
40
0.2509927
50
63.3364883
51
89.7193846
0
ARC
8
DEFAULT_255_1_388
10
11.6509252
20
134.1788375
40
0.3158485
50
88.8962924
51
90.004475
0
ARC
8
DEFAULT_255_1_388
10
11.6473679
20
134.2441071
40
0.250604
50
89.1923115
51
114.7099029
0
ARC
8
DEFAULT_255_1_388
10
11.6506021
20
134.2483675
40
0.2481307
50
115.7996284
51
142.2901353
0
ARC
8
DEFAULT_255_1_388
10
11.6974292
20
134.2064752
40
0.310833
50
141.4607507
51
142.383894
0
ARC
8
DEFAULT_255_1_388
10
11.7122143
20
134.1996449
40
0.3267335
50
143.0176473
51
163.2340089
0
ARC
8
DEFAULT_255_1_388
10
11.8897432
20
134.1434553
40
0.5129308
50
162.9446504
51
174.3733893
0
ARC
8
DEFAULT_255_1_388
10
12.1311405
20
134.1163483
40
0.75583
50
174.1225809
51
180.1563667
0
LINE
8
DEFAULT_255_1_388
10
12.4885048
20
135.024175
11
12.4885048
21
133.6363
0
LINE
8
DEFAULT_255_1_388
10
12.4885048
20
133.6363
11
12.3213454
21
133.6363
0
LINE
8
DEFAULT_255_1_388
10
12.3213454
20
133.6363
11
12.3213454
21
135.024175
0
LINE
8
DEFAULT_255_1_388
10
12.3213454
20
135.024175
11
12.4885048
21
135.024175
0
LINE
8
DEFAULT_255_1_388
10
12.9565512
20
134.9518898
11
12.9565512
21
133.7781596
0
LINE
8
DEFAULT_255_1_388
10
12.9565512
20
133.7781596
11
13.5800106
21
133.7781596
0
LINE
8
DEFAULT_255_1_388
10
13.5800106
20
133.7781596
11
13.5800106
21
133.6363
0
LINE
8
DEFAULT_255_1_388
10
13.5800106
20
133.6363
11
12.7821632
21
133.6363
0
LINE
8
DEFAULT_255_1_388
10
12.7821632
20
133.6363
11
12.7821632
21
134.9518898
0
LINE
8
DEFAULT_255_1_388
10
12.7821632
20
134.9518898
11
12.9565512
21
134.9518898
0
LINE
8
DEFAULT_255_1_388
10
13.7074132
20
134.1224177
11
13.7074132
21
134.134164
0
LINE
8
DEFAULT_255_1_388
10
14.5974242
20
134.1260319
11
14.5974242
21
134.1142856
0
ARC
8
DEFAULT_255_1_388
10
14.3358577
20
134.137804
40
0.628455
50
166.3005265
51
180.3318609
0
ARC
8
DEFAULT_255_1_388
10
14.2387927
20
134.1595267
40
0.52901
50
153.8608648
51
166.0965672
0
ARC
8
DEFAULT_255_1_388
10
14.1639093
20
134.1996652
40
0.4441126
50
135.1317053
51
154.2534962
0
ARC
8
DEFAULT_255_1_388
10
14.1325743
20
134.2273431
40
0.4023863
50
121.7042632
51
134.7771455
0
ARC
8
DEFAULT_255_1_388
10
14.1401175
20
134.2128469
40
0.4186852
50
93.4001111
51
121.5399523
0
ARC
8
DEFAULT_255_1_388
10
14.1508009
20
134.1198759
40
0.5121521
50
89.9706387
51
93.9763381
0
ARC
8
DEFAULT_255_1_388
10
14.1560994
20
134.1638563
40
0.4681988
50
71.3321659
51
90.6162917
0
ARC
8
DEFAULT_255_1_388
10
14.1744028
20
134.2316003
40
0.3981841
50
41.1813875
51
70.7072086
0
ARC
8
DEFAULT_255_1_388
10
14.1206744
20
134.182813
40
0.4707474
50
12.1971434
51
41.3446641
0
ARC
8
DEFAULT_255_1_388
10
13.9040008
20
134.1312328
40
0.6934429
50
359.5702713
51
12.5803533
0
ARC
8
DEFAULT_255_1_388
10
13.9572324
20
134.1107207
40
0.6402018
50
347.0196754
51
0.3190452
0
ARC
8
DEFAULT_255_1_388
10
14.0650377
20
134.0875189
40
0.5299421
50
334.350439
51
346.8460534
0
ARC
8
DEFAULT_255_1_388
10
14.1601623
20
134.0381244
40
0.4228234
50
310.4228125
51
334.8045131
0
ARC
8
DEFAULT_255_1_388
10
14.1693601
20
134.0309301
40
0.4113892
50
301.8488154
51
310.0972985
0
ARC
8
DEFAULT_255_1_388
10
14.1657342
20
134.0394573
40
0.4205483
50
274.3078723
51
301.6554173
0
ARC
8
DEFAULT_255_1_388
10
14.1532798
20
134.1381943
40
0.5199658
50
269.954904
51
274.859116
0
ARC
8
DEFAULT_255_1_388
10
14.1477622
20
134.0818239
40
0.4636233
50
250.8887647
51
270.6313164
0
ARC
8
DEFAULT_255_1_388
10
14.1308782
20
134.0189405
40
0.398705
50
221.1701369
51
250.2227012
0
ARC
8
DEFAULT_255_1_388
10
14.1853448
20
134.0685716
40
0.4723796
50
191.6263861
51
221.3526879
0
ARC
8
DEFAULT_255_1_388
10
14.3977293
20
134.1177203
40
0.6903321
50
179.6101251
51
192.0694841
0
ARC
8
DEFAULT_255_1_388
10
14.445364
20
134.1106681
40
0.5698993
50
179.636304
51
190.6161344
0
ARC
8
DEFAULT_255_1_388
10
14.2605972
20
134.0746635
40
0.3816643
50
190.4136062
51
208.7168709
0
ARC
8
DEFAULT_255_1_388
10
14.2032007
20
134.0461905
40
0.3176572
50
209.187109
51
217.4221816
0
ARC
8
DEFAULT_255_1_388
10
14.1436477
20
133.9937729
40
0.2385702
50
216.1156863
51
265.2575395
0
ARC
8
DEFAULT_255_1_388
10
14.1525513
20
134.0582608
40
0.3035941
50
264.5891546
51
270.0602378
0
ARC
8
DEFAULT_255_1_388
10
14.156271
20
134.0155539
40
0.2609091
50
269.2532353
51
291.8793864
0
ARC
8
DEFAULT_255_1_388
10
14.1595589
20
133.9955359
40
0.241148
50
292.9269367
51
323.1777736
0
ARC
8
DEFAULT_255_1_388
10
14.1124874
20
134.0368762
40
0.3036446
50
322.25666
51
323.087958
0
ARC
8
DEFAULT_255_1_388
10
14.0822132
20
134.0551332
40
0.3388345
50
323.6941379
51
343.8493587
0
ARC
8
DEFAULT_255_1_388
10
13.9046568
20
134.1091698
40
0.5244204
50
343.5746655
51
355.008149
0
ARC
8
DEFAULT_255_1_388
10
13.678826
20
134.1325797
40
0.7514406
50
354.728272
51
0.1208026
0
ARC
8
DEFAULT_255_1_388
10
13.8777285
20
134.1377947
40
0.5525482
50
359.6235211
51
11.2016685
0
ARC
8
DEFAULT_255_1_388
10
14.0503113
20
134.1733284
40
0.3763527
50
10.9991302
51
30.8317616
0
ARC
8
DEFAULT_255_1_388
10
14.0948416
20
134.1967988
40
0.3260975
50
31.3007463
51
37.395541
0
ARC
8
DEFAULT_255_1_388
10
14.1507136
20
134.2439773
40
0.253082
50
36.5918894
51
62.2439906
0
ARC
8
DEFAULT_255_1_388
10
14.1559427
20
134.2436378
40
0.2509927
50
63.3364883
51
89.7193846
0
ARC
8
DEFAULT_255_1_388
10
14.151088
20
134.1788375
40
0.3158485
50
88.8962924
51
90.004475
0
ARC
8
DEFAULT_255_1_388
10
14.1475308
20
134.2441071
40
0.250604
50
89.1923115
51
114.7099029
0
ARC
8
DEFAULT_255_1_388
10
14.150765
20
134.2483675
40
0.2481307
50
115.7996284
51
142.2901353
0
ARC
8
DEFAULT_255_1_388
10
14.1975921
20
134.2064752
40
0.310833
50
141.4607507
51
142.383894
0
ARC
8
DEFAULT_255_1_388
10
14.2123772
20
134.1996449
40
0.3267335
50
143.0176473
51
163.2340089
0
ARC
8
DEFAULT_255_1_388
10
14.3899061
20
134.1434553
40
0.5129308
50
162.9446504
51
174.3733893
0
ARC
8
DEFAULT_255_1_388
10
14.6313033
20
134.1163483
40
0.75583
50
174.1225809
51
180.1563667
0
LINE
8
DEFAULT_255_1_388
10
15.4323178
20
134.505529
11
15.4404499
21
134.6139567
0
LINE
8
DEFAULT_255_1_388
10
15.4404499
20
134.6139567
11
15.5931522
21
134.6139567
0
LINE
8
DEFAULT_255_1_388
10
15.5931522
20
134.6139567
11
15.5931522
21
133.6597927
0
LINE
8
DEFAULT_255_1_388
10
14.8169904
20
133.4203481
11
14.9037326
21
133.5206438
0
LINE
8
DEFAULT_255_1_388
10
15.4250893
20
133.6498535
11
15.4250893
21
133.733885
0
LINE
8
DEFAULT_255_1_388
10
15.4250893
20
133.9037551
11
15.4250893
21
134.3501159
0
ARC
8
DEFAULT_255_1_388
10
15.571187
20
134.138122
40
0.8039074
50
169.8802333
51
180.3464902
0
ARC
8
DEFAULT_255_1_388
10
15.3064676
20
134.187287
40
0.5346711
50
152.8534324
51
170.0824729
0
ARC
8
DEFAULT_255_1_388
10
15.2127071
20
134.2316868
40
0.4309932
50
142.0147746
51
152.418569
0
ARC
8
DEFAULT_255_1_388
10
15.141052
20
134.2969169
40
0.3344504
50
94.3317494
51
143.2674518
0
ARC
8
DEFAULT_255_1_388
10
15.1527379
20
134.2088903
40
0.423138
50
89.9487512
51
95.0093077
0
ARC
8
DEFAULT_255_1_388
10
15.1574177
20
134.2268021
40
0.4052487
50
72.9496911
51
90.6081488
0
ARC
8
DEFAULT_255_1_388
10
15.18049
20
134.3103718
40
0.3185963
50
37.7743532
51
72.5099202
0
ARC
8
DEFAULT_255_1_388
10
15.0769766
20
133.6554774
40
0.5161937
50
346.3655403
51
0.4789834
0
ARC
8
DEFAULT_255_1_388
10
15.2308599
20
133.6163644
40
0.3574311
50
314.3365584
51
346.6438898
0
ARC
8
DEFAULT_255_1_388
10
15.2193744
20
133.63249
40
0.3770042
50
280.7144
51
313.872307
0
ARC
8
DEFAULT_255_1_388
10
15.1816479
20
133.8006099
40
0.5492378
50
269.6628653
51
281.3208129
0
ARC
8
DEFAULT_255_1_388
10
15.1798139
20
133.7542105
40
0.5028309
50
245.5258654
51
269.8407328
0
ARC
8
DEFAULT_255_1_388
10
15.1368985
20
133.6737065
40
0.4118207
50
232.6664457
51
246.3200328
0
ARC
8
DEFAULT_255_1_388
10
15.0824229
20
133.6014386
40
0.3213227
50
214.3036526
51
232.5750527
0
ARC
8
DEFAULT_255_1_388
10
15.2082261
20
133.7618259
40
0.3884393
50
218.381912
51
236.3657409
0
ARC
8
DEFAULT_255_1_388
10
15.163203
20
133.6990326
40
0.3112322
50
236.8637655
51
270.6382272
0
ARC
8
DEFAULT_255_1_388
10
15.1693713
20
133.7362587
40
0.3484494
50
269.5557858
51
282.3972101
0
ARC
8
DEFAULT_255_1_388
10
15.1959299
20
133.6220767
40
0.2312324
50
282.043923
51
308.3079272
0
ARC
8
DEFAULT_255_1_388
10
15.2055413
20
133.606747
40
0.2132542
50
308.8347234
51
315.2037678
0
ARC
8
DEFAULT_255_1_388
10
15.1967122
20
133.6132123
40
0.2240808
50
315.6213011
51
345.6795376
0
ARC
8
DEFAULT_255_1_388
10
15.0865548
20
133.6438736
40
0.3384084
50
345.2627538
51
358.6311244
0
ARC
8
DEFAULT_255_1_388
10
14.9867053
20
133.6497581
40
0.4383839
50
358.1739988
51
0.0124651
0
ARC
8
DEFAULT_255_1_388
10
15.1761229
20
133.9491381
40
0.3291173
50
275.6950404
51
319.1537182
0
ARC
8
DEFAULT_255_1_388
10
15.152286
20
134.0869049
40
0.4686772
50
269.8805882
51
276.9235205
0
ARC
8
DEFAULT_255_1_388
10
15.1463161
20
133.96199
40
0.3437976
50
244.0748846
51
270.8321697
0
ARC
8
DEFAULT_255_1_388
10
15.1547669
20
133.9642423
40
0.3495805
50
217.781776
51
242.9905232
0
ARC
8
DEFAULT_255_1_388
10
15.22231
20
134.0243567
40
0.4398355
50
217.5209891
51
218.58043
0
ARC
8
DEFAULT_255_1_388
10
15.2538938
20
134.042913
40
0.4762087
50
195.3497149
51
216.9773048
0
ARC
8
DEFAULT_255_1_388
10
15.4814828
20
134.1090667
40
0.7131994
50
183.9387193
51
195.6348167
0
ARC
8
DEFAULT_255_1_388
10
15.7375022
20
134.1320646
40
0.9702086
50
179.929381
51
184.2551265
0
ARC
8
DEFAULT_255_1_388
10
15.5888689
20
134.1108515
40
0.6535206
50
179.6989243
51
188.5749266
0
ARC
8
DEFAULT_255_1_388
10
15.3623879
20
134.0754789
40
0.4242988
50
188.4117627
51
202.0559679
0
ARC
8
DEFAULT_255_1_388
10
15.2534139
20
134.0326952
40
0.3072368
50
202.2924994
51
215.4475859
0
ARC
8
DEFAULT_255_1_388
10
15.180921
20
133.9765576
40
0.2156547
50
214.4673097
51
264.3362727
0
ARC
8
DEFAULT_255_1_388
10
15.1923879
20
134.0481673
40
0.2880794
50
263.4723224
51
270.0965288
0
ARC
8
DEFAULT_255_1_388
10
15.1969114
20
134.0313896
40
0.2713313
50
269.1472473
51
291.7978484
0
ARC
8
DEFAULT_255_1_388
10
15.2039374
20
134.0000081
40
0.2396396
50
293.0243185
51
327.6232391
0
ARC
8
DEFAULT_255_1_388
10
15.1242808
20
134.0582435
40
0.3381603
50
326.5171836
51
332.8160011
0
ARC
8
DEFAULT_255_1_388
10
15.1637989
20
134.2112272
40
0.29591
50
27.9928465
51
47.6314088
0
ARC
8
DEFAULT_255_1_388
10
15.2044694
20
134.2499256
40
0.2399437
50
48.5793547
51
88.6245273
0
ARC
8
DEFAULT_255_1_388
10
15.1947812
20
134.1659448
40
0.3242237
50
87.2690754
51
90.0178312
0
ARC
8
DEFAULT_255_1_388
10
15.1915512
20
134.2397957
40
0.2503923
50
89.2839515
51
110.1847982
0
ARC
8
DEFAULT_255_1_388
10
15.1846312
20
134.2697002
40
0.2199699
50
111.180781
51
145.0423499
0
ARC
8
DEFAULT_255_1_388
10
15.2207173
20
134.2384759
40
0.2674811
50
143.9895932
51
144.106678
0
ARC
8
DEFAULT_255_1_388
10
15.2577244
20
134.216319
40
0.3104736
50
144.7981654
51
162.8715843
0
ARC
8
DEFAULT_255_1_388
10
15.4483843
20
134.1550138
40
0.5107383
50
162.598526
51
173.3417416
0
ARC
8
DEFAULT_255_1_388
10
15.7485216
20
134.1177767
40
0.8131718
50
173.1877249
51
180.2459848
0
LINE
8
DEFAULT_255_1_388
10
16.0268632
20
134.6139567
11
16.0268632
21
133.6363
0
LINE
8
DEFAULT_255_1_388
10
16.0268632
20
133.6363
11
15.8597038
21
133.6363
0
LINE
8
DEFAULT_255_1_388
10
15.8597038
20
133.6363
11
15.8597038
21
134.6139567
0
LINE
8
DEFAULT_255_1_388
10
15.8597038
20
134.6139567
11
16.0268632
21
134.6139567
0
ARC
8
DEFAULT_255_1_388
10
15.95624
20
134.8743428
40
0.1100948
50
161.4148232
51
180.5532607
0
ARC
8
DEFAULT_255_1_388
10
15.942271
20
134.8781875
40
0.0956324
50
138.1830164
51
160.9307633
0
ARC
8
DEFAULT_255_1_388
10
15.9298897
20
134.8889313
40
0.0792417
50
104.6371663
51
138.0036136
0
ARC
8
DEFAULT_255_1_388
10
15.9419436
20
134.8476963
40
0.1221906
50
92.0601206
51
105.2198859
0
ARC
8
DEFAULT_255_1_388
10
15.94458
20
134.8088583
40
0.161103
50
89.9790681
51
92.5006086
0
ARC
8
DEFAULT_255_1_388
10
15.9456976
20
134.8344998
40
0.1354654
50
78.0234649
51
90.4478111
0
ARC
8
DEFAULT_255_1_388
10
15.956056
20
134.8810203
40
0.0878096
50
55.0521508
51
78.336297
0
ARC
8
DEFAULT_255_1_388
10
15.9617095
20
134.8905168
40
0.0767913
50
42.0506198
51
54.4508489
0
ARC
8
DEFAULT_255_1_388
10
15.9465127
20
134.8765821
40
0.0974091
50
1.7493657
51
42.1498724
0
ARC
8
DEFAULT_255_1_388
10
15.9179033
20
134.8733166
40
0.1261276
50
359.9832635
51
2.8353994
0
ARC
8
DEFAULT_255_1_388
10
15.9365443
20
134.8722412
40
0.1074916
50
342.1062453
51
0.5535864
0
ARC
8
DEFAULT_255_1_388
10
15.9525867
20
134.8678197
40
0.0908695
50
316.7110111
51
341.6513114
0
ARC
8
DEFAULT_255_1_388
10
15.9601299
20
134.8610607
40
0.0807447
50
285.4398289
51
316.5320129
0
ARC
8
DEFAULT_255_1_388
10
15.947747
20
134.9022023
40
0.1237022
50
272.3543902
51
285.8951677
0
ARC
8
DEFAULT_255_1_388
10
15.944718
20
134.9437742
40
0.1653687
50
269.9725761
51
272.8112722
0
ARC
8
DEFAULT_255_1_388
10
15.9436232
20
134.9186727
40
0.1402709
50
258.8433431
51
270.4148607
0
ARC
8
DEFAULT_255_1_388
10
15.9335012
20
134.8696739
40
0.0902407
50
238.54281
51
259.1289544
0
ARC
8
DEFAULT_255_1_388
10
15.9258333
20
134.8557694
40
0.0743817
50
222.5056676
51
237.9918132
0
ARC
8
DEFAULT_255_1_388
10
15.9401927
20
134.8688295
40
0.0937918
50
184.1070774
51
222.4604165
0
ARC
8
DEFAULT_255_1_388
10
15.970434
20
134.8731538
40
0.1242838
50
179.9419581
51
185.0970785
0
LINE
8
DEFAULT_255_1_388
10
16.4081674
20
134.6139567
11
16.6223122
21
134.2570488
0
LINE
8
DEFAULT_255_1_388
10
16.6223122
20
134.2570488
11
16.8391676
21
134.6139567
0
LINE
8
DEFAULT_255_1_388
10
16.8391676
20
134.6139567
11
17.0343375
21
134.6139567
0
LINE
8
DEFAULT_255_1_388
10
17.0343375
20
134.6139567
11
16.7144757
21
134.1305498
0
LINE
8
DEFAULT_255_1_388
10
16.7144757
20
134.1305498
11
17.0442768
21
133.6363
0
LINE
8
DEFAULT_255_1_388
10
17.0442768
20
133.6363
11
16.850914
21
133.6363
0
LINE
8
DEFAULT_255_1_388
10
16.850914
20
133.6363
11
16.6250229
21
134.0022436
0
LINE
8
DEFAULT_255_1_388
10
16.6250229
20
134.0022436
11
16.3991317
21
133.6363
0
LINE
8
DEFAULT_255_1_388
10
16.3991317
20
133.6363
11
16.2048654
21
133.6363
0
LINE
8
DEFAULT_255_1_388
10
16.2048654
20
133.6363
11
16.5346664
21
134.1305498
0
LINE
8
DEFAULT_255_1_388
10
16.5346664
20
134.1305498
11
16.2148046
21
134.6139567
0
LINE
8
DEFAULT_255_1_388
10
16.2148046
20
134.6139567
11
16.4081674
21
134.6139567
0
LINE
8
DEFAULT_255_1_388
10
17.8629062
20
134.2615666
11
17.7291786
21
134.2959021
0
LINE
8
DEFAULT_255_1_388
10
17.7291786
20
134.2959021
11
17.7960424
21
134.9518898
0
LINE
8
DEFAULT_255_1_388
10
17.7960424
20
134.9518898
11
18.4701015
21
134.9518898
0
LINE
8
DEFAULT_255_1_388
10
18.4701015
20
134.9518898
11
18.4701015
21
134.7973803
0
LINE
8
DEFAULT_255_1_388
10
18.4701015
20
134.7973803
11
17.937902
21
134.7973803
0
LINE
8
DEFAULT_255_1_388
10
17.937902
20
134.7973803
11
17.8981452
21
134.4386652
0
LINE
8
DEFAULT_255_1_388
10
17.6821933
20
133.9823652
11
17.840317
21
133.9823652
0
LINE
8
DEFAULT_255_1_388
10
17.9071808
20
134.2977092
11
17.8629062
21
134.2615666
0
ARC
8
DEFAULT_255_1_388
10
18.1068065
20
134.0809241
40
0.4141476
50
93.7181681
51
120.253934
0
ARC
8
DEFAULT_255_1_388
10
18.1174117
20
133.9900284
40
0.5055616
50
89.9660471
51
94.2495185
0
ARC
8
DEFAULT_255_1_388
10
18.1219939
20
134.0563154
40
0.4392953
50
73.8045384
51
90.5585736
0
ARC
8
DEFAULT_255_1_388
10
18.1484197
20
134.152852
40
0.3392225
50
41.3071072
51
73.543002
0
ARC
8
DEFAULT_255_1_388
10
18.1016017
20
134.1125461
40
0.4009977
50
13.5075837
51
41.2174839
0
ARC
8
DEFAULT_255_1_388
10
17.9169114
20
134.0641907
40
0.5918864
50
1.1330171
51
13.8830737
0
ARC
8
DEFAULT_255_1_388
10
17.757276
20
134.0556522
40
0.7516787
50
359.9925091
51
1.5431298
0
ARC
8
DEFAULT_255_1_388
10
17.9017375
20
134.0510027
40
0.6072343
50
347.8572712
51
0.4294349
0
ARC
8
DEFAULT_255_1_388
10
18.098651
20
134.0063898
40
0.4053482
50
323.6727442
51
348.1674594
0
ARC
8
DEFAULT_255_1_388
10
18.1317474
20
133.9862175
40
0.3667495
50
316.8171818
51
323.1486802
0
ARC
8
DEFAULT_255_1_388
10
18.1386598
20
133.9820612
40
0.358869
50
281.839603
51
316.5458142
0
ARC
8
DEFAULT_255_1_388
10
18.0963886
20
134.1570363
40
0.5388223
50
269.5770964
51
282.4214641
0
ARC
8
DEFAULT_255_1_388
10
18.0883806
20
134.132993
40
0.5147801
50
256.2425863
51
270.4486481
0
ARC
8
DEFAULT_255_1_388
10
18.0547334
20
133.9980124
40
0.3756708
50
228.9024379
51
256.33135
0
ARC
8
DEFAULT_255_1_388
10
18.0464314
20
133.9849054
40
0.360344
50
193.7536029
51
228.5272638
0
ARC
8
DEFAULT_255_1_388
10
18.1856879
20
134.0257463
40
0.5053599
50
184.9244437
51
194.4976052
0
ARC
8
DEFAULT_255_1_388
10
18.207352
20
134.0297722
40
0.3700839
50
187.3596909
51
198.6733728
0
ARC
8
DEFAULT_255_1_388
10
18.0892764
20
133.9888373
40
0.2451195
50
198.4453795
51
217.7945479
0
ARC
8
DEFAULT_255_1_388
10
18.0559937
20
133.9652563
40
0.2043754
50
218.2887146
51
228.5613203
0
ARC
8
DEFAULT_255_1_388
10
18.0669943
20
133.9800902
40
0.2227819
50
228.9652423
51
258.1237049
0
ARC
8
DEFAULT_255_1_388
10
18.0901381
20
134.0791964
40
0.3245374
50
257.7260585
51
270.4013717
0
ARC
8
DEFAULT_255_1_388
10
18.0951879
20
134.0291255
40
0.2744726
50
269.4204315
51
286.420998
0
ARC
8
DEFAULT_255_1_388
10
18.1118934
20
133.9684705
40
0.2115721
50
286.7250065
51
320.6004665
0
ARC
8
DEFAULT_255_1_388
10
18.068785
20
134.0034527
40
0.2670878
50
320.6712228
51
344.5440474
0
ARC
8
DEFAULT_255_1_388
10
17.9386564
20
134.0416394
40
0.4026927
50
344.241448
51
356.735803
0
ARC
8
DEFAULT_255_1_388
10
17.7982871
20
134.0532656
40
0.5435085
50
356.3547471
51
0.0507222
0
ARC
8
DEFAULT_255_1_388
10
17.9485136
20
134.0567812
40
0.3932934
50
359.5579289
51
12.9534322
0
ARC
8
DEFAULT_255_1_388
10
18.0671976
20
134.0855586
40
0.2711827
50
12.6489751
51
41.608121
0
ARC
8
DEFAULT_255_1_388
10
18.0931136
20
134.1075946
40
0.2371737
50
41.7851122
51
85.9892156
0
ARC
8
DEFAULT_255_1_388
10
18.0792446
20
134.0160738
40
0.3295244
50
84.6965848
51
90.0672125
0
ARC
8
DEFAULT_255_1_388
10
18.0766014
20
133.9409118
40
0.4046926
50
89.6804991
51
99.161352
0
ARC
8
DEFAULT_255_1_388
10
18.0535023
20
134.0789848
40
0.2647044
50
98.9836248
51
113.8905702
0
ARC
8
DEFAULT_255_1_388
10
18.0276698
20
134.1399118
40
0.1985386
50
114.195234
51
127.3641866
0
LINE
8
DEFAULT_255_1_388
10
18.9020053
20
134.2615666
11
18.7682777
21
134.2959021
0
LINE
8
DEFAULT_255_1_388
10
18.7682777
20
134.2959021
11
18.8351415
21
134.9518898
0
LINE
8
DEFAULT_255_1_388
10
18.8351415
20
134.9518898
11
19.5092006
21
134.9518898
0
LINE
8
DEFAULT_255_1_388
10
19.5092006
20
134.9518898
11
19.5092006
21
134.7973803
0
LINE
8
DEFAULT_255_1_388
10
19.5092006
20
134.7973803
11
18.9770011
21
134.7973803
0
LINE
8
DEFAULT_255_1_388
10
18.9770011
20
134.7973803
11
18.9372443
21
134.4386652
0
LINE
8
DEFAULT_255_1_388
10
18.7212924
20
133.9823652
11
18.8794162
21
133.9823652
0
LINE
8
DEFAULT_255_1_388
10
18.9462799
20
134.2977092
11
18.9020053
21
134.2615666
0
ARC
8
DEFAULT_255_1_388
10
19.1459056
20
134.0809241
40
0.4141476
50
93.7181681
51
120.253934
0
ARC
8
DEFAULT_255_1_388
10
19.1565109
20
133.9900284
40
0.5055616
50
89.9660471
51
94.2495185
0
ARC
8
DEFAULT_255_1_388
10
19.161093
20
134.0563154
40
0.4392953
50
73.8045384
51
90.5585736
0
ARC
8
DEFAULT_255_1_388
10
19.1875188
20
134.152852
40
0.3392225
50
41.3071072
51
73.543002
0
ARC
8
DEFAULT_255_1_388
10
19.1407008
20
134.1125461
40
0.4009977
50
13.5075837
51
41.2174839
0
ARC
8
DEFAULT_255_1_388
10
18.9560106
20
134.0641907
40
0.5918864
50
1.1330171
51
13.8830737
0
ARC
8
DEFAULT_255_1_388
10
18.7963751
20
134.0556522
40
0.7516787
50
359.9925091
51
1.5431298
0
ARC
8
DEFAULT_255_1_388
10
18.9408366
20
134.0510027
40
0.6072343
50
347.8572712
51
0.4294349
0
ARC
8
DEFAULT_255_1_388
10
19.1377501
20
134.0063898
40
0.4053482
50
323.6727442
51
348.1674594
0
ARC
8
DEFAULT_255_1_388
10
19.1708466
20
133.9862175
40
0.3667495
50
316.8171818
51
323.1486802
0
ARC
8
DEFAULT_255_1_388
10
19.1777589
20
133.9820612
40
0.358869
50
281.839603
51
316.5458142
0
ARC
8
DEFAULT_255_1_388
10
19.1354877
20
134.1570363
40
0.5388223
50
269.5770964
51
282.4214641
0
ARC
8
DEFAULT_255_1_388
10
19.1274798
20
134.132993
40
0.5147801
50
256.2425863
51
270.4486481
0
ARC
8
DEFAULT_255_1_388
10
19.0938325
20
133.9980124
40
0.3756708
50
228.9024379
51
256.33135
0
ARC
8
DEFAULT_255_1_388
10
19.0855306
20
133.9849054
40
0.360344
50
193.7536029
51
228.5272638
0
ARC
8
DEFAULT_255_1_388
10
19.2247871
20
134.0257463
40
0.5053599
50
184.9244437
51
194.4976052
0
ARC
8
DEFAULT_255_1_388
10
19.2464512
20
134.0297722
40
0.3700839
50
187.3596909
51
198.6733728
0
ARC
8
DEFAULT_255_1_388
10
19.1283755
20
133.9888373
40
0.2451195
50
198.4453795
51
217.7945479
0
ARC
8
DEFAULT_255_1_388
10
19.0950928
20
133.9652563
40
0.2043754
50
218.2887146
51
228.5613203
0
ARC
8
DEFAULT_255_1_388
10
19.1060935
20
133.9800902
40
0.2227819
50
228.9652423
51
258.1237049
0
ARC
8
DEFAULT_255_1_388
10
19.1292372
20
134.0791964
40
0.3245374
50
257.7260585
51
270.4013717
0
ARC
8
DEFAULT_255_1_388
10
19.134287
20
134.0291255
40
0.2744726
50
269.4204315
51
286.420998
0
ARC
8
DEFAULT_255_1_388
10
19.1509926
20
133.9684705
40
0.2115721
50
286.7250065
51
320.6004665
0
ARC
8
DEFAULT_255_1_388
10
19.1078841
20
134.0034527
40
0.2670878
50
320.6712228
51
344.5440474
0
ARC
8
DEFAULT_255_1_388
10
18.9777555
20
134.0416394
40
0.4026927
50
344.241448
51
356.735803
0
ARC
8
DEFAULT_255_1_388
10
18.8373862
20
134.0532656
40
0.5435085
50
356.3547471
51
0.0507222
0
ARC
8
DEFAULT_255_1_388
10
18.9876127
20
134.0567812
40
0.3932934
50
359.5579289
51
12.9534322
0
ARC
8
DEFAULT_255_1_388
10
19.1062967
20
134.0855586
40
0.2711827
50
12.6489751
51
41.608121
0
ARC
8
DEFAULT_255_1_388
10
19.1322127
20
134.1075946
40
0.2371737
50
41.7851122
51
85.9892156
0
ARC
8
DEFAULT_255_1_388
10
19.1183437
20
134.0160738
40
0.3295244
50
84.6965848
51
90.0672125
0
ARC
8
DEFAULT_255_1_388
10
19.1157005
20
133.9409118
40
0.4046926
50
89.6804991
51
99.161352
0
ARC
8
DEFAULT_255_1_388
10
19.0926014
20
134.0789848
40
0.2647044
50
98.9836248
51
113.8905702
0
ARC
8
DEFAULT_255_1_388
10
19.0667689
20
134.1399118
40
0.1985386
50
114.195234
51
127.3641866
0
ARC
8
DEFAULT_255_1_388
10
20.2109244
20
134.605672
40
0.3175098
50
338.8762533
51
0.5167111
0
ARC
8
DEFAULT_255_1_388
10
20.2298838
20
134.60056
40
0.2979894
50
325.8415285
51
338.4793574
0
ARC
8
DEFAULT_255_1_388
10
20.1859472
20
134.6310242
40
0.351452
50
296.7587686
51
325.7536481
0
ARC
8
DEFAULT_255_1_388
10
20.1531099
20
134.6864363
40
0.4157374
50
296.0927901
51
297.3613472
0
ARC
8
DEFAULT_255_1_388
10
20.1825295
20
133.9481593
40
0.395855
50
47.9007294
51
67.1948823
0
ARC
8
DEFAULT_255_1_388
10
20.2045937
20
133.9758599
40
0.360516
50
35.2363914
51
47.551141
0
ARC
8
DEFAULT_255_1_388
10
20.2340341
20
133.9955093
40
0.3251343
50
359.2759765
51
35.4014143
0
ARC
8
DEFAULT_255_1_388
10
20.1502267
20
133.9872787
40
0.4089365
50
343.1293083
51
0.5775513
0
ARC
8
DEFAULT_255_1_388
10
20.231738
20
133.9648336
40
0.3244269
50
310.8496669
51
342.7449331
0
ARC
8
DEFAULT_255_1_388
10
20.1847255
20
134.0184913
40
0.3957651
50
281.5472888
51
310.9170406
0
ARC
8
DEFAULT_255_1_388
10
20.144613
20
134.1931814
40
0.5749654
50
269.619248
51
281.9789564
0
ARC
8
DEFAULT_255_1_388
10
20.1364907
20
134.1932776
40
0.5750649
50
257.4585678
51
270.4285689
0
ARC
8
DEFAULT_255_1_388
10
20.0936428
20
134.0128741
40
0.389671
50
228.7554326
51
257.8484789
0
ARC
8
DEFAULT_255_1_388
10
20.0587913
20
133.9709228
40
0.335154
50
184.0104975
51
228.5071184
0
ARC
8
DEFAULT_255_1_388
10
20.1896305
20
133.990843
40
0.4671891
50
179.9315832
51
185.3253753
0
ARC
8
DEFAULT_255_1_388
10
20.0572818
20
133.9950592
40
0.33486
50
145.6796023
51
180.6259786
0
ARC
8
DEFAULT_255_1_388
10
20.0756584
20
133.9822271
40
0.3572723
50
115.5537685
51
145.6415986
0
ARC
8
DEFAULT_255_1_388
10
20.1139628
20
133.9136087
40
0.4357296
50
113.243307
51
116.2057839
0
ARC
8
DEFAULT_255_1_388
10
20.096828
20
134.6333379
40
0.3549126
50
222.9549744
51
244.1370481
0
ARC
8
DEFAULT_255_1_388
10
20.0830923
20
134.6179378
40
0.3343711
50
213.3436887
51
222.6274467
0
ARC
8
DEFAULT_255_1_388
10
20.0614992
20
134.6032653
40
0.3082678
50
180.431584
51
213.271499
0
ARC
8
DEFAULT_255_1_388
10
20.1249991
20
134.6085296
40
0.3718363
50
179.9991191
51
181.1690594
0
ARC
8
DEFAULT_255_1_388
10
20.1722447
20
134.6124072
40
0.4190996
50
164.6186169
51
180.529336
0
ARC
8
DEFAULT_255_1_388
10
20.0712096
20
134.639578
40
0.3144772
50
132.2455553
51
164.5090724
0
ARC
8
DEFAULT_255_1_388
10
20.1035075
20
134.603007
40
0.3632644
50
100.7053914
51
132.1386381
0
ARC
8
DEFAULT_255_1_388
10
20.1378135
20
134.4480118
40
0.5219578
50
89.6730358
51
101.2451698
0
ARC
8
DEFAULT_255_1_388
10
20.1448127
20
134.4676648
40
0.5023124
50
76.287748
51
90.4586006
0
ARC
8
DEFAULT_255_1_388
10
20.1792629
20
134.6051671
40
0.3605639
50
47.8240511
51
76.4266241
0
ARC
8
DEFAULT_255_1_388
10
20.2043013
20
134.6344599
40
0.3220463
50
6.9168387
51
47.6262497
0
ARC
8
DEFAULT_255_1_388
10
20.0708466
20
134.6098004
40
0.4575765
50
359.8415968
51
7.9697453
0
ARC
8
DEFAULT_255_1_388
10
20.1092735
20
133.9977519
40
0.2827228
50
359.445363
51
16.9256873
0
ARC
8
DEFAULT_255_1_388
10
20.1620169
20
134.0122781
40
0.2280396
50
17.2920767
51
45.4630727
0
ARC
8
DEFAULT_255_1_388
10
20.1559305
20
134.0070324
40
0.2360485
50
45.30305
51
83.1920945
0
ARC
8
DEFAULT_255_1_388
10
20.139805
20
133.9168473
40
0.3275527
50
82.2612665
51
90.1434275
0
ARC
8
DEFAULT_255_1_388
10
20.1363326
20
133.9430869
40
0.3013237
50
89.4956434
51
104.8580688
0
ARC
8
DEFAULT_255_1_388
10
20.1164516
20
134.0184455
40
0.2233867
50
104.8856641
51
135.244616
0
ARC
8
DEFAULT_255_1_388
10
20.1220505
20
134.0134352
40
0.2308906
50
135.3399546
51
172.1044062
0
ARC
8
DEFAULT_255_1_388
10
20.2128029
20
133.9960667
40
0.3232034
50
171.2645637
51
180.186429
0
ARC
8
DEFAULT_255_1_388
10
20.1938034
20
133.9924426
40
0.304213
50
179.5154935
51
193.6464289
0
ARC
8
DEFAULT_255_1_388
10
20.101971
20
133.9690473
40
0.209456
50
193.3540274
51
225.8258581
0
ARC
8
DEFAULT_255_1_388
10
20.1065582
20
133.9770076
40
0.2183738
50
226.4180634
51
255.8552336
0
ARC
8
DEFAULT_255_1_388
10
20.1354048
20
134.0823521
40
0.3275812
50
255.4654104
51
268.7987425
0
ARC
8
DEFAULT_255_1_388
10
20.1407225
20
134.1765545
40
0.4218877
50
268.3449238
51
270.0094605
0
ARC
8
DEFAULT_255_1_388
10
20.1433458
20
134.0997094
40
0.3450519
50
269.5759586
51
282.0820163
0
ARC
8
DEFAULT_255_1_388
10
20.1686495
20
133.9878363
40
0.2303642
50
281.752014
51
306.6056188
0
ARC
8
DEFAULT_255_1_388
10
20.1797303
20
133.9696802
40
0.2091906
50
307.1346085
51
314.027845
0
ARC
8
DEFAULT_255_1_388
10
20.1756814
20
133.9726459
40
0.2141385
50
314.2552483
51
350.1694025
0
ARC
8
DEFAULT_255_1_388
10
20.0799052
20
133.9934175
40
0.312082
50
349.4140529
51
0.2933014
0
ARC
8
DEFAULT_255_1_388
10
20.1384329
20
134.5737924
40
0.2588377
50
89.477747
51
105.729729
0
ARC
8
DEFAULT_255_1_388
10
20.1231249
20
134.6306367
40
0.1999733
50
105.9233417
51
135.1660906
0
ARC
8
DEFAULT_255_1_388
10
20.1254279
20
134.6290412
40
0.2027322
50
135.3052302
51
168.9883645
0
ARC
8
DEFAULT_255_1_388
10
20.2185296
20
134.6076996
40
0.2982129
50
168.3801673
51
180.3602268
0
ARC
8
DEFAULT_255_1_388
10
20.1928412
20
134.6034622
40
0.2725291
50
179.5033122
51
194.9125571
0
ARC
8
DEFAULT_255_1_388
10
20.1269819
20
134.5861427
40
0.204431
50
194.9720816
51
224.194444
0
ARC
8
DEFAULT_255_1_388
10
20.1238185
20
134.5835635
40
0.2003651
50
224.2962453
51
262.015664
0
ARC
8
DEFAULT_255_1_388
10
20.1398189
20
134.6658315
40
0.2840925
50
261.1245923
51
270.1962896
0
ARC
8
DEFAULT_255_1_388
10
20.143167
20
134.6447859
40
0.2630559
50
269.4827276
51
285.0987215
0
ARC
8
DEFAULT_255_1_388
10
20.1605106
20
134.5797175
40
0.1957162
50
285.1585357
51
315.9484501
0
ARC
8
DEFAULT_255_1_388
10
20.150498
20
134.5889315
40
0.2093195
50
316.0413965
51
351.916092
0
ARC
8
DEFAULT_255_1_388
10
20.0680354
20
134.6048323
40
0.2932279
50
351.105835
51
0.1939062
0
ARC
8
DEFAULT_255_1_388
10
20.0975988
20
134.6082224
40
0.2636739
50
359.4789618
51
16.0678224
0
ARC
8
DEFAULT_255_1_388
10
20.151146
20
134.6226721
40
0.2082215
50
16.3252067
51
44.7913869
0
ARC
8
DEFAULT_255_1_388
10
20.1491522
20
134.622732
40
0.2095992
50
44.3957814
51
88.2499162
0
ARC
8
DEFAULT_255_1_388
10
20.1408856
20
134.5539006
40
0.2787189
50
86.9833854
51
90.0192215
0
LINE
8
DEFAULT_255_1_388
10
21.5946273
20
134.414269
11
21.5946273
21
134.1974135
0
LINE
8
DEFAULT_255_1_388
10
20.7642516
20
134.1748244
11
20.7642516
21
134.3980048
0
LINE
8
DEFAULT_255_1_388
10
21.4274679
20
134.1522353
11
21.4274679
21
134.4260153
0
LINE
8
DEFAULT_255_1_388
10
20.931411
20
134.4386652
11
20.931411
21
134.1712102
0
ARC
8
DEFAULT_255_1_388
10
20.2168607
20
134.1919118
40
1.3777776
50
353.8440855
51
0.2287917
0
ARC
8
DEFAULT_255_1_388
10
20.7387625
20
134.1336414
40
0.852639
50
344.4934746
51
353.9763743
0
ARC
8
DEFAULT_255_1_388
10
21.0754432
20
134.0379191
40
0.5026273
50
329.2803599
51
344.7473406
0
ARC
8
DEFAULT_255_1_388
10
21.1869928
20
133.9767038
40
0.3754848
50
324.9361395
51
328.6153007
0
ARC
8
DEFAULT_255_1_388
10
21.2295577
20
133.9469586
40
0.3235566
50
280.5801797
51
324.9173226
0
ARC
8
DEFAULT_255_1_388
10
21.1844206
20
134.1349236
40
0.5167077
50
269.5979457
51
281.6732777
0
ARC
8
DEFAULT_255_1_388
10
21.176311
20
134.1214113
40
0.5032026
50
256.6228565
51
270.5105488
0
ARC
8
DEFAULT_255_1_388
10
21.1310852
20
133.9472345
40
0.3233092
50
215.8618351
51
257.2787793
0
ARC
8
DEFAULT_255_1_388
10
21.2459559
20
134.0243106
40
0.4615831
50
197.9695203
51
215.2622745
0
ARC
8
DEFAULT_255_1_388
10
21.5255235
20
134.1186641
40
0.7566307
50
187.8816486
51
198.2346584
0
ARC
8
DEFAULT_255_1_388
10
21.9708473
20
134.1829453
40
1.2065653
50
180.8977266
51
188.0054894
0
ARC
8
DEFAULT_255_1_388
10
22.2758687
20
134.19444
40
1.5117443
50
180.7434591
51
181.152202
0
ARC
8
DEFAULT_255_1_388
10
22.1083683
20
134.4034371
40
1.3441277
50
173.7674302
51
180.2315596
0
ARC
8
DEFAULT_255_1_388
10
21.6001552
20
134.4608779
40
0.8326847
50
164.3058537
51
173.9000553
0
ARC
8
DEFAULT_255_1_388
10
21.2725552
20
134.5552652
40
0.4917711
50
148.7922028
51
164.5682288
0
ARC
8
DEFAULT_255_1_388
10
21.1656289
20
134.6149457
40
0.3694204
50
144.5883979
51
148.1161588
0
ARC
8
DEFAULT_255_1_388
10
21.1269035
20
134.6419667
40
0.322202
50
101.6440149
51
144.5142619
0
ARC
8
DEFAULT_255_1_388
10
21.1747227
20
134.4519337
40
0.5180451
50
89.528284
51
102.5820197
0
ARC
8
DEFAULT_255_1_388
10
21.1836219
20
134.4475376
40
0.5224441
50
77.0437914
51
90.508231
0
ARC
8
DEFAULT_255_1_388
10
21.2288472
20
134.6323272
40
0.3322297
50
48.2777708
51
77.4996087
0
ARC
8
DEFAULT_255_1_388
10
21.2370212
20
134.6468557
40
0.315966
50
36.3141586
51
47.6307332
0
ARC
8
DEFAULT_255_1_388
10
21.1392935
20
134.5810159
40
0.4337313
50
18.2931065
51
35.6770203
0
ARC
8
DEFAULT_255_1_388
10
20.8531775
20
134.4828107
40
0.7362203
50
8.0246996
51
18.5605636
0
ARC
8
DEFAULT_255_1_388
10
20.3848131
20
134.4136432
40
1.2096583
50
1.127539
51
8.1718423
0
ARC
8
DEFAULT_255_1_388
10
20.0199264
20
134.3993374
40
1.5747719
50
0.5432713
51
1.38669
0
ARC
8
DEFAULT_255_1_388
10
20.2256643
20
134.4300163
40
1.2018103
50
359.8092569
51
4.9408001
0
ARC
8
DEFAULT_255_1_388
10
20.6993224
20
134.47229
40
0.7262727
50
4.8364937
51
12.2906017
0
ARC
8
DEFAULT_255_1_388
10
21.0092689
20
134.5413485
40
0.4087324
50
12.0806994
51
23.8171225
0
ARC
8
DEFAULT_255_1_388
10
21.1413085
20
134.5972508
40
0.2653719
50
24.2874621
51
31.3934353
0
ARC
8
DEFAULT_255_1_388
10
21.2003521
20
134.6358822
40
0.1948607
50
30.7407708
51
82.4658033
0
ARC
8
DEFAULT_255_1_388
10
21.1801182
20
134.5365017
40
0.2961198
50
81.1057101
51
90.2187368
0
ARC
8
DEFAULT_255_1_388
10
21.1760994
20
134.5655421
40
0.2670929
50
89.380395
51
105.6763916
0
ARC
8
DEFAULT_255_1_388
10
21.1554716
20
134.640532
40
0.1893189
50
105.7980655
51
149.7387869
0
ARC
8
DEFAULT_255_1_388
10
21.2751856
20
134.5685719
40
0.3289892
50
149.4208441
51
163.628295
0
ARC
8
DEFAULT_255_1_388
10
21.5104085
20
134.4968345
40
0.5749004
50
163.3764549
51
172.141138
0
ARC
8
DEFAULT_255_1_388
10
21.8816807
20
134.4436582
40
0.9499585
50
172.0258462
51
178.0705453
0
ARC
8
DEFAULT_255_1_388
10
22.223836
20
134.4274682
40
1.2924734
50
177.8639301
51
179.5036263
0
ARC
8
DEFAULT_255_1_388
10
22.1019378
20
134.1671151
40
1.170534
50
179.7995545
51
185.246089
0
ARC
8
DEFAULT_255_1_388
10
21.6470971
20
134.1240404
40
0.7136613
50
185.1411911
51
193.0082205
0
ARC
8
DEFAULT_255_1_388
10
21.3497232
20
134.0537441
40
0.4080987
50
192.7897338
51
205.2507384
0
ARC
8
DEFAULT_255_1_388
10
21.2319442
20
134.0011538
40
0.2791522
50
205.8001921
51
211.2545876
0
ARC
8
DEFAULT_255_1_388
10
21.1730981
20
133.9617132
40
0.2084074
50
210.3789935
51
238.4007996
0
ARC
8
DEFAULT_255_1_388
10
21.1709067
20
133.9669786
40
0.2117943
50
239.6521916
51
265.9793852
0
ARC
8
DEFAULT_255_1_388
10
21.1804916
20
134.0426358
40
0.2879689
50
265.1324455
51
270.0603288
0
ARC
8
DEFAULT_255_1_388
10
21.1837293
20
134.0061418
40
0.2514919
50
269.3314378
51
287.2180039
0
ARC
8
DEFAULT_255_1_388
10
21.1992375
20
133.9495291
40
0.1928357
50
287.7957942
51
329.0808983
0
ARC
8
DEFAULT_255_1_388
10
21.0915132
20
134.0167651
40
0.319808
50
328.6635261
51
343.3325043
0
ARC
8
DEFAULT_255_1_388
10
20.8470591
20
134.0929195
40
0.5758408
50
343.0498092
51
351.9392499
0
ARC
8
DEFAULT_255_1_388
10
20.4569913
20
134.1504205
40
0.9701202
50
351.8071632
51
357.7957897
0
ARC
8
DEFAULT_255_1_388
10
20.093539
20
134.1692724
40
1.3340376
50
357.5870923
51
359.2682493
0
LINE
8
DEFAULT_255_2_778
10
19.9765417
20
124.2219075
11
18.6536417
21
124.2219075
0
LINE
8
DEFAULT_255_2_778
10
18.6536417
20
124.2219075
11
18.6536417
21
67.3365075
0
LINE
8
DEFAULT_255_2_778
10
17.3307834
20
67.3364333
11
19.9765834
21
67.3364333
0
LINE
8
DEFAULT_255_2_778
10
19.9765834
20
67.3364333
11
19.9765834
21
62.0447333
0
LINE
8
DEFAULT_255_2_778
10
19.9765834
20
62.0447333
11
17.3307834
21
62.0447333
0
LINE
8
DEFAULT_255_2_778
10
17.3307834
20
62.0447333
11
17.3307834
21
67.3364333
0
ARC
8
DEFAULT_255_2_778_1
10
21.1303591
20
62.147177
40
4.816461
50
120.9442904
51
122.351755
0
ARC
8
DEFAULT_255_2_778_1
10
20.6837523
20
62.8508039
40
3.9830657
50
122.3407904
51
124.1946752
0
ARC
8
DEFAULT_255_2_778_1
10
20.2438464
20
63.4973306
40
3.2010724
50
124.1855758
51
126.4338849
0
ARC
8
DEFAULT_255_2_778_1
10
19.8579129
20
64.0200611
40
2.5513094
50
126.4326926
51
128.8877368
0
ARC
8
DEFAULT_255_2_778_1
10
19.5230968
20
64.4344658
40
2.0185498
50
128.8749205
51
131.8726567
0
ARC
8
DEFAULT_255_2_778_1
10
19.2259677
20
64.7654854
40
1.5737356
50
131.8616166
51
135.4168838
0
ARC
8
DEFAULT_255_2_778_1
10
18.963168
20
65.0236765
40
1.2053256
50
135.3893975
51
139.9687014
0
ARC
8
DEFAULT_255_2_778_1
10
18.7302889
20
65.2185102
40
0.9016937
50
139.9301659
51
145.9260426
0
ARC
8
DEFAULT_255_2_778_1
10
18.534154
20
65.3505104
40
0.6652776
50
145.8787362
51
153.8146208
0
ARC
8
DEFAULT_255_2_778_1
10
18.3820553
20
65.4248797
40
0.4959714
50
153.770634
51
164.3484794
0
ARC
8
DEFAULT_255_2_778_1
10
18.2807387
20
65.4530786
40
0.3908039
50
164.3220276
51
179.8083066
0
ARC
8
DEFAULT_255_2_778_1
10
18.3017789
20
65.461215
40
0.4118985
50
180.9499449
51
213.8111542
0
ARC
8
DEFAULT_255_2_778_1
10
18.5776828
20
65.6307896
40
0.73561
50
212.8271214
51
224.258472
0
ARC
8
DEFAULT_255_2_778_1
10
18.9605335
20
66.0001236
40
1.267567
50
224.1376218
51
231.4508261
0
ARC
8
DEFAULT_255_2_778_1
10
19.6032195
20
66.8031168
40
2.2960809
50
231.3955893
51
236.1256478
0
ARC
8
DEFAULT_255_2_778_1
10
21.4355223
20
69.5496293
40
5.5976905
50
236.2233172
51
239.1314682
0
ARC
8
DEFAULT_255_2_778_1
10
33.385427
20
89.2773568
40
28.6623793
50
238.8606853
51
239.0711101
0
ARC
8
DEFAULT_255_2_778_1
10
14.2132281
20
57.1802653
40
8.7248518
50
57.2420924
51
59.4062964
0
ARC
8
DEFAULT_255_2_778_1
10
17.4409241
20
62.2112102
40
2.747542
50
52.8289294
51
57.079028
0
ARC
8
DEFAULT_255_2_778_1
10
18.2155783
20
63.2315488
40
1.466457
50
46.3041868
51
52.8596521
0
ARC
8
DEFAULT_255_2_778_1
10
18.6478073
20
63.6816842
40
0.8424061
50
36.2174211
51
46.4090895
0
ARC
8
DEFAULT_255_2_778_1
10
18.9323088
20
63.8865128
40
0.4918609
50
17.400375
51
36.5489745
0
ARC
8
DEFAULT_255_2_778_1
10
19.0463994
20
63.9263754
40
0.3710912
50
0.0676858
51
16.7951297
0
ARC
8
DEFAULT_255_2_778_1
10
19.0253613
20
63.9282428
40
0.3921317
50
343.8035191
51
359.7912046
0
ARC
8
DEFAULT_255_2_778_1
10
18.9190912
20
63.9587167
40
0.5026844
50
333.2506233
51
343.8465691
0
ARC
8
DEFAULT_255_2_778_1
10
18.7652757
20
64.0354313
40
0.6745679
50
325.6600948
51
333.3122657
0
ARC
8
DEFAULT_255_2_778_1
10
18.5698344
20
64.1682296
40
0.9108568
50
319.7560915
51
325.6976089
0
ARC
8
DEFAULT_255_2_778_1
10
18.341699
20
64.3600002
40
1.2088854
50
315.4577584
51
319.8037947
0
ARC
8
DEFAULT_255_2_778_1
10
18.0783127
20
64.6188507
40
1.5781764
50
311.7298824
51
315.4670864
0
ARC
8
DEFAULT_255_2_778_1
10
17.7692879
20
64.9644074
40
2.0417554
50
308.723055
51
311.7470879
0
ARC
8
DEFAULT_255_2_778_1
10
17.415089
20
65.4056492
40
2.6075745
50
306.1165163
51
308.7300151
0
ARC
8
DEFAULT_255_2_778_1
10
17.0121091
20
65.9569523
40
3.2904564
50
303.9559446
51
306.1266333
0
ARC
8
DEFAULT_255_2_778_1
10
16.6005432
20
66.566215
40
4.0257023
50
302.3733397
51
303.9712246
0
ARC
8
DEFAULT_255_2_778_1
10
16.1809347
20
67.2277058
40
4.8090549
50
300.9434827
51
302.3758078
0
LINE
8
DEFAULT_255_2_778
10
18.6536417
20
62.0448075
11
18.6536417
21
5.1594075
0
LINE
8
DEFAULT_255_2_778
10
18.6536417
20
5.1594075
11
19.9765417
21
5.1594075
0
LINE
8
DEFAULT_255_1_388
10
4.8826318
20
131.7883382
11
4.8826318
21
131.6519
0
LINE
8
DEFAULT_255_1_388
10
4.8826318
20
131.6519
11
4.0206313
21
131.6519
0
LINE
8
DEFAULT_255_1_388
10
4.0206313
20
131.6519
11
4.0206313
21
131.7720741
0
LINE
8
DEFAULT_255_1_388
10
4.0206313
20
131.7720741
11
4.4760278
21
132.2780702
0
LINE
8
DEFAULT_255_1_388
10
4.1624909
20
132.5798607
11
3.9953315
21
132.5798607
0
LINE
8
DEFAULT_255_1_388
10
4.5745163
20
132.170546
11
4.2221262
21
131.7883382
0
LINE
8
DEFAULT_255_1_388
10
4.2221262
20
131.7883382
11
4.8826318
21
131.7883382
0
ARC
8
DEFAULT_255_1_388
10
2.9584337
20
133.6200983
40
2.0258655
50
318.5132526
51
320.7829045
0
ARC
8
DEFAULT_255_1_388
10
3.5532294
20
133.1359929
40
1.2589638
50
320.7372878
51
323.9739031
0
ARC
8
DEFAULT_255_1_388
10
3.9941226
20
132.8165554
40
0.7145141
50
323.8962701
51
328.64194
0
ARC
8
DEFAULT_255_1_388
10
4.2243484
20
132.6745545
40
0.4440242
50
328.8294576
51
331.7891185
0
ARC
8
DEFAULT_255_1_388
10
4.3365804
20
132.6166374
40
0.3177517
50
331.4254512
51
352.9365785
0
ARC
8
DEFAULT_255_1_388
10
4.3518804
20
132.613205
40
0.3021496
50
353.2257659
51
0.0166158
0
ARC
8
DEFAULT_255_1_388
10
4.3755564
20
132.6157894
40
0.2784847
50
359.486299
51
15.9343185
0
ARC
8
DEFAULT_255_1_388
10
4.4325831
20
132.6311269
40
0.2194403
50
16.1712913
51
43.5286088
0
ARC
8
DEFAULT_255_1_388
10
4.4412776
20
132.6398191
40
0.2071504
50
43.4417391
51
83.1661095
0
ARC
8
DEFAULT_255_1_388
10
4.4261937
20
132.5569316
40
0.2912888
50
82.160179
51
90.1505708
0
ARC
8
DEFAULT_255_1_388
10
4.4226418
20
132.4965279
40
0.3517025
50
89.5460741
51
102.5418361
0
ARC
8
DEFAULT_255_1_388
10
4.3953138
20
132.6124933
40
0.2325748
50
102.1738499
51
129.206123
0
ARC
8
DEFAULT_255_1_388
10
4.3864592
20
132.6264664
40
0.2161591
50
129.72865
51
135.753947
0
ARC
8
DEFAULT_255_1_388
10
4.4001074
20
132.6155728
40
0.2335433
50
136.1757367
51
166.3673339
0
ARC
8
DEFAULT_255_1_388
10
4.5133762
20
132.5852148
40
0.3507873
50
165.9090694
51
178.8684636
0
ARC
8
DEFAULT_255_1_388
10
4.6109534
20
132.5799263
40
0.4484624
50
178.4391136
51
180.0083808
0
ARC
8
DEFAULT_255_1_388
10
4.4530235
20
132.5843197
40
0.4577138
50
163.2878482
51
180.5581842
0
ARC
8
DEFAULT_255_1_388
10
4.3628276
20
132.6091393
40
0.3641968
50
133.4540601
51
162.947111
0
ARC
8
DEFAULT_255_1_388
10
4.3829158
20
132.5877789
40
0.3935189
50
100.7869829
51
133.4382499
0
ARC
8
DEFAULT_255_1_388
10
4.4220403
20
132.4135399
40
0.5720313
50
89.660664
51
101.3702276
0
ARC
8
DEFAULT_255_1_388
10
4.4295012
20
132.4204263
40
0.5651495
50
78.2172678
51
90.412935
0
ARC
8
DEFAULT_255_1_388
10
4.4694478
20
132.6031511
40
0.378122
50
55.9269121
51
78.4888449
0
ARC
8
DEFAULT_255_1_388
10
4.4915193
20
132.6412187
40
0.3342379
50
47.929771
51
55.4049217
0
ARC
8
DEFAULT_255_1_388
10
4.5029723
20
132.6528618
40
0.3179217
50
4.334829
51
48.0560205
0
ARC
8
DEFAULT_255_1_388
10
4.3797525
20
132.6337487
40
0.442341
50
359.9251713
51
5.5971671
0
ARC
8
DEFAULT_255_1_388
10
4.427968
20
132.6400728
40
0.3941854
50
337.8914027
51
358.9967534
0
ARC
8
DEFAULT_255_1_388
10
4.122725
20
132.7578295
40
0.7213271
50
326.9132501
51
338.3508308
0
ARC
8
DEFAULT_255_1_388
10
3.6743362
20
133.0452105
40
1.2538973
50
319.6471833
51
327.0959558
0
ARC
8
DEFAULT_255_1_388
10
3.243002
20
133.401005
40
1.8129975
50
317.2588228
51
319.9045804
0
LINE
8
DEFAULT_255_1_388
10
5.7654143
20
132.9674898
11
5.7654143
21
132.093743
0
LINE
8
DEFAULT_255_1_388
10
5.7654143
20
132.093743
11
5.9479343
21
132.093743
0
LINE
8
DEFAULT_255_1_388
10
5.9479343
20
132.093743
11
5.9479343
21
131.9573048
0
LINE
8
DEFAULT_255_1_388
10
5.9479343
20
131.9573048
11
5.7654143
21
131.9573048
0
LINE
8
DEFAULT_255_1_388
10
5.7654143
20
131.9573048
11
5.7654143
21
131.6519
0
LINE
8
DEFAULT_255_1_388
10
5.7654143
20
131.6519
11
5.5973513
21
131.6519
0
LINE
8
DEFAULT_255_1_388
10
5.5973513
20
131.6519
11
5.5973513
21
131.9573048
0
LINE
8
DEFAULT_255_1_388
10
5.5973513
20
131.9573048
11
4.998288
21
131.9573048
0
LINE
8
DEFAULT_255_1_388
10
4.998288
20
131.9573048
11
4.998288
21
132.0557933
0
LINE
8
DEFAULT_255_1_388
10
4.998288
20
132.0557933
11
5.5874121
21
132.9674898
0
LINE
8
DEFAULT_255_1_388
10
5.5874121
20
132.9674898
11
5.7654143
21
132.9674898
0
LINE
8
DEFAULT_255_1_388
10
5.5774729
20
132.7027455
11
5.1880366
21
132.093743
0
LINE
8
DEFAULT_255_1_388
10
5.1880366
20
132.093743
11
5.5973513
21
132.093743
0
LINE
8
DEFAULT_255_1_388
10
5.5973513
20
132.093743
11
5.5973513
21
132.738888
0
LINE
8
DEFAULT_255_1_388
10
5.5973513
20
132.738888
11
5.5774729
21
132.7027455
0
LINE
8
DEFAULT_255_1_388
10
6.203643
20
132.9674898
11
6.5777187
21
131.8823089
0
LINE
8
DEFAULT_255_1_388
10
6.5777187
20
131.8823089
11
6.9536015
21
132.9674898
0
LINE
8
DEFAULT_255_1_388
10
6.9536015
20
132.9674898
11
7.14335
21
132.9674898
0
LINE
8
DEFAULT_255_1_388
10
7.14335
20
132.9674898
11
6.6554252
21
131.6519
0
LINE
8
DEFAULT_255_1_388
10
6.6554252
20
131.6519
11
6.5018193
21
131.6519
0
LINE
8
DEFAULT_255_1_388
10
6.5018193
20
131.6519
11
6.014798
21
132.9674898
0
LINE
8
DEFAULT_255_1_388
10
6.014798
20
132.9674898
11
6.203643
21
132.9674898
0
LINE
8
DEFAULT_255_1_388
10
4.7621322
20
99.9019
11
4.4766058
21
100.4340995
0
LINE
8
DEFAULT_255_1_388
10
4.4766058
20
100.4340995
11
4.1675868
21
100.4340995
0
LINE
8
DEFAULT_255_1_388
10
4.1675868
20
100.4340995
11
4.1675868
21
99.9019
0
LINE
8
DEFAULT_255_1_388
10
4.1675868
20
99.9019
11
3.9931988
21
99.9019
0
LINE
8
DEFAULT_255_1_388
10
3.9931988
20
99.9019
11
3.9931988
21
101.2174898
0
LINE
8
DEFAULT_255_1_388
10
3.9931988
20
101.2174898
11
4.4287169
21
101.2174898
0
LINE
8
DEFAULT_255_1_388
10
4.6392474
20
100.4711456
11
4.9482665
21
99.9127428
0
LINE
8
DEFAULT_255_1_388
10
4.9482665
20
99.9127428
11
4.9482665
21
99.9019
0
LINE
8
DEFAULT_255_1_388
10
4.9482665
20
99.9019
11
4.7621322
21
99.9019
0
LINE
8
DEFAULT_255_1_388
10
4.1675868
20
101.0747267
11
4.1675868
21
100.5759591
0
LINE
8
DEFAULT_255_1_388
10
4.1675868
20
100.5759591
11
4.4341383
21
100.5759591
0
LINE
8
DEFAULT_255_1_388
10
4.4332347
20
101.0747267
11
4.1675868
21
101.0747267
0
ARC
8
DEFAULT_255_1_388
10
4.4334015
20
100.4343346
40
0.7831693
50
80.6535681
51
90.3427203
0
ARC
8
DEFAULT_255_1_388
10
4.4805925
20
100.7113722
40
0.5021479
50
65.6987674
51
80.8330164
0
ARC
8
DEFAULT_255_1_388
10
4.5343219
20
100.8345479
40
0.3677787
50
50.0019152
51
65.4304412
0
ARC
8
DEFAULT_255_1_388
10
4.5589035
20
100.8677603
40
0.3265454
50
11.6284215
51
49.5603681
0
ARC
8
DEFAULT_255_1_388
10
4.3861521
20
100.8255524
40
0.5043009
50
359.5655533
51
12.3693319
0
ARC
8
DEFAULT_255_1_388
10
4.5072858
20
100.8185038
40
0.3831661
50
341.998418
51
0.4822212
0
ARC
8
DEFAULT_255_1_388
10
4.5517044
20
100.8064479
40
0.3372036
50
323.8610842
51
341.6141514
0
ARC
8
DEFAULT_255_1_388
10
4.517759
20
100.8326615
40
0.3800784
50
296.7019299
51
323.6876213
0
ARC
8
DEFAULT_255_1_388
10
4.4681548
20
100.9213532
40
0.4816219
50
290.808313
51
297.2325929
0
ARC
8
DEFAULT_255_1_388
10
4.4370342
20
100.9802377
40
0.404289
50
269.5895908
51
281.8058892
0
ARC
8
DEFAULT_255_1_388
10
4.4652608
20
100.851136
40
0.2721459
50
281.5499321
51
303.9358954
0
ARC
8
DEFAULT_255_1_388
10
4.4807143
20
100.8243588
40
0.2413121
50
304.4410786
51
311.211123
0
ARC
8
DEFAULT_255_1_388
10
4.4955548
20
100.8087152
40
0.2197678
50
310.9874923
51
356.2715203
0
ARC
8
DEFAULT_255_1_388
10
4.4105294
20
100.8213992
40
0.3055212
50
354.9346315
51
0.0617816
0
ARC
8
DEFAULT_255_1_388
10
4.3894135
20
100.8244427
40
0.3266482
50
359.5239293
51
12.8808621
0
ARC
8
DEFAULT_255_1_388
10
4.4993898
20
100.8513638
40
0.2134449
50
12.417206
51
43.1023141
0
ARC
8
DEFAULT_255_1_388
10
4.5063228
20
100.8555253
40
0.2055463
50
43.575886
51
48.2047245
0
ARC
8
DEFAULT_255_1_388
10
4.4872489
20
100.8306151
40
0.2368418
50
48.7809155
51
72.6968768
0
ARC
8
DEFAULT_255_1_388
10
4.4473853
20
100.7096385
40
0.364206
50
72.3699892
51
84.8793749
0
ARC
8
DEFAULT_255_1_388
10
4.4307859
20
100.5586651
40
0.5160674
50
84.5398226
51
89.7281165
0
LINE
8
DEFAULT_255_1_388
10
5.9701979
20
101.2174898
11
5.9701979
21
101.0747267
0
LINE
8
DEFAULT_255_1_388
10
5.9701979
20
101.0747267
11
5.5473297
21
101.0747267
0
LINE
8
DEFAULT_255_1_388
10
5.5473297
20
101.0747267
11
5.5473297
21
99.9019
0
LINE
8
DEFAULT_255_1_388
10
5.5473297
20
99.9019
11
5.3747489
21
99.9019
0
LINE
8
DEFAULT_255_1_388
10
5.3747489
20
99.9019
11
5.3747489
21
101.0747267
0
LINE
8
DEFAULT_255_1_388
10
5.3747489
20
101.0747267
11
4.9527843
21
101.0747267
0
LINE
8
DEFAULT_255_1_388
10
4.9527843
20
101.0747267
11
4.9527843
21
101.2174898
0
LINE
8
DEFAULT_255_1_388
10
4.9527843
20
101.2174898
11
5.9701979
21
101.2174898
0
LINE
8
DEFAULT_255_1_388
10
7.1764564
20
101.2174898
11
7.1764564
21
99.9019
0
LINE
8
DEFAULT_255_1_388
10
7.1764564
20
99.9019
11
7.0020685
21
99.9019
0
LINE
8
DEFAULT_255_1_388
10
7.0020685
20
99.9019
11
6.3397557
21
100.9156993
0
LINE
8
DEFAULT_255_1_388
10
6.3397557
20
100.9156993
11
6.3397557
21
99.9019
0
LINE
8
DEFAULT_255_1_388
10
6.3397557
20
99.9019
11
6.1653678
21
99.9019
0
LINE
8
DEFAULT_255_1_388
10
6.1653678
20
99.9019
11
6.1653678
21
101.2174898
0
LINE
8
DEFAULT_255_1_388
10
6.1653678
20
101.2174898
11
6.3397557
21
101.2174898
0
LINE
8
DEFAULT_255_1_388
10
6.3397557
20
101.2174898
11
7.0038756
21
100.1991727
0
LINE
8
DEFAULT_255_1_388
10
7.0038756
20
100.1991727
11
7.0038756
21
101.2174898
0
LINE
8
DEFAULT_255_1_388
10
7.0038756
20
101.2174898
11
7.1764564
21
101.2174898
0
LINE
8
DEFAULT_255_1_388
10
4.7621322
20
107.8394
11
4.4766058
21
108.3715995
0
LINE
8
DEFAULT_255_1_388
10
4.4766058
20
108.3715995
11
4.1675868
21
108.3715995
0
LINE
8
DEFAULT_255_1_388
10
4.1675868
20
108.3715995
11
4.1675868
21
107.8394
0
LINE
8
DEFAULT_255_1_388
10
4.1675868
20
107.8394
11
3.9931988
21
107.8394
0
LINE
8
DEFAULT_255_1_388
10
3.9931988
20
107.8394
11
3.9931988
21
109.1549898
0
LINE
8
DEFAULT_255_1_388
10
3.9931988
20
109.1549898
11
4.4287169
21
109.1549898
0
LINE
8
DEFAULT_255_1_388
10
4.6392474
20
108.4086456
11
4.9482665
21
107.8502428
0
LINE
8
DEFAULT_255_1_388
10
4.9482665
20
107.8502428
11
4.9482665
21
107.8394
0
LINE
8
DEFAULT_255_1_388
10
4.9482665
20
107.8394
11
4.7621322
21
107.8394
0
LINE
8
DEFAULT_255_1_388
10
4.1675868
20
109.0122267
11
4.1675868
21
108.5134591
0
LINE
8
DEFAULT_255_1_388
10
4.1675868
20
108.5134591
11
4.4341383
21
108.5134591
0
LINE
8
DEFAULT_255_1_388
10
4.4332347
20
109.0122267
11
4.1675868
21
109.0122267
0
ARC
8
DEFAULT_255_1_388
10
4.4334015
20
108.3718346
40
0.7831693
50
80.6535681
51
90.3427203
0
ARC
8
DEFAULT_255_1_388
10
4.4805925
20
108.6488722
40
0.5021479
50
65.6987674
51
80.8330164
0
ARC
8
DEFAULT_255_1_388
10
4.5343219
20
108.7720479
40
0.3677787
50
50.0019152
51
65.4304412
0
ARC
8
DEFAULT_255_1_388
10
4.5589035
20
108.8052603
40
0.3265454
50
11.6284215
51
49.5603681
0
ARC
8
DEFAULT_255_1_388
10
4.3861521
20
108.7630524
40
0.5043009
50
359.5655533
51
12.3693319
0
ARC
8
DEFAULT_255_1_388
10
4.5072858
20
108.7560038
40
0.3831661
50
341.998418
51
0.4822212
0
ARC
8
DEFAULT_255_1_388
10
4.5517044
20
108.7439479
40
0.3372036
50
323.8610842
51
341.6141514
0
ARC
8
DEFAULT_255_1_388
10
4.517759
20
108.7701615
40
0.3800784
50
296.7019299
51
323.6876213
0
ARC
8
DEFAULT_255_1_388
10
4.4681548
20
108.8588532
40
0.4816219
50
290.808313
51
297.2325929
0
ARC
8
DEFAULT_255_1_388
10
4.4370342
20
108.9177377
40
0.404289
50
269.5895908
51
281.8058892
0
ARC
8
DEFAULT_255_1_388
10
4.4652608
20
108.788636
40
0.2721459
50
281.5499321
51
303.9358954
0
ARC
8
DEFAULT_255_1_388
10
4.4807143
20
108.7618588
40
0.2413121
50
304.4410786
51
311.211123
0
ARC
8
DEFAULT_255_1_388
10
4.4955548
20
108.7462152
40
0.2197678
50
310.9874923
51
356.2715203
0
ARC
8
DEFAULT_255_1_388
10
4.4105294
20
108.7588992
40
0.3055212
50
354.9346315
51
0.0617816
0
ARC
8
DEFAULT_255_1_388
10
4.3894135
20
108.7619427
40
0.3266482
50
359.5239293
51
12.8808621
0
ARC
8
DEFAULT_255_1_388
10
4.4993898
20
108.7888638
40
0.2134449
50
12.417206
51
43.1023141
0
ARC
8
DEFAULT_255_1_388
10
4.5063228
20
108.7930253
40
0.2055463
50
43.575886
51
48.2047245
0
ARC
8
DEFAULT_255_1_388
10
4.4872489
20
108.7681151
40
0.2368418
50
48.7809155
51
72.6968768
0
ARC
8
DEFAULT_255_1_388
10
4.4473853
20
108.6471385
40
0.364206
50
72.3699892
51
84.8793749
0
ARC
8
DEFAULT_255_1_388
10
4.4307859
20
108.4961651
40
0.5160674
50
84.5398226
51
89.7281165
0
LINE
8
DEFAULT_255_1_388
10
5.9701979
20
109.1549898
11
5.9701979
21
109.0122267
0
LINE
8
DEFAULT_255_1_388
10
5.9701979
20
109.0122267
11
5.5473297
21
109.0122267
0
LINE
8
DEFAULT_255_1_388
10
5.5473297
20
109.0122267
11
5.5473297
21
107.8394
0
LINE
8
DEFAULT_255_1_388
10
5.5473297
20
107.8394
11
5.3747489
21
107.8394
0
LINE
8
DEFAULT_255_1_388
10
5.3747489
20
107.8394
11
5.3747489
21
109.0122267
0
LINE
8
DEFAULT_255_1_388
10
5.3747489
20
109.0122267
11
4.9527843
21
109.0122267
0
LINE
8
DEFAULT_255_1_388
10
4.9527843
20
109.0122267
11
4.9527843
21
109.1549898
0
LINE
8
DEFAULT_255_1_388
10
4.9527843
20
109.1549898
11
5.9701979
21
109.1549898
0
LINE
8
DEFAULT_255_1_388
10
7.1764564
20
109.1549898
11
7.1764564
21
107.8394
0
LINE
8
DEFAULT_255_1_388
10
7.1764564
20
107.8394
11
7.0020685
21
107.8394
0
LINE
8
DEFAULT_255_1_388
10
7.0020685
20
107.8394
11
6.3397557
21
108.8531993
0
LINE
8
DEFAULT_255_1_388
10
6.3397557
20
108.8531993
11
6.3397557
21
107.8394
0
LINE
8
DEFAULT_255_1_388
10
6.3397557
20
107.8394
11
6.1653678
21
107.8394
0
LINE
8
DEFAULT_255_1_388
10
6.1653678
20
107.8394
11
6.1653678
21
109.1549898
0
LINE
8
DEFAULT_255_1_388
10
6.1653678
20
109.1549898
11
6.3397557
21
109.1549898
0
LINE
8
DEFAULT_255_1_388
10
6.3397557
20
109.1549898
11
7.0038756
21
108.1366727
0
LINE
8
DEFAULT_255_1_388
10
7.0038756
20
108.1366727
11
7.0038756
21
109.1549898
0
LINE
8
DEFAULT_255_1_388
10
7.0038756
20
109.1549898
11
7.1764564
21
109.1549898
0
LINE
8
DEFAULT_255_1_388
10
4.7621322
20
115.7769
11
4.4766058
21
116.3090995
0
LINE
8
DEFAULT_255_1_388
10
4.4766058
20
116.3090995
11
4.1675868
21
116.3090995
0
LINE
8
DEFAULT_255_1_388
10
4.1675868
20
116.3090995
11
4.1675868
21
115.7769
0
LINE
8
DEFAULT_255_1_388
10
4.1675868
20
115.7769
11
3.9931988
21
115.7769
0
LINE
8
DEFAULT_255_1_388
10
3.9931988
20
115.7769
11
3.9931988
21
117.0924898
0
LINE
8
DEFAULT_255_1_388
10
3.9931988
20
117.0924898
11
4.4287169
21
117.0924898
0
LINE
8
DEFAULT_255_1_388
10
4.6392474
20
116.3461456
11
4.9482665
21
115.7877428
0
LINE
8
DEFAULT_255_1_388
10
4.9482665
20
115.7877428
11
4.9482665
21
115.7769
0
LINE
8
DEFAULT_255_1_388
10
4.9482665
20
115.7769
11
4.7621322
21
115.7769
0
LINE
8
DEFAULT_255_1_388
10
4.1675868
20
116.9497267
11
4.1675868
21
116.4509591
0
LINE
8
DEFAULT_255_1_388
10
4.1675868
20
116.4509591
11
4.4341383
21
116.4509591
0
LINE
8
DEFAULT_255_1_388
10
4.4332347
20
116.9497267
11
4.1675868
21
116.9497267
0
ARC
8
DEFAULT_255_1_388
10
4.4334015
20
116.3093346
40
0.7831693
50
80.6535681
51
90.3427203
0
ARC
8
DEFAULT_255_1_388
10
4.4805925
20
116.5863722
40
0.5021479
50
65.6987674
51
80.8330164
0
ARC
8
DEFAULT_255_1_388
10
4.5343219
20
116.7095479
40
0.3677787
50
50.0019152
51
65.4304412
0
ARC
8
DEFAULT_255_1_388
10
4.5589035
20
116.7427603
40
0.3265454
50
11.6284215
51
49.5603681
0
ARC
8
DEFAULT_255_1_388
10
4.3861521
20
116.7005524
40
0.5043009
50
359.5655533
51
12.3693319
0
ARC
8
DEFAULT_255_1_388
10
4.5072858
20
116.6935038
40
0.3831661
50
341.998418
51
0.4822212
0
ARC
8
DEFAULT_255_1_388
10
4.5517044
20
116.6814479
40
0.3372036
50
323.8610842
51
341.6141514
0
ARC
8
DEFAULT_255_1_388
10
4.517759
20
116.7076615
40
0.3800784
50
296.7019299
51
323.6876213
0
ARC
8
DEFAULT_255_1_388
10
4.4681548
20
116.7963532
40
0.4816219
50
290.808313
51
297.2325929
0
ARC
8
DEFAULT_255_1_388
10
4.4370342
20
116.8552377
40
0.404289
50
269.5895908
51
281.8058892
0
ARC
8
DEFAULT_255_1_388
10
4.4652608
20
116.726136
40
0.2721459
50
281.5499321
51
303.9358954
0
ARC
8
DEFAULT_255_1_388
10
4.4807143
20
116.6993588
40
0.2413121
50
304.4410786
51
311.211123
0
ARC
8
DEFAULT_255_1_388
10
4.4955548
20
116.6837152
40
0.2197678
50
310.9874923
51
356.2715203
0
ARC
8
DEFAULT_255_1_388
10
4.4105294
20
116.6963992
40
0.3055212
50
354.9346315
51
0.0617816
0
ARC
8
DEFAULT_255_1_388
10
4.3894135
20
116.6994427
40
0.3266482
50
359.5239293
51
12.8808621
0
ARC
8
DEFAULT_255_1_388
10
4.4993898
20
116.7263638
40
0.2134449
50
12.417206
51
43.1023141
0
ARC
8
DEFAULT_255_1_388
10
4.5063228
20
116.7305253
40
0.2055463
50
43.575886
51
48.2047245
0
ARC
8
DEFAULT_255_1_388
10
4.4872489
20
116.7056151
40
0.2368418
50
48.7809155
51
72.6968768
0
ARC
8
DEFAULT_255_1_388
10
4.4473853
20
116.5846385
40
0.364206
50
72.3699892
51
84.8793749
0
ARC
8
DEFAULT_255_1_388
10
4.4307859
20
116.4336651
40
0.5160674
50
84.5398226
51
89.7281165
0
LINE
8
DEFAULT_255_1_388
10
5.9701979
20
117.0924898
11
5.9701979
21
116.9497267
0
LINE
8
DEFAULT_255_1_388
10
5.9701979
20
116.9497267
11
5.5473297
21
116.9497267
0
LINE
8
DEFAULT_255_1_388
10
5.5473297
20
116.9497267
11
5.5473297
21
115.7769
0
LINE
8
DEFAULT_255_1_388
10
5.5473297
20
115.7769
11
5.3747489
21
115.7769
0
LINE
8
DEFAULT_255_1_388
10
5.3747489
20
115.7769
11
5.3747489
21
116.9497267
0
LINE
8
DEFAULT_255_1_388
10
5.3747489
20
116.9497267
11
4.9527843
21
116.9497267
0
LINE
8
DEFAULT_255_1_388
10
4.9527843
20
116.9497267
11
4.9527843
21
117.0924898
0
LINE
8
DEFAULT_255_1_388
10
4.9527843
20
117.0924898
11
5.9701979
21
117.0924898
0
LINE
8
DEFAULT_255_1_388
10
7.1764564
20
117.0924898
11
7.1764564
21
115.7769
0
LINE
8
DEFAULT_255_1_388
10
7.1764564
20
115.7769
11
7.0020685
21
115.7769
0
LINE
8
DEFAULT_255_1_388
10
7.0020685
20
115.7769
11
6.3397557
21
116.7906993
0
LINE
8
DEFAULT_255_1_388
10
6.3397557
20
116.7906993
11
6.3397557
21
115.7769
0
LINE
8
DEFAULT_255_1_388
10
6.3397557
20
115.7769
11
6.1653678
21
115.7769
0
LINE
8
DEFAULT_255_1_388
10
6.1653678
20
115.7769
11
6.1653678
21
117.0924898
0
LINE
8
DEFAULT_255_1_388
10
6.1653678
20
117.0924898
11
6.3397557
21
117.0924898
0
LINE
8
DEFAULT_255_1_388
10
6.3397557
20
117.0924898
11
7.0038756
21
116.0741727
0
LINE
8
DEFAULT_255_1_388
10
7.0038756
20
116.0741727
11
7.0038756
21
117.0924898
0
LINE
8
DEFAULT_255_1_388
10
7.0038756
20
117.0924898
11
7.1764564
21
117.0924898
0
LINE
8
DEFAULT_255_1_388
10
4.7621322
20
123.7144
11
4.4766058
21
124.2465995
0
LINE
8
DEFAULT_255_1_388
10
4.4766058
20
124.2465995
11
4.1675868
21
124.2465995
0
LINE
8
DEFAULT_255_1_388
10
4.1675868
20
124.2465995
11
4.1675868
21
123.7144
0
LINE
8
DEFAULT_255_1_388
10
4.1675868
20
123.7144
11
3.9931988
21
123.7144
0
LINE
8
DEFAULT_255_1_388
10
3.9931988
20
123.7144
11
3.9931988
21
125.0299898
0
LINE
8
DEFAULT_255_1_388
10
3.9931988
20
125.0299898
11
4.4287169
21
125.0299898
0
LINE
8
DEFAULT_255_1_388
10
4.6392474
20
124.2836456
11
4.9482665
21
123.7252428
0
LINE
8
DEFAULT_255_1_388
10
4.9482665
20
123.7252428
11
4.9482665
21
123.7144
0
LINE
8
DEFAULT_255_1_388
10
4.9482665
20
123.7144
11
4.7621322
21
123.7144
0
LINE
8
DEFAULT_255_1_388
10
4.1675868
20
124.8872267
11
4.1675868
21
124.3884591
0
LINE
8
DEFAULT_255_1_388
10
4.1675868
20
124.3884591
11
4.4341383
21
124.3884591
0
LINE
8
DEFAULT_255_1_388
10
4.4332347
20
124.8872267
11
4.1675868
21
124.8872267
0
ARC
8
DEFAULT_255_1_388
10
4.4334015
20
124.2468346
40
0.7831693
50
80.6535681
51
90.3427203
0
ARC
8
DEFAULT_255_1_388
10
4.4805925
20
124.5238722
40
0.5021479
50
65.6987674
51
80.8330164
0
ARC
8
DEFAULT_255_1_388
10
4.5343219
20
124.6470479
40
0.3677787
50
50.0019152
51
65.4304412
0
ARC
8
DEFAULT_255_1_388
10
4.5589035
20
124.6802603
40
0.3265454
50
11.6284215
51
49.5603681
0
ARC
8
DEFAULT_255_1_388
10
4.3861521
20
124.6380524
40
0.5043009
50
359.5655533
51
12.3693319
0
ARC
8
DEFAULT_255_1_388
10
4.5072858
20
124.6310038
40
0.3831661
50
341.998418
51
0.4822212
0
ARC
8
DEFAULT_255_1_388
10
4.5517044
20
124.6189479
40
0.3372036
50
323.8610842
51
341.6141514
0
ARC
8
DEFAULT_255_1_388
10
4.517759
20
124.6451615
40
0.3800784
50
296.7019299
51
323.6876213
0
ARC
8
DEFAULT_255_1_388
10
4.4681548
20
124.7338532
40
0.4816219
50
290.808313
51
297.2325929
0
ARC
8
DEFAULT_255_1_388
10
4.4370342
20
124.7927377
40
0.404289
50
269.5895908
51
281.8058892
0
ARC
8
DEFAULT_255_1_388
10
4.4652608
20
124.663636
40
0.2721459
50
281.5499321
51
303.9358954
0
ARC
8
DEFAULT_255_1_388
10
4.4807143
20
124.6368588
40
0.2413121
50
304.4410786
51
311.211123
0
ARC
8
DEFAULT_255_1_388
10
4.4955548
20
124.6212152
40
0.2197678
50
310.9874923
51
356.2715203
0
ARC
8
DEFAULT_255_1_388
10
4.4105294
20
124.6338992
40
0.3055212
50
354.9346315
51
0.0617816
0
ARC
8
DEFAULT_255_1_388
10
4.3894135
20
124.6369427
40
0.3266482
50
359.5239293
51
12.8808621
0
ARC
8
DEFAULT_255_1_388
10
4.4993898
20
124.6638638
40
0.2134449
50
12.417206
51
43.1023141
0
ARC
8
DEFAULT_255_1_388
10
4.5063228
20
124.6680253
40
0.2055463
50
43.575886
51
48.2047245
0
ARC
8
DEFAULT_255_1_388
10
4.4872489
20
124.6431151
40
0.2368418
50
48.7809155
51
72.6968768
0
ARC
8
DEFAULT_255_1_388
10
4.4473853
20
124.5221385
40
0.364206
50
72.3699892
51
84.8793749
0
ARC
8
DEFAULT_255_1_388
10
4.4307859
20
124.3711651
40
0.5160674
50
84.5398226
51
89.7281165
0
LINE
8
DEFAULT_255_1_388
10
5.9701979
20
125.0299898
11
5.9701979
21
124.8872267
0
LINE
8
DEFAULT_255_1_388
10
5.9701979
20
124.8872267
11
5.5473297
21
124.8872267
0
LINE
8
DEFAULT_255_1_388
10
5.5473297
20
124.8872267
11
5.5473297
21
123.7144
0
LINE
8
DEFAULT_255_1_388
10
5.5473297
20
123.7144
11
5.3747489
21
123.7144
0
LINE
8
DEFAULT_255_1_388
10
5.3747489
20
123.7144
11
5.3747489
21
124.8872267
0
LINE
8
DEFAULT_255_1_388
10
5.3747489
20
124.8872267
11
4.9527843
21
124.8872267
0
LINE
8
DEFAULT_255_1_388
10
4.9527843
20
124.8872267
11
4.9527843
21
125.0299898
0
LINE
8
DEFAULT_255_1_388
10
4.9527843
20
125.0299898
11
5.9701979
21
125.0299898
0
LINE
8
DEFAULT_255_1_388
10
7.1764564
20
125.0299898
11
7.1764564
21
123.7144
0
LINE
8
DEFAULT_255_1_388
10
7.1764564
20
123.7144
11
7.0020685
21
123.7144
0
LINE
8
DEFAULT_255_1_388
10
7.0020685
20
123.7144
11
6.3397557
21
124.7281993
0
LINE
8
DEFAULT_255_1_388
10
6.3397557
20
124.7281993
11
6.3397557
21
123.7144
0
LINE
8
DEFAULT_255_1_388
10
6.3397557
20
123.7144
11
6.1653678
21
123.7144
0
LINE
8
DEFAULT_255_1_388
10
6.1653678
20
123.7144
11
6.1653678
21
125.0299898
0
LINE
8
DEFAULT_255_1_388
10
6.1653678
20
125.0299898
11
6.3397557
21
125.0299898
0
LINE
8
DEFAULT_255_1_388
10
6.3397557
20
125.0299898
11
7.0038756
21
124.0116727
0
LINE
8
DEFAULT_255_1_388
10
7.0038756
20
124.0116727
11
7.0038756
21
125.0299898
0
LINE
8
DEFAULT_255_1_388
10
7.0038756
20
125.0299898
11
7.1764564
21
125.0299898
0
LINE
8
DEFAULT_255_1_388
10
23.1190856
20
132.429869
11
23.1190856
21
132.2130135
0
LINE
8
DEFAULT_255_1_388
10
22.2887099
20
132.1904244
11
22.2887099
21
132.4136048
0
LINE
8
DEFAULT_255_1_388
10
22.9519262
20
132.1678353
11
22.9519262
21
132.4416153
0
LINE
8
DEFAULT_255_1_388
10
22.4558693
20
132.4542652
11
22.4558693
21
132.1868102
0
ARC
8
DEFAULT_255_1_388
10
21.741319
20
132.2075118
40
1.3777776
50
353.8440855
51
0.2287917
0
ARC
8
DEFAULT_255_1_388
10
22.2632208
20
132.1492414
40
0.852639
50
344.4934746
51
353.9763743
0
ARC
8
DEFAULT_255_1_388
10
22.5999015
20
132.0535191
40
0.5026273
50
329.2803599
51
344.7473406
0
ARC
8
DEFAULT_255_1_388
10
22.7114511
20
131.9923038
40
0.3754848
50
324.9361395
51
328.6153007
0
ARC
8
DEFAULT_255_1_388
10
22.7540161
20
131.9625586
40
0.3235566
50
280.5801797
51
324.9173226
0
ARC
8
DEFAULT_255_1_388
10
22.7088789
20
132.1505236
40
0.5167077
50
269.5979457
51
281.6732777
0
ARC
8
DEFAULT_255_1_388
10
22.7007693
20
132.1370113
40
0.5032026
50
256.6228565
51
270.5105488
0
ARC
8
DEFAULT_255_1_388
10
22.6555435
20
131.9628345
40
0.3233092
50
215.8618351
51
257.2787793
0
ARC
8
DEFAULT_255_1_388
10
22.7704142
20
132.0399106
40
0.4615831
50
197.9695203
51
215.2622745
0
ARC
8
DEFAULT_255_1_388
10
23.0499818
20
132.1342641
40
0.7566307
50
187.8816486
51
198.2346584
0
ARC
8
DEFAULT_255_1_388
10
23.4953056
20
132.1985453
40
1.2065653
50
180.8977266
51
188.0054894
0
ARC
8
DEFAULT_255_1_388
10
23.800327
20
132.21004
40
1.5117443
50
180.7434591
51
181.152202
0
ARC
8
DEFAULT_255_1_388
10
23.6328266
20
132.4190371
40
1.3441277
50
173.7674302
51
180.2315596
0
ARC
8
DEFAULT_255_1_388
10
23.1246135
20
132.4764779
40
0.8326847
50
164.3058537
51
173.9000553
0
ARC
8
DEFAULT_255_1_388
10
22.7970135
20
132.5708652
40
0.4917711
50
148.7922028
51
164.5682288
0
ARC
8
DEFAULT_255_1_388
10
22.6900872
20
132.6305457
40
0.3694204
50
144.5883979
51
148.1161588
0
ARC
8
DEFAULT_255_1_388
10
22.6513618
20
132.6575667
40
0.322202
50
101.6440149
51
144.5142619
0
ARC
8
DEFAULT_255_1_388
10
22.699181
20
132.4675337
40
0.5180451
50
89.528284
51
102.5820197
0
ARC
8
DEFAULT_255_1_388
10
22.7080802
20
132.4631376
40
0.5224441
50
77.0437914
51
90.508231
0
ARC
8
DEFAULT_255_1_388
10
22.7533055
20
132.6479272
40
0.3322297
50
48.2777708
51
77.4996087
0
ARC
8
DEFAULT_255_1_388
10
22.7614795
20
132.6624557
40
0.315966
50
36.3141586
51
47.6307332
0
ARC
8
DEFAULT_255_1_388
10
22.6637518
20
132.5966159
40
0.4337313
50
18.2931065
51
35.6770203
0
ARC
8
DEFAULT_255_1_388
10
22.3776358
20
132.4984107
40
0.7362203
50
8.0246996
51
18.5605636
0
ARC
8
DEFAULT_255_1_388
10
21.9092714
20
132.4292432
40
1.2096583
50
1.127539
51
8.1718423
0
ARC
8
DEFAULT_255_1_388
10
21.5443847
20
132.4149374
40
1.5747719
50
0.5432713
51
1.38669
0
ARC
8
DEFAULT_255_1_388
10
21.7501226
20
132.4456163
40
1.2018103
50
359.8092569
51
4.9408001
0
ARC
8
DEFAULT_255_1_388
10
22.2237807
20
132.48789
40
0.7262727
50
4.8364937
51
12.2906017
0
ARC
8
DEFAULT_255_1_388
10
22.5337272
20
132.5569485
40
0.4087324
50
12.0806994
51
23.8171225
0
ARC
8
DEFAULT_255_1_388
10
22.6657668
20
132.6128508
40
0.2653719
50
24.2874621
51
31.3934353
0
ARC
8
DEFAULT_255_1_388
10
22.7248104
20
132.6514822
40
0.1948607
50
30.7407708
51
82.4658033
0
ARC
8
DEFAULT_255_1_388
10
22.7045765
20
132.5521017
40
0.2961198
50
81.1057101
51
90.2187368
0
ARC
8
DEFAULT_255_1_388
10
22.7005577
20
132.5811421
40
0.2670929
50
89.380395
51
105.6763916
0
ARC
8
DEFAULT_255_1_388
10
22.6799299
20
132.656132
40
0.1893189
50
105.7980655
51
149.7387869
0
ARC
8
DEFAULT_255_1_388
10
22.7996439
20
132.5841719
40
0.3289892
50
149.4208441
51
163.628295
0
ARC
8
DEFAULT_255_1_388
10
23.0348668
20
132.5124345
40
0.5749004
50
163.3764549
51
172.141138
0
ARC
8
DEFAULT_255_1_388
10
23.406139
20
132.4592582
40
0.9499585
50
172.0258462
51
178.0705453
0
ARC
8
DEFAULT_255_1_388
10
23.7482943
20
132.4430682
40
1.2924734
50
177.8639301
51
179.5036263
0
ARC
8
DEFAULT_255_1_388
10
23.6263961
20
132.1827151
40
1.170534
50
179.7995545
51
185.246089
0
ARC
8
DEFAULT_255_1_388
10
23.1715554
20
132.1396404
40
0.7136613
50
185.1411911
51
193.0082205
0
ARC
8
DEFAULT_255_1_388
10
22.8741815
20
132.0693441
40
0.4080987
50
192.7897338
51
205.2507384
0
ARC
8
DEFAULT_255_1_388
10
22.7564025
20
132.0167538
40
0.2791522
50
205.8001921
51
211.2545876
0
ARC
8
DEFAULT_255_1_388
10
22.6975564
20
131.9773132
40
0.2084074
50
210.3789935
51
238.4007996
0
ARC
8
DEFAULT_255_1_388
10
22.695365
20
131.9825786
40
0.2117943
50
239.6521916
51
265.9793852
0
ARC
8
DEFAULT_255_1_388
10
22.7049499
20
132.0582358
40
0.2879689
50
265.1324455
51
270.0603288
0
ARC
8
DEFAULT_255_1_388
10
22.7081876
20
132.0217418
40
0.2514919
50
269.3314378
51
287.2180039
0
ARC
8
DEFAULT_255_1_388
10
22.7236958
20
131.9651291
40
0.1928357
50
287.7957942
51
329.0808983
0
ARC
8
DEFAULT_255_1_388
10
22.6159715
20
132.0323651
40
0.319808
50
328.6635261
51
343.3325043
0
ARC
8
DEFAULT_255_1_388
10
22.3715174
20
132.1085195
40
0.5758408
50
343.0498092
51
351.9392499
0
ARC
8
DEFAULT_255_1_388
10
21.9814496
20
132.1660205
40
0.9701202
50
351.8071632
51
357.7957897
0
ARC
8
DEFAULT_255_1_388
10
21.6179973
20
132.1848724
40
1.3340376
50
357.5870923
51
359.2682493
0
LINE
8
DEFAULT_255_1_388
10
23.4380439
20
132.9674898
11
23.8121196
21
131.8823089
0
LINE
8
DEFAULT_255_1_388
10
23.8121196
20
131.8823089
11
24.1880024
21
132.9674898
0
LINE
8
DEFAULT_255_1_388
10
24.1880024
20
132.9674898
11
24.3777509
21
132.9674898
0
LINE
8
DEFAULT_255_1_388
10
24.3777509
20
132.9674898
11
23.8898261
21
131.6519
0
LINE
8
DEFAULT_255_1_388
10
23.8898261
20
131.6519
11
23.7362202
21
131.6519
0
LINE
8
DEFAULT_255_1_388
10
23.7362202
20
131.6519
11
23.2491989
21
132.9674898
0
LINE
8
DEFAULT_255_1_388
10
23.2491989
20
132.9674898
11
23.4380439
21
132.9674898
0
LINE
8
DEFAULT_255_1_388
10
21.9911367
20
5.9674898
11
21.9911367
21
4.6519
0
LINE
8
DEFAULT_255_1_388
10
21.9911367
20
4.6519
11
21.8176523
21
4.6519
0
LINE
8
DEFAULT_255_1_388
10
21.8176523
20
4.6519
11
21.8176523
21
5.9674898
0
LINE
8
DEFAULT_255_1_388
10
21.8176523
20
5.9674898
11
21.9911367
21
5.9674898
0
LINE
8
DEFAULT_255_1_388
10
23.32028
20
5.3503553
11
23.32028
21
5.2672274
0
LINE
8
DEFAULT_255_1_388
10
22.262206
20
5.2554811
11
22.262206
21
5.3503553
0
LINE
8
DEFAULT_255_1_388
10
23.1476992
20
5.2545775
11
23.1476992
21
5.3521625
0
LINE
8
DEFAULT_255_1_388
10
22.4347868
20
5.3639088
11
22.4347868
21
5.2672274
0
ARC
8
DEFAULT_255_1_388
10
22.3480538
20
5.2627726
40
0.9722364
50
350.4878118
51
0.2625322
0
ARC
8
DEFAULT_255_1_388
10
22.6060498
20
5.2183994
40
0.7104556
50
336.0277991
51
350.5787241
0
ARC
8
DEFAULT_255_1_388
10
22.7573605
20
5.1500243
40
0.544417
50
319.887443
51
336.1331163
0
ARC
8
DEFAULT_255_1_388
10
22.8251417
20
5.0957733
40
0.4576311
50
302.4806296
51
319.6144102
0
ARC
8
DEFAULT_255_1_388
10
22.8122038
20
5.1207067
40
0.4856183
50
275.8196423
51
302.1885521
0
ARC
8
DEFAULT_255_1_388
10
22.79349
20
5.2492466
40
0.6154183
50
269.9169897
51
276.339506
0
ARC
8
DEFAULT_255_1_388
10
22.78845
20
5.172068
40
0.5382553
50
252.5221437
51
270.441579
0
ARC
8
DEFAULT_255_1_388
10
22.7722751
20
5.1114046
40
0.4755426
50
237.5349961
51
252.1858334
0
ARC
8
DEFAULT_255_1_388
10
22.7823127
20
5.124212
40
0.4917393
50
209.0632754
51
237.3492577
0
ARC
8
DEFAULT_255_1_388
10
22.8802453
20
5.1857104
40
0.6072464
50
205.118533
51
209.6465345
0
ARC
8
DEFAULT_255_1_388
10
22.9698455
20
5.2237174
40
0.7045164
50
188.7216633
51
204.8239753
0
ARC
8
DEFAULT_255_1_388
10
23.194523
20
5.2615387
40
0.9323368
50
180.3722704
51
188.9253909
0
ARC
8
DEFAULT_255_1_388
10
23.1914792
20
5.3548416
40
0.929284
50
169.5253055
51
180.2766048
0
ARC
8
DEFAULT_255_1_388
10
22.9774591
20
5.3942024
40
0.7116745
50
155.8314601
51
169.5088611
0
ARC
8
DEFAULT_255_1_388
10
22.8334054
20
5.4610312
40
0.5528904
50
139.6259579
51
156.0379072
0
ARC
8
DEFAULT_255_1_388
10
22.7670588
20
5.5144143
40
0.4677708
50
122.6414784
51
139.3431662
0
ARC
8
DEFAULT_255_1_388
10
22.7783842
20
5.4937787
40
0.4912586
50
93.0224537
51
122.4556091
0
ARC
8
DEFAULT_255_1_388
10
22.7905363
20
5.3851776
40
0.6003837
50
89.9756766
51
93.6340839
0
ARC
8
DEFAULT_255_1_388
10
22.7948961
20
5.4300879
40
0.5554884
50
73.7463329
51
90.4234008
0
ARC
8
DEFAULT_255_1_388
10
22.8146434
20
5.5065772
40
0.4765353
50
57.663051
51
73.4516911
0
ARC
8
DEFAULT_255_1_388
10
22.8137472
20
5.5090108
40
0.4749629
50
29.1441355
51
57.4146687
0
ARC
8
DEFAULT_255_1_388
10
22.7085283
20
5.4433046
40
0.5988917
50
24.0985653
51
29.732054
0
ARC
8
DEFAULT_255_1_388
10
22.5922915
20
5.3951154
40
0.7246823
50
8.6654943
51
23.8241215
0
ARC
8
DEFAULT_255_1_388
10
22.3409333
20
5.3541037
40
0.9793537
50
359.7807044
51
8.8218476
0
ARC
8
DEFAULT_255_1_388
10
22.2119038
20
5.3569731
40
0.9358078
50
359.7054632
51
8.0359751
0
ARC
8
DEFAULT_255_1_388
10
22.5494089
20
5.4061252
40
0.5947474
50
7.8926278
51
20.2962188
0
ARC
8
DEFAULT_255_1_388
10
22.7324939
20
5.4736367
40
0.3996117
50
20.3231056
51
36.4990255
0
ARC
8
DEFAULT_255_1_388
10
22.8096237
20
5.5330399
40
0.3022818
50
36.1436715
51
85.6627846
0
ARC
8
DEFAULT_255_1_388
10
22.7913492
20
5.4160881
40
0.4203853
50
84.3845912
51
90.076054
0
ARC
8
DEFAULT_255_1_388
10
22.7865847
20
5.4903416
40
0.346157
50
89.3037228
51
109.9046209
0
ARC
8
DEFAULT_255_1_388
10
22.776168
20
5.5333379
40
0.3022217
50
110.8229774
51
143.917961
0
ARC
8
DEFAULT_255_1_388
10
22.8812039
20
5.4531455
40
0.434348
50
143.5289166
51
163.2980252
0
ARC
8
DEFAULT_255_1_388
10
23.0958326
20
5.3856685
40
0.659321
50
163.0418884
51
174.3139873
0
ARC
8
DEFAULT_255_1_388
10
23.3663291
20
5.3544378
40
0.9315905
50
174.050934
51
179.4174954
0
ARC
8
DEFAULT_255_1_388
10
23.3095235
20
5.2625382
40
0.8747493
50
179.6928582
51
188.7908948
0
ARC
8
DEFAULT_255_1_388
10
23.0099035
20
5.2146086
40
0.5713262
50
188.6328449
51
202.5630732
0
ARC
8
DEFAULT_255_1_388
10
22.8687872
20
5.1579142
40
0.4192612
50
202.8078931
51
216.1195888
0
ARC
8
DEFAULT_255_1_388
10
22.7777389
20
5.0846479
40
0.3025752
50
215.0755613
51
264.6379773
0
ARC
8
DEFAULT_255_1_388
10
22.7920226
20
5.1781376
40
0.3970284
50
263.8464302
51
270.0830805
0
ARC
8
DEFAULT_255_1_388
10
22.7966771
20
5.1490808
40
0.3679937
50
269.3649295
51
287.5149684
0
ARC
8
DEFAULT_255_1_388
10
22.8167212
20
5.0762714
40
0.2925408
50
288.0629019
51
323.8115617
0
ARC
8
DEFAULT_255_1_388
10
22.7187188
20
5.1493754
40
0.4148018
50
323.6546541
51
342.6591359
0
ARC
8
DEFAULT_255_1_388
10
22.4901846
20
5.223728
40
0.6551163
50
342.4092446
51
353.6451501
0
ARC
8
DEFAULT_255_1_388
10
22.1716639
20
5.2633565
40
0.9760748
50
353.4027553
51
359.4846611
0
LINE
8
DEFAULT_255_1_388
10
24.386486
20
5.9674898
11
24.386486
21
5.8735191
0
LINE
8
DEFAULT_255_1_388
10
24.386486
20
5.8735191
11
23.8416367
21
4.6519
0
LINE
8
DEFAULT_255_1_388
10
23.8416367
20
4.6519
11
23.6663452
21
4.6519
0
LINE
8
DEFAULT_255_1_388
10
23.6663452
20
4.6519
11
24.2093874
21
5.830148
0
LINE
8
DEFAULT_255_1_388
10
24.2093874
20
5.830148
11
23.4973786
21
5.830148
0
LINE
8
DEFAULT_255_1_388
10
23.4973786
20
5.830148
11
23.4973786
21
5.9674898
0
LINE
8
DEFAULT_255_1_388
10
23.4973786
20
5.9674898
11
24.386486
21
5.9674898
0
LINE
8
DEFAULT_255_1_388
10
21.0719448
20
13.9049898
11
21.4460205
21
12.8198089
0
LINE
8
DEFAULT_255_1_388
10
21.4460205
20
12.8198089
11
21.8219033
21
13.9049898
0
LINE
8
DEFAULT_255_1_388
10
21.8219033
20
13.9049898
11
22.0116518
21
13.9049898
0
LINE
8
DEFAULT_255_1_388
10
22.0116518
20
13.9049898
11
21.523727
21
12.5894
0
LINE
8
DEFAULT_255_1_388
10
21.523727
20
12.5894
11
21.370121
21
12.5894
0
LINE
8
DEFAULT_255_1_388
10
21.370121
20
12.5894
11
20.8830998
21
13.9049898
0
LINE
8
DEFAULT_255_1_388
10
20.8830998
20
13.9049898
11
21.0719448
21
13.9049898
0
LINE
8
DEFAULT_255_1_388
10
23.1880927
20
13.2878553
11
23.1880927
21
13.2047274
0
LINE
8
DEFAULT_255_1_388
10
22.1300187
20
13.1929811
11
22.1300187
21
13.2878553
0
LINE
8
DEFAULT_255_1_388
10
23.0155119
20
13.1920775
11
23.0155119
21
13.2896625
0
LINE
8
DEFAULT_255_1_388
10
22.3025996
20
13.3014088
11
22.3025996
21
13.2047274
0
ARC
8
DEFAULT_255_1_388
10
22.2158666
20
13.2002726
40
0.9722364
50
350.4878118
51
0.2625322
0
ARC
8
DEFAULT_255_1_388
10
22.4738626
20
13.1558994
40
0.7104556
50
336.0277991
51
350.5787241
0
ARC
8
DEFAULT_255_1_388
10
22.6251732
20
13.0875243
40
0.544417
50
319.887443
51
336.1331163
0
ARC
8
DEFAULT_255_1_388
10
22.6929545
20
13.0332733
40
0.4576311
50
302.4806296
51
319.6144102
0
ARC
8
DEFAULT_255_1_388
10
22.6800166
20
13.0582067
40
0.4856183
50
275.8196423
51
302.1885521
0
ARC
8
DEFAULT_255_1_388
10
22.6613027
20
13.1867466
40
0.6154183
50
269.9169897
51
276.339506
0
ARC
8
DEFAULT_255_1_388
10
22.6562628
20
13.109568
40
0.5382553
50
252.5221437
51
270.441579
0
ARC
8
DEFAULT_255_1_388
10
22.6400878
20
13.0489046
40
0.4755426
50
237.5349961
51
252.1858334
0
ARC
8
DEFAULT_255_1_388
10
22.6501254
20
13.061712
40
0.4917393
50
209.0632754
51
237.3492577
0
ARC
8
DEFAULT_255_1_388
10
22.748058
20
13.1232104
40
0.6072464
50
205.118533
51
209.6465345
0
ARC
8
DEFAULT_255_1_388
10
22.8376582
20
13.1612174
40
0.7045164
50
188.7216633
51
204.8239753
0
ARC
8
DEFAULT_255_1_388
10
23.0623358
20
13.1990387
40
0.9323368
50
180.3722704
51
188.9253909
0
ARC
8
DEFAULT_255_1_388
10
23.0592919
20
13.2923416
40
0.929284
50
169.5253055
51
180.2766048
0
ARC
8
DEFAULT_255_1_388
10
22.8452718
20
13.3317024
40
0.7116745
50
155.8314601
51
169.5088611
0
ARC
8
DEFAULT_255_1_388
10
22.7012181
20
13.3985312
40
0.5528904
50
139.6259579
51
156.0379072
0
ARC
8
DEFAULT_255_1_388
10
22.6348715
20
13.4519143
40
0.4677708
50
122.6414784
51
139.3431662
0
ARC
8
DEFAULT_255_1_388
10
22.646197
20
13.4312787
40
0.4912586
50
93.0224537
51
122.4556091
0
ARC
8
DEFAULT_255_1_388
10
22.6583491
20
13.3226776
40
0.6003837
50
89.9756766
51
93.6340839
0
ARC
8
DEFAULT_255_1_388
10
22.6627088
20
13.3675879
40
0.5554884
50
73.7463329
51
90.4234008
0
ARC
8
DEFAULT_255_1_388
10
22.6824562
20
13.4440772
40
0.4765353
50
57.663051
51
73.4516911
0
ARC
8
DEFAULT_255_1_388
10
22.6815599
20
13.4465108
40
0.4749629
50
29.1441355
51
57.4146687
0
ARC
8
DEFAULT_255_1_388
10
22.5763411
20
13.3808046
40
0.5988917
50
24.0985653
51
29.732054
0
ARC
8
DEFAULT_255_1_388
10
22.4601042
20
13.3326154
40
0.7246823
50
8.6654943
51
23.8241215
0
ARC
8
DEFAULT_255_1_388
10
22.2087461
20
13.2916037
40
0.9793537
50
359.7807044
51
8.8218476
0
ARC
8
DEFAULT_255_1_388
10
22.0797165
20
13.2944731
40
0.9358078
50
359.7054632
51
8.0359751
0
ARC
8
DEFAULT_255_1_388
10
22.4172217
20
13.3436252
40
0.5947474
50
7.8926278
51
20.2962188
0
ARC
8
DEFAULT_255_1_388
10
22.6003067
20
13.4111367
40
0.3996117
50
20.3231056
51
36.4990255
0
ARC
8
DEFAULT_255_1_388
10
22.6774364
20
13.4705399
40
0.3022818
50
36.1436715
51
85.6627846
0
ARC
8
DEFAULT_255_1_388
10
22.659162
20
13.3535881
40
0.4203853
50
84.3845912
51
90.076054
0
ARC
8
DEFAULT_255_1_388
10
22.6543974
20
13.4278416
40
0.346157
50
89.3037228
51
109.9046209
0
ARC
8
DEFAULT_255_1_388
10
22.6439807
20
13.4708379
40
0.3022217
50
110.8229774
51
143.917961
0
ARC
8
DEFAULT_255_1_388
10
22.7490167
20
13.3906455
40
0.434348
50
143.5289166
51
163.2980252
0
ARC
8
DEFAULT_255_1_388
10
22.9636454
20
13.3231685
40
0.659321
50
163.0418884
51
174.3139873
0
ARC
8
DEFAULT_255_1_388
10
23.2341419
20
13.2919378
40
0.9315905
50
174.050934
51
179.4174954
0
ARC
8
DEFAULT_255_1_388
10
23.1773363
20
13.2000382
40
0.8747493
50
179.6928582
51
188.7908948
0
ARC
8
DEFAULT_255_1_388
10
22.8777163
20
13.1521086
40
0.5713262
50
188.6328449
51
202.5630732
0
ARC
8
DEFAULT_255_1_388
10
22.7365999
20
13.0954142
40
0.4192612
50
202.8078931
51
216.1195888
0
ARC
8
DEFAULT_255_1_388
10
22.6455516
20
13.0221479
40
0.3025752
50
215.0755613
51
264.6379773
0
ARC
8
DEFAULT_255_1_388
10
22.6598354
20
13.1156376
40
0.3970284
50
263.8464302
51
270.0830805
0
ARC
8
DEFAULT_255_1_388
10
22.6644899
20
13.0865808
40
0.3679937
50
269.3649295
51
287.5149684
0
ARC
8
DEFAULT_255_1_388
10
22.6845339
20
13.0137714
40
0.2925408
50
288.0629019
51
323.8115617
0
ARC
8
DEFAULT_255_1_388
10
22.5865316
20
13.0868754
40
0.4148018
50
323.6546541
51
342.6591359
0
ARC
8
DEFAULT_255_1_388
10
22.3579973
20
13.161228
40
0.6551163
50
342.4092446
51
353.6451501
0
ARC
8
DEFAULT_255_1_388
10
22.0394767
20
13.2008565
40
0.9760748
50
353.4027553
51
359.4846611
0
LINE
8
DEFAULT_255_1_388
10
24.2542988
20
13.9049898
11
24.2542988
21
13.8110191
0
LINE
8
DEFAULT_255_1_388
10
24.2542988
20
13.8110191
11
23.7094494
21
12.5894
0
LINE
8
DEFAULT_255_1_388
10
23.7094494
20
12.5894
11
23.5341579
21
12.5894
0
LINE
8
DEFAULT_255_1_388
10
23.5341579
20
12.5894
11
24.0772001
21
13.767648
0
LINE
8
DEFAULT_255_1_388
10
24.0772001
20
13.767648
11
23.3651914
21
13.767648
0
LINE
8
DEFAULT_255_1_388
10
23.3651914
20
13.767648
11
23.3651914
21
13.9049898
0
LINE
8
DEFAULT_255_1_388
10
23.3651914
20
13.9049898
11
24.2542988
21
13.9049898
0
LINE
8
DEFAULT_255_1_388
10
21.9911367
20
21.8424898
11
21.9911367
21
20.5269
0
LINE
8
DEFAULT_255_1_388
10
21.9911367
20
20.5269
11
21.8176523
21
20.5269
0
LINE
8
DEFAULT_255_1_388
10
21.8176523
20
20.5269
11
21.8176523
21
21.8424898
0
LINE
8
DEFAULT_255_1_388
10
21.8176523
20
21.8424898
11
21.9911367
21
21.8424898
0
LINE
8
DEFAULT_255_1_388
10
23.32028
20
21.2253553
11
23.32028
21
21.1422274
0
LINE
8
DEFAULT_255_1_388
10
22.262206
20
21.1304811
11
22.262206
21
21.2253553
0
LINE
8
DEFAULT_255_1_388
10
23.1476992
20
21.1295775
11
23.1476992
21
21.2271625
0
LINE
8
DEFAULT_255_1_388
10
22.4347868
20
21.2389088
11
22.4347868
21
21.1422274
0
ARC
8
DEFAULT_255_1_388
10
22.3480538
20
21.1377726
40
0.9722364
50
350.4878118
51
0.2625322
0
ARC
8
DEFAULT_255_1_388
10
22.6060498
20
21.0933994
40
0.7104556
50
336.0277991
51
350.5787241
0
ARC
8
DEFAULT_255_1_388
10
22.7573605
20
21.0250243
40
0.544417
50
319.887443
51
336.1331163
0
ARC
8
DEFAULT_255_1_388
10
22.8251417
20
20.9707733
40
0.4576311
50
302.4806296
51
319.6144102
0
ARC
8
DEFAULT_255_1_388
10
22.8122038
20
20.9957067
40
0.4856183
50
275.8196423
51
302.1885521
0
ARC
8
DEFAULT_255_1_388
10
22.79349
20
21.1242466
40
0.6154183
50
269.9169897
51
276.339506
0
ARC
8
DEFAULT_255_1_388
10
22.78845
20
21.047068
40
0.5382553
50
252.5221437
51
270.441579
0
ARC
8
DEFAULT_255_1_388
10
22.7722751
20
20.9864046
40
0.4755426
50
237.5349961
51
252.1858334
0
ARC
8
DEFAULT_255_1_388
10
22.7823127
20
20.999212
40
0.4917393
50
209.0632754
51
237.3492577
0
ARC
8
DEFAULT_255_1_388
10
22.8802453
20
21.0607104
40
0.6072464
50
205.118533
51
209.6465345
0
ARC
8
DEFAULT_255_1_388
10
22.9698455
20
21.0987174
40
0.7045164
50
188.7216633
51
204.8239753
0
ARC
8
DEFAULT_255_1_388
10
23.194523
20
21.1365387
40
0.9323368
50
180.3722704
51
188.9253909
0
ARC
8
DEFAULT_255_1_388
10
23.1914792
20
21.2298416
40
0.929284
50
169.5253055
51
180.2766048
0
ARC
8
DEFAULT_255_1_388
10
22.9774591
20
21.2692024
40
0.7116745
50
155.8314601
51
169.5088611
0
ARC
8
DEFAULT_255_1_388
10
22.8334054
20
21.3360312
40
0.5528904
50
139.6259579
51
156.0379072
0
ARC
8
DEFAULT_255_1_388
10
22.7670588
20
21.3894143
40
0.4677708
50
122.6414784
51
139.3431662
0
ARC
8
DEFAULT_255_1_388
10
22.7783842
20
21.3687787
40
0.4912586
50
93.0224537
51
122.4556091
0
ARC
8
DEFAULT_255_1_388
10
22.7905363
20
21.2601776
40
0.6003837
50
89.9756766
51
93.6340839
0
ARC
8
DEFAULT_255_1_388
10
22.7948961
20
21.3050879
40
0.5554884
50
73.7463329
51
90.4234008
0
ARC
8
DEFAULT_255_1_388
10
22.8146434
20
21.3815772
40
0.4765353
50
57.663051
51
73.4516911
0
ARC
8
DEFAULT_255_1_388
10
22.8137472
20
21.3840108
40
0.4749629
50
29.1441355
51
57.4146687
0
ARC
8
DEFAULT_255_1_388
10
22.7085283
20
21.3183046
40
0.5988917
50
24.0985653
51
29.732054
0
ARC
8
DEFAULT_255_1_388
10
22.5922915
20
21.2701154
40
0.7246823
50
8.6654943
51
23.8241215
0
ARC
8
DEFAULT_255_1_388
10
22.3409333
20
21.2291037
40
0.9793537
50
359.7807044
51
8.8218476
0
ARC
8
DEFAULT_255_1_388
10
22.2119038
20
21.2319731
40
0.9358078
50
359.7054632
51
8.0359751
0
ARC
8
DEFAULT_255_1_388
10
22.5494089
20
21.2811252
40
0.5947474
50
7.8926278
51
20.2962188
0
ARC
8
DEFAULT_255_1_388
10
22.7324939
20
21.3486367
40
0.3996117
50
20.3231056
51
36.4990255
0
ARC
8
DEFAULT_255_1_388
10
22.8096237
20
21.4080399
40
0.3022818
50
36.1436715
51
85.6627846
0
ARC
8
DEFAULT_255_1_388
10
22.7913492
20
21.2910881
40
0.4203853
50
84.3845912
51
90.076054
0
ARC
8
DEFAULT_255_1_388
10
22.7865847
20
21.3653416
40
0.346157
50
89.3037228
51
109.9046209
0
ARC
8
DEFAULT_255_1_388
10
22.776168
20
21.4083379
40
0.3022217
50
110.8229774
51
143.917961
0
ARC
8
DEFAULT_255_1_388
10
22.8812039
20
21.3281455
40
0.434348
50
143.5289166
51
163.2980252
0
ARC
8
DEFAULT_255_1_388
10
23.0958326
20
21.2606685
40
0.659321
50
163.0418884
51
174.3139873
0
ARC
8
DEFAULT_255_1_388
10
23.3663291
20
21.2294378
40
0.9315905
50
174.050934
51
179.4174954
0
ARC
8
DEFAULT_255_1_388
10
23.3095235
20
21.1375382
40
0.8747493
50
179.6928582
51
188.7908948
0
ARC
8
DEFAULT_255_1_388
10
23.0099035
20
21.0896086
40
0.5713262
50
188.6328449
51
202.5630732
0
ARC
8
DEFAULT_255_1_388
10
22.8687872
20
21.0329142
40
0.4192612
50
202.8078931
51
216.1195888
0
ARC
8
DEFAULT_255_1_388
10
22.7777389
20
20.9596479
40
0.3025752
50
215.0755613
51
264.6379773
0
ARC
8
DEFAULT_255_1_388
10
22.7920226
20
21.0531376
40
0.3970284
50
263.8464302
51
270.0830805
0
ARC
8
DEFAULT_255_1_388
10
22.7966771
20
21.0240808
40
0.3679937
50
269.3649295
51
287.5149684
0
ARC
8
DEFAULT_255_1_388
10
22.8167212
20
20.9512714
40
0.2925408
50
288.0629019
51
323.8115617
0
ARC
8
DEFAULT_255_1_388
10
22.7187188
20
21.0243754
40
0.4148018
50
323.6546541
51
342.6591359
0
ARC
8
DEFAULT_255_1_388
10
22.4901846
20
21.098728
40
0.6551163
50
342.4092446
51
353.6451501
0
ARC
8
DEFAULT_255_1_388
10
22.1716639
20
21.1383565
40
0.9760748
50
353.4027553
51
359.4846611
0
LINE
8
DEFAULT_255_1_388
10
24.1633056
20
21.8433934
11
24.1931232
21
21.8433934
0
LINE
8
DEFAULT_255_1_388
10
24.1931232
20
21.8433934
11
24.1931232
21
21.7015338
0
LINE
8
DEFAULT_255_1_388
10
24.1931232
20
21.7015338
11
24.1624021
21
21.7015338
0
LINE
8
DEFAULT_255_1_388
10
23.5470747
20
21.0274747
11
23.5470747
21
21.0916278
0
LINE
8
DEFAULT_255_1_388
10
23.7151376
20
21.0699422
11
23.7151376
21
21.0084999
0
ARC
8
DEFAULT_255_1_388
10
24.1682912
20
21.1392826
40
0.562282
50
90.6001079
51
104.5146616
0
ARC
8
DEFAULT_255_1_388
10
24.1245872
20
21.30181
40
0.3939917
50
104.2855758
51
133.8630124
0
ARC
8
DEFAULT_255_1_388
10
24.1430124
20
21.2896243
40
0.4155734
50
134.5304124
51
161.6210222
0
ARC
8
DEFAULT_255_1_388
10
24.3290056
20
21.2240421
40
0.6127682
50
161.2850533
51
174.2074364
0
ARC
8
DEFAULT_255_1_388
10
24.4879623
20
21.2021437
40
0.7731446
50
173.7817938
51
174.9251711
0
ARC
8
DEFAULT_255_1_388
10
23.9753817
20
21.046627
40
0.3412588
50
95.8332067
51
138.995412
0
ARC
8
DEFAULT_255_1_388
10
24.0005097
20
20.9027695
40
0.4870358
50
89.8755506
51
97.0540979
0
ARC
8
DEFAULT_255_1_388
10
24.0058486
20
20.9967841
40
0.3930432
50
71.6407016
51
90.6240821
0
ARC
8
DEFAULT_255_1_388
10
24.022788
20
21.0591433
40
0.3285421
50
39.6368051
51
71.0190743
0
ARC
8
DEFAULT_255_1_388
10
23.9511787
20
20.9972586
40
0.4231706
50
10.6588054
51
39.9044509
0
ARC
8
DEFAULT_255_1_388
10
23.7770333
20
20.9594223
40
0.60133
50
359.6827842
51
11.1326896
0
ARC
8
DEFAULT_255_1_388
10
23.7725669
20
20.9514715
40
0.6058047
50
347.2485908
51
0.4371098
0
ARC
8
DEFAULT_255_1_388
10
23.9601454
20
20.9063379
40
0.4128987
50
318.1408565
51
347.6118497
0
ARC
8
DEFAULT_255_1_388
10
23.9967051
20
20.8762903
40
0.3656244
50
275.6342406
51
317.824739
0
ARC
8
DEFAULT_255_1_388
10
23.9718572
20
21.0224827
40
0.513655
50
269.8872513
51
276.7916069
0
ARC
8
DEFAULT_255_1_388
10
23.9656764
20
20.9071181
40
0.398323
50
246.9139443
51
270.7436787
0
ARC
8
DEFAULT_255_1_388
10
23.966396
20
20.8911044
40
0.3839368
50
218.1665534
51
245.8780431
0
ARC
8
DEFAULT_255_1_388
10
24.0653332
20
20.9738903
40
0.5128958
50
191.4115343
51
218.6077624
0
ARC
8
DEFAULT_255_1_388
10
24.2833649
20
21.0227777
40
0.7363054
50
179.6344971
51
191.7836758
0
ARC
8
DEFAULT_255_1_388
10
24.9113523
20
21.0991495
40
1.3642984
50
171.4523743
51
180.3158856
0
ARC
8
DEFAULT_255_1_388
10
24.416925
20
21.1760895
40
0.8639311
50
157.9802296
51
171.6246761
0
ARC
8
DEFAULT_255_1_388
10
24.1678601
20
21.2754038
40
0.5958004
50
141.4299236
51
157.8541251
0
ARC
8
DEFAULT_255_1_388
10
24.0956684
20
21.3264746
40
0.5075416
50
102.871586
51
140.8564533
0
ARC
8
DEFAULT_255_1_388
10
24.1685237
20
21.0519943
40
0.7914163
50
90.377773
51
103.5868422
0
ARC
8
DEFAULT_255_1_388
10
23.9729758
20
20.9839543
40
0.2667015
50
89.8751238
51
126.2072139
0
ARC
8
DEFAULT_255_1_388
10
23.9781229
20
20.9665847
40
0.2838229
50
124.9742447
51
144.8960197
0
ARC
8
DEFAULT_255_1_388
10
23.9583474
20
20.9826981
40
0.2583845
50
145.2974778
51
160.2660922
0
ARC
8
DEFAULT_255_1_388
10
24.3039962
20
21.0049151
40
0.5888695
50
179.6512124
51
190.285571
0
ARC
8
DEFAULT_255_1_388
10
24.1134442
20
20.9689968
40
0.3949683
50
190.0944895
51
207.5099647
0
ARC
8
DEFAULT_255_1_388
10
24.0498024
20
20.9387177
40
0.3245464
50
207.9585471
51
216.325377
0
ARC
8
DEFAULT_255_1_388
10
24.0115661
20
20.9072712
40
0.2751259
50
215.7661336
51
232.5457193
0
ARC
8
DEFAULT_255_1_388
10
23.9684777
20
20.8525273
40
0.2054668
50
232.8005815
51
270.6605497
0
ARC
8
DEFAULT_255_1_388
10
23.9736201
20
20.8934853
40
0.2464268
50
269.3550767
51
288.474612
0
ARC
8
DEFAULT_255_1_388
10
23.9840708
20
20.8541721
40
0.2058436
50
289.1831976
51
322.9685307
0
ARC
8
DEFAULT_255_1_388
10
23.915281
20
20.9084279
40
0.2934408
50
322.6007085
51
346.5183319
0
ARC
8
DEFAULT_255_1_388
10
23.7850566
20
20.9416434
40
0.4278249
50
346.2584622
51
358.7739592
0
ARC
8
DEFAULT_255_1_388
10
23.6699141
20
20.9478829
40
0.5430876
50
358.3757628
51
0.0082477
0
ARC
8
DEFAULT_255_1_388
10
23.755596
20
20.9509856
40
0.4574157
50
359.6211417
51
11.28403
0
ARC
8
DEFAULT_255_1_388
10
23.8992566
20
20.9809535
40
0.3106708
50
11.0483152
51
31.8145585
0
ARC
8
DEFAULT_255_1_388
10
23.9340271
20
20.9998045
40
0.2711963
50
32.3028554
51
38.0820598
0
ARC
8
DEFAULT_255_1_388
10
23.9813504
20
21.0426717
40
0.2075566
50
36.8249851
51
85.741667
0
ARC
8
DEFAULT_255_1_388
10
23.9737917
20
20.9863065
40
0.2643487
50
85.0150021
51
90.050843
0
LINE
8
DEFAULT_255_1_388
10
21.0719448
20
29.7799898
11
21.4460205
21
28.6948089
0
LINE
8
DEFAULT_255_1_388
10
21.4460205
20
28.6948089
11
21.8219033
21
29.7799898
0
LINE
8
DEFAULT_255_1_388
10
21.8219033
20
29.7799898
11
22.0116518
21
29.7799898
0
LINE
8
DEFAULT_255_1_388
10
22.0116518
20
29.7799898
11
21.523727
21
28.4644
0
LINE
8
DEFAULT_255_1_388
10
21.523727
20
28.4644
11
21.370121
21
28.4644
0
LINE
8
DEFAULT_255_1_388
10
21.370121
20
28.4644
11
20.8830998
21
29.7799898
0
LINE
8
DEFAULT_255_1_388
10
20.8830998
20
29.7799898
11
21.0719448
21
29.7799898
0
LINE
8
DEFAULT_255_1_388
10
23.1880927
20
29.1628553
11
23.1880927
21
29.0797274
0
LINE
8
DEFAULT_255_1_388
10
22.1300187
20
29.0679811
11
22.1300187
21
29.1628553
0
LINE
8
DEFAULT_255_1_388
10
23.0155119
20
29.0670775
11
23.0155119
21
29.1646625
0
LINE
8
DEFAULT_255_1_388
10
22.3025996
20
29.1764088
11
22.3025996
21
29.0797274
0
ARC
8
DEFAULT_255_1_388
10
22.2158666
20
29.0752726
40
0.9722364
50
350.4878118
51
0.2625322
0
ARC
8
DEFAULT_255_1_388
10
22.4738626
20
29.0308994
40
0.7104556
50
336.0277991
51
350.5787241
0
ARC
8
DEFAULT_255_1_388
10
22.6251732
20
28.9625243
40
0.544417
50
319.887443
51
336.1331163
0
ARC
8
DEFAULT_255_1_388
10
22.6929545
20
28.9082733
40
0.4576311
50
302.4806296
51
319.6144102
0
ARC
8
DEFAULT_255_1_388
10
22.6800166
20
28.9332067
40
0.4856183
50
275.8196423
51
302.1885521
0
ARC
8
DEFAULT_255_1_388
10
22.6613027
20
29.0617466
40
0.6154183
50
269.9169897
51
276.339506
0
ARC
8
DEFAULT_255_1_388
10
22.6562628
20
28.984568
40
0.5382553
50
252.5221437
51
270.441579
0
ARC
8
DEFAULT_255_1_388
10
22.6400878
20
28.9239046
40
0.4755426
50
237.5349961
51
252.1858334
0
ARC
8
DEFAULT_255_1_388
10
22.6501254
20
28.936712
40
0.4917393
50
209.0632754
51
237.3492577
0
ARC
8
DEFAULT_255_1_388
10
22.748058
20
28.9982104
40
0.6072464
50
205.118533
51
209.6465345
0
ARC
8
DEFAULT_255_1_388
10
22.8376582
20
29.0362174
40
0.7045164
50
188.7216633
51
204.8239753
0
ARC
8
DEFAULT_255_1_388
10
23.0623358
20
29.0740387
40
0.9323368
50
180.3722704
51
188.9253909
0
ARC
8
DEFAULT_255_1_388
10
23.0592919
20
29.1673416
40
0.929284
50
169.5253055
51
180.2766048
0
ARC
8
DEFAULT_255_1_388
10
22.8452718
20
29.2067024
40
0.7116745
50
155.8314601
51
169.5088611
0
ARC
8
DEFAULT_255_1_388
10
22.7012181
20
29.2735312
40
0.5528904
50
139.6259579
51
156.0379072
0
ARC
8
DEFAULT_255_1_388
10
22.6348715
20
29.3269143
40
0.4677708
50
122.6414784
51
139.3431662
0
ARC
8
DEFAULT_255_1_388
10
22.646197
20
29.3062787
40
0.4912586
50
93.0224537
51
122.4556091
0
ARC
8
DEFAULT_255_1_388
10
22.6583491
20
29.1976776
40
0.6003837
50
89.9756766
51
93.6340839
0
ARC
8
DEFAULT_255_1_388
10
22.6627088
20
29.2425879
40
0.5554884
50
73.7463329
51
90.4234008
0
ARC
8
DEFAULT_255_1_388
10
22.6824562
20
29.3190772
40
0.4765353
50
57.663051
51
73.4516911
0
ARC
8
DEFAULT_255_1_388
10
22.6815599
20
29.3215108
40
0.4749629
50
29.1441355
51
57.4146687
0
ARC
8
DEFAULT_255_1_388
10
22.5763411
20
29.2558046
40
0.5988917
50
24.0985653
51
29.732054
0
ARC
8
DEFAULT_255_1_388
10
22.4601042
20
29.2076154
40
0.7246823
50
8.6654943
51
23.8241215
0
ARC
8
DEFAULT_255_1_388
10
22.2087461
20
29.1666037
40
0.9793537
50
359.7807044
51
8.8218476
0
ARC
8
DEFAULT_255_1_388
10
22.0797165
20
29.1694731
40
0.9358078
50
359.7054632
51
8.0359751
0
ARC
8
DEFAULT_255_1_388
10
22.4172217
20
29.2186252
40
0.5947474
50
7.8926278
51
20.2962188
0
ARC
8
DEFAULT_255_1_388
10
22.6003067
20
29.2861367
40
0.3996117
50
20.3231056
51
36.4990255
0
ARC
8
DEFAULT_255_1_388
10
22.6774364
20
29.3455399
40
0.3022818
50
36.1436715
51
85.6627846
0
ARC
8
DEFAULT_255_1_388
10
22.659162
20
29.2285881
40
0.4203853
50
84.3845912
51
90.076054
0
ARC
8
DEFAULT_255_1_388
10
22.6543974
20
29.3028416
40
0.346157
50
89.3037228
51
109.9046209
0
ARC
8
DEFAULT_255_1_388
10
22.6439807
20
29.3458379
40
0.3022217
50
110.8229774
51
143.917961
0
ARC
8
DEFAULT_255_1_388
10
22.7490167
20
29.2656455
40
0.434348
50
143.5289166
51
163.2980252
0
ARC
8
DEFAULT_255_1_388
10
22.9636454
20
29.1981685
40
0.659321
50
163.0418884
51
174.3139873
0
ARC
8
DEFAULT_255_1_388
10
23.2341419
20
29.1669378
40
0.9315905
50
174.050934
51
179.4174954
0
ARC
8
DEFAULT_255_1_388
10
23.1773363
20
29.0750382
40
0.8747493
50
179.6928582
51
188.7908948
0
ARC
8
DEFAULT_255_1_388
10
22.8777163
20
29.0271086
40
0.5713262
50
188.6328449
51
202.5630732
0
ARC
8
DEFAULT_255_1_388
10
22.7365999
20
28.9704142
40
0.4192612
50
202.8078931
51
216.1195888
0
ARC
8
DEFAULT_255_1_388
10
22.6455516
20
28.8971479
40
0.3025752
50
215.0755613
51
264.6379773
0
ARC
8
DEFAULT_255_1_388
10
22.6598354
20
28.9906376
40
0.3970284
50
263.8464302
51
270.0830805
0
ARC
8
DEFAULT_255_1_388
10
22.6644899
20
28.9615808
40
0.3679937
50
269.3649295
51
287.5149684
0
ARC
8
DEFAULT_255_1_388
10
22.6845339
20
28.8887714
40
0.2925408
50
288.0629019
51
323.8115617
0
ARC
8
DEFAULT_255_1_388
10
22.5865316
20
28.9618754
40
0.4148018
50
323.6546541
51
342.6591359
0
ARC
8
DEFAULT_255_1_388
10
22.3579973
20
29.036228
40
0.6551163
50
342.4092446
51
353.6451501
0
ARC
8
DEFAULT_255_1_388
10
22.0394767
20
29.0758565
40
0.9760748
50
353.4027553
51
359.4846611
0
LINE
8
DEFAULT_255_1_388
10
24.0311184
20
29.7808934
11
24.060936
21
29.7808934
0
LINE
8
DEFAULT_255_1_388
10
24.060936
20
29.7808934
11
24.060936
21
29.6390338
0
LINE
8
DEFAULT_255_1_388
10
24.060936
20
29.6390338
11
24.0302148
21
29.6390338
0
LINE
8
DEFAULT_255_1_388
10
23.4148874
20
28.9649747
11
23.4148874
21
29.0291278
0
LINE
8
DEFAULT_255_1_388
10
23.5829504
20
29.0074422
11
23.5829504
21
28.9459999
0
ARC
8
DEFAULT_255_1_388
10
24.0361039
20
29.0767826
40
0.562282
50
90.6001079
51
104.5146616
0
ARC
8
DEFAULT_255_1_388
10
23.9923999
20
29.23931
40
0.3939917
50
104.2855758
51
133.8630124
0
ARC
8
DEFAULT_255_1_388
10
24.0108252
20
29.2271243
40
0.4155734
50
134.5304124
51
161.6210222
0
ARC
8
DEFAULT_255_1_388
10
24.1968184
20
29.1615421
40
0.6127682
50
161.2850533
51
174.2074364
0
ARC
8
DEFAULT_255_1_388
10
24.3557751
20
29.1396437
40
0.7731446
50
173.7817938
51
174.9251711
0
ARC
8
DEFAULT_255_1_388
10
23.8431944
20
28.984127
40
0.3412588
50
95.8332067
51
138.995412
0
ARC
8
DEFAULT_255_1_388
10
23.8683225
20
28.8402695
40
0.4870358
50
89.8755506
51
97.0540979
0
ARC
8
DEFAULT_255_1_388
10
23.8736614
20
28.9342841
40
0.3930432
50
71.6407016
51
90.6240821
0
ARC
8
DEFAULT_255_1_388
10
23.8906007
20
28.9966433
40
0.3285421
50
39.6368051
51
71.0190743
0
ARC
8
DEFAULT_255_1_388
10
23.8189915
20
28.9347586
40
0.4231706
50
10.6588054
51
39.9044509
0
ARC
8
DEFAULT_255_1_388
10
23.644846
20
28.8969223
40
0.60133
50
359.6827842
51
11.1326896
0
ARC
8
DEFAULT_255_1_388
10
23.6403796
20
28.8889715
40
0.6058047
50
347.2485908
51
0.4371098
0
ARC
8
DEFAULT_255_1_388
10
23.8279582
20
28.8438379
40
0.4128987
50
318.1408565
51
347.6118497
0
ARC
8
DEFAULT_255_1_388
10
23.8645178
20
28.8137903
40
0.3656244
50
275.6342406
51
317.824739
0
ARC
8
DEFAULT_255_1_388
10
23.8396699
20
28.9599827
40
0.513655
50
269.8872513
51
276.7916069
0
ARC
8
DEFAULT_255_1_388
10
23.8334892
20
28.8446181
40
0.398323
50
246.9139443
51
270.7436787
0
ARC
8
DEFAULT_255_1_388
10
23.8342088
20
28.8286044
40
0.3839368
50
218.1665534
51
245.8780431
0
ARC
8
DEFAULT_255_1_388
10
23.933146
20
28.9113903
40
0.5128958
50
191.4115343
51
218.6077624
0
ARC
8
DEFAULT_255_1_388
10
24.1511776
20
28.9602777
40
0.7363054
50
179.6344971
51
191.7836758
0
ARC
8
DEFAULT_255_1_388
10
24.7791651
20
29.0366495
40
1.3642984
50
171.4523743
51
180.3158856
0
ARC
8
DEFAULT_255_1_388
10
24.2847378
20
29.1135895
40
0.8639311
50
157.9802296
51
171.6246761
0
ARC
8
DEFAULT_255_1_388
10
24.0356728
20
29.2129038
40
0.5958004
50
141.4299236
51
157.8541251
0
ARC
8
DEFAULT_255_1_388
10
23.9634812
20
29.2639746
40
0.5075416
50
102.871586
51
140.8564533
0
ARC
8
DEFAULT_255_1_388
10
24.0363364
20
28.9894943
40
0.7914163
50
90.377773
51
103.5868422
0
ARC
8
DEFAULT_255_1_388
10
23.8407885
20
28.9214543
40
0.2667015
50
89.8751238
51
126.2072139
0
ARC
8
DEFAULT_255_1_388
10
23.8459357
20
28.9040847
40
0.2838229
50
124.9742447
51
144.8960197
0
ARC
8
DEFAULT_255_1_388
10
23.8261602
20
28.9201981
40
0.2583845
50
145.2974778
51
160.2660922
0
ARC
8
DEFAULT_255_1_388
10
24.171809
20
28.9424151
40
0.5888695
50
179.6512124
51
190.285571
0
ARC
8
DEFAULT_255_1_388
10
23.9812569
20
28.9064968
40
0.3949683
50
190.0944895
51
207.5099647
0
ARC
8
DEFAULT_255_1_388
10
23.9176151
20
28.8762177
40
0.3245464
50
207.9585471
51
216.325377
0
ARC
8
DEFAULT_255_1_388
10
23.8793788
20
28.8447712
40
0.2751259
50
215.7661336
51
232.5457193
0
ARC
8
DEFAULT_255_1_388
10
23.8362904
20
28.7900273
40
0.2054668
50
232.8005815
51
270.6605497
0
ARC
8
DEFAULT_255_1_388
10
23.8414329
20
28.8309853
40
0.2464268
50
269.3550767
51
288.474612
0
ARC
8
DEFAULT_255_1_388
10
23.8518835
20
28.7916721
40
0.2058436
50
289.1831976
51
322.9685307
0
ARC
8
DEFAULT_255_1_388
10
23.7830937
20
28.8459279
40
0.2934408
50
322.6007085
51
346.5183319
0
ARC
8
DEFAULT_255_1_388
10
23.6528693
20
28.8791434
40
0.4278249
50
346.2584622
51
358.7739592
0
ARC
8
DEFAULT_255_1_388
10
23.5377269
20
28.8853829
40
0.5430876
50
358.3757628
51
0.0082477
0
ARC
8
DEFAULT_255_1_388
10
23.6234087
20
28.8884856
40
0.4574157
50
359.6211417
51
11.28403
0
ARC
8
DEFAULT_255_1_388
10
23.7670693
20
28.9184535
40
0.3106708
50
11.0483152
51
31.8145585
0
ARC
8
DEFAULT_255_1_388
10
23.8018398
20
28.9373045
40
0.2711963
50
32.3028554
51
38.0820598
0
ARC
8
DEFAULT_255_1_388
10
23.8491631
20
28.9801717
40
0.2075566
50
36.8249851
51
85.741667
0
ARC
8
DEFAULT_255_1_388
10
23.8416044
20
28.9238065
40
0.2643487
50
85.0150021
51
90.050843
0
LINE
8
DEFAULT_255_1_388
10
21.9911367
20
37.7174898
11
21.9911367
21
36.4019
0
LINE
8
DEFAULT_255_1_388
10
21.9911367
20
36.4019
11
21.8176523
21
36.4019
0
LINE
8
DEFAULT_255_1_388
10
21.8176523
20
36.4019
11
21.8176523
21
37.7174898
0
LINE
8
DEFAULT_255_1_388
10
21.8176523
20
37.7174898
11
21.9911367
21
37.7174898
0
LINE
8
DEFAULT_255_1_388
10
23.32028
20
37.1003553
11
23.32028
21
37.0172274
0
LINE
8
DEFAULT_255_1_388
10
22.262206
20
37.0054811
11
22.262206
21
37.1003553
0
LINE
8
DEFAULT_255_1_388
10
23.1476992
20
37.0045775
11
23.1476992
21
37.1021625
0
LINE
8
DEFAULT_255_1_388
10
22.4347868
20
37.1139088
11
22.4347868
21
37.0172274
0
ARC
8
DEFAULT_255_1_388
10
22.3480538
20
37.0127726
40
0.9722364
50
350.4878118
51
0.2625322
0
ARC
8
DEFAULT_255_1_388
10
22.6060498
20
36.9683994
40
0.7104556
50
336.0277991
51
350.5787241
0
ARC
8
DEFAULT_255_1_388
10
22.7573605
20
36.9000243
40
0.544417
50
319.887443
51
336.1331163
0
ARC
8
DEFAULT_255_1_388
10
22.8251417
20
36.8457733
40
0.4576311
50
302.4806296
51
319.6144102
0
ARC
8
DEFAULT_255_1_388
10
22.8122038
20
36.8707067
40
0.4856183
50
275.8196423
51
302.1885521
0
ARC
8
DEFAULT_255_1_388
10
22.79349
20
36.9992466
40
0.6154183
50
269.9169897
51
276.339506
0
ARC
8
DEFAULT_255_1_388
10
22.78845
20
36.922068
40
0.5382553
50
252.5221437
51
270.441579
0
ARC
8
DEFAULT_255_1_388
10
22.7722751
20
36.8614046
40
0.4755426
50
237.5349961
51
252.1858334
0
ARC
8
DEFAULT_255_1_388
10
22.7823127
20
36.874212
40
0.4917393
50
209.0632754
51
237.3492577
0
ARC
8
DEFAULT_255_1_388
10
22.8802453
20
36.9357104
40
0.6072464
50
205.118533
51
209.6465345
0
ARC
8
DEFAULT_255_1_388
10
22.9698455
20
36.9737174
40
0.7045164
50
188.7216633
51
204.8239753
0
ARC
8
DEFAULT_255_1_388
10
23.194523
20
37.0115387
40
0.9323368
50
180.3722704
51
188.9253909
0
ARC
8
DEFAULT_255_1_388
10
23.1914792
20
37.1048416
40
0.929284
50
169.5253055
51
180.2766048
0
ARC
8
DEFAULT_255_1_388
10
22.9774591
20
37.1442024
40
0.7116745
50
155.8314601
51
169.5088611
0
ARC
8
DEFAULT_255_1_388
10
22.8334054
20
37.2110312
40
0.5528904
50
139.6259579
51
156.0379072
0
ARC
8
DEFAULT_255_1_388
10
22.7670588
20
37.2644143
40
0.4677708
50
122.6414784
51
139.3431662
0
ARC
8
DEFAULT_255_1_388
10
22.7783842
20
37.2437787
40
0.4912586
50
93.0224537
51
122.4556091
0
ARC
8
DEFAULT_255_1_388
10
22.7905363
20
37.1351776
40
0.6003837
50
89.9756766
51
93.6340839
0
ARC
8
DEFAULT_255_1_388
10
22.7948961
20
37.1800879
40
0.5554884
50
73.7463329
51
90.4234008
0
ARC
8
DEFAULT_255_1_388
10
22.8146434
20
37.2565772
40
0.4765353
50
57.663051
51
73.4516911
0
ARC
8
DEFAULT_255_1_388
10
22.8137472
20
37.2590108
40
0.4749629
50
29.1441355
51
57.4146687
0
ARC
8
DEFAULT_255_1_388
10
22.7085283
20
37.1933046
40
0.5988917
50
24.0985653
51
29.732054
0
ARC
8
DEFAULT_255_1_388
10
22.5922915
20
37.1451154
40
0.7246823
50
8.6654943
51
23.8241215
0
ARC
8
DEFAULT_255_1_388
10
22.3409333
20
37.1041037
40
0.9793537
50
359.7807044
51
8.8218476
0
ARC
8
DEFAULT_255_1_388
10
22.2119038
20
37.1069731
40
0.9358078
50
359.7054632
51
8.0359751
0
ARC
8
DEFAULT_255_1_388
10
22.5494089
20
37.1561252
40
0.5947474
50
7.8926278
51
20.2962188
0
ARC
8
DEFAULT_255_1_388
10
22.7324939
20
37.2236367
40
0.3996117
50
20.3231056
51
36.4990255
0
ARC
8
DEFAULT_255_1_388
10
22.8096237
20
37.2830399
40
0.3022818
50
36.1436715
51
85.6627846
0
ARC
8
DEFAULT_255_1_388
10
22.7913492
20
37.1660881
40
0.4203853
50
84.3845912
51
90.076054
0
ARC
8
DEFAULT_255_1_388
10
22.7865847
20
37.2403416
40
0.346157
50
89.3037228
51
109.9046209
0
ARC
8
DEFAULT_255_1_388
10
22.776168
20
37.2833379
40
0.3022217
50
110.8229774
51
143.917961
0
ARC
8
DEFAULT_255_1_388
10
22.8812039
20
37.2031455
40
0.434348
50
143.5289166
51
163.2980252
0
ARC
8
DEFAULT_255_1_388
10
23.0958326
20
37.1356685
40
0.659321
50
163.0418884
51
174.3139873
0
ARC
8
DEFAULT_255_1_388
10
23.3663291
20
37.1044378
40
0.9315905
50
174.050934
51
179.4174954
0
ARC
8
DEFAULT_255_1_388
10
23.3095235
20
37.0125382
40
0.8747493
50
179.6928582
51
188.7908948
0
ARC
8
DEFAULT_255_1_388
10
23.0099035
20
36.9646086
40
0.5713262
50
188.6328449
51
202.5630732
0
ARC
8
DEFAULT_255_1_388
10
22.8687872
20
36.9079142
40
0.4192612
50
202.8078931
51
216.1195888
0
ARC
8
DEFAULT_255_1_388
10
22.7777389
20
36.8346479
40
0.3025752
50
215.0755613
51
264.6379773
0
ARC
8
DEFAULT_255_1_388
10
22.7920226
20
36.9281376
40
0.3970284
50
263.8464302
51
270.0830805
0
ARC
8
DEFAULT_255_1_388
10
22.7966771
20
36.8990808
40
0.3679937
50
269.3649295
51
287.5149684
0
ARC
8
DEFAULT_255_1_388
10
22.8167212
20
36.8262714
40
0.2925408
50
288.0629019
51
323.8115617
0
ARC
8
DEFAULT_255_1_388
10
22.7187188
20
36.8993754
40
0.4148018
50
323.6546541
51
342.6591359
0
ARC
8
DEFAULT_255_1_388
10
22.4901846
20
36.973728
40
0.6551163
50
342.4092446
51
353.6451501
0
ARC
8
DEFAULT_255_1_388
10
22.1716639
20
37.0133565
40
0.9760748
50
353.4027553
51
359.4846611
0
LINE
8
DEFAULT_255_1_388
10
23.747666
20
37.0271666
11
23.6139384
21
37.0615021
0
LINE
8
DEFAULT_255_1_388
10
23.6139384
20
37.0615021
11
23.6808022
21
37.7174898
0
LINE
8
DEFAULT_255_1_388
10
23.6808022
20
37.7174898
11
24.3548613
21
37.7174898
0
LINE
8
DEFAULT_255_1_388
10
24.3548613
20
37.7174898
11
24.3548613
21
37.5629803
0
LINE
8
DEFAULT_255_1_388
10
24.3548613
20
37.5629803
11
23.8226618
21
37.5629803
0
LINE
8
DEFAULT_255_1_388
10
23.8226618
20
37.5629803
11
23.782905
21
37.2042652
0
LINE
8
DEFAULT_255_1_388
10
23.5669531
20
36.7479652
11
23.7250769
21
36.7479652
0
LINE
8
DEFAULT_255_1_388
10
23.7919406
20
37.0633092
11
23.747666
21
37.0271666
0
ARC
8
DEFAULT_255_1_388
10
23.9915663
20
36.8465241
40
0.4141476
50
93.7181681
51
120.253934
0
ARC
8
DEFAULT_255_1_388
10
24.0021716
20
36.7556284
40
0.5055616
50
89.9660471
51
94.2495185
0
ARC
8
DEFAULT_255_1_388
10
24.0067537
20
36.8219154
40
0.4392953
50
73.8045384
51
90.5585736
0
ARC
8
DEFAULT_255_1_388
10
24.0331795
20
36.918452
40
0.3392225
50
41.3071072
51
73.543002
0
ARC
8
DEFAULT_255_1_388
10
23.9863615
20
36.8781461
40
0.4009977
50
13.5075837
51
41.2174839
0
ARC
8
DEFAULT_255_1_388
10
23.8016712
20
36.8297907
40
0.5918864
50
1.1330171
51
13.8830737
0
ARC
8
DEFAULT_255_1_388
10
23.6420358
20
36.8212522
40
0.7516787
50
359.9925091
51
1.5431298
0
ARC
8
DEFAULT_255_1_388
10
23.7864973
20
36.8166027
40
0.6072343
50
347.8572712
51
0.4294349
0
ARC
8
DEFAULT_255_1_388
10
23.9834108
20
36.7719898
40
0.4053482
50
323.6727442
51
348.1674594
0
ARC
8
DEFAULT_255_1_388
10
24.0165073
20
36.7518175
40
0.3667495
50
316.8171818
51
323.1486802
0
ARC
8
DEFAULT_255_1_388
10
24.0234196
20
36.7476612
40
0.358869
50
281.839603
51
316.5458142
0
ARC
8
DEFAULT_255_1_388
10
23.9811484
20
36.9226363
40
0.5388223
50
269.5770964
51
282.4214641
0
ARC
8
DEFAULT_255_1_388
10
23.9731405
20
36.898593
40
0.5147801
50
256.2425863
51
270.4486481
0
ARC
8
DEFAULT_255_1_388
10
23.9394932
20
36.7636124
40
0.3756708
50
228.9024379
51
256.33135
0
ARC
8
DEFAULT_255_1_388
10
23.9311912
20
36.7505054
40
0.360344
50
193.7536029
51
228.5272638
0
ARC
8
DEFAULT_255_1_388
10
24.0704477
20
36.7913463
40
0.5053599
50
184.9244437
51
194.4976052
0
ARC
8
DEFAULT_255_1_388
10
24.0921119
20
36.7953722
40
0.3700839
50
187.3596909
51
198.6733728
0
ARC
8
DEFAULT_255_1_388
10
23.9740362
20
36.7544373
40
0.2451195
50
198.4453795
51
217.7945479
0
ARC
8
DEFAULT_255_1_388
10
23.9407535
20
36.7308563
40
0.2043754
50
218.2887146
51
228.5613203
0
ARC
8
DEFAULT_255_1_388
10
23.9517542
20
36.7456902
40
0.2227819
50
228.9652423
51
258.1237049
0
ARC
8
DEFAULT_255_1_388
10
23.9748979
20
36.8447964
40
0.3245374
50
257.7260585
51
270.4013717
0
ARC
8
DEFAULT_255_1_388
10
23.9799477
20
36.7947255
40
0.2744726
50
269.4204315
51
286.420998
0
ARC
8
DEFAULT_255_1_388
10
23.9966533
20
36.7340705
40
0.2115721
50
286.7250065
51
320.6004665
0
ARC
8
DEFAULT_255_1_388
10
23.9535448
20
36.7690527
40
0.2670878
50
320.6712228
51
344.5440474
0
ARC
8
DEFAULT_255_1_388
10
23.8234162
20
36.8072394
40
0.4026927
50
344.241448
51
356.735803
0
ARC
8
DEFAULT_255_1_388
10
23.6830469
20
36.8188656
40
0.5435085
50
356.3547471
51
0.0507222
0
ARC
8
DEFAULT_255_1_388
10
23.8332734
20
36.8223812
40
0.3932934
50
359.5579289
51
12.9534322
0
ARC
8
DEFAULT_255_1_388
10
23.9519574
20
36.8511586
40
0.2711827
50
12.6489751
51
41.608121
0
ARC
8
DEFAULT_255_1_388
10
23.9778734
20
36.8731946
40
0.2371737
50
41.7851122
51
85.9892156
0
ARC
8
DEFAULT_255_1_388
10
23.9640044
20
36.7816738
40
0.3295244
50
84.6965848
51
90.0672125
0
ARC
8
DEFAULT_255_1_388
10
23.9613612
20
36.7065118
40
0.4046926
50
89.6804991
51
99.161352
0
ARC
8
DEFAULT_255_1_388
10
23.9382621
20
36.8445848
40
0.2647044
50
98.9836248
51
113.8905702
0
ARC
8
DEFAULT_255_1_388
10
23.9124296
20
36.9055118
40
0.1985386
50
114.195234
51
127.3641866
0
LINE
8
DEFAULT_255_1_388
10
21.0719448
20
45.6549898
11
21.4460205
21
44.5698089
0
LINE
8
DEFAULT_255_1_388
10
21.4460205
20
44.5698089
11
21.8219033
21
45.6549898
0
LINE
8
DEFAULT_255_1_388
10
21.8219033
20
45.6549898
11
22.0116518
21
45.6549898
0
LINE
8
DEFAULT_255_1_388
10
22.0116518
20
45.6549898
11
21.523727
21
44.3394
0
LINE
8
DEFAULT_255_1_388
10
21.523727
20
44.3394
11
21.370121
21
44.3394
0
LINE
8
DEFAULT_255_1_388
10
21.370121
20
44.3394
11
20.8830998
21
45.6549898
0
LINE
8
DEFAULT_255_1_388
10
20.8830998
20
45.6549898
11
21.0719448
21
45.6549898
0
LINE
8
DEFAULT_255_1_388
10
23.1880927
20
45.0378553
11
23.1880927
21
44.9547274
0
LINE
8
DEFAULT_255_1_388
10
22.1300187
20
44.9429811
11
22.1300187
21
45.0378553
0
LINE
8
DEFAULT_255_1_388
10
23.0155119
20
44.9420775
11
23.0155119
21
45.0396625
0
LINE
8
DEFAULT_255_1_388
10
22.3025996
20
45.0514088
11
22.3025996
21
44.9547274
0
ARC
8
DEFAULT_255_1_388
10
22.2158666
20
44.9502726
40
0.9722364
50
350.4878118
51
0.2625322
0
ARC
8
DEFAULT_255_1_388
10
22.4738626
20
44.9058994
40
0.7104556
50
336.0277991
51
350.5787241
0
ARC
8
DEFAULT_255_1_388
10
22.6251732
20
44.8375243
40
0.544417
50
319.887443
51
336.1331163
0
ARC
8
DEFAULT_255_1_388
10
22.6929545
20
44.7832733
40
0.4576311
50
302.4806296
51
319.6144102
0
ARC
8
DEFAULT_255_1_388
10
22.6800166
20
44.8082067
40
0.4856183
50
275.8196423
51
302.1885521
0
ARC
8
DEFAULT_255_1_388
10
22.6613027
20
44.9367466
40
0.6154183
50
269.9169897
51
276.339506
0
ARC
8
DEFAULT_255_1_388
10
22.6562628
20
44.859568
40
0.5382553
50
252.5221437
51
270.441579
0
ARC
8
DEFAULT_255_1_388
10
22.6400878
20
44.7989046
40
0.4755426
50
237.5349961
51
252.1858334
0
ARC
8
DEFAULT_255_1_388
10
22.6501254
20
44.811712
40
0.4917393
50
209.0632754
51
237.3492577
0
ARC
8
DEFAULT_255_1_388
10
22.748058
20
44.8732104
40
0.6072464
50
205.118533
51
209.6465345
0
ARC
8
DEFAULT_255_1_388
10
22.8376582
20
44.9112174
40
0.7045164
50
188.7216633
51
204.8239753
0
ARC
8
DEFAULT_255_1_388
10
23.0623358
20
44.9490387
40
0.9323368
50
180.3722704
51
188.9253909
0
ARC
8
DEFAULT_255_1_388
10
23.0592919
20
45.0423416
40
0.929284
50
169.5253055
51
180.2766048
0
ARC
8
DEFAULT_255_1_388
10
22.8452718
20
45.0817024
40
0.7116745
50
155.8314601
51
169.5088611
0
ARC
8
DEFAULT_255_1_388
10
22.7012181
20
45.1485312
40
0.5528904
50
139.6259579
51
156.0379072
0
ARC
8
DEFAULT_255_1_388
10
22.6348715
20
45.2019143
40
0.4677708
50
122.6414784
51
139.3431662
0
ARC
8
DEFAULT_255_1_388
10
22.646197
20
45.1812787
40
0.4912586
50
93.0224537
51
122.4556091
0
ARC
8
DEFAULT_255_1_388
10
22.6583491
20
45.0726776
40
0.6003837
50
89.9756766
51
93.6340839
0
ARC
8
DEFAULT_255_1_388
10
22.6627088
20
45.1175879
40
0.5554884
50
73.7463329
51
90.4234008
0
ARC
8
DEFAULT_255_1_388
10
22.6824562
20
45.1940772
40
0.4765353
50
57.663051
51
73.4516911
0
ARC
8
DEFAULT_255_1_388
10
22.6815599
20
45.1965108
40
0.4749629
50
29.1441355
51
57.4146687
0
ARC
8
DEFAULT_255_1_388
10
22.5763411
20
45.1308046
40
0.5988917
50
24.0985653
51
29.732054
0
ARC
8
DEFAULT_255_1_388
10
22.4601042
20
45.0826154
40
0.7246823
50
8.6654943
51
23.8241215
0
ARC
8
DEFAULT_255_1_388
10
22.2087461
20
45.0416037
40
0.9793537
50
359.7807044
51
8.8218476
0
ARC
8
DEFAULT_255_1_388
10
22.0797165
20
45.0444731
40
0.9358078
50
359.7054632
51
8.0359751
0
ARC
8
DEFAULT_255_1_388
10
22.4172217
20
45.0936252
40
0.5947474
50
7.8926278
51
20.2962188
0
ARC
8
DEFAULT_255_1_388
10
22.6003067
20
45.1611367
40
0.3996117
50
20.3231056
51
36.4990255
0
ARC
8
DEFAULT_255_1_388
10
22.6774364
20
45.2205399
40
0.3022818
50
36.1436715
51
85.6627846
0
ARC
8
DEFAULT_255_1_388
10
22.659162
20
45.1035881
40
0.4203853
50
84.3845912
51
90.076054
0
ARC
8
DEFAULT_255_1_388
10
22.6543974
20
45.1778416
40
0.346157
50
89.3037228
51
109.9046209
0
ARC
8
DEFAULT_255_1_388
10
22.6439807
20
45.2208379
40
0.3022217
50
110.8229774
51
143.917961
0
ARC
8
DEFAULT_255_1_388
10
22.7490167
20
45.1406455
40
0.434348
50
143.5289166
51
163.2980252
0
ARC
8
DEFAULT_255_1_388
10
22.9636454
20
45.0731685
40
0.659321
50
163.0418884
51
174.3139873
0
ARC
8
DEFAULT_255_1_388
10
23.2341419
20
45.0419378
40
0.9315905
50
174.050934
51
179.4174954
0
ARC
8
DEFAULT_255_1_388
10
23.1773363
20
44.9500382
40
0.8747493
50
179.6928582
51
188.7908948
0
ARC
8
DEFAULT_255_1_388
10
22.8777163
20
44.9021086
40
0.5713262
50
188.6328449
51
202.5630732
0
ARC
8
DEFAULT_255_1_388
10
22.7365999
20
44.8454142
40
0.4192612
50
202.8078931
51
216.1195888
0
ARC
8
DEFAULT_255_1_388
10
22.6455516
20
44.7721479
40
0.3025752
50
215.0755613
51
264.6379773
0
ARC
8
DEFAULT_255_1_388
10
22.6598354
20
44.8656376
40
0.3970284
50
263.8464302
51
270.0830805
0
ARC
8
DEFAULT_255_1_388
10
22.6644899
20
44.8365808
40
0.3679937
50
269.3649295
51
287.5149684
0
ARC
8
DEFAULT_255_1_388
10
22.6845339
20
44.7637714
40
0.2925408
50
288.0629019
51
323.8115617
0
ARC
8
DEFAULT_255_1_388
10
22.5865316
20
44.8368754
40
0.4148018
50
323.6546541
51
342.6591359
0
ARC
8
DEFAULT_255_1_388
10
22.3579973
20
44.911228
40
0.6551163
50
342.4092446
51
353.6451501
0
ARC
8
DEFAULT_255_1_388
10
22.0394767
20
44.9508565
40
0.9760748
50
353.4027553
51
359.4846611
0
LINE
8
DEFAULT_255_1_388
10
23.6154787
20
44.9646666
11
23.4817512
21
44.9990021
0
LINE
8
DEFAULT_255_1_388
10
23.4817512
20
44.9990021
11
23.5486149
21
45.6549898
0
LINE
8
DEFAULT_255_1_388
10
23.5486149
20
45.6549898
11
24.222674
21
45.6549898
0
LINE
8
DEFAULT_255_1_388
10
24.222674
20
45.6549898
11
24.222674
21
45.5004803
0
LINE
8
DEFAULT_255_1_388
10
24.222674
20
45.5004803
11
23.6904746
21
45.5004803
0
LINE
8
DEFAULT_255_1_388
10
23.6904746
20
45.5004803
11
23.6507177
21
45.1417652
0
LINE
8
DEFAULT_255_1_388
10
23.4347658
20
44.6854652
11
23.5928896
21
44.6854652
0
LINE
8
DEFAULT_255_1_388
10
23.6597534
20
45.0008092
11
23.6154787
21
44.9646666
0
ARC
8
DEFAULT_255_1_388
10
23.8593791
20
44.7840241
40
0.4141476
50
93.7181681
51
120.253934
0
ARC
8
DEFAULT_255_1_388
10
23.8699843
20
44.6931284
40
0.5055616
50
89.9660471
51
94.2495185
0
ARC
8
DEFAULT_255_1_388
10
23.8745665
20
44.7594154
40
0.4392953
50
73.8045384
51
90.5585736
0
ARC
8
DEFAULT_255_1_388
10
23.9009922
20
44.855952
40
0.3392225
50
41.3071072
51
73.543002
0
ARC
8
DEFAULT_255_1_388
10
23.8541743
20
44.8156461
40
0.4009977
50
13.5075837
51
41.2174839
0
ARC
8
DEFAULT_255_1_388
10
23.669484
20
44.7672907
40
0.5918864
50
1.1330171
51
13.8830737
0
ARC
8
DEFAULT_255_1_388
10
23.5098486
20
44.7587522
40
0.7516787
50
359.9925091
51
1.5431298
0
ARC
8
DEFAULT_255_1_388
10
23.6543101
20
44.7541027
40
0.6072343
50
347.8572712
51
0.4294349
0
ARC
8
DEFAULT_255_1_388
10
23.8512235
20
44.7094898
40
0.4053482
50
323.6727442
51
348.1674594
0
ARC
8
DEFAULT_255_1_388
10
23.88432
20
44.6893175
40
0.3667495
50
316.8171818
51
323.1486802
0
ARC
8
DEFAULT_255_1_388
10
23.8912324
20
44.6851612
40
0.358869
50
281.839603
51
316.5458142
0
ARC
8
DEFAULT_255_1_388
10
23.8489611
20
44.8601363
40
0.5388223
50
269.5770964
51
282.4214641
0
ARC
8
DEFAULT_255_1_388
10
23.8409532
20
44.836093
40
0.5147801
50
256.2425863
51
270.4486481
0
ARC
8
DEFAULT_255_1_388
10
23.807306
20
44.7011124
40
0.3756708
50
228.9024379
51
256.33135
0
ARC
8
DEFAULT_255_1_388
10
23.799004
20
44.6880054
40
0.360344
50
193.7536029
51
228.5272638
0
ARC
8
DEFAULT_255_1_388
10
23.9382605
20
44.7288463
40
0.5053599
50
184.9244437
51
194.4976052
0
ARC
8
DEFAULT_255_1_388
10
23.9599246
20
44.7328722
40
0.3700839
50
187.3596909
51
198.6733728
0
ARC
8
DEFAULT_255_1_388
10
23.8418489
20
44.6919373
40
0.2451195
50
198.4453795
51
217.7945479
0
ARC
8
DEFAULT_255_1_388
10
23.8085662
20
44.6683563
40
0.2043754
50
218.2887146
51
228.5613203
0
ARC
8
DEFAULT_255_1_388
10
23.8195669
20
44.6831902
40
0.2227819
50
228.9652423
51
258.1237049
0
ARC
8
DEFAULT_255_1_388
10
23.8427106
20
44.7822964
40
0.3245374
50
257.7260585
51
270.4013717
0
ARC
8
DEFAULT_255_1_388
10
23.8477604
20
44.7322255
40
0.2744726
50
269.4204315
51
286.420998
0
ARC
8
DEFAULT_255_1_388
10
23.864466
20
44.6715705
40
0.2115721
50
286.7250065
51
320.6004665
0
ARC
8
DEFAULT_255_1_388
10
23.8213576
20
44.7065527
40
0.2670878
50
320.6712228
51
344.5440474
0
ARC
8
DEFAULT_255_1_388
10
23.6912289
20
44.7447394
40
0.4026927
50
344.241448
51
356.735803
0
ARC
8
DEFAULT_255_1_388
10
23.5508597
20
44.7563656
40
0.5435085
50
356.3547471
51
0.0507222
0
ARC
8
DEFAULT_255_1_388
10
23.7010862
20
44.7598812
40
0.3932934
50
359.5579289
51
12.9534322
0
ARC
8
DEFAULT_255_1_388
10
23.8197702
20
44.7886586
40
0.2711827
50
12.6489751
51
41.608121
0
ARC
8
DEFAULT_255_1_388
10
23.8456862
20
44.8106946
40
0.2371737
50
41.7851122
51
85.9892156
0
ARC
8
DEFAULT_255_1_388
10
23.8318172
20
44.7191738
40
0.3295244
50
84.6965848
51
90.0672125
0
ARC
8
DEFAULT_255_1_388
10
23.8291739
20
44.6440118
40
0.4046926
50
89.6804991
51
99.161352
0
ARC
8
DEFAULT_255_1_388
10
23.8060748
20
44.7820848
40
0.2647044
50
98.9836248
51
113.8905702
0
ARC
8
DEFAULT_255_1_388
10
23.7802423
20
44.8430118
40
0.1985386
50
114.195234
51
127.3641866
0
LINE
8
DEFAULT_255_1_388
10
21.8588367
20
53.5924898
11
21.8588367
21
52.2769
0
LINE
8
DEFAULT_255_1_388
10
21.8588367
20
52.2769
11
21.6853523
21
52.2769
0
LINE
8
DEFAULT_255_1_388
10
21.6853523
20
52.2769
11
21.6853523
21
53.5924898
0
LINE
8
DEFAULT_255_1_388
10
21.6853523
20
53.5924898
11
21.8588367
21
53.5924898
0
LINE
8
DEFAULT_255_1_388
10
23.18798
20
52.9753553
11
23.18798
21
52.8922274
0
LINE
8
DEFAULT_255_1_388
10
22.129906
20
52.8804811
11
22.129906
21
52.9753553
0
LINE
8
DEFAULT_255_1_388
10
23.0153992
20
52.8795775
11
23.0153992
21
52.9771625
0
LINE
8
DEFAULT_255_1_388
10
22.3024868
20
52.9889088
11
22.3024868
21
52.8922274
0
ARC
8
DEFAULT_255_1_388
10
22.2157538
20
52.8877726
40
0.9722364
50
350.4878118
51
0.2625322
0
ARC
8
DEFAULT_255_1_388
10
22.4737498
20
52.8433994
40
0.7104556
50
336.0277991
51
350.5787241
0
ARC
8
DEFAULT_255_1_388
10
22.6250605
20
52.7750243
40
0.544417
50
319.887443
51
336.1331163
0
ARC
8
DEFAULT_255_1_388
10
22.6928417
20
52.7207733
40
0.4576311
50
302.4806296
51
319.6144102
0
ARC
8
DEFAULT_255_1_388
10
22.6799038
20
52.7457067
40
0.4856183
50
275.8196423
51
302.1885521
0
ARC
8
DEFAULT_255_1_388
10
22.66119
20
52.8742466
40
0.6154183
50
269.9169897
51
276.339506
0
ARC
8
DEFAULT_255_1_388
10
22.65615
20
52.797068
40
0.5382553
50
252.5221437
51
270.441579
0
ARC
8
DEFAULT_255_1_388
10
22.6399751
20
52.7364046
40
0.4755426
50
237.5349961
51
252.1858334
0
ARC
8
DEFAULT_255_1_388
10
22.6500127
20
52.749212
40
0.4917393
50
209.0632754
51
237.3492577
0
ARC
8
DEFAULT_255_1_388
10
22.7479453
20
52.8107104
40
0.6072464
50
205.118533
51
209.6465345
0
ARC
8
DEFAULT_255_1_388
10
22.8375455
20
52.8487174
40
0.7045164
50
188.7216633
51
204.8239753
0
ARC
8
DEFAULT_255_1_388
10
23.062223
20
52.8865387
40
0.9323368
50
180.3722704
51
188.9253909
0
ARC
8
DEFAULT_255_1_388
10
23.0591792
20
52.9798416
40
0.929284
50
169.5253055
51
180.2766048
0
ARC
8
DEFAULT_255_1_388
10
22.8451591
20
53.0192024
40
0.7116745
50
155.8314601
51
169.5088611
0
ARC
8
DEFAULT_255_1_388
10
22.7011054
20
53.0860312
40
0.5528904
50
139.6259579
51
156.0379072
0
ARC
8
DEFAULT_255_1_388
10
22.6347588
20
53.1394143
40
0.4677708
50
122.6414784
51
139.3431662
0
ARC
8
DEFAULT_255_1_388
10
22.6460842
20
53.1187787
40
0.4912586
50
93.0224537
51
122.4556091
0
ARC
8
DEFAULT_255_1_388
10
22.6582363
20
53.0101776
40
0.6003837
50
89.9756766
51
93.6340839
0
ARC
8
DEFAULT_255_1_388
10
22.6625961
20
53.0550879
40
0.5554884
50
73.7463329
51
90.4234008
0
ARC
8
DEFAULT_255_1_388
10
22.6823434
20
53.1315772
40
0.4765353
50
57.663051
51
73.4516911
0
ARC
8
DEFAULT_255_1_388
10
22.6814472
20
53.1340108
40
0.4749629
50
29.1441355
51
57.4146687
0
ARC
8
DEFAULT_255_1_388
10
22.5762283
20
53.0683046
40
0.5988917
50
24.0985653
51
29.732054
0
ARC
8
DEFAULT_255_1_388
10
22.4599915
20
53.0201154
40
0.7246823
50
8.6654943
51
23.8241215
0
ARC
8
DEFAULT_255_1_388
10
22.2086333
20
52.9791037
40
0.9793537
50
359.7807044
51
8.8218476
0
ARC
8
DEFAULT_255_1_388
10
22.0796038
20
52.9819731
40
0.9358078
50
359.7054632
51
8.0359751
0
ARC
8
DEFAULT_255_1_388
10
22.4171089
20
53.0311252
40
0.5947474
50
7.8926278
51
20.2962188
0
ARC
8
DEFAULT_255_1_388
10
22.6001939
20
53.0986367
40
0.3996117
50
20.3231056
51
36.4990255
0
ARC
8
DEFAULT_255_1_388
10
22.6773237
20
53.1580399
40
0.3022818
50
36.1436715
51
85.6627846
0
ARC
8
DEFAULT_255_1_388
10
22.6590492
20
53.0410881
40
0.4203853
50
84.3845912
51
90.076054
0
ARC
8
DEFAULT_255_1_388
10
22.6542847
20
53.1153416
40
0.346157
50
89.3037228
51
109.9046209
0
ARC
8
DEFAULT_255_1_388
10
22.643868
20
53.1583379
40
0.3022217
50
110.8229774
51
143.917961
0
ARC
8
DEFAULT_255_1_388
10
22.7489039
20
53.0781455
40
0.434348
50
143.5289166
51
163.2980252
0
ARC
8
DEFAULT_255_1_388
10
22.9635326
20
53.0106685
40
0.659321
50
163.0418884
51
174.3139873
0
ARC
8
DEFAULT_255_1_388
10
23.2340291
20
52.9794378
40
0.9315905
50
174.050934
51
179.4174954
0
ARC
8
DEFAULT_255_1_388
10
23.1772235
20
52.8875382
40
0.8747493
50
179.6928582
51
188.7908948
0
ARC
8
DEFAULT_255_1_388
10
22.8776035
20
52.8396086
40
0.5713262
50
188.6328449
51
202.5630732
0
ARC
8
DEFAULT_255_1_388
10
22.7364872
20
52.7829142
40
0.4192612
50
202.8078931
51
216.1195888
0
ARC
8
DEFAULT_255_1_388
10
22.6454389
20
52.7096479
40
0.3025752
50
215.0755613
51
264.6379773
0
ARC
8
DEFAULT_255_1_388
10
22.6597226
20
52.8031376
40
0.3970284
50
263.8464302
51
270.0830805
0
ARC
8
DEFAULT_255_1_388
10
22.6643771
20
52.7740808
40
0.3679937
50
269.3649295
51
287.5149684
0
ARC
8
DEFAULT_255_1_388
10
22.6844212
20
52.7012714
40
0.2925408
50
288.0629019
51
323.8115617
0
ARC
8
DEFAULT_255_1_388
10
22.5864188
20
52.7743754
40
0.4148018
50
323.6546541
51
342.6591359
0
ARC
8
DEFAULT_255_1_388
10
22.3578846
20
52.848728
40
0.6551163
50
342.4092446
51
353.6451501
0
ARC
8
DEFAULT_255_1_388
10
22.0393639
20
52.8883565
40
0.9760748
50
353.4027553
51
359.4846611
0
LINE
8
DEFAULT_255_1_388
10
24.1105193
20
53.5924898
11
24.1105193
21
52.718743
0
LINE
8
DEFAULT_255_1_388
10
24.1105193
20
52.718743
11
24.2930393
21
52.718743
0
LINE
8
DEFAULT_255_1_388
10
24.2930393
20
52.718743
11
24.2930393
21
52.5823048
0
LINE
8
DEFAULT_255_1_388
10
24.2930393
20
52.5823048
11
24.1105193
21
52.5823048
0
LINE
8
DEFAULT_255_1_388
10
24.1105193
20
52.5823048
11
24.1105193
21
52.2769
0
LINE
8
DEFAULT_255_1_388
10
24.1105193
20
52.2769
11
23.9424563
21
52.2769
0
LINE
8
DEFAULT_255_1_388
10
23.9424563
20
52.2769
11
23.9424563
21
52.5823048
0
LINE
8
DEFAULT_255_1_388
10
23.9424563
20
52.5823048
11
23.3433931
21
52.5823048
0
LINE
8
DEFAULT_255_1_388
10
23.3433931
20
52.5823048
11
23.3433931
21
52.6807933
0
LINE
8
DEFAULT_255_1_388
10
23.3433931
20
52.6807933
11
23.9325171
21
53.5924898
0
LINE
8
DEFAULT_255_1_388
10
23.9325171
20
53.5924898
11
24.1105193
21
53.5924898
0
LINE
8
DEFAULT_255_1_388
10
23.9225779
20
53.3277455
11
23.5331416
21
52.718743
0
LINE
8
DEFAULT_255_1_388
10
23.5331416
20
52.718743
11
23.9424563
21
52.718743
0
LINE
8
DEFAULT_255_1_388
10
23.9424563
20
52.718743
11
23.9424563
21
53.363888
0
LINE
8
DEFAULT_255_1_388
10
23.9424563
20
53.363888
11
23.9225779
21
53.3277455
0
LINE
8
DEFAULT_255_1_388
10
20.9396448
20
61.5299898
11
21.3137205
21
60.4448089
0
LINE
8
DEFAULT_255_1_388
10
21.3137205
20
60.4448089
11
21.6896033
21
61.5299898
0
LINE
8
DEFAULT_255_1_388
10
21.6896033
20
61.5299898
11
21.8793518
21
61.5299898
0
LINE
8
DEFAULT_255_1_388
10
21.8793518
20
61.5299898
11
21.391427
21
60.2144
0
LINE
8
DEFAULT_255_1_388
10
21.391427
20
60.2144
11
21.237821
21
60.2144
0
LINE
8
DEFAULT_255_1_388
10
21.237821
20
60.2144
11
20.7507998
21
61.5299898
0
LINE
8
DEFAULT_255_1_388
10
20.7507998
20
61.5299898
11
20.9396448
21
61.5299898
0
LINE
8
DEFAULT_255_1_388
10
23.0557927
20
60.9128553
11
23.0557927
21
60.8297274
0
LINE
8
DEFAULT_255_1_388
10
21.9977187
20
60.8179811
11
21.9977187
21
60.9128553
0
LINE
8
DEFAULT_255_1_388
10
22.8832119
20
60.8170775
11
22.8832119
21
60.9146625
0
LINE
8
DEFAULT_255_1_388
10
22.1702996
20
60.9264088
11
22.1702996
21
60.8297274
0
ARC
8
DEFAULT_255_1_388
10
22.0835666
20
60.8252726
40
0.9722364
50
350.4878118
51
0.2625322
0
ARC
8
DEFAULT_255_1_388
10
22.3415626
20
60.7808994
40
0.7104556
50
336.0277991
51
350.5787241
0
ARC
8
DEFAULT_255_1_388
10
22.4928732
20
60.7125243
40
0.544417
50
319.887443
51
336.1331163
0
ARC
8
DEFAULT_255_1_388
10
22.5606545
20
60.6582733
40
0.4576311
50
302.4806296
51
319.6144102
0
ARC
8
DEFAULT_255_1_388
10
22.5477166
20
60.6832067
40
0.4856183
50
275.8196423
51
302.1885521
0
ARC
8
DEFAULT_255_1_388
10
22.5290027
20
60.8117466
40
0.6154183
50
269.9169897
51
276.339506
0
ARC
8
DEFAULT_255_1_388
10
22.5239628
20
60.734568
40
0.5382553
50
252.5221437
51
270.441579
0
ARC
8
DEFAULT_255_1_388
10
22.5077878
20
60.6739046
40
0.4755426
50
237.5349961
51
252.1858334
0
ARC
8
DEFAULT_255_1_388
10
22.5178254
20
60.686712
40
0.4917393
50
209.0632754
51
237.3492577
0
ARC
8
DEFAULT_255_1_388
10
22.615758
20
60.7482104
40
0.6072464
50
205.118533
51
209.6465345
0
ARC
8
DEFAULT_255_1_388
10
22.7053582
20
60.7862174
40
0.7045164
50
188.7216633
51
204.8239753
0
ARC
8
DEFAULT_255_1_388
10
22.9300358
20
60.8240387
40
0.9323368
50
180.3722704
51
188.9253909
0
ARC
8
DEFAULT_255_1_388
10
22.9269919
20
60.9173416
40
0.929284
50
169.5253055
51
180.2766048
0
ARC
8
DEFAULT_255_1_388
10
22.7129718
20
60.9567024
40
0.7116745
50
155.8314601
51
169.5088611
0
ARC
8
DEFAULT_255_1_388
10
22.5689181
20
61.0235312
40
0.5528904
50
139.6259579
51
156.0379072
0
ARC
8
DEFAULT_255_1_388
10
22.5025715
20
61.0769143
40
0.4677708
50
122.6414784
51
139.3431662
0
ARC
8
DEFAULT_255_1_388
10
22.513897
20
61.0562787
40
0.4912586
50
93.0224537
51
122.4556091
0
ARC
8
DEFAULT_255_1_388
10
22.5260491
20
60.9476776
40
0.6003837
50
89.9756766
51
93.6340839
0
ARC
8
DEFAULT_255_1_388
10
22.5304088
20
60.9925879
40
0.5554884
50
73.7463329
51
90.4234008
0
ARC
8
DEFAULT_255_1_388
10
22.5501562
20
61.0690772
40
0.4765353
50
57.663051
51
73.4516911
0
ARC
8
DEFAULT_255_1_388
10
22.5492599
20
61.0715108
40
0.4749629
50
29.1441355
51
57.4146687
0
ARC
8
DEFAULT_255_1_388
10
22.4440411
20
61.0058046
40
0.5988917
50
24.0985653
51
29.732054
0
ARC
8
DEFAULT_255_1_388
10
22.3278042
20
60.9576154
40
0.7246823
50
8.6654943
51
23.8241215
0
ARC
8
DEFAULT_255_1_388
10
22.0764461
20
60.9166037
40
0.9793537
50
359.7807044
51
8.8218476
0
ARC
8
DEFAULT_255_1_388
10
21.9474165
20
60.9194731
40
0.9358078
50
359.7054632
51
8.0359751
0
ARC
8
DEFAULT_255_1_388
10
22.2849217
20
60.9686252
40
0.5947474
50
7.8926278
51
20.2962188
0
ARC
8
DEFAULT_255_1_388
10
22.4680067
20
61.0361367
40
0.3996117
50
20.3231056
51
36.4990255
0
ARC
8
DEFAULT_255_1_388
10
22.5451364
20
61.0955399
40
0.3022818
50
36.1436715
51
85.6627846
0
ARC
8
DEFAULT_255_1_388
10
22.526862
20
60.9785881
40
0.4203853
50
84.3845912
51
90.076054
0
ARC
8
DEFAULT_255_1_388
10
22.5220974
20
61.0528416
40
0.346157
50
89.3037228
51
109.9046209
0
ARC
8
DEFAULT_255_1_388
10
22.5116807
20
61.0958379
40
0.3022217
50
110.8229774
51
143.917961
0
ARC
8
DEFAULT_255_1_388
10
22.6167167
20
61.0156455
40
0.434348
50
143.5289166
51
163.2980252
0
ARC
8
DEFAULT_255_1_388
10
22.8313454
20
60.9481685
40
0.659321
50
163.0418884
51
174.3139873
0
ARC
8
DEFAULT_255_1_388
10
23.1018419
20
60.9169378
40
0.9315905
50
174.050934
51
179.4174954
0
ARC
8
DEFAULT_255_1_388
10
23.0450363
20
60.8250382
40
0.8747493
50
179.6928582
51
188.7908948
0
ARC
8
DEFAULT_255_1_388
10
22.7454163
20
60.7771086
40
0.5713262
50
188.6328449
51
202.5630732
0
ARC
8
DEFAULT_255_1_388
10
22.6042999
20
60.7204142
40
0.4192612
50
202.8078931
51
216.1195888
0
ARC
8
DEFAULT_255_1_388
10
22.5132516
20
60.6471479
40
0.3025752
50
215.0755613
51
264.6379773
0
ARC
8
DEFAULT_255_1_388
10
22.5275354
20
60.7406376
40
0.3970284
50
263.8464302
51
270.0830805
0
ARC
8
DEFAULT_255_1_388
10
22.5321899
20
60.7115808
40
0.3679937
50
269.3649295
51
287.5149684
0
ARC
8
DEFAULT_255_1_388
10
22.5522339
20
60.6387714
40
0.2925408
50
288.0629019
51
323.8115617
0
ARC
8
DEFAULT_255_1_388
10
22.4542316
20
60.7118754
40
0.4148018
50
323.6546541
51
342.6591359
0
ARC
8
DEFAULT_255_1_388
10
22.2256973
20
60.786228
40
0.6551163
50
342.4092446
51
353.6451501
0
ARC
8
DEFAULT_255_1_388
10
21.9071767
20
60.8258565
40
0.9760748
50
353.4027553
51
359.4846611
0
LINE
8
DEFAULT_255_1_388
10
23.978332
20
61.5299898
11
23.978332
21
60.656243
0
LINE
8
DEFAULT_255_1_388
10
23.978332
20
60.656243
11
24.1608521
21
60.656243
0
LINE
8
DEFAULT_255_1_388
10
24.1608521
20
60.656243
11
24.1608521
21
60.5198048
0
LINE
8
DEFAULT_255_1_388
10
24.1608521
20
60.5198048
11
23.978332
21
60.5198048
0
LINE
8
DEFAULT_255_1_388
10
23.978332
20
60.5198048
11
23.978332
21
60.2144
0
LINE
8
DEFAULT_255_1_388
10
23.978332
20
60.2144
11
23.810269
21
60.2144
0
LINE
8
DEFAULT_255_1_388
10
23.810269
20
60.2144
11
23.810269
21
60.5198048
0
LINE
8
DEFAULT_255_1_388
10
23.810269
20
60.5198048
11
23.2112058
21
60.5198048
0
LINE
8
DEFAULT_255_1_388
10
23.2112058
20
60.5198048
11
23.2112058
21
60.6182933
0
LINE
8
DEFAULT_255_1_388
10
23.2112058
20
60.6182933
11
23.8003298
21
61.5299898
0
LINE
8
DEFAULT_255_1_388
10
23.8003298
20
61.5299898
11
23.978332
21
61.5299898
0
LINE
8
DEFAULT_255_1_388
10
23.7903906
20
61.2652455
11
23.4009543
21
60.656243
0
LINE
8
DEFAULT_255_1_388
10
23.4009543
20
60.656243
11
23.810269
21
60.656243
0
LINE
8
DEFAULT_255_1_388
10
23.810269
20
60.656243
11
23.810269
21
61.301388
0
LINE
8
DEFAULT_255_1_388
10
23.810269
20
61.301388
11
23.7903906
21
61.2652455
0
LINE
8
DEFAULT_255_1_388
10
21.9911367
20
69.4674898
11
21.9911367
21
68.1519
0
LINE
8
DEFAULT_255_1_388
10
21.9911367
20
68.1519
11
21.8176523
21
68.1519
0
LINE
8
DEFAULT_255_1_388
10
21.8176523
20
68.1519
11
21.8176523
21
69.4674898
0
LINE
8
DEFAULT_255_1_388
10
21.8176523
20
69.4674898
11
21.9911367
21
69.4674898
0
LINE
8
DEFAULT_255_1_388
10
23.32028
20
68.8503553
11
23.32028
21
68.7672274
0
LINE
8
DEFAULT_255_1_388
10
22.262206
20
68.7554811
11
22.262206
21
68.8503553
0
LINE
8
DEFAULT_255_1_388
10
23.1476992
20
68.7545775
11
23.1476992
21
68.8521625
0
LINE
8
DEFAULT_255_1_388
10
22.4347868
20
68.8639088
11
22.4347868
21
68.7672274
0
ARC
8
DEFAULT_255_1_388
10
22.3480538
20
68.7627726
40
0.9722364
50
350.4878118
51
0.2625322
0
ARC
8
DEFAULT_255_1_388
10
22.6060498
20
68.7183994
40
0.7104556
50
336.0277991
51
350.5787241
0
ARC
8
DEFAULT_255_1_388
10
22.7573605
20
68.6500243
40
0.544417
50
319.887443
51
336.1331163
0
ARC
8
DEFAULT_255_1_388
10
22.8251417
20
68.5957733
40
0.4576311
50
302.4806296
51
319.6144102
0
ARC
8
DEFAULT_255_1_388
10
22.8122038
20
68.6207067
40
0.4856183
50
275.8196423
51
302.1885521
0
ARC
8
DEFAULT_255_1_388
10
22.79349
20
68.7492466
40
0.6154183
50
269.9169897
51
276.339506
0
ARC
8
DEFAULT_255_1_388
10
22.78845
20
68.672068
40
0.5382553
50
252.5221437
51
270.441579
0
ARC
8
DEFAULT_255_1_388
10
22.7722751
20
68.6114046
40
0.4755426
50
237.5349961
51
252.1858334
0
ARC
8
DEFAULT_255_1_388
10
22.7823127
20
68.624212
40
0.4917393
50
209.0632754
51
237.3492577
0
ARC
8
DEFAULT_255_1_388
10
22.8802453
20
68.6857104
40
0.6072464
50
205.118533
51
209.6465345
0
ARC
8
DEFAULT_255_1_388
10
22.9698455
20
68.7237174
40
0.7045164
50
188.7216633
51
204.8239753
0
ARC
8
DEFAULT_255_1_388
10
23.194523
20
68.7615387
40
0.9323368
50
180.3722704
51
188.9253909
0
ARC
8
DEFAULT_255_1_388
10
23.1914792
20
68.8548416
40
0.929284
50
169.5253055
51
180.2766048
0
ARC
8
DEFAULT_255_1_388
10
22.9774591
20
68.8942024
40
0.7116745
50
155.8314601
51
169.5088611
0
ARC
8
DEFAULT_255_1_388
10
22.8334054
20
68.9610312
40
0.5528904
50
139.6259579
51
156.0379072
0
ARC
8
DEFAULT_255_1_388
10
22.7670588
20
69.0144143
40
0.4677708
50
122.6414784
51
139.3431662
0
ARC
8
DEFAULT_255_1_388
10
22.7783842
20
68.9937787
40
0.4912586
50
93.0224537
51
122.4556091
0
ARC
8
DEFAULT_255_1_388
10
22.7905363
20
68.8851776
40
0.6003837
50
89.9756766
51
93.6340839
0
ARC
8
DEFAULT_255_1_388
10
22.7948961
20
68.9300879
40
0.5554884
50
73.7463329
51
90.4234008
0
ARC
8
DEFAULT_255_1_388
10
22.8146434
20
69.0065772
40
0.4765353
50
57.663051
51
73.4516911
0
ARC
8
DEFAULT_255_1_388
10
22.8137472
20
69.0090108
40
0.4749629
50
29.1441355
51
57.4146687
0
ARC
8
DEFAULT_255_1_388
10
22.7085283
20
68.9433046
40
0.5988917
50
24.0985653
51
29.732054
0
ARC
8
DEFAULT_255_1_388
10
22.5922915
20
68.8951154
40
0.7246823
50
8.6654943
51
23.8241215
0
ARC
8
DEFAULT_255_1_388
10
22.3409333
20
68.8541037
40
0.9793537
50
359.7807044
51
8.8218476
0
ARC
8
DEFAULT_255_1_388
10
22.2119038
20
68.8569731
40
0.9358078
50
359.7054632
51
8.0359751
0
ARC
8
DEFAULT_255_1_388
10
22.5494089
20
68.9061252
40
0.5947474
50
7.8926278
51
20.2962188
0
ARC
8
DEFAULT_255_1_388
10
22.7324939
20
68.9736367
40
0.3996117
50
20.3231056
51
36.4990255
0
ARC
8
DEFAULT_255_1_388
10
22.8096237
20
69.0330399
40
0.3022818
50
36.1436715
51
85.6627846
0
ARC
8
DEFAULT_255_1_388
10
22.7913492
20
68.9160881
40
0.4203853
50
84.3845912
51
90.076054
0
ARC
8
DEFAULT_255_1_388
10
22.7865847
20
68.9903416
40
0.346157
50
89.3037228
51
109.9046209
0
ARC
8
DEFAULT_255_1_388
10
22.776168
20
69.0333379
40
0.3022217
50
110.8229774
51
143.917961
0
ARC
8
DEFAULT_255_1_388
10
22.8812039
20
68.9531455
40
0.434348
50
143.5289166
51
163.2980252
0
ARC
8
DEFAULT_255_1_388
10
23.0958326
20
68.8856685
40
0.659321
50
163.0418884
51
174.3139873
0
ARC
8
DEFAULT_255_1_388
10
23.3663291
20
68.8544378
40
0.9315905
50
174.050934
51
179.4174954
0
ARC
8
DEFAULT_255_1_388
10
23.3095235
20
68.7625382
40
0.8747493
50
179.6928582
51
188.7908948
0
ARC
8
DEFAULT_255_1_388
10
23.0099035
20
68.7146086
40
0.5713262
50
188.6328449
51
202.5630732
0
ARC
8
DEFAULT_255_1_388
10
22.8687872
20
68.6579142
40
0.4192612
50
202.8078931
51
216.1195888
0
ARC
8
DEFAULT_255_1_388
10
22.7777389
20
68.5846479
40
0.3025752
50
215.0755613
51
264.6379773
0
ARC
8
DEFAULT_255_1_388
10
22.7920226
20
68.6781376
40
0.3970284
50
263.8464302
51
270.0830805
0
ARC
8
DEFAULT_255_1_388
10
22.7966771
20
68.6490808
40
0.3679937
50
269.3649295
51
287.5149684
0
ARC
8
DEFAULT_255_1_388
10
22.8167212
20
68.5762714
40
0.2925408
50
288.0629019
51
323.8115617
0
ARC
8
DEFAULT_255_1_388
10
22.7187188
20
68.6493754
40
0.4148018
50
323.6546541
51
342.6591359
0
ARC
8
DEFAULT_255_1_388
10
22.4901846
20
68.723728
40
0.6551163
50
342.4092446
51
353.6451501
0
ARC
8
DEFAULT_255_1_388
10
22.1716639
20
68.7633565
40
0.9760748
50
353.4027553
51
359.4846611
0
LINE
8
DEFAULT_255_1_388
10
23.7801943
20
68.7545775
11
23.7801943
21
68.8910157
0
LINE
8
DEFAULT_255_1_388
10
23.7801943
20
68.8910157
11
23.9057897
21
68.8910157
0
LINE
8
DEFAULT_255_1_388
10
23.691645
20
69.1223282
11
23.5244855
21
69.1223282
0
LINE
8
DEFAULT_255_1_388
10
23.5127392
20
68.4988688
11
23.6808022
21
68.4988688
0
LINE
8
DEFAULT_255_1_388
10
23.9057897
20
68.7545775
11
23.7801943
21
68.7545775
0
ARC
8
DEFAULT_255_1_388
10
23.9025124
20
69.2726922
40
0.3816905
50
270.491971
51
281.8953028
0
ARC
8
DEFAULT_255_1_388
10
23.9296551
20
69.1487199
40
0.2547877
50
281.6690378
51
301.2943765
0
ARC
8
DEFAULT_255_1_388
10
23.9488002
20
69.1136926
40
0.2149197
50
301.7834992
51
311.754567
0
ARC
8
DEFAULT_255_1_388
10
23.9591044
20
69.102265
40
0.1995326
50
311.7325027
51
354.2803031
0
ARC
8
DEFAULT_255_1_388
10
23.877346
20
69.116328
40
0.2823461
50
353.0941646
51
0.1174696
0
ARC
8
DEFAULT_255_1_388
10
23.8255017
20
69.1216874
40
0.3342238
50
359.1804452
51
15.0452323
0
ARC
8
DEFAULT_255_1_388
10
23.9769076
20
69.1658546
40
0.1765747
50
13.957816
51
77.6713812
0
ARC
8
DEFAULT_255_1_388
10
23.9334312
20
69.0100464
40
0.3381982
50
76.111571
51
90.7028736
0
ARC
8
DEFAULT_255_1_388
10
23.9267724
20
69.040825
40
0.3074046
50
89.5321574
51
103.5319393
0
ARC
8
DEFAULT_255_1_388
10
23.9042107
20
69.1307443
40
0.2147041
50
103.2930114
51
133.5619756
0
ARC
8
DEFAULT_255_1_388
10
23.8992049
20
69.1374351
40
0.2064084
50
133.8349761
51
173.5343225
0
ARC
8
DEFAULT_255_1_388
10
23.9805706
20
69.1230144
40
0.2889266
50
172.5097183
51
180.1360699
0
ARC
8
DEFAULT_255_1_388
10
23.873547
20
69.126888
40
0.3490913
50
155.3483706
51
180.7484035
0
ARC
8
DEFAULT_255_1_388
10
23.8680446
20
69.1236519
40
0.3454798
50
131.5745177
51
154.4799474
0
ARC
8
DEFAULT_255_1_388
10
23.9032728
20
69.0880422
40
0.3955058
50
96.9874487
51
131.9690874
0
ARC
8
DEFAULT_255_1_388
10
23.9279621
20
68.9479407
40
0.537622
50
89.8592909
51
97.7827481
0
ARC
8
DEFAULT_255_1_388
10
23.933373
20
68.918436
40
0.5671399
50
78.3654493
51
90.4132586
0
ARC
8
DEFAULT_255_1_388
10
23.9736371
20
69.1050918
40
0.3762034
50
56.6229818
51
78.6387103
0
ARC
8
DEFAULT_255_1_388
10
23.9978201
20
69.1473846
40
0.3275964
50
47.0254604
51
56.085558
0
ARC
8
DEFAULT_255_1_388
10
24.0000452
20
69.1518189
40
0.3228382
50
10.9207523
51
46.777927
0
ARC
8
DEFAULT_255_1_388
10
23.8466045
20
69.1163401
40
0.4802559
50
359.6364235
51
11.6087615
0
ARC
8
DEFAULT_255_1_388
10
24.0530211
20
69.1146404
40
0.273833
50
332.3549969
51
359.7179765
0
ARC
8
DEFAULT_255_1_388
10
23.9798612
20
69.1493285
40
0.3547505
50
325.2332381
51
332.8746682
0
ARC
8
DEFAULT_255_1_388
10
23.9970195
20
69.1373763
40
0.3338396
50
292.9803892
51
325.2391113
0
ARC
8
DEFAULT_255_1_388
10
23.965939
20
69.1978679
40
0.4016959
50
292.542178
51
293.6931461
0
ARC
8
DEFAULT_255_1_388
10
24.0102962
20
68.4713036
40
0.372079
50
57.643292
51
72.8626085
0
ARC
8
DEFAULT_255_1_388
10
24.0501797
20
68.5359273
40
0.2961455
50
36.7246661
51
57.4701329
0
ARC
8
DEFAULT_255_1_388
10
24.0488954
20
68.537347
40
0.2963321
50
8.054535
51
36.3561529
0
ARC
8
DEFAULT_255_1_388
10
23.9518626
20
68.5199073
40
0.3948682
50
359.8316595
51
8.5873361
0
ARC
8
DEFAULT_255_1_388
10
23.90961
20
68.514497
40
0.4371398
50
343.9831631
51
0.557075
0
ARC
8
DEFAULT_255_1_388
10
24.009315
20
68.4871963
40
0.3337749
50
311.6358204
51
343.7652116
0
ARC
8
DEFAULT_255_1_388
10
23.9667404
20
68.5351955
40
0.3979351
50
279.7829743
51
311.625622
0
ARC
8
DEFAULT_255_1_388
10
23.9328539
20
68.6968642
40
0.5630417
50
269.7285092
51
280.3857694
0
ARC
8
DEFAULT_255_1_388
10
23.9258852
20
68.6922241
40
0.5584119
50
256.6827433
51
270.4412869
0
ARC
8
DEFAULT_255_1_388
10
23.8877838
20
68.5364698
40
0.3980715
50
229.4223821
51
256.8554507
0
ARC
8
DEFAULT_255_1_388
10
23.8411392
20
68.4839683
40
0.3278564
50
181.8183354
51
229.6455015
0
ARC
8
DEFAULT_255_1_388
10
23.9581001
20
68.4986825
40
0.4453611
50
179.9760419
51
183.2330638
0
ARC
8
DEFAULT_255_1_388
10
23.9387554
20
68.4963781
40
0.2579652
50
179.4467996
51
196.2871626
0
ARC
8
DEFAULT_255_1_388
10
23.8839007
20
68.4813709
40
0.2011057
50
196.5661293
51
227.7059371
0
ARC
8
DEFAULT_255_1_388
10
23.9023615
20
68.5020155
40
0.2287994
50
227.7653015
51
257.8763321
0
ARC
8
DEFAULT_255_1_388
10
23.9276698
20
68.6080961
40
0.3378385
50
257.4583525
51
270.4267406
0
ARC
8
DEFAULT_255_1_388
10
23.9327947
20
68.640723
40
0.3704652
50
269.5965319
51
280.8788143
0
ARC
8
DEFAULT_255_1_388
10
23.9586175
20
68.5117529
40
0.2389415
50
280.6347277
51
299.8594068
0
ARC
8
DEFAULT_255_1_388
10
23.9800945
20
68.4709736
40
0.19289
50
300.3575552
51
314.5515667
0
ARC
8
DEFAULT_255_1_388
10
23.9707621
20
68.4778025
40
0.204312
50
315.0730962
51
345.0429362
0
ARC
8
DEFAULT_255_1_388
10
23.8669128
20
68.5080539
40
0.31246
50
344.598526
51
357.9270698
0
ARC
8
DEFAULT_255_1_388
10
23.7659433
20
68.5149705
40
0.4136265
50
357.4755098
51
0.0224936
0
ARC
8
DEFAULT_255_1_388
10
23.8812311
20
68.5177099
40
0.2983498
50
359.5051035
51
13.4236939
0
ARC
8
DEFAULT_255_1_388
10
23.97874
20
68.5426637
40
0.1977186
50
12.9497905
51
48.7550905
0
ARC
8
DEFAULT_255_1_388
10
23.9582322
20
68.5146373
40
0.2323321
50
49.509109
51
72.1832965
0
ARC
8
DEFAULT_255_1_388
10
23.9179791
20
68.3951632
40
0.358397
50
71.9008458
51
84.3555134
0
ARC
8
DEFAULT_255_1_388
10
23.8998185
20
68.2419712
40
0.512641
50
84.019632
51
89.3326067
0
LINE
8
DEFAULT_255_1_388
10
21.0719448
20
77.4049898
11
21.4460205
21
76.3198089
0
LINE
8
DEFAULT_255_1_388
10
21.4460205
20
76.3198089
11
21.8219033
21
77.4049898
0
LINE
8
DEFAULT_255_1_388
10
21.8219033
20
77.4049898
11
22.0116518
21
77.4049898
0
LINE
8
DEFAULT_255_1_388
10
22.0116518
20
77.4049898
11
21.523727
21
76.0894
0
LINE
8
DEFAULT_255_1_388
10
21.523727
20
76.0894
11
21.370121
21
76.0894
0
LINE
8
DEFAULT_255_1_388
10
21.370121
20
76.0894
11
20.8830998
21
77.4049898
0
LINE
8
DEFAULT_255_1_388
10
20.8830998
20
77.4049898
11
21.0719448
21
77.4049898
0
LINE
8
DEFAULT_255_1_388
10
23.1880927
20
76.7878553
11
23.1880927
21
76.7047274
0
LINE
8
DEFAULT_255_1_388
10
22.1300187
20
76.6929811
11
22.1300187
21
76.7878553
0
LINE
8
DEFAULT_255_1_388
10
23.0155119
20
76.6920775
11
23.0155119
21
76.7896625
0
LINE
8
DEFAULT_255_1_388
10
22.3025996
20
76.8014088
11
22.3025996
21
76.7047274
0
ARC
8
DEFAULT_255_1_388
10
22.2158666
20
76.7002726
40
0.9722364
50
350.4878118
51
0.2625322
0
ARC
8
DEFAULT_255_1_388
10
22.4738626
20
76.6558994
40
0.7104556
50
336.0277991
51
350.5787241
0
ARC
8
DEFAULT_255_1_388
10
22.6251732
20
76.5875243
40
0.544417
50
319.887443
51
336.1331163
0
ARC
8
DEFAULT_255_1_388
10
22.6929545
20
76.5332733
40
0.4576311
50
302.4806296
51
319.6144102
0
ARC
8
DEFAULT_255_1_388
10
22.6800166
20
76.5582067
40
0.4856183
50
275.8196423
51
302.1885521
0
ARC
8
DEFAULT_255_1_388
10
22.6613027
20
76.6867466
40
0.6154183
50
269.9169897
51
276.339506
0
ARC
8
DEFAULT_255_1_388
10
22.6562628
20
76.609568
40
0.5382553
50
252.5221437
51
270.441579
0
ARC
8
DEFAULT_255_1_388
10
22.6400878
20
76.5489046
40
0.4755426
50
237.5349961
51
252.1858334
0
ARC
8
DEFAULT_255_1_388
10
22.6501254
20
76.561712
40
0.4917393
50
209.0632754
51
237.3492577
0
ARC
8
DEFAULT_255_1_388
10
22.748058
20
76.6232104
40
0.6072464
50
205.118533
51
209.6465345
0
ARC
8
DEFAULT_255_1_388
10
22.8376582
20
76.6612174
40
0.7045164
50
188.7216633
51
204.8239753
0
ARC
8
DEFAULT_255_1_388
10
23.0623358
20
76.6990387
40
0.9323368
50
180.3722704
51
188.9253909
0
ARC
8
DEFAULT_255_1_388
10
23.0592919
20
76.7923416
40
0.929284
50
169.5253055
51
180.2766048
0
ARC
8
DEFAULT_255_1_388
10
22.8452718
20
76.8317024
40
0.7116745
50
155.8314601
51
169.5088611
0
ARC
8
DEFAULT_255_1_388
10
22.7012181
20
76.8985312
40
0.5528904
50
139.6259579
51
156.0379072
0
ARC
8
DEFAULT_255_1_388
10
22.6348715
20
76.9519143
40
0.4677708
50
122.6414784
51
139.3431662
0
ARC
8
DEFAULT_255_1_388
10
22.646197
20
76.9312787
40
0.4912586
50
93.0224537
51
122.4556091
0
ARC
8
DEFAULT_255_1_388
10
22.6583491
20
76.8226776
40
0.6003837
50
89.9756766
51
93.6340839
0
ARC
8
DEFAULT_255_1_388
10
22.6627088
20
76.8675879
40
0.5554884
50
73.7463329
51
90.4234008
0
ARC
8
DEFAULT_255_1_388
10
22.6824562
20
76.9440772
40
0.4765353
50
57.663051
51
73.4516911
0
ARC
8
DEFAULT_255_1_388
10
22.6815599
20
76.9465108
40
0.4749629
50
29.1441355
51
57.4146687
0
ARC
8
DEFAULT_255_1_388
10
22.5763411
20
76.8808046
40
0.5988917
50
24.0985653
51
29.732054
0
ARC
8
DEFAULT_255_1_388
10
22.4601042
20
76.8326154
40
0.7246823
50
8.6654943
51
23.8241215
0
ARC
8
DEFAULT_255_1_388
10
22.2087461
20
76.7916037
40
0.9793537
50
359.7807044
51
8.8218476
0
ARC
8
DEFAULT_255_1_388
10
22.0797165
20
76.7944731
40
0.9358078
50
359.7054632
51
8.0359751
0
ARC
8
DEFAULT_255_1_388
10
22.4172217
20
76.8436252
40
0.5947474
50
7.8926278
51
20.2962188
0
ARC
8
DEFAULT_255_1_388
10
22.6003067
20
76.9111367
40
0.3996117
50
20.3231056
51
36.4990255
0
ARC
8
DEFAULT_255_1_388
10
22.6774364
20
76.9705399
40
0.3022818
50
36.1436715
51
85.6627846
0
ARC
8
DEFAULT_255_1_388
10
22.659162
20
76.8535881
40
0.4203853
50
84.3845912
51
90.076054
0
ARC
8
DEFAULT_255_1_388
10
22.6543974
20
76.9278416
40
0.346157
50
89.3037228
51
109.9046209
0
ARC
8
DEFAULT_255_1_388
10
22.6439807
20
76.9708379
40
0.3022217
50
110.8229774
51
143.917961
0
ARC
8
DEFAULT_255_1_388
10
22.7490167
20
76.8906455
40
0.434348
50
143.5289166
51
163.2980252
0
ARC
8
DEFAULT_255_1_388
10
22.9636454
20
76.8231685
40
0.659321
50
163.0418884
51
174.3139873
0
ARC
8
DEFAULT_255_1_388
10
23.2341419
20
76.7919378
40
0.9315905
50
174.050934
51
179.4174954
0
ARC
8
DEFAULT_255_1_388
10
23.1773363
20
76.7000382
40
0.8747493
50
179.6928582
51
188.7908948
0
ARC
8
DEFAULT_255_1_388
10
22.8777163
20
76.6521086
40
0.5713262
50
188.6328449
51
202.5630732
0
ARC
8
DEFAULT_255_1_388
10
22.7365999
20
76.5954142
40
0.4192612
50
202.8078931
51
216.1195888
0
ARC
8
DEFAULT_255_1_388
10
22.6455516
20
76.5221479
40
0.3025752
50
215.0755613
51
264.6379773
0
ARC
8
DEFAULT_255_1_388
10
22.6598354
20
76.6156376
40
0.3970284
50
263.8464302
51
270.0830805
0
ARC
8
DEFAULT_255_1_388
10
22.6644899
20
76.5865808
40
0.3679937
50
269.3649295
51
287.5149684
0
ARC
8
DEFAULT_255_1_388
10
22.6845339
20
76.5137714
40
0.2925408
50
288.0629019
51
323.8115617
0
ARC
8
DEFAULT_255_1_388
10
22.5865316
20
76.5868754
40
0.4148018
50
323.6546541
51
342.6591359
0
ARC
8
DEFAULT_255_1_388
10
22.3579973
20
76.661228
40
0.6551163
50
342.4092446
51
353.6451501
0
ARC
8
DEFAULT_255_1_388
10
22.0394767
20
76.7008565
40
0.9760748
50
353.4027553
51
359.4846611
0
LINE
8
DEFAULT_255_1_388
10
23.648007
20
76.6920775
11
23.648007
21
76.8285157
0
LINE
8
DEFAULT_255_1_388
10
23.648007
20
76.8285157
11
23.7736025
21
76.8285157
0
LINE
8
DEFAULT_255_1_388
10
23.5594577
20
77.0598282
11
23.3922983
21
77.0598282
0
LINE
8
DEFAULT_255_1_388
10
23.380552
20
76.4363688
11
23.5486149
21
76.4363688
0
LINE
8
DEFAULT_255_1_388
10
23.7736025
20
76.6920775
11
23.648007
21
76.6920775
0
ARC
8
DEFAULT_255_1_388
10
23.7703251
20
77.2101922
40
0.3816905
50
270.491971
51
281.8953028
0
ARC
8
DEFAULT_255_1_388
10
23.7974678
20
77.0862199
40
0.2547877
50
281.6690378
51
301.2943765
0
ARC
8
DEFAULT_255_1_388
10
23.816613
20
77.0511926
40
0.2149197
50
301.7834992
51
311.754567
0
ARC
8
DEFAULT_255_1_388
10
23.8269171
20
77.039765
40
0.1995326
50
311.7325027
51
354.2803031
0
ARC
8
DEFAULT_255_1_388
10
23.7451587
20
77.053828
40
0.2823461
50
353.0941646
51
0.1174696
0
ARC
8
DEFAULT_255_1_388
10
23.6933145
20
77.0591874
40
0.3342238
50
359.1804452
51
15.0452323
0
ARC
8
DEFAULT_255_1_388
10
23.8447203
20
77.1033546
40
0.1765747
50
13.957816
51
77.6713812
0
ARC
8
DEFAULT_255_1_388
10
23.8012439
20
76.9475464
40
0.3381982
50
76.111571
51
90.7028736
0
ARC
8
DEFAULT_255_1_388
10
23.7945851
20
76.978325
40
0.3074046
50
89.5321574
51
103.5319393
0
ARC
8
DEFAULT_255_1_388
10
23.7720235
20
77.0682443
40
0.2147041
50
103.2930114
51
133.5619756
0
ARC
8
DEFAULT_255_1_388
10
23.7670176
20
77.0749351
40
0.2064084
50
133.8349761
51
173.5343225
0
ARC
8
DEFAULT_255_1_388
10
23.8483834
20
77.0605144
40
0.2889266
50
172.5097183
51
180.1360699
0
ARC
8
DEFAULT_255_1_388
10
23.7413598
20
77.064388
40
0.3490913
50
155.3483706
51
180.7484035
0
ARC
8
DEFAULT_255_1_388
10
23.7358573
20
77.0611519
40
0.3454798
50
131.5745177
51
154.4799474
0
ARC
8
DEFAULT_255_1_388
10
23.7710856
20
77.0255422
40
0.3955058
50
96.9874487
51
131.9690874
0
ARC
8
DEFAULT_255_1_388
10
23.7957749
20
76.8854407
40
0.537622
50
89.8592909
51
97.7827481
0
ARC
8
DEFAULT_255_1_388
10
23.8011858
20
76.855936
40
0.5671399
50
78.3654493
51
90.4132586
0
ARC
8
DEFAULT_255_1_388
10
23.8414499
20
77.0425918
40
0.3762034
50
56.6229818
51
78.6387103
0
ARC
8
DEFAULT_255_1_388
10
23.8656328
20
77.0848846
40
0.3275964
50
47.0254604
51
56.085558
0
ARC
8
DEFAULT_255_1_388
10
23.8678579
20
77.0893189
40
0.3228382
50
10.9207523
51
46.777927
0
ARC
8
DEFAULT_255_1_388
10
23.7144173
20
77.0538401
40
0.4802559
50
359.6364235
51
11.6087615
0
ARC
8
DEFAULT_255_1_388
10
23.9208339
20
77.0521404
40
0.273833
50
332.3549969
51
359.7179765
0
ARC
8
DEFAULT_255_1_388
10
23.8476739
20
77.0868285
40
0.3547505
50
325.2332381
51
332.8746682
0
ARC
8
DEFAULT_255_1_388
10
23.8648322
20
77.0748763
40
0.3338396
50
292.9803892
51
325.2391113
0
ARC
8
DEFAULT_255_1_388
10
23.8337518
20
77.1353679
40
0.4016959
50
292.542178
51
293.6931461
0
ARC
8
DEFAULT_255_1_388
10
23.878109
20
76.4088036
40
0.372079
50
57.643292
51
72.8626085
0
ARC
8
DEFAULT_255_1_388
10
23.9179924
20
76.4734273
40
0.2961455
50
36.7246661
51
57.4701329
0
ARC
8
DEFAULT_255_1_388
10
23.9167081
20
76.474847
40
0.2963321
50
8.054535
51
36.3561529
0
ARC
8
DEFAULT_255_1_388
10
23.8196754
20
76.4574073
40
0.3948682
50
359.8316595
51
8.5873361
0
ARC
8
DEFAULT_255_1_388
10
23.7774228
20
76.451997
40
0.4371398
50
343.9831631
51
0.557075
0
ARC
8
DEFAULT_255_1_388
10
23.8771277
20
76.4246963
40
0.3337749
50
311.6358204
51
343.7652116
0
ARC
8
DEFAULT_255_1_388
10
23.8345531
20
76.4726955
40
0.3979351
50
279.7829743
51
311.625622
0
ARC
8
DEFAULT_255_1_388
10
23.8006666
20
76.6343642
40
0.5630417
50
269.7285092
51
280.3857694
0
ARC
8
DEFAULT_255_1_388
10
23.7936979
20
76.6297241
40
0.5584119
50
256.6827433
51
270.4412869
0
ARC
8
DEFAULT_255_1_388
10
23.7555966
20
76.4739698
40
0.3980715
50
229.4223821
51
256.8554507
0
ARC
8
DEFAULT_255_1_388
10
23.7089519
20
76.4214683
40
0.3278564
50
181.8183354
51
229.6455015
0
ARC
8
DEFAULT_255_1_388
10
23.8259129
20
76.4361825
40
0.4453611
50
179.9760419
51
183.2330638
0
ARC
8
DEFAULT_255_1_388
10
23.8065681
20
76.4338781
40
0.2579652
50
179.4467996
51
196.2871626
0
ARC
8
DEFAULT_255_1_388
10
23.7517135
20
76.4188709
40
0.2011057
50
196.5661293
51
227.7059371
0
ARC
8
DEFAULT_255_1_388
10
23.7701742
20
76.4395155
40
0.2287994
50
227.7653015
51
257.8763321
0
ARC
8
DEFAULT_255_1_388
10
23.7954825
20
76.5455961
40
0.3378385
50
257.4583525
51
270.4267406
0
ARC
8
DEFAULT_255_1_388
10
23.8006075
20
76.578223
40
0.3704652
50
269.5965319
51
280.8788143
0
ARC
8
DEFAULT_255_1_388
10
23.8264303
20
76.4492529
40
0.2389415
50
280.6347277
51
299.8594068
0
ARC
8
DEFAULT_255_1_388
10
23.8479072
20
76.4084736
40
0.19289
50
300.3575552
51
314.5515667
0
ARC
8
DEFAULT_255_1_388
10
23.8385748
20
76.4153025
40
0.204312
50
315.0730962
51
345.0429362
0
ARC
8
DEFAULT_255_1_388
10
23.7347255
20
76.4455539
40
0.31246
50
344.598526
51
357.9270698
0
ARC
8
DEFAULT_255_1_388
10
23.633756
20
76.4524705
40
0.4136265
50
357.4755098
51
0.0224936
0
ARC
8
DEFAULT_255_1_388
10
23.7490438
20
76.4552099
40
0.2983498
50
359.5051035
51
13.4236939
0
ARC
8
DEFAULT_255_1_388
10
23.8465528
20
76.4801637
40
0.1977186
50
12.9497905
51
48.7550905
0
ARC
8
DEFAULT_255_1_388
10
23.826045
20
76.4521373
40
0.2323321
50
49.509109
51
72.1832965
0
ARC
8
DEFAULT_255_1_388
10
23.7857918
20
76.3326632
40
0.358397
50
71.9008458
51
84.3555134
0
ARC
8
DEFAULT_255_1_388
10
23.7676313
20
76.1794712
40
0.512641
50
84.019632
51
89.3326067
0
LINE
8
DEFAULT_255_1_388
10
21.9911367
20
85.3424898
11
21.9911367
21
84.0269
0
LINE
8
DEFAULT_255_1_388
10
21.9911367
20
84.0269
11
21.8176523
21
84.0269
0
LINE
8
DEFAULT_255_1_388
10
21.8176523
20
84.0269
11
21.8176523
21
85.3424898
0
LINE
8
DEFAULT_255_1_388
10
21.8176523
20
85.3424898
11
21.9911367
21
85.3424898
0
LINE
8
DEFAULT_255_1_388
10
23.32028
20
84.7253553
11
23.32028
21
84.6422274
0
LINE
8
DEFAULT_255_1_388
10
22.262206
20
84.6304811
11
22.262206
21
84.7253553
0
LINE
8
DEFAULT_255_1_388
10
23.1476992
20
84.6295775
11
23.1476992
21
84.7271625
0
LINE
8
DEFAULT_255_1_388
10
22.4347868
20
84.7389088
11
22.4347868
21
84.6422274
0
ARC
8
DEFAULT_255_1_388
10
22.3480538
20
84.6377726
40
0.9722364
50
350.4878118
51
0.2625322
0
ARC
8
DEFAULT_255_1_388
10
22.6060498
20
84.5933994
40
0.7104556
50
336.0277991
51
350.5787241
0
ARC
8
DEFAULT_255_1_388
10
22.7573605
20
84.5250243
40
0.544417
50
319.887443
51
336.1331163
0
ARC
8
DEFAULT_255_1_388
10
22.8251417
20
84.4707733
40
0.4576311
50
302.4806296
51
319.6144102
0
ARC
8
DEFAULT_255_1_388
10
22.8122038
20
84.4957067
40
0.4856183
50
275.8196423
51
302.1885521
0
ARC
8
DEFAULT_255_1_388
10
22.79349
20
84.6242466
40
0.6154183
50
269.9169897
51
276.339506
0
ARC
8
DEFAULT_255_1_388
10
22.78845
20
84.547068
40
0.5382553
50
252.5221437
51
270.441579
0
ARC
8
DEFAULT_255_1_388
10
22.7722751
20
84.4864046
40
0.4755426
50
237.5349961
51
252.1858334
0
ARC
8
DEFAULT_255_1_388
10
22.7823127
20
84.499212
40
0.4917393
50
209.0632754
51
237.3492577
0
ARC
8
DEFAULT_255_1_388
10
22.8802453
20
84.5607104
40
0.6072464
50
205.118533
51
209.6465345
0
ARC
8
DEFAULT_255_1_388
10
22.9698455
20
84.5987174
40
0.7045164
50
188.7216633
51
204.8239753
0
ARC
8
DEFAULT_255_1_388
10
23.194523
20
84.6365387
40
0.9323368
50
180.3722704
51
188.9253909
0
ARC
8
DEFAULT_255_1_388
10
23.1914792
20
84.7298416
40
0.929284
50
169.5253055
51
180.2766048
0
ARC
8
DEFAULT_255_1_388
10
22.9774591
20
84.7692024
40
0.7116745
50
155.8314601
51
169.5088611
0
ARC
8
DEFAULT_255_1_388
10
22.8334054
20
84.8360312
40
0.5528904
50
139.6259579
51
156.0379072
0
ARC
8
DEFAULT_255_1_388
10
22.7670588
20
84.8894143
40
0.4677708
50
122.6414784
51
139.3431662
0
ARC
8
DEFAULT_255_1_388
10
22.7783842
20
84.8687787
40
0.4912586
50
93.0224537
51
122.4556091
0
ARC
8
DEFAULT_255_1_388
10
22.7905363
20
84.7601776
40
0.6003837
50
89.9756766
51
93.6340839
0
ARC
8
DEFAULT_255_1_388
10
22.7948961
20
84.8050879
40
0.5554884
50
73.7463329
51
90.4234008
0
ARC
8
DEFAULT_255_1_388
10
22.8146434
20
84.8815772
40
0.4765353
50
57.663051
51
73.4516911
0
ARC
8
DEFAULT_255_1_388
10
22.8137472
20
84.8840108
40
0.4749629
50
29.1441355
51
57.4146687
0
ARC
8
DEFAULT_255_1_388
10
22.7085283
20
84.8183046
40
0.5988917
50
24.0985653
51
29.732054
0
ARC
8
DEFAULT_255_1_388
10
22.5922915
20
84.7701154
40
0.7246823
50
8.6654943
51
23.8241215
0
ARC
8
DEFAULT_255_1_388
10
22.3409333
20
84.7291037
40
0.9793537
50
359.7807044
51
8.8218476
0
ARC
8
DEFAULT_255_1_388
10
22.2119038
20
84.7319731
40
0.9358078
50
359.7054632
51
8.0359751
0
ARC
8
DEFAULT_255_1_388
10
22.5494089
20
84.7811252
40
0.5947474
50
7.8926278
51
20.2962188
0
ARC
8
DEFAULT_255_1_388
10
22.7324939
20
84.8486367
40
0.3996117
50
20.3231056
51
36.4990255
0
ARC
8
DEFAULT_255_1_388
10
22.8096237
20
84.9080399
40
0.3022818
50
36.1436715
51
85.6627846
0
ARC
8
DEFAULT_255_1_388
10
22.7913492
20
84.7910881
40
0.4203853
50
84.3845912
51
90.076054
0
ARC
8
DEFAULT_255_1_388
10
22.7865847
20
84.8653416
40
0.346157
50
89.3037228
51
109.9046209
0
ARC
8
DEFAULT_255_1_388
10
22.776168
20
84.9083379
40
0.3022217
50
110.8229774
51
143.917961
0
ARC
8
DEFAULT_255_1_388
10
22.8812039
20
84.8281455
40
0.434348
50
143.5289166
51
163.2980252
0
ARC
8
DEFAULT_255_1_388
10
23.0958326
20
84.7606685
40
0.659321
50
163.0418884
51
174.3139873
0
ARC
8
DEFAULT_255_1_388
10
23.3663291
20
84.7294378
40
0.9315905
50
174.050934
51
179.4174954
0
ARC
8
DEFAULT_255_1_388
10
23.3095235
20
84.6375382
40
0.8747493
50
179.6928582
51
188.7908948
0
ARC
8
DEFAULT_255_1_388
10
23.0099035
20
84.5896086
40
0.5713262
50
188.6328449
51
202.5630732
0
ARC
8
DEFAULT_255_1_388
10
22.8687872
20
84.5329142
40
0.4192612
50
202.8078931
51
216.1195888
0
ARC
8
DEFAULT_255_1_388
10
22.7777389
20
84.4596479
40
0.3025752
50
215.0755613
51
264.6379773
0
ARC
8
DEFAULT_255_1_388
10
22.7920226
20
84.5531376
40
0.3970284
50
263.8464302
51
270.0830805
0
ARC
8
DEFAULT_255_1_388
10
22.7966771
20
84.5240808
40
0.3679937
50
269.3649295
51
287.5149684
0
ARC
8
DEFAULT_255_1_388
10
22.8167212
20
84.4512714
40
0.2925408
50
288.0629019
51
323.8115617
0
ARC
8
DEFAULT_255_1_388
10
22.7187188
20
84.5243754
40
0.4148018
50
323.6546541
51
342.6591359
0
ARC
8
DEFAULT_255_1_388
10
22.4901846
20
84.598728
40
0.6551163
50
342.4092446
51
353.6451501
0
ARC
8
DEFAULT_255_1_388
10
22.1716639
20
84.6383565
40
0.9760748
50
353.4027553
51
359.4846611
0
LINE
8
DEFAULT_255_1_388
10
24.3991359
20
84.1633382
11
24.3991359
21
84.0269
0
LINE
8
DEFAULT_255_1_388
10
24.3991359
20
84.0269
11
23.5371354
21
84.0269
0
LINE
8
DEFAULT_255_1_388
10
23.5371354
20
84.0269
11
23.5371354
21
84.1470741
0
LINE
8
DEFAULT_255_1_388
10
23.5371354
20
84.1470741
11
23.9925319
21
84.6530702
0
LINE
8
DEFAULT_255_1_388
10
23.6789951
20
84.9548607
11
23.5118356
21
84.9548607
0
LINE
8
DEFAULT_255_1_388
10
24.0910205
20
84.545546
11
23.7386303
21
84.1633382
0
LINE
8
DEFAULT_255_1_388
10
23.7386303
20
84.1633382
11
24.3991359
21
84.1633382
0
ARC
8
DEFAULT_255_1_388
10
22.4749379
20
85.9950983
40
2.0258655
50
318.5132526
51
320.7829045
0
ARC
8
DEFAULT_255_1_388
10
23.0697336
20
85.5109929
40
1.2589638
50
320.7372878
51
323.9739031
0
ARC
8
DEFAULT_255_1_388
10
23.5106267
20
85.1915554
40
0.7145141
50
323.8962701
51
328.64194
0
ARC
8
DEFAULT_255_1_388
10
23.7408525
20
85.0495545
40
0.4440242
50
328.8294576
51
331.7891185
0
ARC
8
DEFAULT_255_1_388
10
23.8530845
20
84.9916374
40
0.3177517
50
331.4254512
51
352.9365785
0
ARC
8
DEFAULT_255_1_388
10
23.8683845
20
84.988205
40
0.3021496
50
353.2257659
51
0.0166158
0
ARC
8
DEFAULT_255_1_388
10
23.8920606
20
84.9907894
40
0.2784847
50
359.486299
51
15.9343185
0
ARC
8
DEFAULT_255_1_388
10
23.9490872
20
85.0061269
40
0.2194403
50
16.1712913
51
43.5286088
0
ARC
8
DEFAULT_255_1_388
10
23.9577817
20
85.0148191
40
0.2071504
50
43.4417391
51
83.1661095
0
ARC
8
DEFAULT_255_1_388
10
23.9426978
20
84.9319316
40
0.2912888
50
82.160179
51
90.1505708
0
ARC
8
DEFAULT_255_1_388
10
23.939146
20
84.8715279
40
0.3517025
50
89.5460741
51
102.5418361
0
ARC
8
DEFAULT_255_1_388
10
23.911818
20
84.9874933
40
0.2325748
50
102.1738499
51
129.206123
0
ARC
8
DEFAULT_255_1_388
10
23.9029633
20
85.0014664
40
0.2161591
50
129.72865
51
135.753947
0
ARC
8
DEFAULT_255_1_388
10
23.9166115
20
84.9905728
40
0.2335433
50
136.1757367
51
166.3673339
0
ARC
8
DEFAULT_255_1_388
10
24.0298804
20
84.9602148
40
0.3507873
50
165.9090694
51
178.8684636
0
ARC
8
DEFAULT_255_1_388
10
24.1274575
20
84.9549263
40
0.4484624
50
178.4391136
51
180.0083808
0
ARC
8
DEFAULT_255_1_388
10
23.9695277
20
84.9593197
40
0.4577138
50
163.2878482
51
180.5581842
0
ARC
8
DEFAULT_255_1_388
10
23.8793318
20
84.9841393
40
0.3641968
50
133.4540601
51
162.947111
0
ARC
8
DEFAULT_255_1_388
10
23.89942
20
84.9627789
40
0.3935189
50
100.7869829
51
133.4382499
0
ARC
8
DEFAULT_255_1_388
10
23.9385445
20
84.7885399
40
0.5720313
50
89.660664
51
101.3702276
0
ARC
8
DEFAULT_255_1_388
10
23.9460054
20
84.7954263
40
0.5651495
50
78.2172678
51
90.412935
0
ARC
8
DEFAULT_255_1_388
10
23.9859519
20
84.9781511
40
0.378122
50
55.9269121
51
78.4888449
0
ARC
8
DEFAULT_255_1_388
10
24.0080234
20
85.0162187
40
0.3342379
50
47.929771
51
55.4049217
0
ARC
8
DEFAULT_255_1_388
10
24.0194765
20
85.0278618
40
0.3179217
50
4.334829
51
48.0560205
0
ARC
8
DEFAULT_255_1_388
10
23.8962567
20
85.0087487
40
0.442341
50
359.9251713
51
5.5971671
0
ARC
8
DEFAULT_255_1_388
10
23.9444721
20
85.0150728
40
0.3941854
50
337.8914027
51
358.9967534
0
ARC
8
DEFAULT_255_1_388
10
23.6392291
20
85.1328295
40
0.7213271
50
326.9132501
51
338.3508308
0
ARC
8
DEFAULT_255_1_388
10
23.1908403
20
85.4202105
40
1.2538973
50
319.6471833
51
327.0959558
0
ARC
8
DEFAULT_255_1_388
10
22.7595061
20
85.776005
40
1.8129975
50
317.2588228
51
319.9045804
0
LINE
8
DEFAULT_255_1_388
10
21.0719448
20
93.2799898
11
21.4460205
21
92.1948089
0
LINE
8
DEFAULT_255_1_388
10
21.4460205
20
92.1948089
11
21.8219033
21
93.2799898
0
LINE
8
DEFAULT_255_1_388
10
21.8219033
20
93.2799898
11
22.0116518
21
93.2799898
0
LINE
8
DEFAULT_255_1_388
10
22.0116518
20
93.2799898
11
21.523727
21
91.9644
0
LINE
8
DEFAULT_255_1_388
10
21.523727
20
91.9644
11
21.370121
21
91.9644
0
LINE
8
DEFAULT_255_1_388
10
21.370121
20
91.9644
11
20.8830998
21
93.2799898
0
LINE
8
DEFAULT_255_1_388
10
20.8830998
20
93.2799898
11
21.0719448
21
93.2799898
0
LINE
8
DEFAULT_255_1_388
10
23.1880927
20
92.6628553
11
23.1880927
21
92.5797274
0
LINE
8
DEFAULT_255_1_388
10
22.1300187
20
92.5679811
11
22.1300187
21
92.6628553
0
LINE
8
DEFAULT_255_1_388
10
23.0155119
20
92.5670775
11
23.0155119
21
92.6646625
0
LINE
8
DEFAULT_255_1_388
10
22.3025996
20
92.6764088
11
22.3025996
21
92.5797274
0
ARC
8
DEFAULT_255_1_388
10
22.2158666
20
92.5752726
40
0.9722364
50
350.4878118
51
0.2625322
0
ARC
8
DEFAULT_255_1_388
10
22.4738626
20
92.5308994
40
0.7104556
50
336.0277991
51
350.5787241
0
ARC
8
DEFAULT_255_1_388
10
22.6251732
20
92.4625243
40
0.544417
50
319.887443
51
336.1331163
0
ARC
8
DEFAULT_255_1_388
10
22.6929545
20
92.4082733
40
0.4576311
50
302.4806296
51
319.6144102
0
ARC
8
DEFAULT_255_1_388
10
22.6800166
20
92.4332067
40
0.4856183
50
275.8196423
51
302.1885521
0
ARC
8
DEFAULT_255_1_388
10
22.6613027
20
92.5617466
40
0.6154183
50
269.9169897
51
276.339506
0
ARC
8
DEFAULT_255_1_388
10
22.6562628
20
92.484568
40
0.5382553
50
252.5221437
51
270.441579
0
ARC
8
DEFAULT_255_1_388
10
22.6400878
20
92.4239046
40
0.4755426
50
237.5349961
51
252.1858334
0
ARC
8
DEFAULT_255_1_388
10
22.6501254
20
92.436712
40
0.4917393
50
209.0632754
51
237.3492577
0
ARC
8
DEFAULT_255_1_388
10
22.748058
20
92.4982104
40
0.6072464
50
205.118533
51
209.6465345
0
ARC
8
DEFAULT_255_1_388
10
22.8376582
20
92.5362174
40
0.7045164
50
188.7216633
51
204.8239753
0
ARC
8
DEFAULT_255_1_388
10
23.0623358
20
92.5740387
40
0.9323368
50
180.3722704
51
188.9253909
0
ARC
8
DEFAULT_255_1_388
10
23.0592919
20
92.6673416
40
0.929284
50
169.5253055
51
180.2766048
0
ARC
8
DEFAULT_255_1_388
10
22.8452718
20
92.7067024
40
0.7116745
50
155.8314601
51
169.5088611
0
ARC
8
DEFAULT_255_1_388
10
22.7012181
20
92.7735312
40
0.5528904
50
139.6259579
51
156.0379072
0
ARC
8
DEFAULT_255_1_388
10
22.6348715
20
92.8269143
40
0.4677708
50
122.6414784
51
139.3431662
0
ARC
8
DEFAULT_255_1_388
10
22.646197
20
92.8062787
40
0.4912586
50
93.0224537
51
122.4556091
0
ARC
8
DEFAULT_255_1_388
10
22.6583491
20
92.6976776
40
0.6003837
50
89.9756766
51
93.6340839
0
ARC
8
DEFAULT_255_1_388
10
22.6627088
20
92.7425879
40
0.5554884
50
73.7463329
51
90.4234008
0
ARC
8
DEFAULT_255_1_388
10
22.6824562
20
92.8190772
40
0.4765353
50
57.663051
51
73.4516911
0
ARC
8
DEFAULT_255_1_388
10
22.6815599
20
92.8215108
40
0.4749629
50
29.1441355
51
57.4146687
0
ARC
8
DEFAULT_255_1_388
10
22.5763411
20
92.7558046
40
0.5988917
50
24.0985653
51
29.732054
0
ARC
8
DEFAULT_255_1_388
10
22.4601042
20
92.7076154
40
0.7246823
50
8.6654943
51
23.8241215
0
ARC
8
DEFAULT_255_1_388
10
22.2087461
20
92.6666037
40
0.9793537
50
359.7807044
51
8.8218476
0
ARC
8
DEFAULT_255_1_388
10
22.0797165
20
92.6694731
40
0.9358078
50
359.7054632
51
8.0359751
0
ARC
8
DEFAULT_255_1_388
10
22.4172217
20
92.7186252
40
0.5947474
50
7.8926278
51
20.2962188
0
ARC
8
DEFAULT_255_1_388
10
22.6003067
20
92.7861367
40
0.3996117
50
20.3231056
51
36.4990255
0
ARC
8
DEFAULT_255_1_388
10
22.6774364
20
92.8455399
40
0.3022818
50
36.1436715
51
85.6627846
0
ARC
8
DEFAULT_255_1_388
10
22.659162
20
92.7285881
40
0.4203853
50
84.3845912
51
90.076054
0
ARC
8
DEFAULT_255_1_388
10
22.6543974
20
92.8028416
40
0.346157
50
89.3037228
51
109.9046209
0
ARC
8
DEFAULT_255_1_388
10
22.6439807
20
92.8458379
40
0.3022217
50
110.8229774
51
143.917961
0
ARC
8
DEFAULT_255_1_388
10
22.7490167
20
92.7656455
40
0.434348
50
143.5289166
51
163.2980252
0
ARC
8
DEFAULT_255_1_388
10
22.9636454
20
92.6981685
40
0.659321
50
163.0418884
51
174.3139873
0
ARC
8
DEFAULT_255_1_388
10
23.2341419
20
92.6669378
40
0.9315905
50
174.050934
51
179.4174954
0
ARC
8
DEFAULT_255_1_388
10
23.1773363
20
92.5750382
40
0.8747493
50
179.6928582
51
188.7908948
0
ARC
8
DEFAULT_255_1_388
10
22.8777163
20
92.5271086
40
0.5713262
50
188.6328449
51
202.5630732
0
ARC
8
DEFAULT_255_1_388
10
22.7365999
20
92.4704142
40
0.4192612
50
202.8078931
51
216.1195888
0
ARC
8
DEFAULT_255_1_388
10
22.6455516
20
92.3971479
40
0.3025752
50
215.0755613
51
264.6379773
0
ARC
8
DEFAULT_255_1_388
10
22.6598354
20
92.4906376
40
0.3970284
50
263.8464302
51
270.0830805
0
ARC
8
DEFAULT_255_1_388
10
22.6644899
20
92.4615808
40
0.3679937
50
269.3649295
51
287.5149684
0
ARC
8
DEFAULT_255_1_388
10
22.6845339
20
92.3887714
40
0.2925408
50
288.0629019
51
323.8115617
0
ARC
8
DEFAULT_255_1_388
10
22.5865316
20
92.4618754
40
0.4148018
50
323.6546541
51
342.6591359
0
ARC
8
DEFAULT_255_1_388
10
22.3579973
20
92.536228
40
0.6551163
50
342.4092446
51
353.6451501
0
ARC
8
DEFAULT_255_1_388
10
22.0394767
20
92.5758565
40
0.9760748
50
353.4027553
51
359.4846611
0
LINE
8
DEFAULT_255_1_388
10
24.2669487
20
92.1008382
11
24.2669487
21
91.9644
0
LINE
8
DEFAULT_255_1_388
10
24.2669487
20
91.9644
11
23.4049482
21
91.9644
0
LINE
8
DEFAULT_255_1_388
10
23.4049482
20
91.9644
11
23.4049482
21
92.0845741
0
LINE
8
DEFAULT_255_1_388
10
23.4049482
20
92.0845741
11
23.8603447
21
92.5905702
0
LINE
8
DEFAULT_255_1_388
10
23.5468078
20
92.8923607
11
23.3796484
21
92.8923607
0
LINE
8
DEFAULT_255_1_388
10
23.9588332
20
92.483046
11
23.6064431
21
92.1008382
0
LINE
8
DEFAULT_255_1_388
10
23.6064431
20
92.1008382
11
24.2669487
21
92.1008382
0
ARC
8
DEFAULT_255_1_388
10
22.3427506
20
93.9325983
40
2.0258655
50
318.5132526
51
320.7829045
0
ARC
8
DEFAULT_255_1_388
10
22.9375463
20
93.4484929
40
1.2589638
50
320.7372878
51
323.9739031
0
ARC
8
DEFAULT_255_1_388
10
23.3784395
20
93.1290554
40
0.7145141
50
323.8962701
51
328.64194
0
ARC
8
DEFAULT_255_1_388
10
23.6086652
20
92.9870545
40
0.4440242
50
328.8294576
51
331.7891185
0
ARC
8
DEFAULT_255_1_388
10
23.7208973
20
92.9291374
40
0.3177517
50
331.4254512
51
352.9365785
0
ARC
8
DEFAULT_255_1_388
10
23.7361973
20
92.925705
40
0.3021496
50
353.2257659
51
0.0166158
0
ARC
8
DEFAULT_255_1_388
10
23.7598733
20
92.9282894
40
0.2784847
50
359.486299
51
15.9343185
0
ARC
8
DEFAULT_255_1_388
10
23.8169
20
92.9436269
40
0.2194403
50
16.1712913
51
43.5286088
0
ARC
8
DEFAULT_255_1_388
10
23.8255944
20
92.9523191
40
0.2071504
50
43.4417391
51
83.1661095
0
ARC
8
DEFAULT_255_1_388
10
23.8105106
20
92.8694316
40
0.2912888
50
82.160179
51
90.1505708
0
ARC
8
DEFAULT_255_1_388
10
23.8069587
20
92.8090279
40
0.3517025
50
89.5460741
51
102.5418361
0
ARC
8
DEFAULT_255_1_388
10
23.7796307
20
92.9249933
40
0.2325748
50
102.1738499
51
129.206123
0
ARC
8
DEFAULT_255_1_388
10
23.7707761
20
92.9389664
40
0.2161591
50
129.72865
51
135.753947
0
ARC
8
DEFAULT_255_1_388
10
23.7844243
20
92.9280728
40
0.2335433
50
136.1757367
51
166.3673339
0
ARC
8
DEFAULT_255_1_388
10
23.8976931
20
92.8977148
40
0.3507873
50
165.9090694
51
178.8684636
0
ARC
8
DEFAULT_255_1_388
10
23.9952703
20
92.8924263
40
0.4484624
50
178.4391136
51
180.0083808
0
ARC
8
DEFAULT_255_1_388
10
23.8373404
20
92.8968197
40
0.4577138
50
163.2878482
51
180.5581842
0
ARC
8
DEFAULT_255_1_388
10
23.7471445
20
92.9216393
40
0.3641968
50
133.4540601
51
162.947111
0
ARC
8
DEFAULT_255_1_388
10
23.7672327
20
92.9002789
40
0.3935189
50
100.7869829
51
133.4382499
0
ARC
8
DEFAULT_255_1_388
10
23.8063572
20
92.7260399
40
0.5720313
50
89.660664
51
101.3702276
0
ARC
8
DEFAULT_255_1_388
10
23.8138181
20
92.7329263
40
0.5651495
50
78.2172678
51
90.412935
0
ARC
8
DEFAULT_255_1_388
10
23.8537647
20
92.9156511
40
0.378122
50
55.9269121
51
78.4888449
0
ARC
8
DEFAULT_255_1_388
10
23.8758362
20
92.9537187
40
0.3342379
50
47.929771
51
55.4049217
0
ARC
8
DEFAULT_255_1_388
10
23.8872892
20
92.9653618
40
0.3179217
50
4.334829
51
48.0560205
0
ARC
8
DEFAULT_255_1_388
10
23.7640694
20
92.9462487
40
0.442341
50
359.9251713
51
5.5971671
0
ARC
8
DEFAULT_255_1_388
10
23.8122849
20
92.9525728
40
0.3941854
50
337.8914027
51
358.9967534
0
ARC
8
DEFAULT_255_1_388
10
23.5070419
20
93.0703295
40
0.7213271
50
326.9132501
51
338.3508308
0
ARC
8
DEFAULT_255_1_388
10
23.0586531
20
93.3577105
40
1.2538973
50
319.6471833
51
327.0959558
0
ARC
8
DEFAULT_255_1_388
10
22.6273189
20
93.713505
40
1.8129975
50
317.2588228
51
319.9045804
0
LINE
8
DEFAULT_255_1_388
10
21.9990367
20
101.2174898
11
21.9990367
21
99.9019
0
LINE
8
DEFAULT_255_1_388
10
21.9990367
20
99.9019
11
21.8255523
21
99.9019
0
LINE
8
DEFAULT_255_1_388
10
21.8255523
20
99.9019
11
21.8255523
21
101.2174898
0
LINE
8
DEFAULT_255_1_388
10
21.8255523
20
101.2174898
11
21.9990367
21
101.2174898
0
LINE
8
DEFAULT_255_1_388
10
23.32818
20
100.6003553
11
23.32818
21
100.5172274
0
LINE
8
DEFAULT_255_1_388
10
22.270106
20
100.5054811
11
22.270106
21
100.6003553
0
LINE
8
DEFAULT_255_1_388
10
23.1555992
20
100.5045775
11
23.1555992
21
100.6021625
0
LINE
8
DEFAULT_255_1_388
10
22.4426868
20
100.6139088
11
22.4426868
21
100.5172274
0
ARC
8
DEFAULT_255_1_388
10
22.3559538
20
100.5127726
40
0.9722364
50
350.4878118
51
0.2625322
0
ARC
8
DEFAULT_255_1_388
10
22.6139498
20
100.4683994
40
0.7104556
50
336.0277991
51
350.5787241
0
ARC
8
DEFAULT_255_1_388
10
22.7652605
20
100.4000243
40
0.544417
50
319.887443
51
336.1331163
0
ARC
8
DEFAULT_255_1_388
10
22.8330417
20
100.3457733
40
0.4576311
50
302.4806296
51
319.6144102
0
ARC
8
DEFAULT_255_1_388
10
22.8201038
20
100.3707067
40
0.4856183
50
275.8196423
51
302.1885521
0
ARC
8
DEFAULT_255_1_388
10
22.80139
20
100.4992466
40
0.6154183
50
269.9169897
51
276.339506
0
ARC
8
DEFAULT_255_1_388
10
22.79635
20
100.422068
40
0.5382553
50
252.5221437
51
270.441579
0
ARC
8
DEFAULT_255_1_388
10
22.7801751
20
100.3614046
40
0.4755426
50
237.5349961
51
252.1858334
0
ARC
8
DEFAULT_255_1_388
10
22.7902127
20
100.374212
40
0.4917393
50
209.0632754
51
237.3492577
0
ARC
8
DEFAULT_255_1_388
10
22.8881453
20
100.4357104
40
0.6072464
50
205.118533
51
209.6465345
0
ARC
8
DEFAULT_255_1_388
10
22.9777455
20
100.4737174
40
0.7045164
50
188.7216633
51
204.8239753
0
ARC
8
DEFAULT_255_1_388
10
23.202423
20
100.5115387
40
0.9323368
50
180.3722704
51
188.9253909
0
ARC
8
DEFAULT_255_1_388
10
23.1993792
20
100.6048416
40
0.929284
50
169.5253055
51
180.2766048
0
ARC
8
DEFAULT_255_1_388
10
22.9853591
20
100.6442024
40
0.7116745
50
155.8314601
51
169.5088611
0
ARC
8
DEFAULT_255_1_388
10
22.8413054
20
100.7110312
40
0.5528904
50
139.6259579
51
156.0379072
0
ARC
8
DEFAULT_255_1_388
10
22.7749588
20
100.7644143
40
0.4677708
50
122.6414784
51
139.3431662
0
ARC
8
DEFAULT_255_1_388
10
22.7862842
20
100.7437787
40
0.4912586
50
93.0224537
51
122.4556091
0
ARC
8
DEFAULT_255_1_388
10
22.7984363
20
100.6351776
40
0.6003837
50
89.9756766
51
93.6340839
0
ARC
8
DEFAULT_255_1_388
10
22.8027961
20
100.6800879
40
0.5554884
50
73.7463329
51
90.4234008
0
ARC
8
DEFAULT_255_1_388
10
22.8225434
20
100.7565772
40
0.4765353
50
57.663051
51
73.4516911
0
ARC
8
DEFAULT_255_1_388
10
22.8216472
20
100.7590108
40
0.4749629
50
29.1441355
51
57.4146687
0
ARC
8
DEFAULT_255_1_388
10
22.7164283
20
100.6933046
40
0.5988917
50
24.0985653
51
29.732054
0
ARC
8
DEFAULT_255_1_388
10
22.6001915
20
100.6451154
40
0.7246823
50
8.6654943
51
23.8241215
0
ARC
8
DEFAULT_255_1_388
10
22.3488333
20
100.6041037
40
0.9793537
50
359.7807044
51
8.8218476
0
ARC
8
DEFAULT_255_1_388
10
22.2198038
20
100.6069731
40
0.9358078
50
359.7054632
51
8.0359751
0
ARC
8
DEFAULT_255_1_388
10
22.5573089
20
100.6561252
40
0.5947474
50
7.8926278
51
20.2962188
0
ARC
8
DEFAULT_255_1_388
10
22.7403939
20
100.7236367
40
0.3996117
50
20.3231056
51
36.4990255
0
ARC
8
DEFAULT_255_1_388
10
22.8175237
20
100.7830399
40
0.3022818
50
36.1436715
51
85.6627846
0
ARC
8
DEFAULT_255_1_388
10
22.7992492
20
100.6660881
40
0.4203853
50
84.3845912
51
90.076054
0
ARC
8
DEFAULT_255_1_388
10
22.7944847
20
100.7403416
40
0.346157
50
89.3037228
51
109.9046209
0
ARC
8
DEFAULT_255_1_388
10
22.784068
20
100.7833379
40
0.3022217
50
110.8229774
51
143.917961
0
ARC
8
DEFAULT_255_1_388
10
22.8891039
20
100.7031455
40
0.434348
50
143.5289166
51
163.2980252
0
ARC
8
DEFAULT_255_1_388
10
23.1037326
20
100.6356685
40
0.659321
50
163.0418884
51
174.3139873
0
ARC
8
DEFAULT_255_1_388
10
23.3742291
20
100.6044378
40
0.9315905
50
174.050934
51
179.4174954
0
ARC
8
DEFAULT_255_1_388
10
23.3174235
20
100.5125382
40
0.8747493
50
179.6928582
51
188.7908948
0
ARC
8
DEFAULT_255_1_388
10
23.0178035
20
100.4646086
40
0.5713262
50
188.6328449
51
202.5630732
0
ARC
8
DEFAULT_255_1_388
10
22.8766872
20
100.4079142
40
0.4192612
50
202.8078931
51
216.1195888
0
ARC
8
DEFAULT_255_1_388
10
22.7856389
20
100.3346479
40
0.3025752
50
215.0755613
51
264.6379773
0
ARC
8
DEFAULT_255_1_388
10
22.7999226
20
100.4281376
40
0.3970284
50
263.8464302
51
270.0830805
0
ARC
8
DEFAULT_255_1_388
10
22.8045771
20
100.3990808
40
0.3679937
50
269.3649295
51
287.5149684
0
ARC
8
DEFAULT_255_1_388
10
22.8246212
20
100.3262714
40
0.2925408
50
288.0629019
51
323.8115617
0
ARC
8
DEFAULT_255_1_388
10
22.7266188
20
100.3993754
40
0.4148018
50
323.6546541
51
342.6591359
0
ARC
8
DEFAULT_255_1_388
10
22.4980846
20
100.473728
40
0.6551163
50
342.4092446
51
353.6451501
0
ARC
8
DEFAULT_255_1_388
10
22.1795639
20
100.5133565
40
0.9760748
50
353.4027553
51
359.4846611
0
LINE
8
DEFAULT_255_1_388
10
24.0944026
20
101.2238148
11
24.0944026
21
99.9019
0
LINE
8
DEFAULT_255_1_388
10
24.0944026
20
99.9019
11
23.9263396
21
99.9019
0
LINE
8
DEFAULT_255_1_388
10
23.9263396
20
99.9019
11
23.9263396
21
101.015995
0
LINE
8
DEFAULT_255_1_388
10
23.9263396
20
101.015995
11
23.5893101
21
100.8922066
0
LINE
8
DEFAULT_255_1_388
10
23.5893101
20
100.8922066
11
23.5893101
21
101.0440055
0
LINE
8
DEFAULT_255_1_388
10
23.5893101
20
101.0440055
11
24.0681993
21
101.2238148
0
LINE
8
DEFAULT_255_1_388
10
24.0681993
20
101.2238148
11
24.0944026
21
101.2238148
0
LINE
8
DEFAULT_255_1_388
10
21.0805448
20
109.1549898
11
21.4546205
21
108.0698089
0
LINE
8
DEFAULT_255_1_388
10
21.4546205
20
108.0698089
11
21.8305033
21
109.1549898
0
LINE
8
DEFAULT_255_1_388
10
21.8305033
20
109.1549898
11
22.0202518
21
109.1549898
0
LINE
8
DEFAULT_255_1_388
10
22.0202518
20
109.1549898
11
21.532327
21
107.8394
0
LINE
8
DEFAULT_255_1_388
10
21.532327
20
107.8394
11
21.378721
21
107.8394
0
LINE
8
DEFAULT_255_1_388
10
21.378721
20
107.8394
11
20.8916998
21
109.1549898
0
LINE
8
DEFAULT_255_1_388
10
20.8916998
20
109.1549898
11
21.0805448
21
109.1549898
0
LINE
8
DEFAULT_255_1_388
10
23.1966927
20
108.5378553
11
23.1966927
21
108.4547274
0
LINE
8
DEFAULT_255_1_388
10
22.1386187
20
108.4429811
11
22.1386187
21
108.5378553
0
LINE
8
DEFAULT_255_1_388
10
23.0241119
20
108.4420775
11
23.0241119
21
108.5396625
0
LINE
8
DEFAULT_255_1_388
10
22.3111996
20
108.5514088
11
22.3111996
21
108.4547274
0
ARC
8
DEFAULT_255_1_388
10
22.2244666
20
108.4502726
40
0.9722364
50
350.4878118
51
0.2625322
0
ARC
8
DEFAULT_255_1_388
10
22.4824626
20
108.4058994
40
0.7104556
50
336.0277991
51
350.5787241
0
ARC
8
DEFAULT_255_1_388
10
22.6337732
20
108.3375243
40
0.544417
50
319.887443
51
336.1331163
0
ARC
8
DEFAULT_255_1_388
10
22.7015545
20
108.2832733
40
0.4576311
50
302.4806296
51
319.6144102
0
ARC
8
DEFAULT_255_1_388
10
22.6886166
20
108.3082067
40
0.4856183
50
275.8196423
51
302.1885521
0
ARC
8
DEFAULT_255_1_388
10
22.6699027
20
108.4367466
40
0.6154183
50
269.9169897
51
276.339506
0
ARC
8
DEFAULT_255_1_388
10
22.6648628
20
108.359568
40
0.5382553
50
252.5221437
51
270.441579
0
ARC
8
DEFAULT_255_1_388
10
22.6486878
20
108.2989046
40
0.4755426
50
237.5349961
51
252.1858334
0
ARC
8
DEFAULT_255_1_388
10
22.6587254
20
108.311712
40
0.4917393
50
209.0632754
51
237.3492577
0
ARC
8
DEFAULT_255_1_388
10
22.756658
20
108.3732104
40
0.6072464
50
205.118533
51
209.6465345
0
ARC
8
DEFAULT_255_1_388
10
22.8462582
20
108.4112174
40
0.7045164
50
188.7216633
51
204.8239753
0
ARC
8
DEFAULT_255_1_388
10
23.0709358
20
108.4490387
40
0.9323368
50
180.3722704
51
188.9253909
0
ARC
8
DEFAULT_255_1_388
10
23.0678919
20
108.5423416
40
0.929284
50
169.5253055
51
180.2766048
0
ARC
8
DEFAULT_255_1_388
10
22.8538718
20
108.5817024
40
0.7116745
50
155.8314601
51
169.5088611
0
ARC
8
DEFAULT_255_1_388
10
22.7098181
20
108.6485312
40
0.5528904
50
139.6259579
51
156.0379072
0
ARC
8
DEFAULT_255_1_388
10
22.6434715
20
108.7019143
40
0.4677708
50
122.6414784
51
139.3431662
0
ARC
8
DEFAULT_255_1_388
10
22.654797
20
108.6812787
40
0.4912586
50
93.0224537
51
122.4556091
0
ARC
8
DEFAULT_255_1_388
10
22.6669491
20
108.5726776
40
0.6003837
50
89.9756766
51
93.6340839
0
ARC
8
DEFAULT_255_1_388
10
22.6713088
20
108.6175879
40
0.5554884
50
73.7463329
51
90.4234008
0
ARC
8
DEFAULT_255_1_388
10
22.6910562
20
108.6940772
40
0.4765353
50
57.663051
51
73.4516911
0
ARC
8
DEFAULT_255_1_388
10
22.6901599
20
108.6965108
40
0.4749629
50
29.1441355
51
57.4146687
0
ARC
8
DEFAULT_255_1_388
10
22.5849411
20
108.6308046
40
0.5988917
50
24.0985653
51
29.732054
0
ARC
8
DEFAULT_255_1_388
10
22.4687042
20
108.5826154
40
0.7246823
50
8.6654943
51
23.8241215
0
ARC
8
DEFAULT_255_1_388
10
22.2173461
20
108.5416037
40
0.9793537
50
359.7807044
51
8.8218476
0
ARC
8
DEFAULT_255_1_388
10
22.0883165
20
108.5444731
40
0.9358078
50
359.7054632
51
8.0359751
0
ARC
8
DEFAULT_255_1_388
10
22.4258217
20
108.5936252
40
0.5947474
50
7.8926278
51
20.2962188
0
ARC
8
DEFAULT_255_1_388
10
22.6089067
20
108.6611367
40
0.3996117
50
20.3231056
51
36.4990255
0
ARC
8
DEFAULT_255_1_388
10
22.6860364
20
108.7205399
40
0.3022818
50
36.1436715
51
85.6627846
0
ARC
8
DEFAULT_255_1_388
10
22.667762
20
108.6035881
40
0.4203853
50
84.3845912
51
90.076054
0
ARC
8
DEFAULT_255_1_388
10
22.6629974
20
108.6778416
40
0.346157
50
89.3037228
51
109.9046209
0
ARC
8
DEFAULT_255_1_388
10
22.6525807
20
108.7208379
40
0.3022217
50
110.8229774
51
143.917961
0
ARC
8
DEFAULT_255_1_388
10
22.7576167
20
108.6406455
40
0.434348
50
143.5289166
51
163.2980252
0
ARC
8
DEFAULT_255_1_388
10
22.9722454
20
108.5731685
40
0.659321
50
163.0418884
51
174.3139873
0
ARC
8
DEFAULT_255_1_388
10
23.2427419
20
108.5419378
40
0.9315905
50
174.050934
51
179.4174954
0
ARC
8
DEFAULT_255_1_388
10
23.1859363
20
108.4500382
40
0.8747493
50
179.6928582
51
188.7908948
0
ARC
8
DEFAULT_255_1_388
10
22.8863163
20
108.4021086
40
0.5713262
50
188.6328449
51
202.5630732
0
ARC
8
DEFAULT_255_1_388
10
22.7451999
20
108.3454142
40
0.4192612
50
202.8078931
51
216.1195888
0
ARC
8
DEFAULT_255_1_388
10
22.6541516
20
108.2721479
40
0.3025752
50
215.0755613
51
264.6379773
0
ARC
8
DEFAULT_255_1_388
10
22.6684354
20
108.3656376
40
0.3970284
50
263.8464302
51
270.0830805
0
ARC
8
DEFAULT_255_1_388
10
22.6730899
20
108.3365808
40
0.3679937
50
269.3649295
51
287.5149684
0
ARC
8
DEFAULT_255_1_388
10
22.6931339
20
108.2637714
40
0.2925408
50
288.0629019
51
323.8115617
0
ARC
8
DEFAULT_255_1_388
10
22.5951316
20
108.3368754
40
0.4148018
50
323.6546541
51
342.6591359
0
ARC
8
DEFAULT_255_1_388
10
22.3665973
20
108.411228
40
0.6551163
50
342.4092446
51
353.6451501
0
ARC
8
DEFAULT_255_1_388
10
22.0480767
20
108.4508565
40
0.9760748
50
353.4027553
51
359.4846611
0
LINE
8
DEFAULT_255_1_388
10
23.9629154
20
109.1613148
11
23.9629154
21
107.8394
0
LINE
8
DEFAULT_255_1_388
10
23.9629154
20
107.8394
11
23.7948524
21
107.8394
0
LINE
8
DEFAULT_255_1_388
10
23.7948524
20
107.8394
11
23.7948524
21
108.953495
0
LINE
8
DEFAULT_255_1_388
10
23.7948524
20
108.953495
11
23.4578229
21
108.8297066
0
LINE
8
DEFAULT_255_1_388
10
23.4578229
20
108.8297066
11
23.4578229
21
108.9815055
0
LINE
8
DEFAULT_255_1_388
10
23.4578229
20
108.9815055
11
23.936712
21
109.1613148
0
LINE
8
DEFAULT_255_1_388
10
23.936712
20
109.1613148
11
23.9629154
21
109.1613148
0
LINE
8
DEFAULT_255_1_388
10
21.9911367
20
117.0924898
11
21.9911367
21
115.7769
0
LINE
8
DEFAULT_255_1_388
10
21.9911367
20
115.7769
11
21.8176523
21
115.7769
0
LINE
8
DEFAULT_255_1_388
10
21.8176523
20
115.7769
11
21.8176523
21
117.0924898
0
LINE
8
DEFAULT_255_1_388
10
21.8176523
20
117.0924898
11
21.9911367
21
117.0924898
0
LINE
8
DEFAULT_255_1_388
10
23.32028
20
116.4753553
11
23.32028
21
116.3922274
0
LINE
8
DEFAULT_255_1_388
10
22.262206
20
116.3804811
11
22.262206
21
116.4753553
0
LINE
8
DEFAULT_255_1_388
10
23.1476992
20
116.3795775
11
23.1476992
21
116.4771625
0
LINE
8
DEFAULT_255_1_388
10
22.4347868
20
116.4889088
11
22.4347868
21
116.3922274
0
ARC
8
DEFAULT_255_1_388
10
22.3480538
20
116.3877726
40
0.9722364
50
350.4878118
51
0.2625322
0
ARC
8
DEFAULT_255_1_388
10
22.6060498
20
116.3433994
40
0.7104556
50
336.0277991
51
350.5787241
0
ARC
8
DEFAULT_255_1_388
10
22.7573605
20
116.2750243
40
0.544417
50
319.887443
51
336.1331163
0
ARC
8
DEFAULT_255_1_388
10
22.8251417
20
116.2207733
40
0.4576311
50
302.4806296
51
319.6144102
0
ARC
8
DEFAULT_255_1_388
10
22.8122038
20
116.2457067
40
0.4856183
50
275.8196423
51
302.1885521
0
ARC
8
DEFAULT_255_1_388
10
22.79349
20
116.3742466
40
0.6154183
50
269.9169897
51
276.339506
0
ARC
8
DEFAULT_255_1_388
10
22.78845
20
116.297068
40
0.5382553
50
252.5221437
51
270.441579
0
ARC
8
DEFAULT_255_1_388
10
22.7722751
20
116.2364046
40
0.4755426
50
237.5349961
51
252.1858334
0
ARC
8
DEFAULT_255_1_388
10
22.7823127
20
116.249212
40
0.4917393
50
209.0632754
51
237.3492577
0
ARC
8
DEFAULT_255_1_388
10
22.8802453
20
116.3107104
40
0.6072464
50
205.118533
51
209.6465345
0
ARC
8
DEFAULT_255_1_388
10
22.9698455
20
116.3487174
40
0.7045164
50
188.7216633
51
204.8239753
0
ARC
8
DEFAULT_255_1_388
10
23.194523
20
116.3865387
40
0.9323368
50
180.3722704
51
188.9253909
0
ARC
8
DEFAULT_255_1_388
10
23.1914792
20
116.4798416
40
0.929284
50
169.5253055
51
180.2766048
0
ARC
8
DEFAULT_255_1_388
10
22.9774591
20
116.5192024
40
0.7116745
50
155.8314601
51
169.5088611
0
ARC
8
DEFAULT_255_1_388
10
22.8334054
20
116.5860312
40
0.5528904
50
139.6259579
51
156.0379072
0
ARC
8
DEFAULT_255_1_388
10
22.7670588
20
116.6394143
40
0.4677708
50
122.6414784
51
139.3431662
0
ARC
8
DEFAULT_255_1_388
10
22.7783842
20
116.6187787
40
0.4912586
50
93.0224537
51
122.4556091
0
ARC
8
DEFAULT_255_1_388
10
22.7905363
20
116.5101776
40
0.6003837
50
89.9756766
51
93.6340839
0
ARC
8
DEFAULT_255_1_388
10
22.7948961
20
116.5550879
40
0.5554884
50
73.7463329
51
90.4234008
0
ARC
8
DEFAULT_255_1_388
10
22.8146434
20
116.6315772
40
0.4765353
50
57.663051
51
73.4516911
0
ARC
8
DEFAULT_255_1_388
10
22.8137472
20
116.6340108
40
0.4749629
50
29.1441355
51
57.4146687
0
ARC
8
DEFAULT_255_1_388
10
22.7085283
20
116.5683046
40
0.5988917
50
24.0985653
51
29.732054
0
ARC
8
DEFAULT_255_1_388
10
22.5922915
20
116.5201154
40
0.7246823
50
8.6654943
51
23.8241215
0
ARC
8
DEFAULT_255_1_388
10
22.3409333
20
116.4791037
40
0.9793537
50
359.7807044
51
8.8218476
0
ARC
8
DEFAULT_255_1_388
10
22.2119038
20
116.4819731
40
0.9358078
50
359.7054632
51
8.0359751
0
ARC
8
DEFAULT_255_1_388
10
22.5494089
20
116.5311252
40
0.5947474
50
7.8926278
51
20.2962188
0
ARC
8
DEFAULT_255_1_388
10
22.7324939
20
116.5986367
40
0.3996117
50
20.3231056
51
36.4990255
0
ARC
8
DEFAULT_255_1_388
10
22.8096237
20
116.6580399
40
0.3022818
50
36.1436715
51
85.6627846
0
ARC
8
DEFAULT_255_1_388
10
22.7913492
20
116.5410881
40
0.4203853
50
84.3845912
51
90.076054
0
ARC
8
DEFAULT_255_1_388
10
22.7865847
20
116.6153416
40
0.346157
50
89.3037228
51
109.9046209
0
ARC
8
DEFAULT_255_1_388
10
22.776168
20
116.6583379
40
0.3022217
50
110.8229774
51
143.917961
0
ARC
8
DEFAULT_255_1_388
10
22.8812039
20
116.5781455
40
0.434348
50
143.5289166
51
163.2980252
0
ARC
8
DEFAULT_255_1_388
10
23.0958326
20
116.5106685
40
0.659321
50
163.0418884
51
174.3139873
0
ARC
8
DEFAULT_255_1_388
10
23.3663291
20
116.4794378
40
0.9315905
50
174.050934
51
179.4174954
0
ARC
8
DEFAULT_255_1_388
10
23.3095235
20
116.3875382
40
0.8747493
50
179.6928582
51
188.7908948
0
ARC
8
DEFAULT_255_1_388
10
23.0099035
20
116.3396086
40
0.5713262
50
188.6328449
51
202.5630732
0
ARC
8
DEFAULT_255_1_388
10
22.8687872
20
116.2829142
40
0.4192612
50
202.8078931
51
216.1195888
0
ARC
8
DEFAULT_255_1_388
10
22.7777389
20
116.2096479
40
0.3025752
50
215.0755613
51
264.6379773
0
ARC
8
DEFAULT_255_1_388
10
22.7920226
20
116.3031376
40
0.3970284
50
263.8464302
51
270.0830805
0
ARC
8
DEFAULT_255_1_388
10
22.7966771
20
116.2740808
40
0.3679937
50
269.3649295
51
287.5149684
0
ARC
8
DEFAULT_255_1_388
10
22.8167212
20
116.2012714
40
0.2925408
50
288.0629019
51
323.8115617
0
ARC
8
DEFAULT_255_1_388
10
22.7187188
20
116.2743754
40
0.4148018
50
323.6546541
51
342.6591359
0
ARC
8
DEFAULT_255_1_388
10
22.4901846
20
116.348728
40
0.6551163
50
342.4092446
51
353.6451501
0
ARC
8
DEFAULT_255_1_388
10
22.1716639
20
116.3883565
40
0.9760748
50
353.4027553
51
359.4846611
0
LINE
8
DEFAULT_255_1_388
10
24.3620898
20
116.554869
11
24.3620898
21
116.3380135
0
LINE
8
DEFAULT_255_1_388
10
23.5317141
20
116.3154244
11
23.5317141
21
116.5386048
0
LINE
8
DEFAULT_255_1_388
10
24.1949304
20
116.2928353
11
24.1949304
21
116.5666153
0
LINE
8
DEFAULT_255_1_388
10
23.6988735
20
116.5792652
11
23.6988735
21
116.3118102
0
ARC
8
DEFAULT_255_1_388
10
22.9843232
20
116.3325118
40
1.3777776
50
353.8440855
51
0.2287917
0
ARC
8
DEFAULT_255_1_388
10
23.5062249
20
116.2742414
40
0.852639
50
344.4934746
51
353.9763743
0
ARC
8
DEFAULT_255_1_388
10
23.8429057
20
116.1785191
40
0.5026273
50
329.2803599
51
344.7473406
0
ARC
8
DEFAULT_255_1_388
10
23.9544552
20
116.1173038
40
0.3754848
50
324.9361395
51
328.6153007
0
ARC
8
DEFAULT_255_1_388
10
23.9970202
20
116.0875586
40
0.3235566
50
280.5801797
51
324.9173226
0
ARC
8
DEFAULT_255_1_388
10
23.9518831
20
116.2755236
40
0.5167077
50
269.5979457
51
281.6732777
0
ARC
8
DEFAULT_255_1_388
10
23.9437734
20
116.2620113
40
0.5032026
50
256.6228565
51
270.5105488
0
ARC
8
DEFAULT_255_1_388
10
23.8985477
20
116.0878345
40
0.3233092
50
215.8618351
51
257.2787793
0
ARC
8
DEFAULT_255_1_388
10
24.0134184
20
116.1649106
40
0.4615831
50
197.9695203
51
215.2622745
0
ARC
8
DEFAULT_255_1_388
10
24.292986
20
116.2592641
40
0.7566307
50
187.8816486
51
198.2346584
0
ARC
8
DEFAULT_255_1_388
10
24.7383098
20
116.3235453
40
1.2065653
50
180.8977266
51
188.0054894
0
ARC
8
DEFAULT_255_1_388
10
25.0433312
20
116.33504
40
1.5117443
50
180.7434591
51
181.152202
0
ARC
8
DEFAULT_255_1_388
10
24.8758307
20
116.5440371
40
1.3441277
50
173.7674302
51
180.2315596
0
ARC
8
DEFAULT_255_1_388
10
24.3676176
20
116.6014779
40
0.8326847
50
164.3058537
51
173.9000553
0
ARC
8
DEFAULT_255_1_388
10
24.0400176
20
116.6958652
40
0.4917711
50
148.7922028
51
164.5682288
0
ARC
8
DEFAULT_255_1_388
10
23.9330914
20
116.7555457
40
0.3694204
50
144.5883979
51
148.1161588
0
ARC
8
DEFAULT_255_1_388
10
23.8943659
20
116.7825667
40
0.322202
50
101.6440149
51
144.5142619
0
ARC
8
DEFAULT_255_1_388
10
23.9421851
20
116.5925337
40
0.5180451
50
89.528284
51
102.5820197
0
ARC
8
DEFAULT_255_1_388
10
23.9510843
20
116.5881376
40
0.5224441
50
77.0437914
51
90.508231
0
ARC
8
DEFAULT_255_1_388
10
23.9963097
20
116.7729272
40
0.3322297
50
48.2777708
51
77.4996087
0
ARC
8
DEFAULT_255_1_388
10
24.0044837
20
116.7874557
40
0.315966
50
36.3141586
51
47.6307332
0
ARC
8
DEFAULT_255_1_388
10
23.9067559
20
116.7216159
40
0.4337313
50
18.2931065
51
35.6770203
0
ARC
8
DEFAULT_255_1_388
10
23.62064
20
116.6234107
40
0.7362203
50
8.0246996
51
18.5605636
0
ARC
8
DEFAULT_255_1_388
10
23.1522755
20
116.5542432
40
1.2096583
50
1.127539
51
8.1718423
0
ARC
8
DEFAULT_255_1_388
10
22.7873889
20
116.5399374
40
1.5747719
50
0.5432713
51
1.38669
0
ARC
8
DEFAULT_255_1_388
10
22.9931268
20
116.5706163
40
1.2018103
50
359.8092569
51
4.9408001
0
ARC
8
DEFAULT_255_1_388
10
23.4667849
20
116.61289
40
0.7262727
50
4.8364937
51
12.2906017
0
ARC
8
DEFAULT_255_1_388
10
23.7767314
20
116.6819485
40
0.4087324
50
12.0806994
51
23.8171225
0
ARC
8
DEFAULT_255_1_388
10
23.908771
20
116.7378508
40
0.2653719
50
24.2874621
51
31.3934353
0
ARC
8
DEFAULT_255_1_388
10
23.9678145
20
116.7764822
40
0.1948607
50
30.7407708
51
82.4658033
0
ARC
8
DEFAULT_255_1_388
10
23.9475806
20
116.6771017
40
0.2961198
50
81.1057101
51
90.2187368
0
ARC
8
DEFAULT_255_1_388
10
23.9435618
20
116.7061421
40
0.2670929
50
89.380395
51
105.6763916
0
ARC
8
DEFAULT_255_1_388
10
23.922934
20
116.781132
40
0.1893189
50
105.7980655
51
149.7387869
0
ARC
8
DEFAULT_255_1_388
10
24.042648
20
116.7091719
40
0.3289892
50
149.4208441
51
163.628295
0
ARC
8
DEFAULT_255_1_388
10
24.277871
20
116.6374345
40
0.5749004
50
163.3764549
51
172.141138
0
ARC
8
DEFAULT_255_1_388
10
24.6491431
20
116.5842582
40
0.9499585
50
172.0258462
51
178.0705453
0
ARC
8
DEFAULT_255_1_388
10
24.9912984
20
116.5680682
40
1.2924734
50
177.8639301
51
179.5036263
0
ARC
8
DEFAULT_255_1_388
10
24.8694003
20
116.3077151
40
1.170534
50
179.7995545
51
185.246089
0
ARC
8
DEFAULT_255_1_388
10
24.4145596
20
116.2646404
40
0.7136613
50
185.1411911
51
193.0082205
0
ARC
8
DEFAULT_255_1_388
10
24.1171857
20
116.1943441
40
0.4080987
50
192.7897338
51
205.2507384
0
ARC
8
DEFAULT_255_1_388
10
23.9994067
20
116.1417538
40
0.2791522
50
205.8001921
51
211.2545876
0
ARC
8
DEFAULT_255_1_388
10
23.9405606
20
116.1023132
40
0.2084074
50
210.3789935
51
238.4007996
0
ARC
8
DEFAULT_255_1_388
10
23.9383692
20
116.1075786
40
0.2117943
50
239.6521916
51
265.9793852
0
ARC
8
DEFAULT_255_1_388
10
23.9479541
20
116.1832358
40
0.2879689
50
265.1324455
51
270.0603288
0
ARC
8
DEFAULT_255_1_388
10
23.9511918
20
116.1467418
40
0.2514919
50
269.3314378
51
287.2180039
0
ARC
8
DEFAULT_255_1_388
10
23.9667
20
116.0901291
40
0.1928357
50
287.7957942
51
329.0808983
0
ARC
8
DEFAULT_255_1_388
10
23.8589757
20
116.1573651
40
0.319808
50
328.6635261
51
343.3325043
0
ARC
8
DEFAULT_255_1_388
10
23.6145216
20
116.2335195
40
0.5758408
50
343.0498092
51
351.9392499
0
ARC
8
DEFAULT_255_1_388
10
23.2244537
20
116.2910205
40
0.9701202
50
351.8071632
51
357.7957897
0
ARC
8
DEFAULT_255_1_388
10
22.8610014
20
116.3098724
40
1.3340376
50
357.5870923
51
359.2682493
0
LINE
8
DEFAULT_255_1_388
10
21.0719448
20
125.0299898
11
21.4460205
21
123.9448089
0
LINE
8
DEFAULT_255_1_388
10
21.4460205
20
123.9448089
11
21.8219033
21
125.0299898
0
LINE
8
DEFAULT_255_1_388
10
21.8219033
20
125.0299898
11
22.0116518
21
125.0299898
0
LINE
8
DEFAULT_255_1_388
10
22.0116518
20
125.0299898
11
21.523727
21
123.7144
0
LINE
8
DEFAULT_255_1_388
10
21.523727
20
123.7144
11
21.370121
21
123.7144
0
LINE
8
DEFAULT_255_1_388
10
21.370121
20
123.7144
11
20.8830998
21
125.0299898
0
LINE
8
DEFAULT_255_1_388
10
20.8830998
20
125.0299898
11
21.0719448
21
125.0299898
0
LINE
8
DEFAULT_255_1_388
10
23.1880927
20
124.4128553
11
23.1880927
21
124.3297274
0
LINE
8
DEFAULT_255_1_388
10
22.1300187
20
124.3179811
11
22.1300187
21
124.4128553
0
LINE
8
DEFAULT_255_1_388
10
23.0155119
20
124.3170775
11
23.0155119
21
124.4146625
0
LINE
8
DEFAULT_255_1_388
10
22.3025996
20
124.4264088
11
22.3025996
21
124.3297274
0
ARC
8
DEFAULT_255_1_388
10
22.2158666
20
124.3252726
40
0.9722364
50
350.4878118
51
0.2625322
0
ARC
8
DEFAULT_255_1_388
10
22.4738626
20
124.2808994
40
0.7104556
50
336.0277991
51
350.5787241
0
ARC
8
DEFAULT_255_1_388
10
22.6251732
20
124.2125243
40
0.544417
50
319.887443
51
336.1331163
0
ARC
8
DEFAULT_255_1_388
10
22.6929545
20
124.1582733
40
0.4576311
50
302.4806296
51
319.6144102
0
ARC
8
DEFAULT_255_1_388
10
22.6800166
20
124.1832067
40
0.4856183
50
275.8196423
51
302.1885521
0
ARC
8
DEFAULT_255_1_388
10
22.6613027
20
124.3117466
40
0.6154183
50
269.9169897
51
276.339506
0
ARC
8
DEFAULT_255_1_388
10
22.6562628
20
124.234568
40
0.5382553
50
252.5221437
51
270.441579
0
ARC
8
DEFAULT_255_1_388
10
22.6400878
20
124.1739046
40
0.4755426
50
237.5349961
51
252.1858334
0
ARC
8
DEFAULT_255_1_388
10
22.6501254
20
124.186712
40
0.4917393
50
209.0632754
51
237.3492577
0
ARC
8
DEFAULT_255_1_388
10
22.748058
20
124.2482104
40
0.6072464
50
205.118533
51
209.6465345
0
ARC
8
DEFAULT_255_1_388
10
22.8376582
20
124.2862174
40
0.7045164
50
188.7216633
51
204.8239753
0
ARC
8
DEFAULT_255_1_388
10
23.0623358
20
124.3240387
40
0.9323368
50
180.3722704
51
188.9253909
0
ARC
8
DEFAULT_255_1_388
10
23.0592919
20
124.4173416
40
0.929284
50
169.5253055
51
180.2766048
0
ARC
8
DEFAULT_255_1_388
10
22.8452718
20
124.4567024
40
0.7116745
50
155.8314601
51
169.5088611
0
ARC
8
DEFAULT_255_1_388
10
22.7012181
20
124.5235312
40
0.5528904
50
139.6259579
51
156.0379072
0
ARC
8
DEFAULT_255_1_388
10
22.6348715
20
124.5769143
40
0.4677708
50
122.6414784
51
139.3431662
0
ARC
8
DEFAULT_255_1_388
10
22.646197
20
124.5562787
40
0.4912586
50
93.0224537
51
122.4556091
0
ARC
8
DEFAULT_255_1_388
10
22.6583491
20
124.4476776
40
0.6003837
50
89.9756766
51
93.6340839
0
ARC
8
DEFAULT_255_1_388
10
22.6627088
20
124.4925879
40
0.5554884
50
73.7463329
51
90.4234008
0
ARC
8
DEFAULT_255_1_388
10
22.6824562
20
124.5690772
40
0.4765353
50
57.663051
51
73.4516911
0
ARC
8
DEFAULT_255_1_388
10
22.6815599
20
124.5715108
40
0.4749629
50
29.1441355
51
57.4146687
0
ARC
8
DEFAULT_255_1_388
10
22.5763411
20
124.5058046
40
0.5988917
50
24.0985653
51
29.732054
0
ARC
8
DEFAULT_255_1_388
10
22.4601042
20
124.4576154
40
0.7246823
50
8.6654943
51
23.8241215
0
ARC
8
DEFAULT_255_1_388
10
22.2087461
20
124.4166037
40
0.9793537
50
359.7807044
51
8.8218476
0
ARC
8
DEFAULT_255_1_388
10
22.0797165
20
124.4194731
40
0.9358078
50
359.7054632
51
8.0359751
0
ARC
8
DEFAULT_255_1_388
10
22.4172217
20
124.4686252
40
0.5947474
50
7.8926278
51
20.2962188
0
ARC
8
DEFAULT_255_1_388
10
22.6003067
20
124.5361367
40
0.3996117
50
20.3231056
51
36.4990255
0
ARC
8
DEFAULT_255_1_388
10
22.6774364
20
124.5955399
40
0.3022818
50
36.1436715
51
85.6627846
0
ARC
8
DEFAULT_255_1_388
10
22.659162
20
124.4785881
40
0.4203853
50
84.3845912
51
90.076054
0
ARC
8
DEFAULT_255_1_388
10
22.6543974
20
124.5528416
40
0.346157
50
89.3037228
51
109.9046209
0
ARC
8
DEFAULT_255_1_388
10
22.6439807
20
124.5958379
40
0.3022217
50
110.8229774
51
143.917961
0
ARC
8
DEFAULT_255_1_388
10
22.7490167
20
124.5156455
40
0.434348
50
143.5289166
51
163.2980252
0
ARC
8
DEFAULT_255_1_388
10
22.9636454
20
124.4481685
40
0.659321
50
163.0418884
51
174.3139873
0
ARC
8
DEFAULT_255_1_388
10
23.2341419
20
124.4169378
40
0.9315905
50
174.050934
51
179.4174954
0
ARC
8
DEFAULT_255_1_388
10
23.1773363
20
124.3250382
40
0.8747493
50
179.6928582
51
188.7908948
0
ARC
8
DEFAULT_255_1_388
10
22.8777163
20
124.2771086
40
0.5713262
50
188.6328449
51
202.5630732
0
ARC
8
DEFAULT_255_1_388
10
22.7365999
20
124.2204142
40
0.4192612
50
202.8078931
51
216.1195888
0
ARC
8
DEFAULT_255_1_388
10
22.6455516
20
124.1471479
40
0.3025752
50
215.0755613
51
264.6379773
0
ARC
8
DEFAULT_255_1_388
10
22.6598354
20
124.2406376
40
0.3970284
50
263.8464302
51
270.0830805
0
ARC
8
DEFAULT_255_1_388
10
22.6644899
20
124.2115808
40
0.3679937
50
269.3649295
51
287.5149684
0
ARC
8
DEFAULT_255_1_388
10
22.6845339
20
124.1387714
40
0.2925408
50
288.0629019
51
323.8115617
0
ARC
8
DEFAULT_255_1_388
10
22.5865316
20
124.2118754
40
0.4148018
50
323.6546541
51
342.6591359
0
ARC
8
DEFAULT_255_1_388
10
22.3579973
20
124.286228
40
0.6551163
50
342.4092446
51
353.6451501
0
ARC
8
DEFAULT_255_1_388
10
22.0394767
20
124.3258565
40
0.9760748
50
353.4027553
51
359.4846611
0
LINE
8
DEFAULT_255_1_388
10
24.2299025
20
124.492369
11
24.2299025
21
124.2755135
0
LINE
8
DEFAULT_255_1_388
10
23.3995268
20
124.2529244
11
23.3995268
21
124.4761048
0
LINE
8
DEFAULT_255_1_388
10
24.0627431
20
124.2303353
11
24.0627431
21
124.5041153
0
LINE
8
DEFAULT_255_1_388
10
23.5666862
20
124.5167652
11
23.5666862
21
124.2493102
0
ARC
8
DEFAULT_255_1_388
10
22.8521359
20
124.2700118
40
1.3777776
50
353.8440855
51
0.2287917
0
ARC
8
DEFAULT_255_1_388
10
23.3740377
20
124.2117414
40
0.852639
50
344.4934746
51
353.9763743
0
ARC
8
DEFAULT_255_1_388
10
23.7107184
20
124.1160191
40
0.5026273
50
329.2803599
51
344.7473406
0
ARC
8
DEFAULT_255_1_388
10
23.822268
20
124.0548038
40
0.3754848
50
324.9361395
51
328.6153007
0
ARC
8
DEFAULT_255_1_388
10
23.8648329
20
124.0250586
40
0.3235566
50
280.5801797
51
324.9173226
0
ARC
8
DEFAULT_255_1_388
10
23.8196958
20
124.2130236
40
0.5167077
50
269.5979457
51
281.6732777
0
ARC
8
DEFAULT_255_1_388
10
23.8115862
20
124.1995113
40
0.5032026
50
256.6228565
51
270.5105488
0
ARC
8
DEFAULT_255_1_388
10
23.7663604
20
124.0253345
40
0.3233092
50
215.8618351
51
257.2787793
0
ARC
8
DEFAULT_255_1_388
10
23.8812311
20
124.1024106
40
0.4615831
50
197.9695203
51
215.2622745
0
ARC
8
DEFAULT_255_1_388
10
24.1607987
20
124.1967641
40
0.7566307
50
187.8816486
51
198.2346584
0
ARC
8
DEFAULT_255_1_388
10
24.6061225
20
124.2610453
40
1.2065653
50
180.8977266
51
188.0054894
0
ARC
8
DEFAULT_255_1_388
10
24.9111439
20
124.27254
40
1.5117443
50
180.7434591
51
181.152202
0
ARC
8
DEFAULT_255_1_388
10
24.7436435
20
124.4815371
40
1.3441277
50
173.7674302
51
180.2315596
0
ARC
8
DEFAULT_255_1_388
10
24.2354304
20
124.5389779
40
0.8326847
50
164.3058537
51
173.9000553
0
ARC
8
DEFAULT_255_1_388
10
23.9078304
20
124.6333652
40
0.4917711
50
148.7922028
51
164.5682288
0
ARC
8
DEFAULT_255_1_388
10
23.8009041
20
124.6930457
40
0.3694204
50
144.5883979
51
148.1161588
0
ARC
8
DEFAULT_255_1_388
10
23.7621787
20
124.7200667
40
0.322202
50
101.6440149
51
144.5142619
0
ARC
8
DEFAULT_255_1_388
10
23.8099979
20
124.5300337
40
0.5180451
50
89.528284
51
102.5820197
0
ARC
8
DEFAULT_255_1_388
10
23.8188971
20
124.5256376
40
0.5224441
50
77.0437914
51
90.508231
0
ARC
8
DEFAULT_255_1_388
10
23.8641224
20
124.7104272
40
0.3322297
50
48.2777708
51
77.4996087
0
ARC
8
DEFAULT_255_1_388
10
23.8722964
20
124.7249557
40
0.315966
50
36.3141586
51
47.6307332
0
ARC
8
DEFAULT_255_1_388
10
23.7745686
20
124.6591159
40
0.4337313
50
18.2931065
51
35.6770203
0
ARC
8
DEFAULT_255_1_388
10
23.4884527
20
124.5609107
40
0.7362203
50
8.0246996
51
18.5605636
0
ARC
8
DEFAULT_255_1_388
10
23.0200883
20
124.4917432
40
1.2096583
50
1.127539
51
8.1718423
0
ARC
8
DEFAULT_255_1_388
10
22.6552016
20
124.4774374
40
1.5747719
50
0.5432713
51
1.38669
0
ARC
8
DEFAULT_255_1_388
10
22.8609395
20
124.5081163
40
1.2018103
50
359.8092569
51
4.9408001
0
ARC
8
DEFAULT_255_1_388
10
23.3345976
20
124.55039
40
0.7262727
50
4.8364937
51
12.2906017
0
ARC
8
DEFAULT_255_1_388
10
23.6445441
20
124.6194485
40
0.4087324
50
12.0806994
51
23.8171225
0
ARC
8
DEFAULT_255_1_388
10
23.7765837
20
124.6753508
40
0.2653719
50
24.2874621
51
31.3934353
0
ARC
8
DEFAULT_255_1_388
10
23.8356273
20
124.7139822
40
0.1948607
50
30.7407708
51
82.4658033
0
ARC
8
DEFAULT_255_1_388
10
23.8153934
20
124.6146017
40
0.2961198
50
81.1057101
51
90.2187368
0
ARC
8
DEFAULT_255_1_388
10
23.8113746
20
124.6436421
40
0.2670929
50
89.380395
51
105.6763916
0
ARC
8
DEFAULT_255_1_388
10
23.7907468
20
124.718632
40
0.1893189
50
105.7980655
51
149.7387869
0
ARC
8
DEFAULT_255_1_388
10
23.9104608
20
124.6466719
40
0.3289892
50
149.4208441
51
163.628295
0
ARC
8
DEFAULT_255_1_388
10
24.1456837
20
124.5749345
40
0.5749004
50
163.3764549
51
172.141138
0
ARC
8
DEFAULT_255_1_388
10
24.5169559
20
124.5217582
40
0.9499585
50
172.0258462
51
178.0705453
0
ARC
8
DEFAULT_255_1_388
10
24.8591112
20
124.5055682
40
1.2924734
50
177.8639301
51
179.5036263
0
ARC
8
DEFAULT_255_1_388
10
24.737213
20
124.2452151
40
1.170534
50
179.7995545
51
185.246089
0
ARC
8
DEFAULT_255_1_388
10
24.2823723
20
124.2021404
40
0.7136613
50
185.1411911
51
193.0082205
0
ARC
8
DEFAULT_255_1_388
10
23.9849984
20
124.1318441
40
0.4080987
50
192.7897338
51
205.2507384
0
ARC
8
DEFAULT_255_1_388
10
23.8672194
20
124.0792538
40
0.2791522
50
205.8001921
51
211.2545876
0
ARC
8
DEFAULT_255_1_388
10
23.8083733
20
124.0398132
40
0.2084074
50
210.3789935
51
238.4007996
0
ARC
8
DEFAULT_255_1_388
10
23.8061819
20
124.0450786
40
0.2117943
50
239.6521916
51
265.9793852
0
ARC
8
DEFAULT_255_1_388
10
23.8157668
20
124.1207358
40
0.2879689
50
265.1324455
51
270.0603288
0
ARC
8
DEFAULT_255_1_388
10
23.8190045
20
124.0842418
40
0.2514919
50
269.3314378
51
287.2180039
0
ARC
8
DEFAULT_255_1_388
10
23.8345127
20
124.0276291
40
0.1928357
50
287.7957942
51
329.0808983
0
ARC
8
DEFAULT_255_1_388
10
23.7267884
20
124.0948651
40
0.319808
50
328.6635261
51
343.3325043
0
ARC
8
DEFAULT_255_1_388
10
23.4823343
20
124.1710195
40
0.5758408
50
343.0498092
51
351.9392499
0
ARC
8
DEFAULT_255_1_388
10
23.0922665
20
124.2285205
40
0.9701202
50
351.8071632
51
357.7957897
0
ARC
8
DEFAULT_255_1_388
10
22.7288142
20
124.2473724
40
1.3340376
50
357.5870923
51
359.2682493
0
ENDSEC
0
EOF